  0
SECTION
  2
HEADER
  9
$ACADVER
  1
AC1012
  9
$DWGCODEPAGE
  3
dos850
  9
$INSBASE
 10
0.0
 20
0.0
 30
0.0
  9
$EXTMIN
 10
-5135.138767079783
 20
2624.137743887848
 30
0.0
  9
$EXTMAX
 10
-4663.720267100199
 20
2755.024305867432
 30
0.0
  9
$LIMMIN
 10
-5135.138767079783
 20
2624.137743887848
  9
$LIMMAX
 10
-4663.720267100199
 20
2755.024305867432
  9
$ORTHOMODE
 70
           0
  9
$REGENMODE
 70
           1
  9
$FILLMODE
 70
           1
  9
$QTEXTMODE
 70
           0
  9
$MIRRTEXT
 70
           1
  9
$DRAGMODE
 70
           2
  9
$LTSCALE
 40
5.0
  9
$OSMODE
 70
           0
  9
$ATTMODE
 70
           1
  9
$TEXTSIZE
 40
0.2
  9
$TRACEWID
 40
0.05
  9
$TEXTSTYLE
  7
TXT
  9
$CLAYER
  8
0
  9
$CELTYPE
  6
CONTINUOUS
  9
$CECOLOR
 62
         256
  9
$CELTSCALE
 40
1.0
  9
$DELOBJ
 70
           1
  9
$DISPSILH
 70
           0
  9
$DIMSCALE
 40
1.0
  9
$DIMASZ
 40
3.5
  9
$DIMEXO
 40
0.0625
  9
$DIMDLI
 40
0.38
  9
$DIMRND
 40
0.0
  9
$DIMDLE
 40
0.0
  9
$DIMEXE
 40
0.18
  9
$DIMTP
 40
0.0
  9
$DIMTM
 40
0.0
  9
$DIMTXT
 40
3.5
  9
$DIMCEN
 40
0.09
  9
$DIMTSZ
 40
0.0
  9
$DIMTOL
 70
           0
  9
$DIMLIM
 70
           0
  9
$DIMTIH
 70
           1
  9
$DIMTOH
 70
           1
  9
$DIMSE1
 70
           0
  9
$DIMSE2
 70
           0
  9
$DIMTAD
 70
           0
  9
$DIMZIN
 70
           0
  9
$DIMBLK
  1

  9
$DIMASO
 70
           1
  9
$DIMSHO
 70
           1
  9
$DIMPOST
  1

  9
$DIMAPOST
  1

  9
$DIMALT
 70
           0
  9
$DIMALTD
 70
           2
  9
$DIMALTF
 40
25.4
  9
$DIMLFAC
 40
1.0
  9
$DIMTOFL
 70
           0
  9
$DIMTVP
 40
0.0
  9
$DIMTIX
 70
           0
  9
$DIMSOXD
 70
           0
  9
$DIMSAH
 70
           0
  9
$DIMBLK1
  1

  9
$DIMBLK2
  1

  9
$DIMSTYLE
  2
STANDARD
  9
$DIMCLRD
 70
           0
  9
$DIMCLRE
 70
           0
  9
$DIMCLRT
 70
           0
  9
$DIMTFAC
 40
1.0
  9
$DIMGAP
 40
0.09
  9
$DIMJUST
 70
           0
  9
$DIMSD1
 70
           0
  9
$DIMSD2
 70
           0
  9
$DIMTOLJ
 70
           1
  9
$DIMTZIN
 70
           0
  9
$DIMALTZ
 70
           0
  9
$DIMALTTZ
 70
           0
  9
$DIMFIT
 70
           3
  9
$DIMUPT
 70
           0
  9
$DIMUNIT
 70
           2
  9
$DIMDEC
 70
           4
  9
$DIMTDEC
 70
           4
  9
$DIMALTU
 70
           2
  9
$DIMALTTD
 70
           2
  9
$DIMTXSTY
  7
TXT
  9
$DIMAUNIT
 70
           0
  9
$LUNITS
 70
           2
  9
$LUPREC
 70
           2
  9
$SKETCHINC
 40
0.1
  9
$FILLETRAD
 40
0.0
  9
$AUNITS
 70
           0
  9
$AUPREC
 70
           2
  9
$MENU
  1
acad
  9
$ELEVATION
 40
0.0
  9
$PELEVATION
 40
0.0
  9
$THICKNESS
 40
0.0
  9
$LIMCHECK
 70
           0
  9
$BLIPMODE
 70
           1
  9
$CHAMFERA
 40
0.0
  9
$CHAMFERB
 40
0.0
  9
$CHAMFERC
 40
0.0
  9
$CHAMFERD
 40
0.0
  9
$SKPOLY
 70
           0
  9
$TDCREATE
 40
0.000000000
  9
$TDUPDATE
 40
0.000000000
  9
$TDINDWG
 40
0.0000000000
  9
$TDUSRTIMER
 40
0.0000000000
  9
$USRTIMER
 70
           1
  9
$ANGBASE
 50
0.0
  9
$ANGDIR
 70
           0
  9
$PDMODE
 70
           2
  9
$PDSIZE
 40
0.5
  9
$PLINEWID
 40
0.0
  9
$COORDS
 70
           0
  9
$SPLFRAME
 70
           0
  9
$SPLINETYPE
 70
           6
  9
$SPLINESEGS
 70
           8
  9
$ATTDIA
 70
           0
  9
$ATTREQ
 70
           1
  9
$HANDLING
 70
           1
  9
$HANDSEED
  5
221
  9
$SURFTAB1
 70
           6
  9
$SURFTAB2
 70
           6
  9
$SURFTYPE
 70
           6
  9
$SURFU
 70
           6
  9
$SURFV
 70
           6
  9
$UCSNAME
  2

  9
$UCSORG
 10
0.0
 20
0.0
 30
0.0
  9
$UCSXDIR
 10
1.0
 20
0.0
 30
0.0
  9
$UCSYDIR
 10
0.0
 20
1.0
 30
0.0
  9
$PUCSNAME
  2

  9
$PUCSORG
 10
0.0
 20
0.0
 30
0.0
  9
$PUCSXDIR
 10
1.0
 20
0.0
 30
0.0
  9
$PUCSYDIR
 10
0.0
 20
1.0
 30
0.0
  9
$USERI1
 70
           0
  9
$USERI2
 70
           0
  9
$USERI3
 70
           0
  9
$USERI4
 70
           0
  9
$USERI5
 70
           0
  9
$USERR1
 40
0.0
  9
$USERR2
 40
0.0
  9
$USERR3
 40
0.0
  9
$USERR4
 40
0.0
  9
$USERR5
 40
0.0
  9
$WORLDVIEW
 70
           1
  9
$SHADEDGE
 70
           3
  9
$SHADEDIF
 70
          70
  9
$TILEMODE
 70
           1
  9
$MAXACTVP
 70
          16
  9
$PINSBASE
 10
0.0
 20
0.0
 30
0.0
  9
$PLIMCHECK
 70
           0
  9
$PEXTMIN
 10
1.000000000000E+20
 20
1.000000000000E+20
 30
1.000000000000E+20
  9
$PEXTMAX
 10
-1.000000000000E+20
 20
-1.000000000000E+20
 30
-1.000000000000E+20
  9
$PLIMMIN
 10
0.0
 20
0.0
  9
$PLIMMAX
 10
12.0
 20
9.0
  9
$UNITMODE
 70
           0
  9
$VISRETAIN
 70
           0
  9
$PLINEGEN
 70
           1
  9
$PSLTSCALE
 70
           0
  9
$TREEDEPTH
 70
        3020
  9
$PICKSTYLE
 70
           1
  9
$CMLSTYLE
  2
STANDARD
  9
$CMLJUST
 70
           0
  9
$CMLSCALE
 40
1.0
  9
$SAVEIMAGES
 70
           0
  0
ENDSEC
  0
SECTION
  2
CLASSES
  0
CLASS
  1
LWPOLYLINE
  2
AcDbPolyline
  3
"AutoCAD"
 90
        0
280
           0
281
           1
  0
CLASS
  1
IMAGE
  2
AcDbRasterImage
  3
ISM
 90
      127
280
           0
281
           1
  0
CLASS
  1
OLE2FRAME
  2
AcDbOle2Frame
  3
""
 90
        0
280
           0
281
           1
  0
CLASS
  1
HATCH
  2
AcDbHatch
  3
"ACAD_SEDONA"
 90
        0
280
           0
281
           1
  0
CLASS
  1
DICTIONARYVAR
  2
AcDbDictionaryVar
  3
"AutoCAD"
 90
        0
280
           0
281
           0
  0
CLASS
  1
RASTERVARIABLES
  2
AcDbRasterVariables
  3
ISM
 90
        0
280
           0
281
           0
  0
CLASS
  1
IMAGEDEF
  2
AcDbRasterImageDef
  3
ISM
 90
        0
280
           0
281
           0
  0
CLASS
  1
IMAGEDEF_REACTOR
  2
AcDbRasterImageDefReactor
  3
ISM
 90
        1
280
           0
281
           0
  0
CLASS
  1
IDBUFFER
  2
AcDbIdBuffer
  3
"Acad"
 90
        0
280
           0
281
           0
  0
CLASS
  1
SPATIAL_FILTER
  2
AcDbSpatialFilter
  3
"Acad"
 90
        0
280
           0
281
           0
  0
CLASS
  1
XRECORD
  2
AcDbXrecord
  3
"<Built In>"
 90
        0
280
           0
281
           0
  0
ENDSEC
  0
SECTION
  2
TABLES
  0
TABLE
  2
VPORT
  5
7
100
AcDbSymbolTable
 70
           1
  0
VPORT
  5
15
100
AcDbSymbolTableRecord
100
AcDbViewportTableRecord
  2
*ACTIVE
 70
           0
 10
0.0
 20
0.0
 11
1.0
 21
1.0
 12
6.591288
 22
4.579184
 13
0.0
 23
0.0
 14
1.0
 24
1.0
 15
0.0
 25
0.0
 16
0.0
 26
0.0
 36
1.0
 17
0.0
 27
0.0
 37
0.0
 40
9.158369
 41
0.688564
 42
50.0
 43
0.0
 44
0.0
 50
0.0
 51
0.0
 71
           0
 72
         100
 73
           1
 74
           1
 75
           0
 76
           0
 77
           0
 78
           0
  0
ENDTAB
  0
TABLE
  2
LTYPE
  5
4
100
AcDbSymbolTable
 70
           5
  0
LTYPE
  5
11
100
AcDbSymbolTableRecord
100
AcDbLinetypeTableRecord
  2
BYBLOCK
 70
           0
  3

 72
          65
 73
           0
 40
0.0
  0
LTYPE
  5
12
100
AcDbSymbolTableRecord
100
AcDbLinetypeTableRecord
  2
BYLAYER
 70
           0
  3

 72
          65
 73
           0
 40
0.0
  0
LTYPE
  5
13
100
AcDbSymbolTableRecord
100
AcDbLinetypeTableRecord
  2
CONTINUOUS
 70
           0
  3
Solid line
 72
          65
 73
           0
 40
0.0
  0
LTYPE
  5
1D
100
AcDbSymbolTableRecord
100
AcDbLinetypeTableRecord
  2
GESTRICHELT
 70
           0
  3

 72
          65
 73
           2
 40
0.75
 49
0.5
 74
           0
 49
-0.25
 74
           0
  0
LTYPE
  5
1E
100
AcDbSymbolTableRecord
100
AcDbLinetypeTableRecord
  2
STRICHPUNKT
 70
           0
  3

 72
          65
 73
           4
 40
1.0
 49
0.5
 74
           0
 49
-0.25
 74
           0
 49
0.0
 74
           0
 49
-0.25
 74
           0
  0
ENDTAB
  0
TABLE
  2
LAYER
  5
2
100
AcDbSymbolTable
 70
           4
  0
LAYER
  5
14
100
AcDbSymbolTableRecord
100
AcDbLayerTableRecord
  2
0
 70
           0
 62
           7
  6
CONTINUOUS
  0
LAYER
  5
20
100
AcDbSymbolTableRecord
100
AcDbLayerTableRecord
  2
BLACK
 70
           0
 62
           7
  6
CONTINUOUS
  0
LAYER
  5
21
100
AcDbSymbolTableRecord
100
AcDbLayerTableRecord
  2
WHITE
 70
           0
 62
           7
  6
CONTINUOUS
  0
LAYER
  5
22
100
AcDbSymbolTableRecord
100
AcDbLayerTableRecord
  2
YELLOW
 70
           0
 62
           7
  6
CONTINUOUS
  0
ENDTAB
  0
TABLE
  2
STYLE
  5
3
100
AcDbSymbolTable
 70
           2
  0
STYLE
  5
17
100
AcDbSymbolTableRecord
100
AcDbTextStyleTableRecord
  2
TXT
 70
           0
 40
3.5
 41
1.0
 50
0.0
 71
           0
 42
3.5
  3
TXT
  4

  0
STYLE
  5
1F
100
AcDbSymbolTableRecord
100
AcDbTextStyleTableRecord
  2
GOTHICG
 70
           0
 40
3.5
 41
1.0
 50
0.0
 71
           0
 42
3.5
  3
GOTHICG
  4

  0
ENDTAB
  0
TABLE
  2
VIEW
  5
5
100
AcDbSymbolTable
 70
           0
  0
ENDTAB
  0
TABLE
  2
UCS
  5
6
100
AcDbSymbolTable
 70
           0
  0
ENDTAB
  0
TABLE
  2
APPID
  5
8
100
AcDbSymbolTable
 70
           2
  0
APPID
  5
16
100
AcDbSymbolTableRecord
100
AcDbRegAppTableRecord
  2
ACAD
 70
           0
  0
APPID
  5
23
100
AcDbSymbolTableRecord
100
AcDbRegAppTableRecord
  2
MegaCADPntStyle
 70
           0
  0
ENDTAB
  0
TABLE
  2
DIMSTYLE
  5
9
100
AcDbSymbolTable
 70
           1
  0
DIMSTYLE
105
18
100
AcDbSymbolTableRecord
100
AcDbDimStyleTableRecord
  2
STANDARD
 70
           0
  3

  4

  5

  6

  7

 40
1.0
 41
0.18
 42
0.0625
 43
0.38
 44
0.18
 45
0.0
 46
0.0
 47
0.0
 48
0.0
140
0.18
141
0.09
142
0.0
143
25.4
144
1.0
145
0.0
146
1.0
147
0.09
 71
           0
 72
           0
 73
           1
 74
           1
 75
           0
 76
           0
 77
           0
 78
           0
170
           0
171
           2
172
           0
173
           0
174
           0
175
           0
176
           0
177
           0
178
           0
270
           2
271
           4
272
           4
273
           2
274
           2
340
17
275
           0
280
           0
281
           0
282
           0
283
           1
284
           0
285
           0
286
           0
287
           0
288
           0
  0
ENDTAB
  0
TABLE
  2
BLOCK_RECORD
  5
1
100
AcDbSymbolTable
 70
           3
  0
BLOCK_RECORD
  5
A
100
AcDbSymbolTableRecord
100
AcDbBlockTableRecord
  2
*MODEL_SPACE
  0
BLOCK_RECORD
  5
B
100
AcDbSymbolTableRecord
100
AcDbBlockTableRecord
  2
*PAPER_SPACE
  0
BLOCK_RECORD
  5
24
100
AcDbSymbolTableRecord
100
AcDbBlockTableRecord
  2
ELIPPSE
  0
BLOCK_RECORD
  5
25
100
AcDbSymbolTableRecord
100
AcDbBlockTableRecord
  2
01081201_SNCB-____TOP__1
  0
BLOCK_RECORD
  5
26
100
AcDbSymbolTableRecord
100
AcDbBlockTableRecord
  2
MAK2
  0
ENDTAB
  0
ENDSEC
  0
SECTION
  2
BLOCKS
  0
BLOCK
  5
D
100
AcDbEntity
  8
0
100
AcDbBlockBegin
  2
*MODEL_SPACE
 70
           0
 10
0.0
 20
0.0
 30
0.0
  3
*MODEL_SPACE
  1

  0
ENDBLK
  5
E
100
AcDbEntity
  8
0
100
AcDbBlockEnd
  0
BLOCK
  5
F
100
AcDbEntity
 67
           1
  8
0
100
AcDbBlockBegin
  2
*PAPER_SPACE
 70
           0
 10
0.0
 20
0.0
 30
0.0
  3
*PAPER_SPACE
  1

  0
ENDBLK
  5
10
100
AcDbEntity
 67
           1
  8
0
100
AcDbBlockEnd
  0
BLOCK
  5
1CF
100
AcDbEntity
  8
0
100
AcDbBlockBegin
  2
ELIPPSE
 70
          64
 10
0.0
 20
0.0
 30
0.0
  3
ELIPPSE
  1

  0
CIRCLE
  5
1D0
100
AcDbEntity
  8
0
  6
BYBLOCK
 62
           0
100
AcDbCircle
 10
0.0
 20
0.0
 30
0.0
 40
1.0
  0
ENDBLK
  5
1D1
100
AcDbEntity
  8
0
  6
BYBLOCK
 62
           0
100
AcDbBlockEnd
  0
BLOCK
  5
1D2
100
AcDbEntity
  8
0
100
AcDbBlockBegin
  2
01081201_SNCB-____TOP__1
 70
          64
 10
0.0
 20
0.0
 30
0.0
  3
01081201_SNCB-____TOP__1
  1

  0
LINE
  5
1D3
100
AcDbEntity
  8
BLACK
  6
CONTINUOUS
 62
          15
100
AcDbLine
 10
1258.600515180217
 20
-267.768116173917
 30
0.0
 11
1257.548157960909
 21
-267.786485137506
 31
0.0
  0
LINE
  5
1D4
100
AcDbEntity
  8
BLACK
  6
CONTINUOUS
 62
          15
100
AcDbLine
 10
1259.583062773781
 20
-266.76826847876
 30
0.0
 11
1259.583062773781
 21
-275.754670443263
 31
0.0
  0
LINE
  5
1D5
100
AcDbEntity
  8
BLACK
  6
CONTINUOUS
 62
          15
100
AcDbLine
 10
1259.583062773781
 20
-239.873303524415
 30
0.0
 11
1259.583062773781
 21
-240.056979763093
 31
0.0
  0
LINE
  5
1D6
100
AcDbEntity
  8
BLACK
  6
CONTINUOUS
 62
          15
100
AcDbLine
 10
1257.548157960907
 20
-238.855086865668
 30
0.0
 11
1258.600515180217
 21
-238.873455829258
 31
0.0
  0
LINE
  5
1D7
100
AcDbEntity
  8
WHITE
  6
CONTINUOUS
 62
          15
100
AcDbLine
 10
1259.883062773781
 20
-240.77112260595
 30
0.0
 11
1259.883062773781
 21
-265.870449397227
 31
0.0
  0
LINE
  5
1D8
100
AcDbEntity
  8
WHITE
  6
CONTINUOUS
 62
          15
100
AcDbLine
 10
1275.792491651028
 20
-265.318958343465
 30
0.0
 11
1260.565610367344
 21
-265.584744544926
 31
0.0
  0
LINE
  5
1D9
100
AcDbEntity
  8
WHITE
  6
CONTINUOUS
 62
          15
100
AcDbLine
 10
1275.792491651028
 20
-241.32261365971
 30
0.0
 11
1260.565610367344
 21
-241.056827458249
 31
0.0
  0
LINE
  5
1DA
100
AcDbEntity
  8
BLACK
  6
CONTINUOUS
 62
          15
100
AcDbLine
 10
1259.583062773781
 20
-266.584592240081
 30
0.0
 11
1259.583062773781
 21
-266.76826847876
 31
0.0
  0
LINE
  5
1DB
100
AcDbEntity
  8
WHITE
  6
CONTINUOUS
 62
          15
100
AcDbLine
 10
1255.583062773781
 20
-227.850152157526
 30
0.0
 11
1256.687761263888
 21
-227.888729078857
 31
0.0
  0
LINE
  5
1DC
100
AcDbEntity
  8
BLACK
  6
CONTINUOUS
 62
          15
100
AcDbLine
 10
1259.583062773781
 20
-230.886901559913
 30
0.0
 11
1259.583062773781
 21
-239.873303524415
 31
0.0
  0
LINE
  5
1DD
100
AcDbEntity
  8
WHITE
  6
CONTINUOUS
 62
          15
100
AcDbLine
 10
1256.687761263887
 20
-278.75284292432
 30
0.0
 11
1255.583062773781
 21
-278.791419845651
 31
0.0
  0
LINE
  5
1DE
100
AcDbEntity
  8
BLACK
  6
CONTINUOUS
 62
          15
100
AcDbLine
 10
1253.652861767186
 20
-221.532748053097
 30
0.0
 11
1248.58306277378
 21
-221.355706771079
 31
0.0
  0
LINE
  5
1DF
100
AcDbEntity
  8
BLACK
  6
CONTINUOUS
 62
          15
100
AcDbLine
 10
1253.652861767186
 20
-285.108823950077
 30
0.0
 11
1248.583062773781
 21
-285.285865232095
 31
0.0
  0
LINE
  5
1E0
100
AcDbEntity
  8
WHITE
  6
CONTINUOUS
 62
          15
100
AcDbLine
 10
1255.583062773781
 20
-269.786180527818
 30
0.0
 11
1255.583062773781
 21
-278.791419845651
 31
0.0
  0
LINE
  5
1E1
100
AcDbEntity
  8
WHITE
  6
CONTINUOUS
 62
          15
100
AcDbLine
 10
1255.583062773781
 20
-227.850152157526
 30
0.0
 11
1255.583062773781
 21
-236.855391475356
 31
0.0
  0
LINE
  5
1E2
100
AcDbEntity
  8
WHITE
  6
CONTINUOUS
 62
          15
100
AcDbLine
 10
1255.583062773781
 20
-223.531529707136
 30
0.0
 11
1255.583062773781
 21
-227.850152157526
 31
0.0
  0
LINE
  5
1E3
100
AcDbEntity
  8
WHITE
  6
CONTINUOUS
 62
          15
100
AcDbLine
 10
1255.583062773781
 20
-278.791419845651
 30
0.0
 11
1255.583062773781
 21
-283.11004229604
 31
0.0
  0
LINE
  5
1E4
100
AcDbEntity
  8
WHITE
  6
CONTINUOUS
 62
          15
100
AcDbLine
 10
1248.583062773781
 20
-221.320336260377
 30
0.0
 11
1248.583062773781
 21
-285.320336260378
 31
0.0
  0
ARC
  5
1E5
100
AcDbEntity
  8
WHITE
  6
CONTINUOUS
 62
          15
100
AcDbCircle
 10
1275.583062773781
 20
-253.320786001587
 30
0.0
 40
12.0
100
AcDbArc
 50
271.0
 51
89.000000000001
  0
ARC
  5
1E6
100
AcDbEntity
  8
BLACK
  6
CONTINUOUS
 62
          15
100
AcDbCircle
 10
1260.583062773781
 20
-266.584592240081
 30
0.0
 40
0.999999999999
100
AcDbArc
 50
91.000000000009
 51
134.427004000836
  0
ARC
  5
1E7
100
AcDbEntity
  8
BLACK
  6
CONTINUOUS
 62
          15
100
AcDbCircle
 10
1260.583062773781
 20
-266.584592240081
 30
0.0
 40
1.0
100
AcDbArc
 50
134.42700400083
 51
180.0
  0
ARC
  5
1E8
100
AcDbEntity
  8
BLACK
  6
CONTINUOUS
 62
          15
100
AcDbCircle
 10
1258.583062773781
 20
-266.76826847876
 30
0.0
 40
1.0
100
AcDbArc
 50
270.999999999927
 51
0.0
  0
ARC
  5
1E9
100
AcDbEntity
  8
BLACK
  6
CONTINUOUS
 62
          15
100
AcDbCircle
 10
1257.583062773781
 20
-269.786180527818
 30
0.0
 40
1.999999999999
100
AcDbArc
 50
90.999999999919
 51
180.0
  0
ARC
  5
1EA
100
AcDbEntity
  8
BLACK
  6
CONTINUOUS
 62
          15
100
AcDbCircle
 10
1260.583062773781
 20
-240.056979763094
 30
0.0
 40
1.0
100
AcDbArc
 50
180.0
 51
225.572995999247
  0
ARC
  5
1EB
100
AcDbEntity
  8
BLACK
  6
CONTINUOUS
 62
          15
100
AcDbCircle
 10
1260.583062773781
 20
-240.056979763094
 30
0.0
 40
1.000000000001
100
AcDbArc
 50
225.572995999246
 51
268.999999999992
  0
ARC
  5
1EC
100
AcDbEntity
  8
BLACK
  6
CONTINUOUS
 62
          15
100
AcDbCircle
 10
1257.583062773781
 20
-236.855391475356
 30
0.0
 40
2.0
100
AcDbArc
 50
180.0
 51
269.000000000016
  0
ARC
  5
1ED
100
AcDbEntity
  8
BLACK
  6
CONTINUOUS
 62
          15
100
AcDbCircle
 10
1258.583062773781
 20
-239.873303524415
 30
0.0
 40
1.0
100
AcDbArc
 50
0.0
 51
89.000000000073
  0
ARC
  5
1EE
100
AcDbEntity
  8
BLACK
  6
CONTINUOUS
 62
          15
100
AcDbCircle
 10
1253.583062773781
 20
-283.110042296039
 30
0.0
 40
2.0
100
AcDbArc
 50
271.999999999993
 51
0.0
  0
ARC
  5
1EF
100
AcDbEntity
  8
BLACK
  6
CONTINUOUS
 62
          15
100
AcDbCircle
 10
1256.583062773781
 20
-275.754670443263
 30
0.0
 40
3.0
100
AcDbArc
 50
271.999999999993
 51
0.0
  0
ARC
  5
1F0
100
AcDbEntity
  8
BLACK
  6
CONTINUOUS
 62
          15
100
AcDbCircle
 10
1256.583062773781
 20
-230.886901559914
 30
0.0
 40
3.0
100
AcDbArc
 50
0.0
 51
87.99999999999
  0
ARC
  5
1F1
100
AcDbEntity
  8
BLACK
  6
CONTINUOUS
 62
          15
100
AcDbCircle
 10
1253.583062773781
 20
-223.531529707136
 30
0.0
 40
2.0
100
AcDbArc
 50
0.0
 51
88.000000000006
  0
ENDBLK
  5
1F2
100
AcDbEntity
  8
0
  6
BYBLOCK
 62
           0
100
AcDbBlockEnd
  0
BLOCK
  5
1F3
100
AcDbEntity
  8
0
100
AcDbBlockBegin
  2
MAK2
 70
          64
 10
0.0
 20
0.0
 30
0.0
  3
MAK2
  1

  0
LINE
  5
1F4
100
AcDbEntity
  8
WHITE
  6
CONTINUOUS
 62
           2
100
AcDbLine
 10
-15.50693229743
 20
611.597948837689
 30
0.0
 11
-15.596491646589
 21
611.687508186849
 31
0.0
  0
LINE
  5
1F5
100
AcDbEntity
  8
WHITE
  6
CONTINUOUS
 62
           2
100
AcDbLine
 10
-14.44627212565
 20
611.597948837689
 30
0.0
 11
-15.596491646589
 21
612.748168358628
 31
0.0
  0
LINE
  5
1F6
100
AcDbEntity
  8
WHITE
  6
CONTINUOUS
 62
           2
100
AcDbLine
 10
-13.596491646589
 20
611.808828530408
 30
0.0
 11
-15.596491646589
 21
613.808828530409
 31
0.0
  0
LINE
  5
1F7
100
AcDbEntity
  8
WHITE
  6
CONTINUOUS
 62
           2
100
AcDbLine
 10
-13.596491646588
 20
612.869488702188
 30
0.0
 11
-15.596491646589
 21
614.869488702188
 31
0.0
  0
LINE
  5
1F8
100
AcDbEntity
  8
WHITE
  6
CONTINUOUS
 62
           2
100
AcDbLine
 10
-13.596491646588
 20
613.930148873968
 30
0.0
 11
-15.596491646589
 21
615.930148873968
 31
0.0
  0
LINE
  5
1F9
100
AcDbEntity
  8
WHITE
  6
CONTINUOUS
 62
           2
100
AcDbLine
 10
-13.596491646588
 20
614.990809045748
 30
0.0
 11
-15.596491646588
 21
616.990809045748
 31
0.0
  0
LINE
  5
1FA
100
AcDbEntity
  8
WHITE
  6
CONTINUOUS
 62
           2
100
AcDbLine
 10
-13.596491646588
 20
616.051469217527
 30
0.0
 11
-15.596491646588
 21
618.051469217527
 31
0.0
  0
LINE
  5
1FB
100
AcDbEntity
  8
WHITE
  6
CONTINUOUS
 62
           2
100
AcDbLine
 10
-13.596491646588
 20
617.112129389307
 30
0.0
 11
-15.596491646588
 21
619.112129389307
 31
0.0
  0
LINE
  5
1FC
100
AcDbEntity
  8
WHITE
  6
CONTINUOUS
 62
           2
100
AcDbLine
 10
-13.596491646588
 20
618.172789561087
 30
0.0
 11
-15.596491646588
 21
620.172789561087
 31
0.0
  0
LINE
  5
1FD
100
AcDbEntity
  8
WHITE
  6
CONTINUOUS
 62
           2
100
AcDbLine
 10
-13.596491646588
 20
619.233449732867
 30
0.0
 11
-15.596491646589
 21
621.233449732867
 31
0.0
  0
LINE
  5
1FE
100
AcDbEntity
  8
WHITE
  6
CONTINUOUS
 62
           2
100
AcDbLine
 10
-13.596491646589
 20
620.294109904647
 30
0.0
 11
-15.596491646589
 21
622.294109904647
 31
0.0
  0
LINE
  5
1FF
100
AcDbEntity
  8
WHITE
  6
CONTINUOUS
 62
           2
100
AcDbLine
 10
-13.596491646589
 20
621.354770076426
 30
0.0
 11
-15.596491646588
 21
623.354770076426
 31
0.0
  0
LINE
  5
200
100
AcDbEntity
  8
WHITE
  6
CONTINUOUS
 62
           2
100
AcDbLine
 10
-13.596491646589
 20
622.415430248206
 30
0.0
 11
-15.596491646588
 21
624.415430248207
 31
0.0
  0
LINE
  5
201
100
AcDbEntity
  8
WHITE
  6
CONTINUOUS
 62
           2
100
AcDbLine
 10
-13.596491646589
 20
623.476090419986
 30
0.0
 11
-15.596491646588
 21
625.476090419986
 31
0.0
  0
LINE
  5
202
100
AcDbEntity
  8
WHITE
  6
CONTINUOUS
 62
           2
100
AcDbLine
 10
-13.596491646589
 20
624.536750591766
 30
0.0
 11
-15.596491646588
 21
626.536750591766
 31
0.0
  0
LINE
  5
203
100
AcDbEntity
  8
WHITE
  6
CONTINUOUS
 62
           2
100
AcDbLine
 10
-13.596491646589
 20
625.597410763546
 30
0.0
 11
-15.596491646588
 21
627.597410763545
 31
0.0
  0
LINE
  5
204
100
AcDbEntity
  8
WHITE
  6
CONTINUOUS
 62
           2
100
AcDbLine
 10
-13.596491646589
 20
626.658070935325
 30
0.0
 11
-15.596491646588
 21
628.658070935325
 31
0.0
  0
LINE
  5
205
100
AcDbEntity
  8
WHITE
  6
CONTINUOUS
 62
           2
100
AcDbLine
 10
-13.596491646589
 20
627.718731107105
 30
0.0
 11
-15.596491646588
 21
629.718731107105
 31
0.0
  0
LINE
  5
206
100
AcDbEntity
  8
WHITE
  6
CONTINUOUS
 62
           2
100
AcDbLine
 10
-13.596491646589
 20
628.779391278885
 30
0.0
 11
-15.596491646588
 21
630.779391278885
 31
0.0
  0
LINE
  5
207
100
AcDbEntity
  8
WHITE
  6
CONTINUOUS
 62
           2
100
AcDbLine
 10
-13.596491646589
 20
629.840051450665
 30
0.0
 11
-15.354389033613
 21
631.597948837689
 31
0.0
  0
LINE
  5
208
100
AcDbEntity
  8
WHITE
  6
CONTINUOUS
 62
           2
100
AcDbLine
 10
-13.596491646589
 20
630.900711622445
 30
0.0
 11
-14.293728861833
 21
631.597948837689
 31
0.0
  0
LINE
  5
209
100
AcDbEntity
  8
WHITE
  6
CONTINUOUS
 62
           2
100
AcDbLine
 10
-15.596491646588
 20
631.406213139101
 30
0.0
 11
-15.404755948002
 21
631.597948837689
 31
0.0
  0
LINE
  5
20A
100
AcDbEntity
  8
WHITE
  6
CONTINUOUS
 62
           2
100
AcDbLine
 10
-15.596491646588
 20
630.345552967322
 30
0.0
 11
-14.344095776222
 21
631.597948837689
 31
0.0
  0
LINE
  5
20B
100
AcDbEntity
  8
WHITE
  6
CONTINUOUS
 62
           2
100
AcDbLine
 10
-15.596491646588
 20
629.284892795542
 30
0.0
 11
-13.596491646588
 21
631.284892795542
 31
0.0
  0
LINE
  5
20C
100
AcDbEntity
  8
WHITE
  6
CONTINUOUS
 62
           2
100
AcDbLine
 10
-15.596491646588
 20
628.224232623762
 30
0.0
 11
-13.596491646589
 21
630.224232623762
 31
0.0
  0
LINE
  5
20D
100
AcDbEntity
  8
WHITE
  6
CONTINUOUS
 62
           2
100
AcDbLine
 10
-15.596491646588
 20
627.163572451982
 30
0.0
 11
-13.596491646589
 21
629.163572451982
 31
0.0
  0
LINE
  5
20E
100
AcDbEntity
  8
WHITE
  6
CONTINUOUS
 62
           2
100
AcDbLine
 10
-15.596491646588
 20
626.102912280202
 30
0.0
 11
-13.596491646589
 21
628.102912280202
 31
0.0
  0
LINE
  5
20F
100
AcDbEntity
  8
WHITE
  6
CONTINUOUS
 62
           2
100
AcDbLine
 10
-15.596491646589
 20
625.042252108422
 30
0.0
 11
-13.596491646589
 21
627.042252108422
 31
0.0
  0
LINE
  5
210
100
AcDbEntity
  8
WHITE
  6
CONTINUOUS
 62
           2
100
AcDbLine
 10
-15.596491646588
 20
623.981591936643
 30
0.0
 11
-13.596491646589
 21
625.981591936643
 31
0.0
  0
LINE
  5
211
100
AcDbEntity
  8
WHITE
  6
CONTINUOUS
 62
           2
100
AcDbLine
 10
-15.596491646588
 20
622.920931764863
 30
0.0
 11
-13.596491646588
 21
624.920931764863
 31
0.0
  0
LINE
  5
212
100
AcDbEntity
  8
WHITE
  6
CONTINUOUS
 62
           2
100
AcDbLine
 10
-15.596491646589
 20
621.860271593084
 30
0.0
 11
-13.596491646588
 21
623.860271593083
 31
0.0
  0
LINE
  5
213
100
AcDbEntity
  8
WHITE
  6
CONTINUOUS
 62
           2
100
AcDbLine
 10
-15.596491646589
 20
620.799611421304
 30
0.0
 11
-13.596491646588
 21
622.799611421303
 31
0.0
  0
LINE
  5
214
100
AcDbEntity
  8
WHITE
  6
CONTINUOUS
 62
           2
100
AcDbLine
 10
-15.596491646589
 20
619.738951249524
 30
0.0
 11
-13.596491646588
 21
621.738951249523
 31
0.0
  0
LINE
  5
215
100
AcDbEntity
  8
WHITE
  6
CONTINUOUS
 62
           2
100
AcDbLine
 10
-15.596491646589
 20
618.678291077744
 30
0.0
 11
-13.596491646588
 21
620.678291077744
 31
0.0
  0
LINE
  5
216
100
AcDbEntity
  8
WHITE
  6
CONTINUOUS
 62
           2
100
AcDbLine
 10
-15.596491646589
 20
617.617630905964
 30
0.0
 11
-13.596491646588
 21
619.617630905964
 31
0.0
  0
LINE
  5
217
100
AcDbEntity
  8
WHITE
  6
CONTINUOUS
 62
           2
100
AcDbLine
 10
-15.596491646589
 20
616.556970734185
 30
0.0
 11
-13.596491646588
 21
618.556970734185
 31
0.0
  0
LINE
  5
218
100
AcDbEntity
  8
WHITE
  6
CONTINUOUS
 62
           2
100
AcDbLine
 10
-15.596491646589
 20
615.496310562405
 30
0.0
 11
-13.596491646588
 21
617.496310562405
 31
0.0
  0
LINE
  5
219
100
AcDbEntity
  8
WHITE
  6
CONTINUOUS
 62
           2
100
AcDbLine
 10
-15.596491646589
 20
614.435650390625
 30
0.0
 11
-13.596491646588
 21
616.435650390625
 31
0.0
  0
LINE
  5
21A
100
AcDbEntity
  8
WHITE
  6
CONTINUOUS
 62
           2
100
AcDbLine
 10
-15.596491646589
 20
613.374990218845
 30
0.0
 11
-13.596491646588
 21
615.374990218845
 31
0.0
  0
LINE
  5
21B
100
AcDbEntity
  8
WHITE
  6
CONTINUOUS
 62
           2
100
AcDbLine
 10
-15.596491646589
 20
612.314330047065
 30
0.0
 11
-13.596491646588
 21
614.314330047065
 31
0.0
  0
LINE
  5
21C
100
AcDbEntity
  8
WHITE
  6
CONTINUOUS
 62
           2
100
AcDbLine
 10
-15.252212684185
 20
611.597948837689
 30
0.0
 11
-13.596491646588
 21
613.253669875286
 31
0.0
  0
LINE
  5
21D
100
AcDbEntity
  8
WHITE
  6
CONTINUOUS
 62
           2
100
AcDbLine
 10
-14.191552512406
 20
611.597948837688
 30
0.0
 11
-13.596491646588
 21
612.193009703506
 31
0.0
  0
ENDBLK
  5
21E
100
AcDbEntity
  8
0
  6
BYBLOCK
 62
           0
100
AcDbBlockEnd
  0
ENDSEC
  0
SECTION
  2
ENTITIES
  0
INSERT
  5
27
100
AcDbEntity
  8
0
  6
CONTINUOUS
 62
           7
100
AcDbBlockReference
  2
01081201_SNCB-____TOP__1
 10
-5746.341472603137
 20
3028.675138715727
 30
0.0
 41
0.84375
 42
0.84375
 43
0.84375
 50
353.069999999999
  0
INSERT
  5
28
100
AcDbEntity
  8
0
  6
CONTINUOUS
 62
           7
100
AcDbBlockReference
  2
MAK2
 10
-4983.784670395244
 20
2091.282314523939
 30
0.0
 50
353.069999999999
  0
LINE
  5
29
100
AcDbEntity
  8
0
  6
CONTINUOUS
 62
          15
100
AcDbLine
 10
-5117.252205100199
 20
2624.137743887848
 30
0.0
 11
-5016.252205100199
 21
2624.137743887848
 31
0.0
  0
LINE
  5
2A
100
AcDbEntity
  8
0
  6
CONTINUOUS
 62
          15
100
AcDbLine
 10
-5016.252205100199
 20
2732.683570296741
 30
0.0
 11
-5016.252205100199
 21
2749.137743887848
 31
0.0
  0
LINE
  5
2B
100
AcDbEntity
  8
0
  6
GESTRICHELT
 62
          15
100
AcDbLine
 10
-5016.252205100199
 20
2711.637743887848
 30
0.0
 11
-5016.252205100199
 21
2732.683570296741
 31
0.0
  0
LINE
  5
2C
100
AcDbEntity
  8
0
  6
GESTRICHELT
 62
          15
100
AcDbLine
 10
-5016.252205100199
 20
2646.637743887848
 30
0.0
 11
-5016.252205100199
 21
2711.637743887848
 31
0.0
  0
LINE
  5
2D
100
AcDbEntity
  8
0
  6
CONTINUOUS
 62
          15
100
AcDbLine
 10
-5016.252205100199
 20
2624.137743887848
 30
0.0
 11
-5016.252205100199
 21
2646.637743887848
 31
0.0
  0
LINE
  5
2E
100
AcDbEntity
  8
0
  6
GESTRICHELT
 62
          15
100
AcDbLine
 10
-5105.830724378566
 20
2749.137743887848
 30
0.0
 11
-5117.252205100199
 21
2749.137743887848
 31
0.0
  0
LINE
  5
2F
100
AcDbEntity
  8
0
  6
CONTINUOUS
 62
          15
100
AcDbLine
 10
-5016.252205100199
 20
2749.137743887848
 30
0.0
 11
-5105.830724378566
 21
2749.137743887848
 31
0.0
  0
LINE
  5
30
100
AcDbEntity
  8
0
  6
CONTINUOUS
 62
          15
100
AcDbLine
 10
-5117.252205100199
 20
2661.637743887848
 30
0.0
 11
-5117.252205100199
 21
2624.137743887848
 31
0.0
  0
LINE
  5
31
100
AcDbEntity
  8
0
  6
GESTRICHELT
 62
          15
100
AcDbLine
 10
-5117.252205100199
 20
2711.637743887848
 30
0.0
 11
-5117.252205100199
 21
2661.637743887848
 31
0.0
  0
LINE
  5
32
100
AcDbEntity
  8
0
  6
CONTINUOUS
 62
          15
100
AcDbLine
 10
-5117.252205100199
 20
2712.389006546318
 30
0.0
 11
-5117.252205100199
 21
2711.637743887848
 31
0.0
  0
LINE
  5
33
100
AcDbEntity
  8
0
  6
GESTRICHELT
 62
          15
100
AcDbLine
 10
-5117.252205100199
 20
2749.137743887848
 30
0.0
 11
-5117.252205100199
 21
2712.389006546318
 31
0.0
  0
LINE
  5
34
100
AcDbEntity
  8
0
  6
STRICHPUNKT
 62
          15
100
AcDbLine
 10
-5066.752205100199
 20
2749.137743887848
 30
0.0
 11
-5066.752205100199
 21
2624.137743887848
 31
0.0
  0
LINE
  5
35
100
AcDbEntity
  8
0
  6
GESTRICHELT
 62
          15
100
AcDbLine
 10
-5117.252205100199
 20
2686.637743887848
 30
0.0
 11
-5016.252205100199
 21
2686.637743887848
 31
0.0
  0
CIRCLE
  5
36
100
AcDbEntity
  8
0
  6
CONTINUOUS
 62
          15
100
AcDbCircle
 10
-5066.752205100199
 20
2686.637743887848
 30
0.0
 40
7.25
  0
LINE
  5
37
100
AcDbEntity
  8
0
  6
CONTINUOUS
 62
          15
100
AcDbLine
 10
-5124.252205100199
 20
2711.637743887848
 30
0.0
 11
-5124.252205100199
 21
2661.637743887848
 31
0.0
  0
LINE
  5
38
100
AcDbEntity
  8
0
  6
GESTRICHELT
 62
          15
100
AcDbLine
 10
-5009.252205100199
 20
2661.637743887848
 30
0.0
 11
-5009.252205100199
 21
2711.637743887848
 31
0.0
  0
LINE
  5
39
100
AcDbEntity
  8
0
  6
GESTRICHELT
 62
          15
100
AcDbLine
 10
-5104.567546100199
 20
2661.637743887848
 30
0.0
 11
-5009.252205100199
 21
2661.637743887848
 31
0.0
  0
LINE
  5
3A
100
AcDbEntity
  8
0
  6
CONTINUOUS
 62
          15
100
AcDbLine
 10
-5124.252205100199
 20
2661.637743887848
 30
0.0
 11
-5104.567546100199
 21
2661.637743887848
 31
0.0
  0
LINE
  5
3B
100
AcDbEntity
  8
0
  6
GESTRICHELT
 62
          15
100
AcDbLine
 10
-5116.500942441728
 20
2711.637743887848
 30
0.0
 11
-5009.252205100199
 21
2711.637743887848
 31
0.0
  0
LINE
  5
3C
100
AcDbEntity
  8
0
  6
CONTINUOUS
 62
          15
100
AcDbLine
 10
-5124.252205100199
 20
2711.637743887848
 30
0.0
 11
-5116.500942441728
 21
2711.637743887848
 31
0.0
  0
TEXT
  5
3D
100
AcDbEntity
  8
0
  6
CONTINUOUS
 62
          15
100
AcDbText
 10
-5109.00710301281
 20
2634.941896518993
 30
0.0
 40
3.5
  1
100-730
 41
0.900000010218
  7
GOTHICG
100
AcDbText
  0
CIRCLE
  5
3E
100
AcDbEntity
  8
0
  6
GESTRICHELT
 62
          15
100
AcDbCircle
 10
-5066.752205100199
 20
2686.637743887848
 30
0.0
 40
12.5
  0
LINE
  5
3F
100
AcDbEntity
  8
WHITE
  6
CONTINUOUS
 62
          15
100
AcDbLine
 10
-4663.720267100199
 20
2726.637743887848
 30
0.0
 11
-4663.720267100199
 21
2646.637743887848
 31
0.0
  0
LINE
  5
40
100
AcDbEntity
  8
WHITE
  6
GESTRICHELT
 62
          15
100
AcDbLine
 10
-5104.567546100199
 20
2699.704347546319
 30
0.0
 11
-5104.567546100199
 21
2726.637743887848
 31
0.0
  0
LINE
  5
41
100
AcDbEntity
  8
WHITE
  6
CONTINUOUS
 62
          15
100
AcDbLine
 10
-5104.567546100199
 20
2646.637743887848
 30
0.0
 11
-5104.567546100199
 21
2699.704347546319
 31
0.0
  0
ARC
  5
42
100
AcDbEntity
  8
WHITE
  6
GESTRICHELT
 62
          15
100
AcDbCircle
 10
-5066.752205100199
 20
2686.637743887848
 30
0.0
 40
22.5
100
AcDbArc
 50
109.064916387405
 51
186.057558731021
  0
ARC
  5
43
100
AcDbEntity
  8
WHITE
  6
CONTINUOUS
 62
          15
100
AcDbCircle
 10
-5066.752205100199
 20
2686.637743887848
 30
0.0
 40
22.5
100
AcDbArc
 50
186.057558731021
 51
109.064916387405
  0
LINE
  5
44
100
AcDbEntity
  8
YELLOW
  6
CONTINUOUS
 62
          15
100
AcDbLine
 10
-5104.567546100199
 20
2646.637743887848
 30
0.0
 11
-4663.720267100199
 21
2646.637743887848
 31
0.0
  0
LINE
  5
45
100
AcDbEntity
  8
YELLOW
  6
CONTINUOUS
 62
          15
100
AcDbLine
 10
-4813.182902913964
 20
2726.637743887848
 30
0.0
 11
-4663.720267100199
 21
2726.637743887848
 31
0.0
  0
LINE
  5
46
100
AcDbEntity
  8
YELLOW
  6
GESTRICHELT
 62
          15
100
AcDbLine
 10
-4949.974309525478
 20
2726.637743887848
 30
0.0
 11
-4813.182902913964
 21
2726.637743887848
 31
0.0
  0
LINE
  5
47
100
AcDbEntity
  8
YELLOW
  6
CONTINUOUS
 62
          15
100
AcDbLine
 10
-4966.51057477941
 20
2726.637743887848
 30
0.0
 11
-4949.974309525478
 21
2726.637743887848
 31
0.0
  0
LINE
  5
48
100
AcDbEntity
  8
YELLOW
  6
GESTRICHELT
 62
          15
100
AcDbLine
 10
-5104.567546100199
 20
2726.637743887848
 30
0.0
 11
-4966.51057477941
 21
2726.637743887848
 31
0.0
  0
CIRCLE
  5
49
100
AcDbEntity
  8
0
  6
CONTINUOUS
 62
          15
100
AcDbCircle
 10
-4703.720267100199
 20
2686.637743887848
 30
0.0
 40
6.25
  0
LINE
  5
4A
100
AcDbEntity
  8
WHITE
  6
CONTINUOUS
 62
          15
100
AcDbLine
 10
-5077.71236020859
 20
2672.84916165471
 30
0.0
 11
-5130.745368797581
 21
2725.882170243701
 31
0.0
  0
ARC
  5
4B
100
AcDbEntity
  8
WHITE
  6
CONTINUOUS
 62
          15
100
AcDbCircle
 10
-5120.138767079783
 20
2736.488771961499
 30
0.0
 40
15.0
100
AcDbArc
 50
135.0
 51
225.0
  0
LINE
  5
4C
100
AcDbEntity
  8
WHITE
  6
CONTINUOUS
 62
          15
100
AcDbLine
 10
-5130.745368797581
 20
2747.095373679297
 30
0.0
 11
-5127.209834891649
 21
2750.63090758523
 31
0.0
  0
ARC
  5
4D
100
AcDbEntity
  8
WHITE
  6
CONTINUOUS
 62
          15
100
AcDbCircle
 10
-5116.603233173851
 20
2740.024305867432
 30
0.0
 40
15.0
100
AcDbArc
 50
45.0
 51
135.0
  0
LINE
  5
4E
100
AcDbEntity
  8
WHITE
  6
CONTINUOUS
 62
          15
100
AcDbLine
 10
-5102.934547433782
 20
2723.072151384796
 30
0.0
 11
-5102.46109755012
 21
2718.811102431836
 31
0.0
  0
LINE
  5
4F
100
AcDbEntity
  8
WHITE
  6
GESTRICHELT
 62
          15
100
AcDbLine
 10
-5105.657614232066
 20
2747.579752569359
 30
0.0
 11
-5102.934547433782
 21
2723.072151384796
 31
0.0
  0
LINE
  5
50
100
AcDbEntity
  8
WHITE
  6
CONTINUOUS
 62
          15
100
AcDbLine
 10
-5105.996631456053
 20
2750.63090758523
 30
0.0
 11
-5105.657614232066
 21
2747.579752569359
 31
0.0
  0
LINE
  5
51
100
AcDbEntity
  8
WHITE
  6
CONTINUOUS
 62
          15
100
AcDbLine
 10
-5102.46109755012
 20
2718.811102431836
 30
0.0
 11
-5056.499156772994
 21
2701.133432902172
 31
0.0
  0
LINE
  5
52
100
AcDbEntity
  8
WHITE
  6
CONTINUOUS
 62
          15
100
AcDbLine
 10
-5056.499156772994
 20
2701.133432902172
 30
0.0
 11
-5052.963622867062
 21
2697.597898996239
 31
0.0
  0
ARC
  5
53
100
AcDbEntity
  8
WHITE
  6
CONTINUOUS
 62
          15
100
AcDbCircle
 10
-5063.57022458486
 20
2686.991297278441
 30
0.0
 40
15.0
100
AcDbArc
 50
314.999999999999
 51
45.0
  0
LINE
  5
54
100
AcDbEntity
  8
WHITE
  6
CONTINUOUS
 62
          15
100
AcDbLine
 10
-5052.963622867062
 20
2676.384695560643
 30
0.0
 11
-5056.499156772994
 21
2672.84916165471
 31
0.0
  0
ARC
  5
55
100
AcDbEntity
  8
WHITE
  6
CONTINUOUS
 62
          15
100
AcDbCircle
 10
-5067.105758490792
 20
2683.455763372508
 30
0.0
 40
15.0
100
AcDbArc
 50
224.999999999999
 51
314.999999999999
  0
CIRCLE
  5
56
100
AcDbEntity
  8
WHITE
  6
CONTINUOUS
 62
          15
100
AcDbCircle
 10
-5116.956786564444
 20
2736.842325352093
 30
0.0
 40
6.5
  0
LINE
  5
57
100
AcDbEntity
  8
BLACK
  6
GESTRICHELT
 62
          15
100
AcDbLine
 10
-4722.364261180659
 20
2688.9042028957
 30
0.0
 11
-4720.252770175408
 21
2706.276353186747
 31
0.0
  0
LINE
  5
58
100
AcDbEntity
  8
BLACK
  6
GESTRICHELT
 62
          15
100
AcDbLine
 10
-4720.252770175408
 20
2706.276353186747
 30
0.0
 11
-4724.22354738479
 21
2706.758979702233
 31
0.0
  0
LINE
  5
59
100
AcDbEntity
  8
BLACK
  6
CONTINUOUS
 62
          15
100
AcDbLine
 10
-4723.077309410511
 20
2716.189575574516
 30
0.0
 11
-4752.46106075994
 21
2719.761011789113
 31
0.0
  0
LINE
  5
5A
100
AcDbEntity
  8
BLACK
  6
CONTINUOUS
 62
          15
100
AcDbLine
 10
-4752.46106075994
 20
2719.761011789113
 30
0.0
 11
-4752.521389074375
 21
2719.26466463794
 31
0.0
  0
LINE
  5
5B
100
AcDbEntity
  8
BLACK
  6
CONTINUOUS
 62
          15
100
AcDbLine
 10
-4752.521389074375
 20
2719.26466463794
 30
0.0
 11
-4897.25621835636
 21
2736.856401127404
 31
0.0
  0
LINE
  5
5C
100
AcDbEntity
  8
BLACK
  6
CONTINUOUS
 62
          15
100
AcDbLine
 10
-4897.25621835636
 20
2736.856401127404
 30
0.0
 11
-4897.195890041924
 21
2737.352748278577
 31
0.0
  0
LINE
  5
5D
100
AcDbEntity
  8
BLACK
  6
CONTINUOUS
 62
          15
100
AcDbLine
 10
-4897.195890041924
 20
2737.352748278577
 30
0.0
 11
-4926.579641391353
 21
2740.924184493174
 31
0.0
  0
LINE
  5
5E
100
AcDbEntity
  8
BLACK
  6
CONTINUOUS
 62
          15
100
AcDbLine
 10
-4926.579641391353
 20
2740.924184493174
 30
0.0
 11
-4927.725879365633
 21
2731.493588620891
 31
0.0
  0
LINE
  5
5F
100
AcDbEntity
  8
BLACK
  6
CONTINUOUS
 62
          15
100
AcDbLine
 10
-4927.725879365633
 20
2731.493588620891
 30
0.0
 11
-4938.149169540261
 21
2732.760483224041
 31
0.0
  0
LINE
  5
60
100
AcDbEntity
  8
BLACK
  6
CONTINUOUS
 62
          15
100
AcDbLine
 10
-4938.149169540261
 20
2732.760483224041
 30
0.0
 11
-4938.209497854697
 21
2732.264136072869
 31
0.0
  0
LINE
  5
61
100
AcDbEntity
  8
BLACK
  6
CONTINUOUS
 62
          15
100
AcDbLine
 10
-4938.209497854697
 20
2732.264136072869
 30
0.0
 11
-4949.129135180498
 21
2733.591358990455
 31
0.0
  0
LINE
  5
62
100
AcDbEntity
  8
BLACK
  6
CONTINUOUS
 62
          15
100
AcDbLine
 10
-4949.129135180498
 20
2733.591358990455
 30
0.0
 11
-4953.231460562129
 21
2699.839752710705
 31
0.0
  0
LINE
  5
63
100
AcDbEntity
  8
BLACK
  6
CONTINUOUS
 62
          15
100
AcDbLine
 10
-4953.231460562129
 20
2699.839752710705
 30
0.0
 11
-4942.311823236328
 21
2698.512529793119
 31
0.0
  0
LINE
  5
64
100
AcDbEntity
  8
BLACK
  6
CONTINUOUS
 62
          15
100
AcDbLine
 10
-4942.311823236328
 20
2698.512529793119
 30
0.0
 11
-4942.372151550763
 21
2698.016182641946
 31
0.0
  0
LINE
  5
65
100
AcDbEntity
  8
BLACK
  6
CONTINUOUS
 62
          15
100
AcDbLine
 10
-4942.372151550763
 20
2698.016182641946
 30
0.0
 11
-4931.948861376135
 21
2696.749288038795
 31
0.0
  0
LINE
  5
66
100
AcDbEntity
  8
BLACK
  6
CONTINUOUS
 62
          15
100
AcDbLine
 10
-4931.948861376135
 20
2696.749288038795
 30
0.0
 11
-4933.095099350414
 21
2687.318692166512
 31
0.0
  0
LINE
  5
67
100
AcDbEntity
  8
BLACK
  6
GESTRICHELT
 62
          15
100
AcDbLine
 10
-4923.664503478131
 20
2686.172454192233
 30
0.0
 11
-4903.711348000985
 21
2683.747255951916
 31
0.0
  0
LINE
  5
68
100
AcDbEntity
  8
BLACK
  6
CONTINUOUS
 62
          15
100
AcDbLine
 10
-4933.095099350414
 20
2687.318692166512
 30
0.0
 11
-4923.664503478131
 21
2686.172454192233
 31
0.0
  0
LINE
  5
69
100
AcDbEntity
  8
BLACK
  6
GESTRICHELT
 62
          15
100
AcDbLine
 10
-4903.711348000985
 20
2683.747255951916
 30
0.0
 11
-4903.651019686549
 21
2684.243603103089
 31
0.0
  0
LINE
  5
6A
100
AcDbEntity
  8
BLACK
  6
CONTINUOUS
 62
          15
100
AcDbLine
 10
-4895.808734698019
 20
2683.290415735004
 30
0.0
 11
-4758.916190404565
 21
2666.651866613624
 31
0.0
  0
LINE
  5
6B
100
AcDbEntity
  8
BLACK
  6
GESTRICHELT
 62
          15
100
AcDbLine
 10
-4903.651019686549
 20
2684.243603103089
 30
0.0
 11
-4895.808734698019
 21
2683.290415735004
 31
0.0
  0
LINE
  5
6C
100
AcDbEntity
  8
BLACK
  6
CONTINUOUS
 62
          15
100
AcDbLine
 10
-4758.916190404565
 20
2666.651866613624
 30
0.0
 11
-4758.976518719001
 21
2666.155519462452
 31
0.0
  0
LINE
  5
6D
100
AcDbEntity
  8
BLACK
  6
CONTINUOUS
 62
          15
100
AcDbLine
 10
-4758.976518719001
 20
2666.155519462452
 30
0.0
 11
-4729.592767369571
 21
2662.584083247855
 31
0.0
  0
LINE
  5
6E
100
AcDbEntity
  8
BLACK
  6
GESTRICHELT
 62
          15
100
AcDbLine
 10
-4728.446529395292
 20
2672.014679120138
 30
0.0
 11
-4724.47575218591
 21
2671.532052604652
 31
0.0
  0
LINE
  5
6F
100
AcDbEntity
  8
BLACK
  6
GESTRICHELT
 62
          15
100
AcDbLine
 10
-4724.47575218591
 20
2671.532052604652
 30
0.0
 11
-4722.364261180659
 21
2688.9042028957
 31
0.0
  0
LINE
  5
70
100
AcDbEntity
  8
BLACK
  6
CONTINUOUS
 62
          15
100
AcDbLine
 10
-4752.521389074375
 20
2719.26466463794
 30
0.0
 11
-4758.916190404565
 21
2666.651866613624
 31
0.0
  0
LINE
  5
71
100
AcDbEntity
  8
BLACK
  6
GESTRICHELT
 62
          15
100
AcDbLine
 10
-4899.366905120475
 20
2719.490867676234
 30
0.0
 11
-4903.651019686549
 21
2684.243603103089
 31
0.0
  0
LINE
  5
72
100
AcDbEntity
  8
BLACK
  6
CONTINUOUS
 62
          15
100
AcDbLine
 10
-4897.25621835636
 20
2736.856401127404
 30
0.0
 11
-4899.366905120475
 21
2719.490867676234
 31
0.0
  0
LINE
  5
73
100
AcDbEntity
  8
BLACK
  6
CONTINUOUS
 62
          15
100
AcDbLine
 10
-4927.725879365633
 20
2731.493588620891
 30
0.0
 11
-4931.948861376135
 21
2696.749288038795
 31
0.0
  0
LINE
  5
74
100
AcDbEntity
  8
BLACK
  6
CONTINUOUS
 62
          15
100
AcDbLine
 10
-4938.149169540261
 20
2732.760483224041
 30
0.0
 11
-4942.372151550763
 21
2698.016182641946
 31
0.0
  0
LINE
  5
75
100
AcDbEntity
  8
BLACK
  6
GESTRICHELT
 62
          15
100
AcDbLine
 10
-5062.637989999081
 20
2736.306792899066
 30
0.0
 11
-5080.730808016661
 21
2738.505877172673
 31
0.0
  0
LINE
  5
76
100
AcDbEntity
  8
BLACK
  6
CONTINUOUS
 62
          15
100
AcDbLine
 10
-5057.667342751406
 20
2735.702637582775
 30
0.0
 11
-5062.637989999081
 21
2736.306792899066
 31
0.0
  0
LINE
  5
77
100
AcDbEntity
  8
BLACK
  6
GESTRICHELT
 62
          15
100
AcDbLine
 10
-5064.085869545538
 20
2724.394461270919
 30
0.0
 11
-5082.17868756312
 21
2726.593545544526
 31
0.0
  0
LINE
  5
78
100
AcDbEntity
  8
BLACK
  6
CONTINUOUS
 62
          15
100
AcDbLine
 10
-5059.115222297864
 20
2723.790305954628
 30
0.0
 11
-5064.085869545538
 21
2724.394461270919
 31
0.0
  0
LINE
  5
79
100
AcDbEntity
  8
BLACK
  6
GESTRICHELT
 62
          15
100
AcDbLine
 10
-5081.584524304152
 20
2737.837208611596
 30
0.0
 11
-5080.730808016661
 21
2738.505877172673
 31
0.0
  0
LINE
  5
7A
100
AcDbEntity
  8
BLACK
  6
GESTRICHELT
 62
          15
100
AcDbLine
 10
-5082.847367257706
 20
2727.44725311164
 30
0.0
 11
-5082.17868756312
 21
2726.593545544526
 31
0.0
  0
LINE
  5
7B
100
AcDbEntity
  8
BLACK
  6
GESTRICHELT
 62
          15
100
AcDbLine
 10
-5081.584524304152
 20
2737.837208611596
 30
0.0
 11
-5082.847367257706
 21
2727.44725311164
 31
0.0
  0
LINE
  5
7C
100
AcDbEntity
  8
BLACK
  6
CONTINUOUS
 62
          15
100
AcDbLine
 10
-5062.730508295533
 20
2735.545604834971
 30
0.0
 11
-5057.759861047859
 21
2734.94144951868
 31
0.0
  0
LINE
  5
7D
100
AcDbEntity
  8
BLACK
  6
GESTRICHELT
 62
          15
100
AcDbLine
 10
-5081.584524304152
 20
2737.837208611596
 30
0.0
 11
-5062.730508295533
 21
2735.545604834971
 31
0.0
  0
LINE
  5
7E
100
AcDbEntity
  8
BLACK
  6
CONTINUOUS
 62
          15
100
AcDbLine
 10
-5063.993351249086
 20
2725.155649335015
 30
0.0
 11
-5059.022704001412
 21
2724.551494018724
 31
0.0
  0
LINE
  5
7F
100
AcDbEntity
  8
BLACK
  6
GESTRICHELT
 62
          15
100
AcDbLine
 10
-5082.847367257706
 20
2727.44725311164
 30
0.0
 11
-5063.993351249086
 21
2725.155649335015
 31
0.0
  0
LINE
  5
80
100
AcDbEntity
  8
BLACK
  6
GESTRICHELT
 62
          15
100
AcDbLine
 10
-5080.730808016661
 20
2738.505877172673
 30
0.0
 11
-5082.17868756312
 21
2726.593545544526
 31
0.0
  0
LINE
  5
81
100
AcDbEntity
  8
BLACK
  6
CONTINUOUS
 62
          15
100
AcDbLine
 10
-4950.215044840341
 20
2724.657110269345
 30
0.0
 11
-5057.426029493663
 21
2737.688026187466
 31
0.0
  0
LINE
  5
82
100
AcDbEntity
  8
BLACK
  6
CONTINUOUS
 62
          15
100
AcDbLine
 10
-5057.426029493663
 20
2737.688026187466
 30
0.0
 11
-5059.356535555608
 21
2721.804917349937
 31
0.0
  0
LINE
  5
83
100
AcDbEntity
  8
BLACK
  6
CONTINUOUS
 62
          15
100
AcDbLine
 10
-5059.356535555608
 20
2721.804917349937
 30
0.0
 11
-4952.145550902285
 21
2708.774001431816
 31
0.0
  0
LINE
  5
84
100
AcDbEntity
  8
BLACK
  6
CONTINUOUS
 62
          15
100
AcDbLine
 10
-5057.828577411134
 20
2734.376090259608
 30
0.0
 11
-5052.534211107605
 21
2733.732588641149
 31
0.0
  0
LINE
  5
85
100
AcDbEntity
  8
BLACK
  6
CONTINUOUS
 62
          15
100
AcDbLine
 10
-5058.953987638137
 20
2725.116853277796
 30
0.0
 11
-5053.659621334608
 21
2724.473351659337
 31
0.0
  0
LINE
  5
86
100
AcDbEntity
  8
BLACK
  6
CONTINUOUS
 62
          15
100
AcDbLine
 10
-5052.534211107605
 20
2733.732588641149
 30
0.0
 11
-5053.659621334608
 21
2724.473351659337
 31
0.0
  0
LINE
  5
87
100
AcDbEntity
  8
BLACK
  6
CONTINUOUS
 62
          15
100
AcDbLine
 10
-5057.828577411134
 20
2734.376090259608
 30
0.0
 11
-5053.659621334608
 21
2724.473351659337
 31
0.0
  0
LINE
  5
88
100
AcDbEntity
  8
BLACK
  6
CONTINUOUS
 62
          15
100
AcDbLine
 10
-5052.534211107605
 20
2733.732588641149
 30
0.0
 11
-5058.953987638137
 21
2725.116853277796
 31
0.0
  0
CIRCLE
  5
89
100
AcDbEntity
  8
BLACK
  6
GESTRICHELT
 62
          15
100
AcDbCircle
 10
-4916.663589911274
 20
2706.476079711569
 30
0.0
 40
5.7225
  0
ARC
  5
8A
100
AcDbEntity
  8
BLACK
  6
GESTRICHELT
 62
          15
100
AcDbCircle
 10
-4916.663589911274
 20
2706.476079711569
 30
0.0
 40
6.5785
100
AcDbArc
 50
103.07
 51
13.07
  0
CIRCLE
  5
8B
100
AcDbEntity
  8
BLACK
  6
CONTINUOUS
 62
          15
100
AcDbCircle
 10
-4739.508818849649
 20
2697.03218802946
 30
0.0
 40
5.7225
  0
ARC
  5
8C
100
AcDbEntity
  8
BLACK
  6
CONTINUOUS
 62
          15
100
AcDbCircle
 10
-4739.508818849649
 20
2697.03218802946
 30
0.0
 40
6.57849
100
AcDbArc
 50
103.07
 51
13.07
  0
LINE
  5
8D
100
AcDbEntity
  8
BLACK
  6
GESTRICHELT
 62
          15
100
AcDbLine
 10
-4909.809836075238
 20
2720.391651012815
 30
0.0
 11
-4914.920762600076
 21
2716.388462918237
 31
0.0
  0
LINE
  5
8E
100
AcDbEntity
  8
BLACK
  6
CONTINUOUS
 62
          15
100
AcDbLine
 10
-4907.109931774197
 20
2722.506380054977
 30
0.0
 11
-4909.809836075238
 21
2720.391651012815
 31
0.0
  0
LINE
  5
8F
100
AcDbEntity
  8
BLACK
  6
GESTRICHELT
 62
          15
100
AcDbLine
 10
-4911.635769572715
 20
2720.549151859594
 30
0.0
 11
-4915.691458636796
 21
2717.372531813734
 31
0.0
  0
LINE
  5
90
100
AcDbEntity
  8
BLACK
  6
CONTINUOUS
 62
          15
100
AcDbLine
 10
-4907.880638670014
 20
2723.490359607986
 30
0.0
 11
-4911.635769572715
 21
2720.549151859594
 31
0.0
  0
ARC
  5
91
100
AcDbEntity
  8
BLACK
  6
GESTRICHELT
 62
          15
100
AcDbCircle
 10
-4911.400697618629
 20
2719.939436080469
 30
0.0
 40
5.0
100
AcDbArc
 50
168.324946168168
 51
1.815053831834
  0
ARC
  5
92
100
AcDbEntity
  8
BLACK
  6
CONTINUOUS
 62
          15
100
AcDbCircle
 10
-4911.400697618629
 20
2719.939436080469
 30
0.0
 40
5.0
100
AcDbArc
 50
1.815053831834
 51
168.324946168168
  0
LINE
  5
93
100
AcDbEntity
  8
BLACK
  6
CONTINUOUS
 62
          15
100
AcDbLine
 10
-4740.480652315839
 20
2686.135699730306
 30
0.0
 11
-4748.291869360341
 21
2680.017920198705
 31
0.0
  0
LINE
  5
94
100
AcDbEntity
  8
BLACK
  6
CONTINUOUS
 62
          15
100
AcDbLine
 10
-4741.251546891418
 20
2687.119792757129
 30
0.0
 11
-4749.062774795018
 21
2681.001923883041
 31
0.0
  0
CIRCLE
  5
95
100
AcDbEntity
  8
BLACK
  6
CONTINUOUS
 62
          15
100
AcDbCircle
 10
-4744.771711142294
 20
2683.568831660559
 30
0.0
 40
5.0
  0
LINE
  5
96
100
AcDbEntity
  8
BLACK
  6
CONTINUOUS
 62
          15
100
AcDbLine
 10
-5062.425358208187
 20
2741.287525188188
 30
0.0
 11
-5065.012438683416
 21
2741.601970841823
 31
0.0
  0
LINE
  5
97
100
AcDbEntity
  8
BLACK
  6
CONTINUOUS
 62
          15
100
AcDbLine
 10
-5067.599499304759
 20
2741.916414082325
 30
0.0
 11
-5065.012438683416
 21
2741.601970841823
 31
0.0
  0
LINE
  5
98
100
AcDbEntity
  8
BLACK
  6
CONTINUOUS
 62
          15
100
AcDbLine
 10
-5070.246705742199
 20
2720.136701088863
 30
0.0
 11
-5067.659645120857
 21
2719.822257848361
 31
0.0
  0
LINE
  5
99
100
AcDbEntity
  8
BLACK
  6
CONTINUOUS
 62
          15
100
AcDbLine
 10
-5065.072564645628
 20
2719.507812194726
 30
0.0
 11
-5067.659645120857
 21
2719.822257848361
 31
0.0
  0
LINE
  5
9A
100
AcDbEntity
  8
BLACK
  6
CONTINUOUS
 62
          15
100
AcDbLine
 10
-5063.087161024114
 20
2735.842587012879
 30
0.0
 11
-5065.674241499342
 21
2736.157032666514
 31
0.0
  0
LINE
  5
9B
100
AcDbEntity
  8
BLACK
  6
CONTINUOUS
 62
          15
100
AcDbLine
 10
-5068.261302120685
 20
2736.471475907016
 30
0.0
 11
-5065.674241499342
 21
2736.157032666514
 31
0.0
  0
LINE
  5
9C
100
AcDbEntity
  8
BLACK
  6
CONTINUOUS
 62
          15
100
AcDbLine
 10
-5069.584902926273
 20
2725.581639264171
 30
0.0
 11
-5066.997842304931
 21
2725.267196023669
 31
0.0
  0
LINE
  5
9D
100
AcDbEntity
  8
BLACK
  6
CONTINUOUS
 62
          15
100
AcDbLine
 10
-5064.410761829701
 20
2724.952750370035
 30
0.0
 11
-5066.997842304931
 21
2725.267196023669
 31
0.0
  0
ARC
  5
9E
100
AcDbEntity
  8
BLACK
  6
CONTINUOUS
 62
          15
100
AcDbCircle
 10
-5101.856232350961
 20
2735.029401576723
 30
0.0
 40
38.777600000016
100
AcDbArc
 50
353.929436999998
 51
1.201609999996
  0
ARC
  5
9F
100
AcDbEntity
  8
BLACK
  6
CONTINUOUS
 62
          15
100
AcDbCircle
 10
-5030.815851453328
 20
2726.394827113461
 30
0.0
 40
38.7776
100
AcDbArc
 50
164.937999999996
 51
172.210999999996
  0
ARC
  5
A0
100
AcDbEntity
  8
BLACK
  6
CONTINUOUS
 62
          15
100
AcDbCircle
 10
-5030.815851453327
 20
2726.394827113466
 30
0.0
 40
38.7776
100
AcDbArc
 50
173.929000000003
 51
181.202000000003
  0
ARC
  5
A1
100
AcDbEntity
  8
BLACK
  6
CONTINUOUS
 62
          15
100
AcDbCircle
 10
-5101.856232350961
 20
2735.029401576722
 30
0.0
 40
38.777600000016
100
AcDbArc
 50
344.938390000003
 51
352.210563
  0
LINE
  5
A2
100
AcDbEntity
  8
BLACK
  6
CONTINUOUS
 62
          15
100
AcDbLine
 10
-5063.296078956538
 20
2730.9285458473
 30
0.0
 11
-5063.36192977231
 21
2730.350627084993
 31
0.0
  0
LINE
  5
A3
100
AcDbEntity
  8
BLACK
  6
CONTINUOUS
 62
          15
100
AcDbLine
 10
-5069.235607214103
 20
2731.650463415429
 30
0.0
 11
-5069.310154031964
 21
2731.073601605191
 31
0.0
  0
LINE
  5
A4
100
AcDbEntity
  8
BLACK
  6
CONTINUOUS
 62
          15
100
AcDbLine
 10
-5069.375965139963
 20
2730.495678016619
 30
0.0
 11
-5069.310154031964
 21
2731.073601605191
 31
0.0
  0
LINE
  5
A5
100
AcDbEntity
  8
BLACK
  6
CONTINUOUS
 62
          15
100
AcDbLine
 10
-5063.436436882398
 20
2729.77376044849
 30
0.0
 11
-5063.36192977231
 21
2730.350627084993
 31
0.0
  0
ARC
  5
A6
100
AcDbEntity
  8
BLACK
  6
CONTINUOUS
 62
          15
100
AcDbCircle
 10
-5072.429690178547
 20
2739.740794208959
 30
0.0
 40
10.134500000026
100
AcDbArc
 50
337.351500000022
 51
353.069999999982
  0
ARC
  5
A7
100
AcDbEntity
  8
BLACK
  6
CONTINUOUS
 62
          15
100
AcDbCircle
 10
-5058.256983696998
 20
2738.018178311989
 30
0.0
 40
10.123199999994
100
AcDbArc
 50
173.069999999998
 51
188.789000000007
  0
ARC
  5
A8
100
AcDbEntity
  8
BLACK
  6
CONTINUOUS
 62
          15
100
AcDbCircle
 10
-5060.24238369879
 20
2721.683433274659
 30
0.0
 40
10.134500000018
100
AcDbArc
 50
157.351000000007
 51
173.069999999979
  0
ARC
  5
A9
100
AcDbEntity
  8
BLACK
  6
CONTINUOUS
 62
          15
100
AcDbCircle
 10
-5074.415090180324
 20
2723.40604917163
 30
0.0
 40
10.123199999986
100
AcDbArc
 50
353.069999999985
 51
8.788500000007
  0
ARC
  5
AA
100
AcDbEntity
  8
BLACK
  6
CONTINUOUS
 62
          15
100
AcDbCircle
 10
-5072.429690178509
 20
2739.740794208954
 30
0.0
 40
10.123199999986
100
AcDbArc
 50
353.069999999985
 51
8.788500000007
  0
ARC
  5
AB
100
AcDbEntity
  8
BLACK
  6
CONTINUOUS
 62
          15
100
AcDbCircle
 10
-5058.256983696975
 20
2738.018178311982
 30
0.0
 40
10.134500000018
100
AcDbArc
 50
157.351000000007
 51
173.069999999979
  0
ARC
  5
AC
100
AcDbEntity
  8
BLACK
  6
CONTINUOUS
 62
          15
100
AcDbCircle
 10
-5060.242383698813
 20
2721.683433274664
 30
0.0
 40
10.123199999994
100
AcDbArc
 50
173.069999999998
 51
188.789000000007
  0
ARC
  5
AD
100
AcDbEntity
  8
BLACK
  6
CONTINUOUS
 62
          15
100
AcDbCircle
 10
-5074.415090180363
 20
2723.406049171635
 30
0.0
 40
10.134500000026
100
AcDbArc
 50
337.351500000022
 51
353.069999999982
  0
LINE
  5
AE
100
AcDbEntity
  8
BLACK
  6
CONTINUOUS
 62
          15
100
AcDbLine
 10
-5062.369229771402
 20
2738.517999603655
 30
0.0
 11
-5063.36192977231
 21
2730.350627084993
 31
0.0
  0
LINE
  5
AF
100
AcDbEntity
  8
BLACK
  6
CONTINUOUS
 62
          15
100
AcDbLine
 10
-5068.317454031057
 20
2739.240974123853
 30
0.0
 11
-5069.310154031964
 21
2731.073601605191
 31
0.0
  0
LINE
  5
B0
100
AcDbEntity
  8
BLACK
  6
CONTINUOUS
 62
          15
100
AcDbLine
 10
-5070.302854032871
 20
2722.906229086529
 30
0.0
 11
-5069.310154031964
 21
2731.073601605191
 31
0.0
  0
LINE
  5
B1
100
AcDbEntity
  8
BLACK
  6
CONTINUOUS
 62
          15
100
AcDbLine
 10
-5064.354629773217
 20
2722.183254566331
 30
0.0
 11
-5063.36192977231
 21
2730.350627084993
 31
0.0
  0
LINE
  5
B2
100
AcDbEntity
  8
WHITE
  6
CONTINUOUS
 62
          15
100
AcDbLine
 10
-5070.034093805193
 20
2725.117435791117
 30
0.0
 11
-5069.96169982787
 21
2725.713052372525
 31
0.0
  0
LINE
  5
B3
100
AcDbEntity
  8
WHITE
  6
CONTINUOUS
 62
          15
100
AcDbLine
 10
-5069.96169982787
 20
2725.713052372525
 30
0.0
 11
-5068.658608236058
 21
2736.434150837857
 31
0.0
  0
LINE
  5
B4
100
AcDbEntity
  8
WHITE
  6
CONTINUOUS
 62
          15
100
AcDbLine
 10
-5068.658608236058
 20
2736.434150837857
 30
0.0
 11
-5068.586214258735
 21
2737.029767419264
 31
0.0
  0
LINE
  5
B5
100
AcDbEntity
  8
WHITE
  6
CONTINUOUS
 62
          15
100
AcDbLine
 10
-5068.586214258735
 20
2737.029767419264
 30
0.0
 11
-5068.188047383459
 21
2740.305658617005
 31
0.0
  0
LINE
  5
B6
100
AcDbEntity
  8
WHITE
  6
CONTINUOUS
 62
          15
100
AcDbLine
 10
-5094.582696834716
 20
2722.05702906996
 30
0.0
 11
-5093.288052762812
 21
2721.899672078049
 31
0.0
  0
LINE
  5
B7
100
AcDbEntity
  8
WHITE
  6
CONTINUOUS
 62
          15
100
AcDbLine
 10
-5090.392293669896
 20
2745.724335334342
 30
0.0
 11
-5091.6869377418
 21
2745.881692326253
 31
0.0
  0
LINE
  5
B8
100
AcDbEntity
  8
WHITE
  6
CONTINUOUS
 62
          15
100
AcDbLine
 10
-5093.288052762812
 20
2721.899672078049
 30
0.0
 11
-5089.519955892753
 21
2721.441680262715
 31
0.0
  0
LINE
  5
B9
100
AcDbEntity
  8
WHITE
  6
CONTINUOUS
 62
          15
100
AcDbLine
 10
-5086.624196799838
 20
2745.266343519009
 30
0.0
 11
-5090.392293669896
 21
2745.724335334342
 31
0.0
  0
LINE
  5
BA
100
AcDbEntity
  8
WHITE
  6
CONTINUOUS
 62
          15
100
AcDbLine
 10
-5126.963221597184
 20
2750.169334029291
 30
0.0
 11
-5091.6869377418
 21
2745.881692326253
 31
0.0
  0
LINE
  5
BB
100
AcDbEntity
  8
WHITE
  6
CONTINUOUS
 62
          15
100
AcDbLine
 10
-5129.8589806901
 20
2726.344670772997
 30
0.0
 11
-5094.582696834716
 21
2722.05702906996
 31
0.0
  0
LINE
  5
BC
100
AcDbEntity
  8
WHITE
  6
CONTINUOUS
 62
          15
100
AcDbLine
 10
-5085.947953859695
 20
2743.370902808803
 30
0.0
 11
-5088.409349088674
 21
2723.119939040953
 31
0.0
  0
LINE
  5
BD
100
AcDbEntity
  8
WHITE
  6
CONTINUOUS
 62
          15
100
AcDbLine
 10
-5068.972881289586
 20
2741.3076744551
 30
0.0
 11
-5071.673386567321
 21
2741.635906280639
 31
0.0
  0
LINE
  5
BE
100
AcDbEntity
  8
WHITE
  6
CONTINUOUS
 62
          15
100
AcDbLine
 10
-5070.432260680469
 20
2721.841544593377
 30
0.0
 11
-5070.034093805193
 21
2725.117435791117
 31
0.0
  0
LINE
  5
BF
100
AcDbEntity
  8
WHITE
  6
CONTINUOUS
 62
          15
100
AcDbLine
 10
-5087.515924216563
 20
2723.011348074969
 30
0.0
 11
-5085.688831754291
 21
2722.789274858054
 31
0.0
  0
LINE
  5
C0
100
AcDbEntity
  8
WHITE
  6
CONTINUOUS
 62
          15
100
AcDbLine
 10
-5083.082648570667
 20
2744.231471788719
 30
0.0
 11
-5083.227436525312
 21
2743.040238625904
 31
0.0
  0
LINE
  5
C1
100
AcDbEntity
  8
WHITE
  6
CONTINUOUS
 62
          15
100
AcDbLine
 10
-5083.227436525312
 20
2743.040238625904
 30
0.0
 11
-5085.054528987585
 21
2743.262311842818
 31
0.0
  0
LINE
  5
C2
100
AcDbEntity
  8
WHITE
  6
CONTINUOUS
 62
          15
100
AcDbLine
 10
-5083.227436525312
 20
2743.040238625904
 30
0.0
 11
-5085.688831754291
 21
2722.789274858054
 31
0.0
  0
LINE
  5
C3
100
AcDbEntity
  8
WHITE
  6
CONTINUOUS
 62
          15
100
AcDbLine
 10
-5085.688831754291
 20
2722.789274858054
 30
0.0
 11
-5085.833619708937
 21
2721.59804169524
 31
0.0
  0
LINE
  5
C4
100
AcDbEntity
  8
WHITE
  6
CONTINUOUS
 62
          15
100
AcDbLine
 10
-5074.279569750946
 20
2720.193709349975
 30
0.0
 11
-5074.1347817963
 21
2721.38494251279
 31
0.0
  0
LINE
  5
C5
100
AcDbEntity
  8
WHITE
  6
CONTINUOUS
 62
          15
100
AcDbLine
 10
-5074.1347817963
 20
2721.38494251279
 30
0.0
 11
-5071.434276518564
 21
2721.05671068725
 31
0.0
  0
LINE
  5
C6
100
AcDbEntity
  8
WHITE
  6
CONTINUOUS
 62
          15
100
AcDbLine
 10
-5074.1347817963
 20
2721.38494251279
 30
0.0
 11
-5071.673386567321
 21
2741.635906280639
 31
0.0
  0
LINE
  5
C7
100
AcDbEntity
  8
WHITE
  6
CONTINUOUS
 62
          15
100
AcDbLine
 10
-5071.673386567321
 20
2741.635906280639
 30
0.0
 11
-5071.528598612676
 21
2742.827139443454
 31
0.0
  0
LINE
  5
C8
100
AcDbEntity
  8
WHITE
  6
CONTINUOUS
 62
          15
100
AcDbLine
 10
-5083.082648570667
 20
2744.231471788719
 30
0.0
 11
-5071.528598612676
 21
2742.827139443454
 31
0.0
  0
LINE
  5
C9
100
AcDbEntity
  8
WHITE
  6
CONTINUOUS
 62
          15
100
AcDbLine
 10
-5085.833619708937
 20
2721.59804169524
 30
0.0
 11
-5074.279569750946
 21
2720.193709349975
 31
0.0
  0
ARC
  5
CA
100
AcDbEntity
  8
WHITE
  6
CONTINUOUS
 62
          15
100
AcDbCircle
 10
-5108.785742186666
 20
2735.871646056753
 30
0.0
 40
20.866107311614
100
AcDbArc
 50
317.963694434247
 51
28.176305565752
  0
ARC
  5
CB
100
AcDbEntity
  8
WHITE
  6
CONTINUOUS
 62
          15
100
AcDbCircle
 10
-5098.967535954147
 20
2734.678296137465
 30
0.0
 40
29.660254037848
100
AcDbArc
 50
149.205074583953
 51
196.934925416046
  0
ARC
  5
CC
100
AcDbEntity
  8
WHITE
  6
CONTINUOUS
 62
          15
100
AcDbCircle
 10
-5109.497734495129
 20
2735.958184874914
 30
0.0
 40
22.516660498396
100
AcDbArc
 50
140.865772496028
 51
205.274227503971
  0
ARC
  5
CD
100
AcDbEntity
  8
WHITE
  6
CONTINUOUS
 62
          15
100
AcDbCircle
 10
-5086.732787765822
 20
2744.372918646898
 30
0.0
 40
0.9
100
AcDbArc
 50
353.069999999999
 51
83.07
  0
ARC
  5
CE
100
AcDbEntity
  8
WHITE
  6
CONTINUOUS
 62
          15
100
AcDbCircle
 10
-5084.945938021599
 20
2744.155736714929
 30
0.0
 40
0.9
100
AcDbArc
 50
173.07
 51
263.069999999999
  0
ARC
  5
CF
100
AcDbEntity
  8
WHITE
  6
CONTINUOUS
 62
          15
100
AcDbCircle
 10
-5069.08147225557
 20
2740.414249582989
 30
0.0
 40
0.9
100
AcDbArc
 50
353.069999999999
 51
83.07
  0
ARC
  5
D0
100
AcDbEntity
  8
WHITE
  6
CONTINUOUS
 62
          15
100
AcDbCircle
 10
-5071.32568555258
 20
2721.950135559361
 30
0.0
 40
0.9
100
AcDbArc
 50
263.069999999999
 51
353.069999999999
  0
ARC
  5
D1
100
AcDbEntity
  8
WHITE
  6
CONTINUOUS
 62
          15
100
AcDbCircle
 10
-5087.624515182547
 20
2722.117923202858
 30
0.0
 40
0.9
100
AcDbArc
 50
83.07
 51
173.069999999985
  0
ARC
  5
D2
100
AcDbEntity
  8
WHITE
  6
CONTINUOUS
 62
          15
100
AcDbCircle
 10
-5089.411364926769
 20
2722.335105134826
 30
0.0
 40
0.9
100
AcDbArc
 50
263.069999999999
 51
353.069999999985
  0
LINE
  5
D3
100
AcDbEntity
  8
WHITE
  6
CONTINUOUS
 62
          15
100
AcDbLine
 10
-4889.108582948632
 20
2713.951082091267
 30
0.0
 11
-4885.639997563531
 21
2713.081132159583
 31
0.0
  0
LINE
  5
D4
100
AcDbEntity
  8
WHITE
  6
CONTINUOUS
 62
          15
100
AcDbLine
 10
-4889.234885341856
 20
2716.540149736688
 30
0.0
 11
-4889.483293382754
 21
2714.496389280568
 31
0.0
  0
LINE
  5
D5
100
AcDbEntity
  8
WHITE
  6
CONTINUOUS
 62
          15
100
AcDbLine
 10
-4888.37139182489
 20
2720.016272500812
 30
0.0
 11
-4884.79540116143
 21
2720.029992276002
 31
0.0
  0
LINE
  5
D6
100
AcDbEntity
  8
WHITE
  6
CONTINUOUS
 62
          15
100
AcDbLine
 10
-4889.114228712984
 20
2717.532844039033
 30
0.0
 11
-4888.865820672087
 21
2719.576604495152
 31
0.0
  0
LINE
  5
D7
100
AcDbEntity
  8
WHITE
  6
CONTINUOUS
 62
          15
100
AcDbLine
 10
-4887.660157279273
 20
2716.348750049018
 30
0.0
 11
-4889.234885341856
 21
2716.540149736688
 31
0.0
  0
LINE
  5
D8
100
AcDbEntity
  8
WHITE
  6
CONTINUOUS
 62
          15
100
AcDbLine
 10
-4887.599828964837
 20
2716.845097200189
 30
0.0
 11
-4887.660157279273
 21
2716.348750049018
 31
0.0
  0
LINE
  5
D9
100
AcDbEntity
  8
WHITE
  6
CONTINUOUS
 62
          15
100
AcDbLine
 10
-4887.539500650401
 20
2717.341444351363
 30
0.0
 11
-4887.599828964837
 21
2716.845097200189
 31
0.0
  0
LINE
  5
DA
100
AcDbEntity
  8
WHITE
  6
CONTINUOUS
 62
          15
100
AcDbLine
 10
-4889.114228712984
 20
2717.532844039033
 30
0.0
 11
-4887.539500650401
 21
2717.341444351363
 31
0.0
  0
LINE
  5
DB
100
AcDbEntity
  8
WHITE
  6
CONTINUOUS
 62
          15
100
AcDbLine
 10
-4884.554087903687
 20
2722.015380880694
 30
0.0
 11
-4874.130797729059
 21
2720.748486277543
 31
0.0
  0
LINE
  5
DC
100
AcDbEntity
  8
WHITE
  6
CONTINUOUS
 62
          15
100
AcDbLine
 10
-4884.554087903687
 20
2722.015380880694
 30
0.0
 11
-4885.700325877967
 21
2712.58478500841
 31
0.0
  0
LINE
  5
DD
100
AcDbEntity
  8
WHITE
  6
CONTINUOUS
 62
          15
100
AcDbLine
 10
-4878.57096167153
 20
2684.217335951225
 30
0.0
 11
-4870.133060101593
 21
2683.191754605818
 31
0.0
  0
LINE
  5
DE
100
AcDbEntity
  8
WHITE
  6
CONTINUOUS
 62
          15
100
AcDbLine
 10
-4870.133060101593
 20
2683.191754605818
 30
0.0
 11
-4870.072731787157
 21
2683.68810175699
 31
0.0
  0
LINE
  5
DF
100
AcDbEntity
  8
WHITE
  6
CONTINUOUS
 62
          15
100
AcDbLine
 10
-4870.072731787157
 20
2683.68810175699
 30
0.0
 11
-4864.462198544632
 21
2729.848386816059
 31
0.0
  0
LINE
  5
E0
100
AcDbEntity
  8
WHITE
  6
CONTINUOUS
 62
          15
100
AcDbLine
 10
-4863.469504242286
 20
2729.727730187188
 30
0.0
 11
-4863.529832556722
 21
2729.231383036015
 31
0.0
  0
LINE
  5
E1
100
AcDbEntity
  8
WHITE
  6
CONTINUOUS
 62
          15
100
AcDbLine
 10
-4863.529832556722
 20
2729.231383036015
 30
0.0
 11
-4864.522526859068
 21
2729.352039664886
 31
0.0
  0
LINE
  5
E2
100
AcDbEntity
  8
WHITE
  6
CONTINUOUS
 62
          15
100
AcDbLine
 10
-4863.529832556722
 20
2729.231383036015
 30
0.0
 11
-4869.080037484811
 21
2683.567445128119
 31
0.0
  0
LINE
  5
E3
100
AcDbEntity
  8
WHITE
  6
CONTINUOUS
 62
          15
100
AcDbLine
 10
-4869.080037484811
 20
2683.567445128119
 30
0.0
 11
-4870.072731787157
 21
2683.68810175699
 31
0.0
  0
LINE
  5
E4
100
AcDbEntity
  8
WHITE
  6
CONTINUOUS
 62
          15
100
AcDbLine
 10
-4874.627144880232
 20
2720.808814591979
 30
0.0
 11
-4873.396447265743
 21
2730.934296475903
 31
0.0
  0
LINE
  5
E5
100
AcDbEntity
  8
WHITE
  6
CONTINUOUS
 62
          15
100
AcDbLine
 10
-4864.462198544632
 20
2729.848386816059
 30
0.0
 11
-4873.396447265743
 21
2730.934296475903
 31
0.0
  0
LINE
  5
E6
100
AcDbEntity
  8
WHITE
  6
CONTINUOUS
 62
          15
100
AcDbLine
 10
-4874.627144880232
 20
2720.808814591979
 30
0.0
 11
-4874.130797729059
 21
2720.748486277543
 31
0.0
  0
LINE
  5
E7
100
AcDbEntity
  8
WHITE
  6
CONTINUOUS
 62
          15
100
AcDbLine
 10
-4874.130797729059
 20
2720.748486277543
 30
0.0
 11
-4878.57096167153
 21
2684.217335951225
 31
0.0
  0
LINE
  5
E8
100
AcDbEntity
  8
WHITE
  6
CONTINUOUS
 62
          15
100
AcDbLine
 10
-4787.032042961678
 20
2720.437169764083
 30
0.0
 11
-4863.469504242286
 21
2729.727730187188
 31
0.0
  0
LINE
  5
E9
100
AcDbEntity
  8
WHITE
  6
CONTINUOUS
 62
          15
100
AcDbLine
 10
-4792.702904518638
 20
2673.780537553841
 30
0.0
 11
-4787.032042961678
 21
2720.437169764083
 31
0.0
  0
LINE
  5
EA
100
AcDbEntity
  8
WHITE
  6
CONTINUOUS
 62
          15
100
AcDbLine
 10
-4869.140365799247
 20
2683.071097976946
 30
0.0
 11
-4792.702904518638
 21
2673.780537553841
 31
0.0
  0
LINE
  5
EB
100
AcDbEntity
  8
WHITE
  6
CONTINUOUS
 62
          15
100
AcDbLine
 10
-4869.080037484811
 20
2683.567445128119
 30
0.0
 11
-4869.140365799247
 21
2683.071097976946
 31
0.0
  0
LINE
  5
EC
100
AcDbEntity
  8
WHITE
  6
CONTINUOUS
 62
          15
100
AcDbLine
 10
-4891.645493942197
 20
2700.967234634599
 30
0.0
 11
-4891.012046640622
 21
2706.178879721913
 31
0.0
  0
LINE
  5
ED
100
AcDbEntity
  8
WHITE
  6
CONTINUOUS
 62
          15
100
AcDbLine
 10
-4892.882224388131
 20
2690.792118035557
 30
0.0
 11
-4889.141868893114
 21
2721.56564140827
 31
0.0
  0
LINE
  5
EE
100
AcDbEntity
  8
WHITE
  6
CONTINUOUS
 62
          15
100
AcDbLine
 10
-4888.028517961897
 20
2722.437679081744
 30
0.0
 11
-4884.554087903687
 21
2722.015380880694
 31
0.0
  0
LINE
  5
EF
100
AcDbEntity
  8
WHITE
  6
CONTINUOUS
 62
          15
100
AcDbLine
 10
-4892.010186714656
 20
2689.67876710434
 30
0.0
 11
-4878.112466481818
 21
2687.989574300139
 31
0.0
  0
LINE
  5
F0
100
AcDbEntity
  8
WHITE
  6
CONTINUOUS
 62
           1
100
AcDbLine
 10
-4918.7975572695
 20
2684.775015606
 30
0.0
 11
-4900.92905982728
 21
2682.603196286313
 31
0.0
  0
LINE
  5
F1
100
AcDbEntity
  8
WHITE
  6
CONTINUOUS
 62
           1
100
AcDbLine
 10
-4900.92905982728
 20
2682.603196286313
 30
0.0
 11
-4901.452282431364
 21
2683.271206845042
 31
0.0
  0
LINE
  5
F2
100
AcDbEntity
  8
WHITE
  6
CONTINUOUS
 62
           1
100
AcDbLine
 10
-4901.452282431364
 20
2683.271206845042
 30
0.0
 11
-4900.784271872634
 21
2683.794429449127
 31
0.0
  0
LINE
  5
F3
100
AcDbEntity
  8
WHITE
  6
CONTINUOUS
 62
           1
100
AcDbLine
 10
-4900.784271872634
 20
2683.794429449127
 30
0.0
 11
-4918.652769314855
 21
2685.966248768814
 31
0.0
  0
LINE
  5
F4
100
AcDbEntity
  8
WHITE
  6
CONTINUOUS
 62
           1
100
AcDbLine
 10
-4918.652769314855
 20
2685.966248768814
 30
0.0
 11
-4918.12954671077
 21
2685.298238210084
 31
0.0
  0
LINE
  5
F5
100
AcDbEntity
  8
WHITE
  6
CONTINUOUS
 62
           1
100
AcDbLine
 10
-4918.12954671077
 20
2685.298238210084
 30
0.0
 11
-4918.7975572695
 21
2684.775015606
 31
0.0
  0
LINE
  5
F6
100
AcDbEntity
  8
WHITE
  6
CONTINUOUS
 62
           1
100
AcDbLine
 10
-4918.12954671077
 20
2685.298238210084
 30
0.0
 11
-4901.452282431364
 21
2683.271206845042
 31
0.0
  0
LINE
  5
F7
100
AcDbEntity
  8
WHITE
  6
CONTINUOUS
 62
           1
100
AcDbLine
 10
-4918.370859968513
 20
2683.312849605392
 30
0.0
 11
-4918.894082572598
 21
2683.980860164123
 31
0.0
  0
LINE
  5
F8
100
AcDbEntity
  8
WHITE
  6
CONTINUOUS
 62
           1
100
AcDbLine
 10
-4918.894082572598
 20
2683.980860164123
 30
0.0
 11
-4901.025585130377
 21
2681.809040844436
 31
0.0
  0
LINE
  5
F9
100
AcDbEntity
  8
WHITE
  6
CONTINUOUS
 62
           1
100
AcDbLine
 10
-4901.025585130377
 20
2681.809040844436
 30
0.0
 11
-4901.693595689108
 21
2681.285818240351
 31
0.0
  0
LINE
  5
FA
100
AcDbEntity
  8
WHITE
  6
CONTINUOUS
 62
           1
100
AcDbLine
 10
-4901.693595689108
 20
2681.285818240351
 30
0.0
 11
-4901.170373085023
 21
2680.617807681622
 31
0.0
  0
LINE
  5
FB
100
AcDbEntity
  8
WHITE
  6
CONTINUOUS
 62
           1
100
AcDbLine
 10
-4901.170373085023
 20
2680.617807681622
 30
0.0
 11
-4919.038870527244
 21
2682.789627001309
 31
0.0
  0
LINE
  5
FC
100
AcDbEntity
  8
WHITE
  6
CONTINUOUS
 62
           1
100
AcDbLine
 10
-4919.038870527244
 20
2682.789627001309
 30
0.0
 11
-4918.370859968513
 21
2683.312849605392
 31
0.0
  0
LINE
  5
FD
100
AcDbEntity
  8
WHITE
  6
CONTINUOUS
 62
           1
100
AcDbLine
 10
-4901.693595689108
 20
2681.285818240351
 30
0.0
 11
-4918.370859968513
 21
2683.312849605392
 31
0.0
  0
LINE
  5
FE
100
AcDbEntity
  8
WHITE
  6
CONTINUOUS
 62
           1
100
AcDbLine
 10
-4918.612173226256
 20
2681.327461000701
 30
0.0
 11
-4919.135395830341
 21
2681.995471559431
 31
0.0
  0
LINE
  5
FF
100
AcDbEntity
  8
WHITE
  6
CONTINUOUS
 62
           1
100
AcDbLine
 10
-4919.135395830341
 20
2681.995471559431
 30
0.0
 11
-4901.26689838812
 21
2679.823652239744
 31
0.0
  0
LINE
  5
100
100
AcDbEntity
  8
WHITE
  6
CONTINUOUS
 62
           1
100
AcDbLine
 10
-4901.26689838812
 20
2679.823652239744
 30
0.0
 11
-4901.934908946851
 21
2679.30042963566
 31
0.0
  0
LINE
  5
101
100
AcDbEntity
  8
WHITE
  6
CONTINUOUS
 62
           1
100
AcDbLine
 10
-4901.934908946851
 20
2679.30042963566
 30
0.0
 11
-4901.411686342765
 21
2678.632419076931
 31
0.0
  0
LINE
  5
102
100
AcDbEntity
  8
WHITE
  6
CONTINUOUS
 62
           1
100
AcDbLine
 10
-4901.411686342765
 20
2678.632419076931
 30
0.0
 11
-4919.280183784986
 21
2680.804238396618
 31
0.0
  0
LINE
  5
103
100
AcDbEntity
  8
WHITE
  6
CONTINUOUS
 62
           1
100
AcDbLine
 10
-4919.280183784986
 20
2680.804238396618
 30
0.0
 11
-4918.612173226256
 21
2681.327461000701
 31
0.0
  0
LINE
  5
104
100
AcDbEntity
  8
WHITE
  6
CONTINUOUS
 62
           1
100
AcDbLine
 10
-4918.853486483999
 20
2679.34207239601
 30
0.0
 11
-4919.376709088084
 21
2680.010082954741
 31
0.0
  0
LINE
  5
105
100
AcDbEntity
  8
WHITE
  6
CONTINUOUS
 62
           1
100
AcDbLine
 10
-4919.376709088084
 20
2680.010082954741
 30
0.0
 11
-4913.328302826228
 21
2679.274931853463
 31
0.0
  0
LINE
  5
106
100
AcDbEntity
  8
WHITE
  6
CONTINUOUS
 62
           1
100
AcDbLine
 10
-4901.508211645863
 20
2677.838263635053
 30
0.0
 11
-4902.176222204594
 21
2677.315041030969
 31
0.0
  0
LINE
  5
107
100
AcDbEntity
  8
WHITE
  6
CONTINUOUS
 62
           1
100
AcDbLine
 10
-4902.176222204594
 20
2677.315041030969
 30
0.0
 11
-4901.652999600508
 21
2676.64703047224
 31
0.0
  0
LINE
  5
108
100
AcDbEntity
  8
WHITE
  6
CONTINUOUS
 62
           1
100
AcDbLine
 10
-4901.652999600508
 20
2676.64703047224
 30
0.0
 11
-4907.701405862365
 21
2677.382181573517
 31
0.0
  0
LINE
  5
109
100
AcDbEntity
  8
WHITE
  6
CONTINUOUS
 62
           1
100
AcDbLine
 10
-4919.521497042729
 20
2678.818849791927
 30
0.0
 11
-4918.853486483999
 21
2679.34207239601
 31
0.0
  0
LINE
  5
10A
100
AcDbEntity
  8
WHITE
  6
CONTINUOUS
 62
           1
100
AcDbLine
 10
-4919.094799741742
 20
2677.35668379132
 30
0.0
 11
-4919.618022345827
 21
2678.024694350049
 31
0.0
  0
LINE
  5
10B
100
AcDbEntity
  8
WHITE
  6
CONTINUOUS
 62
           1
100
AcDbLine
 10
-4919.618022345827
 20
2678.024694350049
 30
0.0
 11
-4914.310380553055
 21
2677.379579167601
 31
0.0
  0
LINE
  5
10C
100
AcDbEntity
  8
WHITE
  6
CONTINUOUS
 62
           1
100
AcDbLine
 10
-4901.749524903607
 20
2675.852875030362
 30
0.0
 11
-4902.417535462337
 21
2675.329652426279
 31
0.0
  0
LINE
  5
10D
100
AcDbEntity
  8
WHITE
  6
CONTINUOUS
 62
           1
100
AcDbLine
 10
-4918.853486483999
 20
2679.34207239601
 30
0.0
 11
-4912.805080222143
 21
2678.606921294733
 31
0.0
  0
LINE
  5
10E
100
AcDbEntity
  8
WHITE
  6
CONTINUOUS
 62
           1
100
AcDbLine
 10
-4918.612173226256
 20
2681.327461000701
 30
0.0
 11
-4901.934908946851
 21
2679.30042963566
 31
0.0
  0
LINE
  5
10F
100
AcDbEntity
  8
WHITE
  6
CONTINUOUS
 62
           1
100
AcDbLine
 10
-4913.473090780874
 20
2678.08369869065
 30
0.0
 11
-4912.805080222143
 21
2678.606921294733
 31
0.0
  0
LINE
  5
110
100
AcDbEntity
  8
WHITE
  6
CONTINUOUS
 62
           1
100
AcDbLine
 10
-4913.473090780874
 20
2678.08369869065
 30
0.0
 11
-4919.521497042729
 21
2678.818849791927
 31
0.0
  0
LINE
  5
111
100
AcDbEntity
  8
WHITE
  6
CONTINUOUS
 62
           1
100
AcDbLine
 10
-4912.805080222143
 20
2678.606921294733
 30
0.0
 11
-4913.328302826228
 21
2679.274931853463
 31
0.0
  0
LINE
  5
112
100
AcDbEntity
  8
WHITE
  6
CONTINUOUS
 62
           1
100
AcDbLine
 10
-4914.310380553055
 20
2677.379579167601
 30
0.0
 11
-4913.787157948971
 21
2676.711568608871
 31
0.0
  0
LINE
  5
113
100
AcDbEntity
  8
WHITE
  6
CONTINUOUS
 62
           1
100
AcDbLine
 10
-4907.725177255107
 20
2675.974767608727
 30
0.0
 11
-4907.057166696377
 21
2676.497990212811
 31
0.0
  0
LINE
  5
114
100
AcDbEntity
  8
WHITE
  6
CONTINUOUS
 62
           1
100
AcDbLine
 10
-4907.057166696377
 20
2676.497990212811
 30
0.0
 11
-4901.749524903607
 21
2675.852875030362
 31
0.0
  0
LINE
  5
115
100
AcDbEntity
  8
WHITE
  6
CONTINUOUS
 62
           1
100
AcDbLine
 10
-4907.701405862365
 20
2677.382181573517
 30
0.0
 11
-4908.22462846645
 21
2678.050192132246
 31
0.0
  0
LINE
  5
116
100
AcDbEntity
  8
WHITE
  6
CONTINUOUS
 62
           1
100
AcDbLine
 10
-4908.22462846645
 20
2678.050192132246
 30
0.0
 11
-4902.176222204594
 21
2677.315041030969
 31
0.0
  0
LINE
  5
117
100
AcDbEntity
  8
WHITE
  6
CONTINUOUS
 62
           1
100
AcDbLine
 10
-4908.22462846645
 20
2678.050192132246
 30
0.0
 11
-4907.55661790772
 21
2678.573414736331
 31
0.0
  0
LINE
  5
118
100
AcDbEntity
  8
WHITE
  6
CONTINUOUS
 62
           1
100
AcDbLine
 10
-4907.55661790772
 20
2678.573414736331
 30
0.0
 11
-4901.508211645863
 21
2677.838263635053
 31
0.0
  0
LINE
  5
119
100
AcDbEntity
  8
WHITE
  6
CONTINUOUS
 62
           1
100
AcDbLine
 10
-4919.376709088084
 20
2680.010082954741
 30
0.0
 11
-4919.521497042729
 21
2678.818849791927
 31
0.0
  0
LINE
  5
11A
100
AcDbEntity
  8
WHITE
  6
CONTINUOUS
 62
           1
100
AcDbLine
 10
-4919.280183784986
 20
2680.804238396618
 30
0.0
 11
-4919.135395830341
 21
2681.995471559431
 31
0.0
  0
LINE
  5
11B
100
AcDbEntity
  8
WHITE
  6
CONTINUOUS
 62
           1
100
AcDbLine
 10
-4919.038870527244
 20
2682.789627001309
 30
0.0
 11
-4918.894082572598
 21
2683.980860164123
 31
0.0
  0
LINE
  5
11C
100
AcDbEntity
  8
WHITE
  6
CONTINUOUS
 62
           1
100
AcDbLine
 10
-4918.7975572695
 20
2684.775015606
 30
0.0
 11
-4918.652769314855
 21
2685.966248768814
 31
0.0
  0
LINE
  5
11D
100
AcDbEntity
  8
WHITE
  6
CONTINUOUS
 62
           1
100
AcDbLine
 10
-4919.618022345827
 20
2678.024694350049
 30
0.0
 11
-4919.690416323149
 21
2677.429077768643
 31
0.0
  0
LINE
  5
11E
100
AcDbEntity
  8
WHITE
  6
CONTINUOUS
 62
           1
100
AcDbLine
 10
-4901.821918880929
 20
2675.257258448956
 30
0.0
 11
-4901.749524903607
 21
2675.852875030362
 31
0.0
  0
LINE
  5
11F
100
AcDbEntity
  8
WHITE
  6
CONTINUOUS
 62
           1
100
AcDbLine
 10
-4901.652999600508
 20
2676.64703047224
 30
0.0
 11
-4901.508211645863
 21
2677.838263635053
 31
0.0
  0
LINE
  5
120
100
AcDbEntity
  8
WHITE
  6
CONTINUOUS
 62
           1
100
AcDbLine
 10
-4901.411686342765
 20
2678.632419076931
 30
0.0
 11
-4901.26689838812
 21
2679.823652239744
 31
0.0
  0
LINE
  5
121
100
AcDbEntity
  8
WHITE
  6
CONTINUOUS
 62
           1
100
AcDbLine
 10
-4901.170373085023
 20
2680.617807681622
 30
0.0
 11
-4901.025585130377
 21
2681.809040844436
 31
0.0
  0
LINE
  5
122
100
AcDbEntity
  8
WHITE
  6
CONTINUOUS
 62
           1
100
AcDbLine
 10
-4900.92905982728
 20
2682.603196286313
 30
0.0
 11
-4900.784271872634
 21
2683.794429449127
 31
0.0
  0
LINE
  5
123
100
AcDbEntity
  8
WHITE
  6
CONTINUOUS
 62
           1
100
AcDbLine
 10
-4902.859565889224
 20
2666.720087448784
 30
0.0
 11
-4902.714777934578
 21
2667.911320611598
 31
0.0
  0
LINE
  5
124
100
AcDbEntity
  8
WHITE
  6
CONTINUOUS
 62
           1
100
AcDbLine
 10
-4902.618252631481
 20
2668.705476053475
 30
0.0
 11
-4902.473464676835
 21
2669.896709216289
 31
0.0
  0
LINE
  5
125
100
AcDbEntity
  8
WHITE
  6
CONTINUOUS
 62
           1
100
AcDbLine
 10
-4902.376939373738
 20
2670.690864658166
 30
0.0
 11
-4902.232151419092
 21
2671.88209782098
 31
0.0
  0
LINE
  5
126
100
AcDbEntity
  8
WHITE
  6
CONTINUOUS
 62
           1
100
AcDbLine
 10
-4902.135626115995
 20
2672.676253262857
 30
0.0
 11
-4901.990838161349
 21
2673.867486425671
 31
0.0
  0
LINE
  5
127
100
AcDbEntity
  8
WHITE
  6
CONTINUOUS
 62
           1
100
AcDbLine
 10
-4901.894312858251
 20
2674.661641867549
 30
0.0
 11
-4901.821918880929
 21
2675.257258448956
 31
0.0
  0
LINE
  5
128
100
AcDbEntity
  8
WHITE
  6
CONTINUOUS
 62
           1
100
AcDbLine
 10
-4919.690416323149
 20
2677.429077768643
 30
0.0
 11
-4919.762810300472
 21
2676.833461187236
 31
0.0
  0
LINE
  5
129
100
AcDbEntity
  8
WHITE
  6
CONTINUOUS
 62
           1
100
AcDbLine
 10
-4920.728063331444
 20
2668.891906768471
 30
0.0
 11
-4920.583275376798
 21
2670.083139931285
 31
0.0
  0
LINE
  5
12A
100
AcDbEntity
  8
WHITE
  6
CONTINUOUS
 62
           1
100
AcDbLine
 10
-4920.486750073701
 20
2670.877295373162
 30
0.0
 11
-4920.341962119055
 21
2672.068528535976
 31
0.0
  0
LINE
  5
12B
100
AcDbEntity
  8
WHITE
  6
CONTINUOUS
 62
           1
100
AcDbLine
 10
-4920.245436815958
 20
2672.862683977853
 30
0.0
 11
-4920.100648861312
 21
2674.053917140667
 31
0.0
  0
LINE
  5
12C
100
AcDbEntity
  8
WHITE
  6
CONTINUOUS
 62
           1
100
AcDbLine
 10
-4919.859335603569
 20
2676.039305745358
 30
0.0
 11
-4920.004123558215
 21
2674.848072582544
 31
0.0
  0
LINE
  5
12D
100
AcDbEntity
  8
WHITE
  6
CONTINUOUS
 62
           1
100
AcDbLine
 10
-4902.135626115995
 20
2672.676253262857
 30
0.0
 11
-4908.184032377851
 21
2673.411404364134
 31
0.0
  0
LINE
  5
12E
100
AcDbEntity
  8
WHITE
  6
CONTINUOUS
 62
           1
100
AcDbLine
 10
-4908.184032377851
 20
2673.411404364134
 30
0.0
 11
-4908.707254981936
 21
2674.079414922865
 31
0.0
  0
LINE
  5
12F
100
AcDbEntity
  8
WHITE
  6
CONTINUOUS
 62
           1
100
AcDbLine
 10
-4902.65884872008
 20
2673.344263821587
 30
0.0
 11
-4908.707254981936
 21
2674.079414922865
 31
0.0
  0
LINE
  5
130
100
AcDbEntity
  8
WHITE
  6
CONTINUOUS
 62
           1
100
AcDbLine
 10
-4908.707254981936
 20
2674.079414922865
 30
0.0
 11
-4908.039244423205
 21
2674.602637526948
 31
0.0
  0
LINE
  5
131
100
AcDbEntity
  8
WHITE
  6
CONTINUOUS
 62
           1
100
AcDbLine
 10
-4901.894312858251
 20
2674.661641867549
 30
0.0
 11
-4907.201954651023
 21
2675.306757049997
 31
0.0
  0
LINE
  5
132
100
AcDbEntity
  8
WHITE
  6
CONTINUOUS
 62
           1
100
AcDbLine
 10
-4907.201954651023
 20
2675.306757049997
 30
0.0
 11
-4907.725177255107
 21
2675.974767608727
 31
0.0
  0
LINE
  5
133
100
AcDbEntity
  8
WHITE
  6
CONTINUOUS
 62
           1
100
AcDbLine
 10
-4919.094799741742
 20
2677.35668379132
 30
0.0
 11
-4913.787157948971
 21
2676.711568608871
 31
0.0
  0
LINE
  5
134
100
AcDbEntity
  8
WHITE
  6
CONTINUOUS
 62
           1
100
AcDbLine
 10
-4913.787157948971
 20
2676.711568608871
 30
0.0
 11
-4914.455168507701
 21
2676.188346004787
 31
0.0
  0
LINE
  5
135
100
AcDbEntity
  8
WHITE
  6
CONTINUOUS
 62
           1
100
AcDbLine
 10
-4913.95571729636
 20
2674.112921481267
 30
0.0
 11
-4913.287706737629
 21
2674.636144085352
 31
0.0
  0
LINE
  5
136
100
AcDbEntity
  8
WHITE
  6
CONTINUOUS
 62
           1
100
AcDbLine
 10
-4919.859335603569
 20
2676.039305745358
 30
0.0
 11
-4913.810929341714
 21
2675.304154644081
 31
0.0
  0
LINE
  5
137
100
AcDbEntity
  8
WHITE
  6
CONTINUOUS
 62
           1
100
AcDbLine
 10
-4913.287706737629
 20
2674.636144085352
 30
0.0
 11
-4913.810929341714
 21
2675.304154644081
 31
0.0
  0
LINE
  5
138
100
AcDbEntity
  8
WHITE
  6
CONTINUOUS
 62
           1
100
AcDbLine
 10
-4902.900161977823
 20
2671.358875216896
 30
0.0
 11
-4919.577426257228
 21
2673.385906581937
 31
0.0
  0
LINE
  5
139
100
AcDbEntity
  8
WHITE
  6
CONTINUOUS
 62
           1
100
AcDbLine
 10
-4913.287706737629
 20
2674.636144085352
 30
0.0
 11
-4919.336112999485
 21
2675.371295186629
 31
0.0
  0
LINE
  5
13A
100
AcDbEntity
  8
WHITE
  6
CONTINUOUS
 62
           1
100
AcDbLine
 10
-4907.725177255107
 20
2675.974767608727
 30
0.0
 11
-4902.417535462337
 21
2675.329652426279
 31
0.0
  0
LINE
  5
13B
100
AcDbEntity
  8
WHITE
  6
CONTINUOUS
 62
           1
100
AcDbLine
 10
-4902.417535462337
 20
2675.329652426279
 30
0.0
 11
-4901.894312858251
 21
2674.661641867549
 31
0.0
  0
LINE
  5
13C
100
AcDbEntity
  8
WHITE
  6
CONTINUOUS
 62
           1
100
AcDbLine
 10
-4914.455168507701
 20
2676.188346004787
 30
0.0
 11
-4919.762810300472
 21
2676.833461187236
 31
0.0
  0
LINE
  5
13D
100
AcDbEntity
  8
WHITE
  6
CONTINUOUS
 62
           1
100
AcDbLine
 10
-4919.762810300472
 20
2676.833461187236
 30
0.0
 11
-4919.094799741742
 21
2677.35668379132
 31
0.0
  0
LINE
  5
13E
100
AcDbEntity
  8
WHITE
  6
CONTINUOUS
 62
           1
100
AcDbLine
 10
-4919.336112999485
 20
2675.371295186629
 30
0.0
 11
-4919.859335603569
 21
2676.039305745358
 31
0.0
  0
LINE
  5
13F
100
AcDbEntity
  8
WHITE
  6
CONTINUOUS
 62
           1
100
AcDbLine
 10
-4908.039244423205
 20
2674.602637526948
 30
0.0
 11
-4901.990838161349
 21
2673.867486425671
 31
0.0
  0
LINE
  5
140
100
AcDbEntity
  8
WHITE
  6
CONTINUOUS
 62
           1
100
AcDbLine
 10
-4901.990838161349
 20
2673.867486425671
 30
0.0
 11
-4902.65884872008
 21
2673.344263821587
 31
0.0
  0
LINE
  5
141
100
AcDbEntity
  8
WHITE
  6
CONTINUOUS
 62
           1
100
AcDbLine
 10
-4902.65884872008
 20
2673.344263821587
 30
0.0
 11
-4902.135626115995
 21
2672.676253262857
 31
0.0
  0
LINE
  5
142
100
AcDbEntity
  8
WHITE
  6
CONTINUOUS
 62
           1
100
AcDbLine
 10
-4913.95571729636
 20
2674.112921481267
 30
0.0
 11
-4920.004123558215
 21
2674.848072582544
 31
0.0
  0
LINE
  5
143
100
AcDbEntity
  8
WHITE
  6
CONTINUOUS
 62
           1
100
AcDbLine
 10
-4920.004123558215
 20
2674.848072582544
 30
0.0
 11
-4919.336112999485
 21
2675.371295186629
 31
0.0
  0
LINE
  5
144
100
AcDbEntity
  8
WHITE
  6
CONTINUOUS
 62
           1
100
AcDbLine
 10
-4919.577426257228
 20
2673.385906581937
 30
0.0
 11
-4920.100648861312
 21
2674.053917140667
 31
0.0
  0
LINE
  5
145
100
AcDbEntity
  8
WHITE
  6
CONTINUOUS
 62
           1
100
AcDbLine
 10
-4920.100648861312
 20
2674.053917140667
 30
0.0
 11
-4902.232151419092
 21
2671.88209782098
 31
0.0
  0
LINE
  5
146
100
AcDbEntity
  8
WHITE
  6
CONTINUOUS
 62
           1
100
AcDbLine
 10
-4902.232151419092
 20
2671.88209782098
 30
0.0
 11
-4902.900161977823
 21
2671.358875216896
 31
0.0
  0
LINE
  5
147
100
AcDbEntity
  8
WHITE
  6
CONTINUOUS
 62
           1
100
AcDbLine
 10
-4902.900161977823
 20
2671.358875216896
 30
0.0
 11
-4902.376939373738
 21
2670.690864658166
 31
0.0
  0
LINE
  5
148
100
AcDbEntity
  8
WHITE
  6
CONTINUOUS
 62
           1
100
AcDbLine
 10
-4902.376939373738
 20
2670.690864658166
 30
0.0
 11
-4920.245436815958
 21
2672.862683977853
 31
0.0
  0
LINE
  5
149
100
AcDbEntity
  8
WHITE
  6
CONTINUOUS
 62
           1
100
AcDbLine
 10
-4920.245436815958
 20
2672.862683977853
 30
0.0
 11
-4919.577426257228
 21
2673.385906581937
 31
0.0
  0
LINE
  5
14A
100
AcDbEntity
  8
WHITE
  6
CONTINUOUS
 62
           1
100
AcDbLine
 10
-4919.818739514971
 20
2671.400517977247
 30
0.0
 11
-4903.141475235566
 21
2669.373486612205
 31
0.0
  0
LINE
  5
14B
100
AcDbEntity
  8
WHITE
  6
CONTINUOUS
 62
           1
100
AcDbLine
 10
-4919.818739514971
 20
2671.400517977247
 30
0.0
 11
-4920.341962119055
 21
2672.068528535976
 31
0.0
  0
LINE
  5
14C
100
AcDbEntity
  8
WHITE
  6
CONTINUOUS
 62
           1
100
AcDbLine
 10
-4920.341962119055
 20
2672.068528535976
 30
0.0
 11
-4902.473464676835
 21
2669.896709216289
 31
0.0
  0
LINE
  5
14D
100
AcDbEntity
  8
WHITE
  6
CONTINUOUS
 62
           1
100
AcDbLine
 10
-4902.473464676835
 20
2669.896709216289
 30
0.0
 11
-4903.141475235566
 21
2669.373486612205
 31
0.0
  0
LINE
  5
14E
100
AcDbEntity
  8
WHITE
  6
CONTINUOUS
 62
           1
100
AcDbLine
 10
-4903.141475235566
 20
2669.373486612205
 30
0.0
 11
-4902.618252631481
 21
2668.705476053475
 31
0.0
  0
LINE
  5
14F
100
AcDbEntity
  8
WHITE
  6
CONTINUOUS
 62
           1
100
AcDbLine
 10
-4902.618252631481
 20
2668.705476053475
 30
0.0
 11
-4920.486750073701
 21
2670.877295373162
 31
0.0
  0
LINE
  5
150
100
AcDbEntity
  8
WHITE
  6
CONTINUOUS
 62
           1
100
AcDbLine
 10
-4920.486750073701
 20
2670.877295373162
 30
0.0
 11
-4919.818739514971
 21
2671.400517977247
 31
0.0
  0
LINE
  5
151
100
AcDbEntity
  8
WHITE
  6
CONTINUOUS
 62
           1
100
AcDbLine
 10
-4903.382788493309
 20
2667.388098007514
 30
0.0
 11
-4920.060052772714
 21
2669.415129372555
 31
0.0
  0
LINE
  5
152
100
AcDbEntity
  8
WHITE
  6
CONTINUOUS
 62
           1
100
AcDbLine
 10
-4920.583275376798
 20
2670.083139931285
 30
0.0
 11
-4920.060052772714
 21
2669.415129372555
 31
0.0
  0
LINE
  5
153
100
AcDbEntity
  8
WHITE
  6
CONTINUOUS
 62
           1
100
AcDbLine
 10
-4920.060052772714
 20
2669.415129372555
 30
0.0
 11
-4920.728063331444
 21
2668.891906768471
 31
0.0
  0
LINE
  5
154
100
AcDbEntity
  8
WHITE
  6
CONTINUOUS
 62
           1
100
AcDbLine
 10
-4920.728063331444
 20
2668.891906768471
 30
0.0
 11
-4902.859565889224
 21
2666.720087448784
 31
0.0
  0
LINE
  5
155
100
AcDbEntity
  8
WHITE
  6
CONTINUOUS
 62
           1
100
AcDbLine
 10
-4902.859565889224
 20
2666.720087448784
 30
0.0
 11
-4903.382788493309
 21
2667.388098007514
 31
0.0
  0
LINE
  5
156
100
AcDbEntity
  8
WHITE
  6
CONTINUOUS
 62
           1
100
AcDbLine
 10
-4903.382788493309
 20
2667.388098007514
 30
0.0
 11
-4902.714777934578
 21
2667.911320611598
 31
0.0
  0
LINE
  5
157
100
AcDbEntity
  8
WHITE
  6
CONTINUOUS
 62
           1
100
AcDbLine
 10
-4902.714777934578
 20
2667.911320611598
 30
0.0
 11
-4920.583275376798
 21
2670.083139931285
 31
0.0
  0
LINE
  5
158
100
AcDbEntity
  8
WHITE
  6
CONTINUOUS
 62
          15
100
AcDbLine
 10
-4946.912204114208
 20
2667.210711389806
 30
0.0
 11
-4946.003756114001
 21
2668.419332010185
 31
0.0
  0
LINE
  5
159
100
AcDbEntity
  8
WHITE
  6
CONTINUOUS
 62
          15
100
AcDbLine
 10
-4941.790744682719
 20
2667.907263233831
 30
0.0
 11
-4946.003756114001
 21
2668.419332010185
 31
0.0
  0
LINE
  5
15A
100
AcDbEntity
  8
WHITE
  6
CONTINUOUS
 62
          15
100
AcDbLine
 10
-4946.003756114001
 20
2668.419332010185
 30
0.0
 11
-4946.438240354921
 21
2671.110216354956
 31
0.0
  0
LINE
  5
15B
100
AcDbEntity
  8
WHITE
  6
CONTINUOUS
 62
          15
100
AcDbLine
 10
-4945.955613839435
 20
2675.080993564338
 30
0.0
 11
-4944.889177919466
 21
2677.589449173101
 31
0.0
  0
LINE
  5
15C
100
AcDbEntity
  8
WHITE
  6
CONTINUOUS
 62
          15
100
AcDbLine
 10
-4940.676166488182
 20
2677.077380396746
 30
0.0
 11
-4944.889177919466
 21
2677.589449173101
 31
0.0
  0
LINE
  5
15D
100
AcDbEntity
  8
WHITE
  6
CONTINUOUS
 62
          15
100
AcDbLine
 10
-4944.889177919466
 20
2677.589449173101
 30
0.0
 11
-4945.481650080148
 21
2678.980498529487
 31
0.0
  0
LINE
  5
15E
100
AcDbEntity
  8
WHITE
  6
CONTINUOUS
 62
          15
100
AcDbLine
 10
-4946.561045211269
 20
2663.834273428727
 30
0.0
 11
-4947.153517371951
 21
2665.225322785114
 31
0.0
  0
LINE
  5
15F
100
AcDbEntity
  8
WHITE
  6
CONTINUOUS
 62
          15
100
AcDbLine
 10
-4940.118877390914
 20
2681.662438978206
 30
0.0
 11
-4944.331888822198
 21
2682.174507754559
 31
0.0
  0
LINE
  5
160
100
AcDbEntity
  8
WHITE
  6
CONTINUOUS
 62
          15
100
AcDbLine
 10
-4945.240336822405
 20
2680.965887134178
 30
0.0
 11
-4944.331888822198
 21
2682.174507754559
 31
0.0
  0
LINE
  5
161
100
AcDbEntity
  8
WHITE
  6
CONTINUOUS
 62
          15
100
AcDbLine
 10
-4942.348033779986
 20
2663.322204652373
 30
0.0
 11
-4942.190045860223
 21
2664.622039640757
 31
0.0
  0
LINE
  5
162
100
AcDbEntity
  8
WHITE
  6
CONTINUOUS
 62
          15
100
AcDbLine
 10
-4946.912204114208
 20
2667.210711389806
 30
0.0
 11
-4947.153517371951
 21
2665.225322785114
 31
0.0
  0
LINE
  5
163
100
AcDbEntity
  8
WHITE
  6
CONTINUOUS
 62
          15
100
AcDbLine
 10
-4942.190045860223
 20
2664.622039640757
 30
0.0
 11
-4947.153517371951
 21
2665.225322785114
 31
0.0
  0
LINE
  5
164
100
AcDbEntity
  8
WHITE
  6
CONTINUOUS
 62
          15
100
AcDbLine
 10
-4942.190045860223
 20
2664.622039640757
 30
0.0
 11
-4941.948732602481
 21
2666.607428245448
 31
0.0
  0
LINE
  5
165
100
AcDbEntity
  8
WHITE
  6
CONTINUOUS
 62
          15
100
AcDbLine
 10
-4946.438240354921
 20
2671.110216354956
 30
0.0
 11
-4946.912204114208
 21
2667.210711389806
 31
0.0
  0
LINE
  5
166
100
AcDbEntity
  8
WHITE
  6
CONTINUOUS
 62
          15
100
AcDbLine
 10
-4941.948732602481
 20
2666.607428245448
 30
0.0
 11
-4946.912204114208
 21
2667.210711389806
 31
0.0
  0
LINE
  5
167
100
AcDbEntity
  8
WHITE
  6
CONTINUOUS
 62
          15
100
AcDbLine
 10
-4941.948732602481
 20
2666.607428245448
 30
0.0
 11
-4941.790744682719
 21
2667.907263233831
 31
0.0
  0
LINE
  5
168
100
AcDbEntity
  8
WHITE
  6
CONTINUOUS
 62
          15
100
AcDbLine
 10
-4941.790744682719
 20
2667.907263233831
 30
0.0
 11
-4941.474768843194
 21
2670.506933210598
 31
0.0
  0
LINE
  5
169
100
AcDbEntity
  8
WHITE
  6
CONTINUOUS
 62
          15
100
AcDbLine
 10
-4945.955613839435
 20
2675.080993564338
 30
0.0
 11
-4946.438240354921
 21
2671.110216354956
 31
0.0
  0
LINE
  5
16A
100
AcDbEntity
  8
WHITE
  6
CONTINUOUS
 62
          15
100
AcDbLine
 10
-4941.474768843194
 20
2670.506933210598
 30
0.0
 11
-4946.438240354921
 21
2671.110216354956
 31
0.0
  0
LINE
  5
16B
100
AcDbEntity
  8
WHITE
  6
CONTINUOUS
 62
          15
100
AcDbLine
 10
-4941.474768843194
 20
2670.506933210598
 30
0.0
 11
-4940.992142327707
 21
2674.477710419981
 31
0.0
  0
LINE
  5
16C
100
AcDbEntity
  8
WHITE
  6
CONTINUOUS
 62
          15
100
AcDbLine
 10
-4945.481650080148
 20
2678.980498529487
 30
0.0
 11
-4945.955613839435
 21
2675.080993564338
 31
0.0
  0
LINE
  5
16D
100
AcDbEntity
  8
WHITE
  6
CONTINUOUS
 62
          15
100
AcDbLine
 10
-4940.992142327707
 20
2674.477710419981
 30
0.0
 11
-4945.955613839435
 21
2675.080993564338
 31
0.0
  0
LINE
  5
16E
100
AcDbEntity
  8
WHITE
  6
CONTINUOUS
 62
          15
100
AcDbLine
 10
-4940.992142327707
 20
2674.477710419981
 30
0.0
 11
-4940.676166488182
 21
2677.077380396746
 31
0.0
  0
LINE
  5
16F
100
AcDbEntity
  8
WHITE
  6
CONTINUOUS
 62
          15
100
AcDbLine
 10
-4940.676166488182
 20
2677.077380396746
 30
0.0
 11
-4940.51817856842
 21
2678.377215385129
 31
0.0
  0
LINE
  5
170
100
AcDbEntity
  8
WHITE
  6
CONTINUOUS
 62
          15
100
AcDbLine
 10
-4945.240336822405
 20
2680.965887134178
 30
0.0
 11
-4945.481650080148
 21
2678.980498529487
 31
0.0
  0
LINE
  5
171
100
AcDbEntity
  8
WHITE
  6
CONTINUOUS
 62
          15
100
AcDbLine
 10
-4940.51817856842
 20
2678.377215385129
 30
0.0
 11
-4945.481650080148
 21
2678.980498529487
 31
0.0
  0
LINE
  5
172
100
AcDbEntity
  8
WHITE
  6
CONTINUOUS
 62
          15
100
AcDbLine
 10
-4940.51817856842
 20
2678.377215385129
 30
0.0
 11
-4940.276865310678
 21
2680.36260398982
 31
0.0
  0
LINE
  5
173
100
AcDbEntity
  8
WHITE
  6
CONTINUOUS
 62
          15
100
AcDbLine
 10
-4945.240336822405
 20
2680.965887134178
 30
0.0
 11
-4940.276865310678
 21
2680.36260398982
 31
0.0
  0
LINE
  5
174
100
AcDbEntity
  8
WHITE
  6
CONTINUOUS
 62
          15
100
AcDbLine
 10
-4946.561045211269
 20
2663.834273428727
 30
0.0
 11
-4942.348033779986
 21
2663.322204652373
 31
0.0
  0
LINE
  5
175
100
AcDbEntity
  8
WHITE
  6
CONTINUOUS
 62
          15
100
AcDbLine
 10
-4940.276865310678
 20
2680.36260398982
 30
0.0
 11
-4940.118877390914
 21
2681.662438978206
 31
0.0
  0
LINE
  5
176
100
AcDbEntity
  8
WHITE
  6
CONTINUOUS
 62
          15
100
AcDbLine
 10
-4891.012046640622
 20
2706.178879721913
 30
0.0
 11
-4890.378599339047
 21
2711.390524809227
 31
0.0
  0
LINE
  5
177
100
AcDbEntity
  8
WHITE
  6
CONTINUOUS
 62
          15
100
AcDbLine
 10
-4892.923386295191
 20
2702.885434607012
 30
0.0
 11
-4893.345684496241
 21
2699.411004548801
 31
0.0
  0
LINE
  5
178
100
AcDbEntity
  8
WHITE
  6
CONTINUOUS
 62
          15
100
AcDbLine
 10
-4893.345684496241
 20
2699.411004548801
 30
0.0
 11
-4892.595218864932
 21
2699.31978950612
 31
0.0
  0
LINE
  5
179
100
AcDbEntity
  8
WHITE
  6
CONTINUOUS
 62
          15
100
AcDbLine
 10
-4892.07878989309
 20
2709.834294723431
 30
0.0
 11
-4892.923386295191
 21
2702.885434607012
 31
0.0
  0
LINE
  5
17A
100
AcDbEntity
  8
WHITE
  6
CONTINUOUS
 62
          15
100
AcDbLine
 10
-4892.923386295191
 20
2702.885434607012
 30
0.0
 11
-4892.172920663881
 21
2702.79421956433
 31
0.0
  0
LINE
  5
17B
100
AcDbEntity
  8
WHITE
  6
CONTINUOUS
 62
          15
100
AcDbLine
 10
-4891.65649169204
 20
2713.308724781639
 30
0.0
 11
-4892.07878989309
 21
2709.834294723431
 31
0.0
  0
LINE
  5
17C
100
AcDbEntity
  8
WHITE
  6
CONTINUOUS
 62
          15
100
AcDbLine
 10
-4892.07878989309
 20
2709.834294723431
 30
0.0
 11
-4891.328324261781
 21
2709.743079680749
 31
0.0
  0
LINE
  5
17D
100
AcDbEntity
  8
WHITE
  6
CONTINUOUS
 62
          15
100
AcDbLine
 10
-4890.992880233247
 20
2718.768543444541
 30
0.0
 11
-4891.65649169204
 21
2713.308724781639
 31
0.0
  0
LINE
  5
17E
100
AcDbEntity
  8
WHITE
  6
CONTINUOUS
 62
          15
100
AcDbLine
 10
-4891.65649169204
 20
2713.308724781639
 30
0.0
 11
-4890.90602606073
 21
2713.217509738958
 31
0.0
  0
LINE
  5
17F
100
AcDbEntity
  8
WHITE
  6
CONTINUOUS
 62
          15
100
AcDbLine
 10
-4936.747204406332
 20
2677.99119900594
 30
0.0
 11
-4938.195083952789
 21
2666.078867377792
 31
0.0
  0
LINE
  5
180
100
AcDbEntity
  8
WHITE
  6
CONTINUOUS
 62
           2
100
AcDbLine
 10
-4938.195083952789
 20
2666.078867377792
 30
0.0
 11
-4941.95739535868
 21
2666.536156001215
 31
0.0
  0
LINE
  5
181
100
AcDbEntity
  8
WHITE
  6
CONTINUOUS
 62
          15
100
AcDbLine
 10
-4936.62654777746
 20
2678.983893308286
 30
0.0
 11
-4936.747204406332
 21
2677.99119900594
 31
0.0
  0
LINE
  5
182
100
AcDbEntity
  8
WHITE
  6
CONTINUOUS
 62
           2
100
AcDbLine
 10
-4936.747204406332
 20
2677.99119900594
 30
0.0
 11
-4940.509515812221
 21
2678.448487629363
 31
0.0
  0
LINE
  5
183
100
AcDbEntity
  8
WHITE
  6
CONTINUOUS
 62
          15
100
AcDbLine
 10
-4938.195083952789
 20
2666.078867377792
 30
0.0
 11
-4938.315740581661
 21
2665.086173075447
 31
0.0
  0
LINE
  5
184
100
AcDbEntity
  8
WHITE
  6
CONTINUOUS
 62
          15
100
AcDbLine
 10
-4942.078051987551
 20
2665.54346169887
 30
0.0
 11
-4938.315740581661
 21
2665.086173075447
 31
0.0
  0
LINE
  5
185
100
AcDbEntity
  8
WHITE
  6
CONTINUOUS
 62
          15
100
AcDbLine
 10
-4936.566219463024
 20
2679.480240459458
 30
0.0
 11
-4936.62654777746
 21
2678.983893308286
 31
0.0
  0
LINE
  5
186
100
AcDbEntity
  8
WHITE
  6
CONTINUOUS
 62
          15
100
AcDbLine
 10
-4940.38885918335
 20
2679.441181931708
 30
0.0
 11
-4936.62654777746
 21
2678.983893308286
 31
0.0
  0
LINE
  5
187
100
AcDbEntity
  8
WHITE
  6
CONTINUOUS
 62
          15
100
AcDbLine
 10
-4900.097009941356
 20
2660.440892863894
 30
0.0
 11
-4918.993837808039
 21
2662.737700190552
 31
0.0
  0
LINE
  5
188
100
AcDbEntity
  8
WHITE
  6
CONTINUOUS
 62
          15
100
AcDbLine
 10
-4918.993837808039
 20
2662.737700190552
 30
0.0
 11
-4926.644722211257
 21
2661.652904924297
 31
0.0
  0
LINE
  5
189
100
AcDbEntity
  8
WHITE
  6
CONTINUOUS
 62
          15
100
AcDbLine
 10
-4894.612579099392
 20
2688.987714374173
 30
0.0
 11
-4895.108926250565
 21
2689.048042688609
 31
0.0
  0
LINE
  5
18A
100
AcDbEntity
  8
WHITE
  6
CONTINUOUS
 62
          15
100
AcDbLine
 10
-4898.42698354453
 20
2661.748949374106
 30
0.0
 11
-4895.108926250565
 21
2689.048042688609
 31
0.0
  0
LINE
  5
18B
100
AcDbEntity
  8
WHITE
  6
CONTINUOUS
 62
          15
100
AcDbLine
 10
-4924.914367499996
 20
2663.457308585681
 30
0.0
 11
-4918.993837808039
 21
2662.737700190552
 31
0.0
  0
LINE
  5
18C
100
AcDbEntity
  8
WHITE
  6
CONTINUOUS
 62
          15
100
AcDbLine
 10
-4895.108926250565
 20
2689.048042688609
 30
0.0
 11
-4922.904366716241
 21
2692.426428297011
 31
0.0
  0
LINE
  5
18D
100
AcDbEntity
  8
WHITE
  6
CONTINUOUS
 62
          15
100
AcDbLine
 10
-4926.222424010207
 20
2665.127334982508
 30
0.0
 11
-4922.904366716241
 21
2692.426428297011
 31
0.0
  0
LINE
  5
18E
100
AcDbEntity
  8
WHITE
  6
CONTINUOUS
 62
          15
100
AcDbLine
 10
-4937.068012385886
 20
2662.919799527448
 30
0.0
 11
-4926.644722211257
 21
2661.652904924297
 31
0.0
  0
LINE
  5
18F
100
AcDbEntity
  8
WHITE
  6
CONTINUOUS
 62
          15
100
AcDbLine
 10
-4938.315740581661
 20
2665.086173075447
 30
0.0
 11
-4938.376068896097
 21
2664.589825924275
 31
0.0
  0
LINE
  5
190
100
AcDbEntity
  8
WHITE
  6
CONTINUOUS
 62
          15
100
AcDbLine
 10
-4934.896193066198
 20
2680.788296969669
 30
0.0
 11
-4924.47290289157
 21
2679.521402366519
 31
0.0
  0
LINE
  5
191
100
AcDbEntity
  8
WHITE
  6
CONTINUOUS
 62
          15
100
AcDbLine
 10
-4894.49192247052
 20
2689.980408676519
 30
0.0
 11
-4894.612579099392
 21
2688.987714374173
 31
0.0
  0
LINE
  5
192
100
AcDbEntity
  8
WHITE
  6
CONTINUOUS
 62
          15
100
AcDbLine
 10
-4922.904366716241
 20
2692.426428297011
 30
0.0
 11
-4923.400713867413
 21
2692.486756611447
 31
0.0
  0
LINE
  5
193
100
AcDbEntity
  8
WHITE
  6
CONTINUOUS
 62
          15
100
AcDbLine
 10
-4923.400713867413
 20
2692.486756611447
 30
0.0
 11
-4923.280057238542
 21
2693.479450913792
 31
0.0
  0
LINE
  5
194
100
AcDbEntity
  8
WHITE
  6
CONTINUOUS
 62
          15
100
AcDbLine
 10
-4894.49192247052
 20
2689.980408676519
 30
0.0
 11
-4923.280057238542
 21
2693.479450913792
 31
0.0
  0
LINE
  5
195
100
AcDbEntity
  8
WHITE
  6
CONTINUOUS
 62
           7
100
AcDbLine
 10
-4920.136237752893
 20
2719.345014374302
 30
0.0
 11
-4920.203313202319
 21
2718.793155623604
 31
0.0
  0
LINE
  5
196
100
AcDbEntity
  8
WHITE
  6
CONTINUOUS
 62
          15
100
AcDbLine
 10
-4917.978971955037
 20
2721.096301987398
 30
0.0
 11
-4890.992880233247
 21
2718.768543444541
 31
0.0
  0
LINE
  5
197
100
AcDbEntity
  8
WHITE
  6
CONTINUOUS
 62
           7
100
AcDbLine
 10
-4926.554335946069
 20
2707.980454290988
 30
0.0
 11
-4926.494007631633
 21
2708.47680144216
 31
0.0
  0
LINE
  5
198
100
AcDbEntity
  8
WHITE
  6
CONTINUOUS
 62
           1
100
AcDbLine
 10
-4924.023835828367
 20
2708.176565405939
 30
0.0
 11
-4926.494007631633
 21
2708.47680144216
 31
0.0
  0
LINE
  5
199
100
AcDbEntity
  8
WHITE
  6
CONTINUOUS
 62
           7
100
AcDbLine
 10
-4926.494007631633
 20
2708.47680144216
 30
0.0
 11
-4926.011381116147
 21
2712.447578651542
 31
0.0
  0
LINE
  5
19A
100
AcDbEntity
  8
WHITE
  6
CONTINUOUS
 62
           1
100
AcDbLine
 10
-4923.541209312881
 20
2712.147342615321
 30
0.0
 11
-4926.011381116147
 21
2712.447578651542
 31
0.0
  0
LINE
  5
19B
100
AcDbEntity
  8
WHITE
  6
CONTINUOUS
 62
           7
100
AcDbLine
 10
-4926.614664260505
 20
2707.484107139814
 30
0.0
 11
-4926.554335946069
 21
2707.980454290988
 31
0.0
  0
LINE
  5
19C
100
AcDbEntity
  8
WHITE
  6
CONTINUOUS
 62
           1
100
AcDbLine
 10
-4924.084164142802
 20
2707.680218254767
 30
0.0
 11
-4926.554335946069
 21
2707.980454290988
 31
0.0
  0
LINE
  5
19D
100
AcDbEntity
  8
WHITE
  6
CONTINUOUS
 62
           7
100
AcDbLine
 10
-4926.011381116147
 20
2712.447578651542
 30
0.0
 11
-4925.951052801711
 21
2712.943925802716
 31
0.0
  0
LINE
  5
19E
100
AcDbEntity
  8
WHITE
  6
CONTINUOUS
 62
           1
100
AcDbLine
 10
-4923.480880998444
 20
2712.643689766494
 30
0.0
 11
-4925.951052801711
 21
2712.943925802716
 31
0.0
  0
LINE
  5
19F
100
AcDbEntity
  8
WHITE
  6
CONTINUOUS
 62
           7
100
AcDbLine
 10
-4924.89803018493
 20
2713.319616325016
 30
0.0
 11
-4925.621969958159
 21
2707.363450510943
 31
0.0
  0
LINE
  5
1A0
100
AcDbEntity
  8
WHITE
  6
CONTINUOUS
 62
           2
100
AcDbLine
 10
-4925.621969958159
 20
2707.363450510943
 30
0.0
 11
-4926.614664260505
 21
2707.484107139814
 31
0.0
  0
LINE
  5
1A1
100
AcDbEntity
  8
WHITE
  6
CONTINUOUS
 62
           7
100
AcDbLine
 10
-4924.777373556059
 20
2714.312310627362
 30
0.0
 11
-4924.89803018493
 21
2713.319616325016
 31
0.0
  0
LINE
  5
1A2
100
AcDbEntity
  8
WHITE
  6
CONTINUOUS
 62
           2
100
AcDbLine
 10
-4924.89803018493
 20
2713.319616325016
 30
0.0
 11
-4925.890724487275
 21
2713.440272953887
 31
0.0
  0
LINE
  5
1A3
100
AcDbEntity
  8
WHITE
  6
CONTINUOUS
 62
           7
100
AcDbLine
 10
-4925.621969958159
 20
2707.363450510943
 30
0.0
 11
-4925.74262658703
 21
2706.370756208597
 31
0.0
  0
LINE
  5
1A4
100
AcDbEntity
  8
WHITE
  6
CONTINUOUS
 62
           7
100
AcDbLine
 10
-4925.74262658703
 20
2706.370756208597
 30
0.0
 11
-4926.614664260505
 21
2707.484107139814
 31
0.0
  0
LINE
  5
1A5
100
AcDbEntity
  8
WHITE
  6
CONTINUOUS
 62
           7
100
AcDbLine
 10
-4925.951052801711
 20
2712.943925802716
 30
0.0
 11
-4925.890724487275
 21
2713.440272953887
 31
0.0
  0
LINE
  5
1A6
100
AcDbEntity
  8
WHITE
  6
CONTINUOUS
 62
           7
100
AcDbLine
 10
-4924.174090411701
 20
2719.27578213909
 30
0.0
 11
-4924.777373556059
 21
2714.312310627362
 31
0.0
  0
LINE
  5
1A7
100
AcDbEntity
  8
WHITE
  6
CONTINUOUS
 62
           7
100
AcDbLine
 10
-4925.890724487275
 20
2713.440272953887
 30
0.0
 11
-4924.777373556059
 21
2714.312310627362
 31
0.0
  0
LINE
  5
1A8
100
AcDbEntity
  8
WHITE
  6
CONTINUOUS
 62
          15
100
AcDbLine
 10
-4893.345684496241
 20
2699.411004548801
 30
0.0
 11
-4894.49192247052
 21
2689.980408676519
 31
0.0
  0
LINE
  5
1A9
100
AcDbEntity
  8
WHITE
  6
CONTINUOUS
 62
          15
100
AcDbLine
 10
-4923.280057238542
 20
2693.479450913792
 30
0.0
 11
-4922.375132522006
 21
2700.924658181383
 31
0.0
  0
LINE
  5
1AA
100
AcDbEntity
  8
WHITE
  6
CONTINUOUS
 62
           7
100
AcDbLine
 10
-4923.488483453222
 20
2700.052620507909
 30
0.0
 11
-4921.075350875793
 21
2719.906506554821
 31
0.0
  0
LINE
  5
1AB
100
AcDbEntity
  8
WHITE
  6
CONTINUOUS
 62
           7
100
AcDbLine
 10
-4925.473872057914
 20
2700.293933765652
 30
0.0
 11
-4923.060739480484
 21
2720.147819812564
 31
0.0
  0
LINE
  5
1AC
100
AcDbEntity
  8
WHITE
  6
CONTINUOUS
 62
           7
100
AcDbLine
 10
-4925.473872057914
 20
2700.293933765652
 30
0.0
 11
-4926.345909731388
 21
2701.407284696869
 31
0.0
  0
LINE
  5
1AD
100
AcDbEntity
  8
WHITE
  6
CONTINUOUS
 62
           7
100
AcDbLine
 10
-4922.375132522006
 20
2700.924658181383
 30
0.0
 11
-4923.488483453222
 21
2700.052620507909
 31
0.0
  0
LINE
  5
1AE
100
AcDbEntity
  8
WHITE
  6
CONTINUOUS
 62
           7
100
AcDbLine
 10
-4921.075350875793
 20
2719.906506554821
 30
0.0
 11
-4920.203313202319
 21
2718.793155623604
 31
0.0
  0
LINE
  5
1AF
100
AcDbEntity
  8
WHITE
  6
CONTINUOUS
 62
           7
100
AcDbLine
 10
-4923.060739480484
 20
2720.147819812564
 30
0.0
 11
-4924.174090411701
 21
2719.27578213909
 31
0.0
  0
LINE
  5
1B0
100
AcDbEntity
  8
WHITE
  6
CONTINUOUS
 62
           7
100
AcDbLine
 10
-4925.74262658703
 20
2706.370756208597
 30
0.0
 11
-4926.345909731388
 21
2701.407284696869
 31
0.0
  0
LINE
  5
1B1
100
AcDbEntity
  8
WHITE
  6
CONTINUOUS
 62
           7
100
AcDbLine
 10
-4925.473872057914
 20
2700.293933765652
 30
0.0
 11
-4923.488483453222
 21
2700.052620507909
 31
0.0
  0
LINE
  5
1B2
100
AcDbEntity
  8
WHITE
  6
CONTINUOUS
 62
          15
100
AcDbLine
 10
-4922.375132522006
 20
2700.924658181383
 30
0.0
 11
-4920.203313202319
 21
2718.793155623604
 31
0.0
  0
LINE
  5
1B3
100
AcDbEntity
  8
WHITE
  6
CONTINUOUS
 62
           7
100
AcDbLine
 10
-4921.075350875793
 20
2719.906506554821
 30
0.0
 11
-4923.060739480484
 21
2720.147819812564
 31
0.0
  0
LINE
  5
1B4
100
AcDbEntity
  8
WHITE
  6
CONTINUOUS
 62
          15
100
AcDbLine
 10
-4874.627144880232
 20
2720.808814591979
 30
0.0
 11
-4874.130797729059
 21
2720.748486277543
 31
0.0
  0
LINE
  5
1B5
100
AcDbEntity
  8
WHITE
  6
CONTINUOUS
 62
          15
100
AcDbLine
 10
-4890.167450238521
 20
2713.127739838332
 30
0.0
 11
-4885.700325877967
 21
2712.58478500841
 31
0.0
  0
LINE
  5
1B6
100
AcDbEntity
  8
WHITE
  6
CONTINUOUS
 62
           7
100
AcDbLine
 10
-4902.524396353753
 20
2698.605857482882
 30
0.0
 11
-4910.784715377563
 21
2699.609854629296
 31
0.0
  0
LINE
  5
1B7
100
AcDbEntity
  8
WHITE
  6
CONTINUOUS
 62
           7
100
AcDbLine
 10
-4910.784715377563
 20
2699.609854629296
 30
0.0
 11
-4909.956620696155
 21
2706.422947948127
 31
0.0
  0
LINE
  5
1B8
100
AcDbEntity
  8
WHITE
  6
CONTINUOUS
 62
           7
100
AcDbLine
 10
-4909.956620696155
 20
2706.422947948127
 30
0.0
 11
-4901.696301672345
 21
2705.418950801714
 31
0.0
  0
LINE
  5
1B9
100
AcDbEntity
  8
WHITE
  6
CONTINUOUS
 62
           7
100
AcDbLine
 10
-4901.696301672345
 20
2705.418950801714
 30
0.0
 11
-4902.524396353753
 21
2698.605857482882
 31
0.0
  0
ARC
  5
1BA
100
AcDbEntity
  8
WHITE
  6
CONTINUOUS
 62
          15
100
AcDbCircle
 10
-4846.023305001117
 20
2724.081480809291
 30
0.0
 40
2.25
100
AcDbArc
 50
173.07
 51
353.069999999999
  0
ARC
  5
1BB
100
AcDbEntity
  8
WHITE
  6
CONTINUOUS
 62
          15
100
AcDbCircle
 10
-4846.023305001117
 20
2724.081480809291
 30
0.0
 40
2.25
100
AcDbArc
 50
353.069999999999
 51
173.07
  0
ARC
  5
1BC
100
AcDbEntity
  8
WHITE
  6
CONTINUOUS
 62
          15
100
AcDbCircle
 10
-4899.553592474608
 20
2707.217058467621
 30
0.0
 40
8.604407030244
100
AcDbArc
 50
353.069999999999
 51
17.07198532828
  0
ARC
  5
1BD
100
AcDbEntity
  8
WHITE
  6
CONTINUOUS
 62
          15
100
AcDbCircle
 10
-4894.057846334023
 20
2701.260443033761
 30
0.0
 40
2.430106011614
100
AcDbArc
 50
353.069999999999
 51
39.135478142734
  0
ARC
  5
1BE
100
AcDbEntity
  8
WHITE
  6
CONTINUOUS
 62
          15
100
AcDbCircle
 10
-4892.790951730872
 20
2711.683733208389
 30
0.0
 40
2.430106011614
100
AcDbArc
 50
353.069999999999
 51
39.135478142734
  0
ARC
  5
1BF
100
AcDbEntity
  8
WHITE
  6
CONTINUOUS
 62
          15
100
AcDbCircle
 10
-4894.057846334023
 20
2701.260443033761
 30
0.0
 40
2.430106011614
100
AcDbArc
 50
307.004521857251
 51
353.069999999999
  0
ARC
  5
1C0
100
AcDbEntity
  8
WHITE
  6
CONTINUOUS
 62
          15
100
AcDbCircle
 10
-4892.790951730872
 20
2711.683733208389
 30
0.0
 40
2.430106011613
100
AcDbArc
 50
307.004521857281
 51
353.069999999999
  0
ARC
  5
1C1
100
AcDbEntity
  8
WHITE
  6
CONTINUOUS
 62
          15
100
AcDbCircle
 10
-4899.553592474608
 20
2707.217058467621
 30
0.0
 40
8.604407030244
100
AcDbArc
 50
329.068014671731
 51
353.069999999999
  0
CIRCLE
  5
1C2
100
AcDbEntity
  8
WHITE
  6
CONTINUOUS
 62
          15
100
AcDbCircle
 10
-4820.076046783263
 20
2680.633353220452
 30
0.0
 40
2.25
  0
CIRCLE
  5
1C3
100
AcDbEntity
  8
WHITE
  6
CONTINUOUS
 62
          15
100
AcDbCircle
 10
-4840.922627132521
 20
2683.167142426753
 30
0.0
 40
2.25
  0
CIRCLE
  5
1C4
100
AcDbEntity
  8
WHITE
  6
CONTINUOUS
 62
          15
100
AcDbCircle
 10
-4805.322838604948
 20
2719.13455902556
 30
0.0
 40
2.25
  0
ARC
  5
1C5
100
AcDbEntity
  8
WHITE
  6
CONTINUOUS
 62
          15
100
AcDbCircle
 10
-4888.369473520914
 20
2719.516276180716
 30
0.0
 40
0.5
100
AcDbArc
 50
90.219821982564
 51
173.07
  0
ARC
  5
1C6
100
AcDbEntity
  8
WHITE
  6
CONTINUOUS
 62
          15
100
AcDbCircle
 10
-4888.986946231581
 20
2714.436060966132
 30
0.0
 40
0.5
100
AcDbArc
 50
173.07
 51
255.92017801742
  0
ARC
  5
1C7
100
AcDbEntity
  8
WHITE
  6
CONTINUOUS
 62
          15
100
AcDbCircle
 10
-4888.149174590768
 20
2721.444984779399
 30
0.0
 40
1.0
100
AcDbArc
 50
83.07
 51
173.07
  0
ARC
  5
1C8
100
AcDbEntity
  8
WHITE
  6
CONTINUOUS
 62
          15
100
AcDbCircle
 10
-4891.889530085785
 20
2690.671461406686
 30
0.0
 40
1.0
100
AcDbArc
 50
173.07
 51
263.07
  0
ARC
  5
1C9
100
AcDbEntity
  8
WHITE
  6
CONTINUOUS
 62
          15
100
AcDbCircle
 10
-4899.916024998049
 20
2661.929934317413
 30
0.0
 40
1.500000000001
100
AcDbArc
 50
263.07
 51
353.069999999999
  0
ARC
  5
1CA
100
AcDbEntity
  8
WHITE
  6
CONTINUOUS
 62
          15
100
AcDbCircle
 10
-4924.733382556688
 20
2664.9463500392
 30
0.0
 40
1.5
100
AcDbArc
 50
173.07
 51
263.07
  0
ARC
  5
1CB
100
AcDbEntity
  8
WHITE
  6
CONTINUOUS
 62
          15
100
AcDbCircle
 10
-4935.077178009506
 20
2679.299255516151
 30
0.0
 40
1.5
100
AcDbArc
 50
83.07
 51
173.07
  0
ARC
  5
1CC
100
AcDbEntity
  8
WHITE
  6
CONTINUOUS
 62
          15
100
AcDbCircle
 10
-4936.887027442578
 20
2664.408840980967
 30
0.0
 40
1.5
100
AcDbArc
 50
173.07
 51
263.07
  0
ARC
  5
1CD
100
AcDbEntity
  8
WHITE
  6
CONTINUOUS
 62
          15
100
AcDbCircle
 10
-4918.150849148202
 20
2719.103701116559
 30
0.0
 40
2.0
100
AcDbArc
 50
85.07
 51
173.07
  0
TEXT
  5
1CE
100
AcDbEntity
  8
WHITE
  6
CONTINUOUS
 62
           7
100
AcDbText
 10
-4909.276512620841
 20
2701.018386071398
 30
0.0
 40
4.0
  1
14
 50
-6.93
 41
0.955
  7
TXT
100
AcDbText
  0
ENDSEC
  0
SECTION
  2
OBJECTS
  0
DICTIONARY
  5
19
100
AcDbDictionary
  3
ACAD_GROUP
350
1A
  3
ACAD_MLINESTYLE
350
1B
  0
DICTIONARY
  5
1A
102
{ACAD_REACTORS
330
19
102
}
100
AcDbDictionary
  0
DICTIONARY
  5
1B
102
{ACAD_REACTORS
330
19
102
}
100
AcDbDictionary
  3
STANDARD
350
1C
  0
MLINESTYLE
  5
1C
102
{ACAD_REACTORS
330
1B
102
}
100
AcDbMlineStyle
  2
STANDARD
 70
           0
  3

 62
           0
 51
90.0
 52
90.0
 71
           2
 49
0.5
 62
         256
  6
BYLAYER
 49
-0.5
 62
         256
  6
BYLAYER
  0
ENDSEC
  0
EOF
