  0
SECTION
  2
HEADER
  9
$ACADVER
  1
AC1012
  9
$DWGCODEPAGE
  3
dos850
  9
$INSBASE
 10
0.0
 20
0.0
 30
0.0
  9
$EXTMIN
 10
-5141.431448439899
 20
2324.22633127299
 30
0.0
  9
$EXTMAX
 10
-4667.399510439899
 20
2455.112893252574
 30
0.0
  9
$LIMMIN
 10
-5141.431448439899
 20
2324.22633127299
  9
$LIMMAX
 10
-4667.399510439899
 20
2455.112893252574
  9
$ORTHOMODE
 70
           0
  9
$REGENMODE
 70
           1
  9
$FILLMODE
 70
           1
  9
$QTEXTMODE
 70
           0
  9
$MIRRTEXT
 70
           1
  9
$DRAGMODE
 70
           2
  9
$LTSCALE
 40
5.0
  9
$OSMODE
 70
           0
  9
$ATTMODE
 70
           1
  9
$TEXTSIZE
 40
0.2
  9
$TRACEWID
 40
0.05
  9
$TEXTSTYLE
  7
TXT
  9
$CLAYER
  8
0
  9
$CELTYPE
  6
CONTINUOUS
  9
$CECOLOR
 62
         256
  9
$CELTSCALE
 40
1.0
  9
$DELOBJ
 70
           1
  9
$DISPSILH
 70
           0
  9
$DIMSCALE
 40
1.0
  9
$DIMASZ
 40
3.5
  9
$DIMEXO
 40
0.0625
  9
$DIMDLI
 40
0.38
  9
$DIMRND
 40
0.0
  9
$DIMDLE
 40
0.0
  9
$DIMEXE
 40
0.18
  9
$DIMTP
 40
0.0
  9
$DIMTM
 40
0.0
  9
$DIMTXT
 40
3.5
  9
$DIMCEN
 40
0.09
  9
$DIMTSZ
 40
0.0
  9
$DIMTOL
 70
           0
  9
$DIMLIM
 70
           0
  9
$DIMTIH
 70
           1
  9
$DIMTOH
 70
           1
  9
$DIMSE1
 70
           0
  9
$DIMSE2
 70
           0
  9
$DIMTAD
 70
           0
  9
$DIMZIN
 70
           0
  9
$DIMBLK
  1

  9
$DIMASO
 70
           1
  9
$DIMSHO
 70
           1
  9
$DIMPOST
  1

  9
$DIMAPOST
  1

  9
$DIMALT
 70
           0
  9
$DIMALTD
 70
           2
  9
$DIMALTF
 40
25.4
  9
$DIMLFAC
 40
1.0
  9
$DIMTOFL
 70
           0
  9
$DIMTVP
 40
0.0
  9
$DIMTIX
 70
           0
  9
$DIMSOXD
 70
           0
  9
$DIMSAH
 70
           0
  9
$DIMBLK1
  1

  9
$DIMBLK2
  1

  9
$DIMSTYLE
  2
STANDARD
  9
$DIMCLRD
 70
           0
  9
$DIMCLRE
 70
           0
  9
$DIMCLRT
 70
           0
  9
$DIMTFAC
 40
1.0
  9
$DIMGAP
 40
0.09
  9
$DIMJUST
 70
           0
  9
$DIMSD1
 70
           0
  9
$DIMSD2
 70
           0
  9
$DIMTOLJ
 70
           1
  9
$DIMTZIN
 70
           0
  9
$DIMALTZ
 70
           0
  9
$DIMALTTZ
 70
           0
  9
$DIMFIT
 70
           3
  9
$DIMUPT
 70
           0
  9
$DIMUNIT
 70
           2
  9
$DIMDEC
 70
           4
  9
$DIMTDEC
 70
           4
  9
$DIMALTU
 70
           2
  9
$DIMALTTD
 70
           2
  9
$DIMTXSTY
  7
TXT
  9
$DIMAUNIT
 70
           0
  9
$LUNITS
 70
           2
  9
$LUPREC
 70
           2
  9
$SKETCHINC
 40
0.1
  9
$FILLETRAD
 40
0.0
  9
$AUNITS
 70
           0
  9
$AUPREC
 70
           2
  9
$MENU
  1
acad
  9
$ELEVATION
 40
0.0
  9
$PELEVATION
 40
0.0
  9
$THICKNESS
 40
0.0
  9
$LIMCHECK
 70
           0
  9
$BLIPMODE
 70
           1
  9
$CHAMFERA
 40
0.0
  9
$CHAMFERB
 40
0.0
  9
$CHAMFERC
 40
0.0
  9
$CHAMFERD
 40
0.0
  9
$SKPOLY
 70
           0
  9
$TDCREATE
 40
0.000000000
  9
$TDUPDATE
 40
0.000000000
  9
$TDINDWG
 40
0.0000000000
  9
$TDUSRTIMER
 40
0.0000000000
  9
$USRTIMER
 70
           1
  9
$ANGBASE
 50
0.0
  9
$ANGDIR
 70
           0
  9
$PDMODE
 70
           2
  9
$PDSIZE
 40
0.5
  9
$PLINEWID
 40
0.0
  9
$COORDS
 70
           0
  9
$SPLFRAME
 70
           0
  9
$SPLINETYPE
 70
           6
  9
$SPLINESEGS
 70
           8
  9
$ATTDIA
 70
           0
  9
$ATTREQ
 70
           1
  9
$HANDLING
 70
           1
  9
$HANDSEED
  5
223
  9
$SURFTAB1
 70
           6
  9
$SURFTAB2
 70
           6
  9
$SURFTYPE
 70
           6
  9
$SURFU
 70
           6
  9
$SURFV
 70
           6
  9
$UCSNAME
  2

  9
$UCSORG
 10
0.0
 20
0.0
 30
0.0
  9
$UCSXDIR
 10
1.0
 20
0.0
 30
0.0
  9
$UCSYDIR
 10
0.0
 20
1.0
 30
0.0
  9
$PUCSNAME
  2

  9
$PUCSORG
 10
0.0
 20
0.0
 30
0.0
  9
$PUCSXDIR
 10
1.0
 20
0.0
 30
0.0
  9
$PUCSYDIR
 10
0.0
 20
1.0
 30
0.0
  9
$USERI1
 70
           0
  9
$USERI2
 70
           0
  9
$USERI3
 70
           0
  9
$USERI4
 70
           0
  9
$USERI5
 70
           0
  9
$USERR1
 40
0.0
  9
$USERR2
 40
0.0
  9
$USERR3
 40
0.0
  9
$USERR4
 40
0.0
  9
$USERR5
 40
0.0
  9
$WORLDVIEW
 70
           1
  9
$SHADEDGE
 70
           3
  9
$SHADEDIF
 70
          70
  9
$TILEMODE
 70
           1
  9
$MAXACTVP
 70
          16
  9
$PINSBASE
 10
0.0
 20
0.0
 30
0.0
  9
$PLIMCHECK
 70
           0
  9
$PEXTMIN
 10
1.000000000000E+20
 20
1.000000000000E+20
 30
1.000000000000E+20
  9
$PEXTMAX
 10
-1.000000000000E+20
 20
-1.000000000000E+20
 30
-1.000000000000E+20
  9
$PLIMMIN
 10
0.0
 20
0.0
  9
$PLIMMAX
 10
12.0
 20
9.0
  9
$UNITMODE
 70
           0
  9
$VISRETAIN
 70
           0
  9
$PLINEGEN
 70
           1
  9
$PSLTSCALE
 70
           0
  9
$TREEDEPTH
 70
        3020
  9
$PICKSTYLE
 70
           1
  9
$CMLSTYLE
  2
STANDARD
  9
$CMLJUST
 70
           0
  9
$CMLSCALE
 40
1.0
  9
$SAVEIMAGES
 70
           0
  0
ENDSEC
  0
SECTION
  2
CLASSES
  0
CLASS
  1
LWPOLYLINE
  2
AcDbPolyline
  3
"AutoCAD"
 90
        0
280
           0
281
           1
  0
CLASS
  1
IMAGE
  2
AcDbRasterImage
  3
ISM
 90
      127
280
           0
281
           1
  0
CLASS
  1
OLE2FRAME
  2
AcDbOle2Frame
  3
""
 90
        0
280
           0
281
           1
  0
CLASS
  1
HATCH
  2
AcDbHatch
  3
"ACAD_SEDONA"
 90
        0
280
           0
281
           1
  0
CLASS
  1
DICTIONARYVAR
  2
AcDbDictionaryVar
  3
"AutoCAD"
 90
        0
280
           0
281
           0
  0
CLASS
  1
RASTERVARIABLES
  2
AcDbRasterVariables
  3
ISM
 90
        0
280
           0
281
           0
  0
CLASS
  1
IMAGEDEF
  2
AcDbRasterImageDef
  3
ISM
 90
        0
280
           0
281
           0
  0
CLASS
  1
IMAGEDEF_REACTOR
  2
AcDbRasterImageDefReactor
  3
ISM
 90
        1
280
           0
281
           0
  0
CLASS
  1
IDBUFFER
  2
AcDbIdBuffer
  3
"Acad"
 90
        0
280
           0
281
           0
  0
CLASS
  1
SPATIAL_FILTER
  2
AcDbSpatialFilter
  3
"Acad"
 90
        0
280
           0
281
           0
  0
CLASS
  1
XRECORD
  2
AcDbXrecord
  3
"<Built In>"
 90
        0
280
           0
281
           0
  0
ENDSEC
  0
SECTION
  2
TABLES
  0
TABLE
  2
VPORT
  5
7
100
AcDbSymbolTable
 70
           1
  0
VPORT
  5
15
100
AcDbSymbolTableRecord
100
AcDbViewportTableRecord
  2
*ACTIVE
 70
           0
 10
0.0
 20
0.0
 11
1.0
 21
1.0
 12
6.591288
 22
4.579184
 13
0.0
 23
0.0
 14
1.0
 24
1.0
 15
0.0
 25
0.0
 16
0.0
 26
0.0
 36
1.0
 17
0.0
 27
0.0
 37
0.0
 40
9.158369
 41
0.688564
 42
50.0
 43
0.0
 44
0.0
 50
0.0
 51
0.0
 71
           0
 72
         100
 73
           1
 74
           1
 75
           0
 76
           0
 77
           0
 78
           0
  0
ENDTAB
  0
TABLE
  2
LTYPE
  5
4
100
AcDbSymbolTable
 70
           5
  0
LTYPE
  5
11
100
AcDbSymbolTableRecord
100
AcDbLinetypeTableRecord
  2
BYBLOCK
 70
           0
  3

 72
          65
 73
           0
 40
0.0
  0
LTYPE
  5
12
100
AcDbSymbolTableRecord
100
AcDbLinetypeTableRecord
  2
BYLAYER
 70
           0
  3

 72
          65
 73
           0
 40
0.0
  0
LTYPE
  5
13
100
AcDbSymbolTableRecord
100
AcDbLinetypeTableRecord
  2
CONTINUOUS
 70
           0
  3
Solid line
 72
          65
 73
           0
 40
0.0
  0
LTYPE
  5
1D
100
AcDbSymbolTableRecord
100
AcDbLinetypeTableRecord
  2
GESTRICHELT
 70
           0
  3

 72
          65
 73
           2
 40
0.75
 49
0.5
 74
           0
 49
-0.25
 74
           0
  0
LTYPE
  5
1E
100
AcDbSymbolTableRecord
100
AcDbLinetypeTableRecord
  2
STRICHPUNKT
 70
           0
  3

 72
          65
 73
           4
 40
1.0
 49
0.5
 74
           0
 49
-0.25
 74
           0
 49
0.0
 74
           0
 49
-0.25
 74
           0
  0
ENDTAB
  0
TABLE
  2
LAYER
  5
2
100
AcDbSymbolTable
 70
           4
  0
LAYER
  5
14
100
AcDbSymbolTableRecord
100
AcDbLayerTableRecord
  2
0
 70
           0
 62
           7
  6
CONTINUOUS
  0
LAYER
  5
20
100
AcDbSymbolTableRecord
100
AcDbLayerTableRecord
  2
BLACK
 70
           0
 62
           7
  6
CONTINUOUS
  0
LAYER
  5
21
100
AcDbSymbolTableRecord
100
AcDbLayerTableRecord
  2
WHITE
 70
           0
 62
           7
  6
CONTINUOUS
  0
LAYER
  5
22
100
AcDbSymbolTableRecord
100
AcDbLayerTableRecord
  2
YELLOW
 70
           0
 62
           7
  6
CONTINUOUS
  0
ENDTAB
  0
TABLE
  2
STYLE
  5
3
100
AcDbSymbolTable
 70
           2
  0
STYLE
  5
17
100
AcDbSymbolTableRecord
100
AcDbTextStyleTableRecord
  2
TXT
 70
           0
 40
3.5
 41
1.0
 50
0.0
 71
           0
 42
3.5
  3
TXT
  4

  0
STYLE
  5
1F
100
AcDbSymbolTableRecord
100
AcDbTextStyleTableRecord
  2
GOTHICG
 70
           0
 40
3.5
 41
1.0
 50
0.0
 71
           0
 42
3.5
  3
GOTHICG
  4

  0
ENDTAB
  0
TABLE
  2
VIEW
  5
5
100
AcDbSymbolTable
 70
           0
  0
ENDTAB
  0
TABLE
  2
UCS
  5
6
100
AcDbSymbolTable
 70
           0
  0
ENDTAB
  0
TABLE
  2
APPID
  5
8
100
AcDbSymbolTable
 70
           2
  0
APPID
  5
16
100
AcDbSymbolTableRecord
100
AcDbRegAppTableRecord
  2
ACAD
 70
           0
  0
APPID
  5
23
100
AcDbSymbolTableRecord
100
AcDbRegAppTableRecord
  2
MegaCADPntStyle
 70
           0
  0
ENDTAB
  0
TABLE
  2
DIMSTYLE
  5
9
100
AcDbSymbolTable
 70
           1
  0
DIMSTYLE
105
18
100
AcDbSymbolTableRecord
100
AcDbDimStyleTableRecord
  2
STANDARD
 70
           0
  3

  4

  5

  6

  7

 40
1.0
 41
0.18
 42
0.0625
 43
0.38
 44
0.18
 45
0.0
 46
0.0
 47
0.0
 48
0.0
140
0.18
141
0.09
142
0.0
143
25.4
144
1.0
145
0.0
146
1.0
147
0.09
 71
           0
 72
           0
 73
           1
 74
           1
 75
           0
 76
           0
 77
           0
 78
           0
170
           0
171
           2
172
           0
173
           0
174
           0
175
           0
176
           0
177
           0
178
           0
270
           2
271
           4
272
           4
273
           2
274
           2
340
17
275
           0
280
           0
281
           0
282
           0
283
           1
284
           0
285
           0
286
           0
287
           0
288
           0
  0
ENDTAB
  0
TABLE
  2
BLOCK_RECORD
  5
1
100
AcDbSymbolTable
 70
           3
  0
BLOCK_RECORD
  5
A
100
AcDbSymbolTableRecord
100
AcDbBlockTableRecord
  2
*MODEL_SPACE
  0
BLOCK_RECORD
  5
B
100
AcDbSymbolTableRecord
100
AcDbBlockTableRecord
  2
*PAPER_SPACE
  0
BLOCK_RECORD
  5
24
100
AcDbSymbolTableRecord
100
AcDbBlockTableRecord
  2
ELIPPSE
  0
BLOCK_RECORD
  5
25
100
AcDbSymbolTableRecord
100
AcDbBlockTableRecord
  2
01081201_SNCB-____TOP__1
  0
BLOCK_RECORD
  5
26
100
AcDbSymbolTableRecord
100
AcDbBlockTableRecord
  2
MAK2
  0
ENDTAB
  0
ENDSEC
  0
SECTION
  2
BLOCKS
  0
BLOCK
  5
D
100
AcDbEntity
  8
0
100
AcDbBlockBegin
  2
*MODEL_SPACE
 70
           0
 10
0.0
 20
0.0
 30
0.0
  3
*MODEL_SPACE
  1

  0
ENDBLK
  5
E
100
AcDbEntity
  8
0
100
AcDbBlockEnd
  0
BLOCK
  5
F
100
AcDbEntity
 67
           1
  8
0
100
AcDbBlockBegin
  2
*PAPER_SPACE
 70
           0
 10
0.0
 20
0.0
 30
0.0
  3
*PAPER_SPACE
  1

  0
ENDBLK
  5
10
100
AcDbEntity
 67
           1
  8
0
100
AcDbBlockEnd
  0
BLOCK
  5
1D1
100
AcDbEntity
  8
0
100
AcDbBlockBegin
  2
ELIPPSE
 70
          64
 10
0.0
 20
0.0
 30
0.0
  3
ELIPPSE
  1

  0
CIRCLE
  5
1D2
100
AcDbEntity
  8
0
  6
BYBLOCK
 62
           0
100
AcDbCircle
 10
0.0
 20
0.0
 30
0.0
 40
1.0
  0
ENDBLK
  5
1D3
100
AcDbEntity
  8
0
  6
BYBLOCK
 62
           0
100
AcDbBlockEnd
  0
BLOCK
  5
1D4
100
AcDbEntity
  8
0
100
AcDbBlockBegin
  2
01081201_SNCB-____TOP__1
 70
          64
 10
0.0
 20
0.0
 30
0.0
  3
01081201_SNCB-____TOP__1
  1

  0
LINE
  5
1D5
100
AcDbEntity
  8
BLACK
  6
CONTINUOUS
 62
          15
100
AcDbLine
 10
1258.600515180217
 20
-267.768116173917
 30
0.0
 11
1257.548157960908
 21
-267.786485137506
 31
0.0
  0
LINE
  5
1D6
100
AcDbEntity
  8
BLACK
  6
CONTINUOUS
 62
          15
100
AcDbLine
 10
1259.583062773781
 20
-266.76826847876
 30
0.0
 11
1259.583062773781
 21
-275.754670443263
 31
0.0
  0
LINE
  5
1D7
100
AcDbEntity
  8
BLACK
  6
CONTINUOUS
 62
          15
100
AcDbLine
 10
1259.583062773781
 20
-239.873303524415
 30
0.0
 11
1259.583062773781
 21
-240.056979763093
 31
0.0
  0
LINE
  5
1D8
100
AcDbEntity
  8
BLACK
  6
CONTINUOUS
 62
          15
100
AcDbLine
 10
1257.548157960907
 20
-238.855086865668
 30
0.0
 11
1258.600515180217
 21
-238.873455829258
 31
0.0
  0
LINE
  5
1D9
100
AcDbEntity
  8
WHITE
  6
CONTINUOUS
 62
          15
100
AcDbLine
 10
1259.88306277378
 20
-240.771122605949
 30
0.0
 11
1259.88306277378
 21
-265.870449397227
 31
0.0
  0
LINE
  5
1DA
100
AcDbEntity
  8
WHITE
  6
CONTINUOUS
 62
          15
100
AcDbLine
 10
1275.792491651027
 20
-265.318958343465
 30
0.0
 11
1260.565610367343
 21
-265.584744544926
 31
0.0
  0
LINE
  5
1DB
100
AcDbEntity
  8
WHITE
  6
CONTINUOUS
 62
          15
100
AcDbLine
 10
1275.792491651027
 20
-241.32261365971
 30
0.0
 11
1260.565610367344
 21
-241.056827458249
 31
0.0
  0
LINE
  5
1DC
100
AcDbEntity
  8
BLACK
  6
CONTINUOUS
 62
          15
100
AcDbLine
 10
1259.583062773781
 20
-266.584592240081
 30
0.0
 11
1259.583062773781
 21
-266.76826847876
 31
0.0
  0
LINE
  5
1DD
100
AcDbEntity
  8
WHITE
  6
CONTINUOUS
 62
          15
100
AcDbLine
 10
1255.583062773781
 20
-227.850152157526
 30
0.0
 11
1256.687761263887
 21
-227.888729078857
 31
0.0
  0
LINE
  5
1DE
100
AcDbEntity
  8
BLACK
  6
CONTINUOUS
 62
          15
100
AcDbLine
 10
1259.58306277378
 20
-230.886901559913
 30
0.0
 11
1259.583062773781
 21
-239.873303524415
 31
0.0
  0
LINE
  5
1DF
100
AcDbEntity
  8
WHITE
  6
CONTINUOUS
 62
          15
100
AcDbLine
 10
1256.687761263886
 20
-278.75284292432
 30
0.0
 11
1255.583062773781
 21
-278.791419845651
 31
0.0
  0
LINE
  5
1E0
100
AcDbEntity
  8
BLACK
  6
CONTINUOUS
 62
          15
100
AcDbLine
 10
1253.652861767185
 20
-221.532748053097
 30
0.0
 11
1248.58306277378
 21
-221.355706771079
 31
0.0
  0
LINE
  5
1E1
100
AcDbEntity
  8
BLACK
  6
CONTINUOUS
 62
          15
100
AcDbLine
 10
1253.652861767185
 20
-285.108823950077
 30
0.0
 11
1248.583062773781
 21
-285.285865232095
 31
0.0
  0
LINE
  5
1E2
100
AcDbEntity
  8
WHITE
  6
CONTINUOUS
 62
          15
100
AcDbLine
 10
1255.583062773781
 20
-269.786180527818
 30
0.0
 11
1255.583062773781
 21
-278.791419845651
 31
0.0
  0
LINE
  5
1E3
100
AcDbEntity
  8
WHITE
  6
CONTINUOUS
 62
          15
100
AcDbLine
 10
1255.583062773781
 20
-227.850152157526
 30
0.0
 11
1255.583062773781
 21
-236.855391475356
 31
0.0
  0
LINE
  5
1E4
100
AcDbEntity
  8
WHITE
  6
CONTINUOUS
 62
          15
100
AcDbLine
 10
1255.58306277378
 20
-223.531529707135
 30
0.0
 11
1255.583062773781
 21
-227.850152157526
 31
0.0
  0
LINE
  5
1E5
100
AcDbEntity
  8
WHITE
  6
CONTINUOUS
 62
          15
100
AcDbLine
 10
1255.583062773781
 20
-278.791419845651
 30
0.0
 11
1255.583062773781
 21
-283.11004229604
 31
0.0
  0
LINE
  5
1E6
100
AcDbEntity
  8
WHITE
  6
CONTINUOUS
 62
          15
100
AcDbLine
 10
1248.58306277378
 20
-221.320336260377
 30
0.0
 11
1248.583062773781
 21
-285.320336260378
 31
0.0
  0
ARC
  5
1E7
100
AcDbEntity
  8
WHITE
  6
CONTINUOUS
 62
          15
100
AcDbCircle
 10
1275.583062773781
 20
-253.320786001587
 30
0.0
 40
12.0
100
AcDbArc
 50
271.0
 51
89.000000000001
  0
ARC
  5
1E8
100
AcDbEntity
  8
BLACK
  6
CONTINUOUS
 62
          15
100
AcDbCircle
 10
1260.583062773781
 20
-266.584592240081
 30
0.0
 40
0.999999999999
100
AcDbArc
 50
91.000000000009
 51
134.427004000836
  0
ARC
  5
1E9
100
AcDbEntity
  8
BLACK
  6
CONTINUOUS
 62
          15
100
AcDbCircle
 10
1260.583062773781
 20
-266.584592240081
 30
0.0
 40
1.0
100
AcDbArc
 50
134.42700400083
 51
180.0
  0
ARC
  5
1EA
100
AcDbEntity
  8
BLACK
  6
CONTINUOUS
 62
          15
100
AcDbCircle
 10
1258.583062773781
 20
-266.76826847876
 30
0.0
 40
1.0
100
AcDbArc
 50
270.999999999927
 51
0.0
  0
ARC
  5
1EB
100
AcDbEntity
  8
BLACK
  6
CONTINUOUS
 62
          15
100
AcDbCircle
 10
1257.583062773781
 20
-269.786180527818
 30
0.0
 40
1.999999999999
100
AcDbArc
 50
90.999999999919
 51
180.0
  0
ARC
  5
1EC
100
AcDbEntity
  8
BLACK
  6
CONTINUOUS
 62
          15
100
AcDbCircle
 10
1260.583062773781
 20
-240.056979763093
 30
0.0
 40
1.0
100
AcDbArc
 50
180.0
 51
225.572995999247
  0
ARC
  5
1ED
100
AcDbEntity
  8
BLACK
  6
CONTINUOUS
 62
          15
100
AcDbCircle
 10
1260.583062773781
 20
-240.056979763093
 30
0.0
 40
1.000000000001
100
AcDbArc
 50
225.572995999246
 51
268.999999999992
  0
ARC
  5
1EE
100
AcDbEntity
  8
BLACK
  6
CONTINUOUS
 62
          15
100
AcDbCircle
 10
1257.583062773781
 20
-236.855391475356
 30
0.0
 40
2.0
100
AcDbArc
 50
180.0
 51
269.000000000016
  0
ARC
  5
1EF
100
AcDbEntity
  8
BLACK
  6
CONTINUOUS
 62
          15
100
AcDbCircle
 10
1258.583062773781
 20
-239.873303524415
 30
0.0
 40
1.0
100
AcDbArc
 50
0.0
 51
89.000000000073
  0
ARC
  5
1F0
100
AcDbEntity
  8
BLACK
  6
CONTINUOUS
 62
          15
100
AcDbCircle
 10
1253.583062773781
 20
-283.110042296039
 30
0.0
 40
2.0
100
AcDbArc
 50
271.999999999993
 51
0.0
  0
ARC
  5
1F1
100
AcDbEntity
  8
BLACK
  6
CONTINUOUS
 62
          15
100
AcDbCircle
 10
1256.583062773781
 20
-275.754670443263
 30
0.0
 40
3.0
100
AcDbArc
 50
271.999999999993
 51
0.0
  0
ARC
  5
1F2
100
AcDbEntity
  8
BLACK
  6
CONTINUOUS
 62
          15
100
AcDbCircle
 10
1256.58306277378
 20
-230.886901559913
 30
0.0
 40
3.0
100
AcDbArc
 50
0.0
 51
87.99999999999
  0
ARC
  5
1F3
100
AcDbEntity
  8
BLACK
  6
CONTINUOUS
 62
          15
100
AcDbCircle
 10
1253.583062773779
 20
-223.531529707135
 30
0.0
 40
2.0
100
AcDbArc
 50
0.0
 51
88.000000000006
  0
ENDBLK
  5
1F4
100
AcDbEntity
  8
0
  6
BYBLOCK
 62
           0
100
AcDbBlockEnd
  0
BLOCK
  5
1F5
100
AcDbEntity
  8
0
100
AcDbBlockBegin
  2
MAK2
 70
          64
 10
0.0
 20
0.0
 30
0.0
  3
MAK2
  1

  0
LINE
  5
1F6
100
AcDbEntity
  8
WHITE
  6
CONTINUOUS
 62
           2
100
AcDbLine
 10
-15.50693229743
 20
611.597948837689
 30
0.0
 11
-15.596491646589
 21
611.687508186849
 31
0.0
  0
LINE
  5
1F7
100
AcDbEntity
  8
WHITE
  6
CONTINUOUS
 62
           2
100
AcDbLine
 10
-14.44627212565
 20
611.597948837689
 30
0.0
 11
-15.596491646589
 21
612.748168358629
 31
0.0
  0
LINE
  5
1F8
100
AcDbEntity
  8
WHITE
  6
CONTINUOUS
 62
           2
100
AcDbLine
 10
-13.596491646588
 20
611.808828530409
 30
0.0
 11
-15.596491646589
 21
613.808828530409
 31
0.0
  0
LINE
  5
1F9
100
AcDbEntity
  8
WHITE
  6
CONTINUOUS
 62
           2
100
AcDbLine
 10
-13.596491646588
 20
612.869488702188
 30
0.0
 11
-15.596491646589
 21
614.869488702188
 31
0.0
  0
LINE
  5
1FA
100
AcDbEntity
  8
WHITE
  6
CONTINUOUS
 62
           2
100
AcDbLine
 10
-13.596491646588
 20
613.930148873968
 30
0.0
 11
-15.596491646589
 21
615.930148873968
 31
0.0
  0
LINE
  5
1FB
100
AcDbEntity
  8
WHITE
  6
CONTINUOUS
 62
           2
100
AcDbLine
 10
-13.596491646588
 20
614.990809045748
 30
0.0
 11
-15.596491646589
 21
616.990809045748
 31
0.0
  0
LINE
  5
1FC
100
AcDbEntity
  8
WHITE
  6
CONTINUOUS
 62
           2
100
AcDbLine
 10
-13.596491646588
 20
616.051469217527
 30
0.0
 11
-15.596491646588
 21
618.051469217528
 31
0.0
  0
LINE
  5
1FD
100
AcDbEntity
  8
WHITE
  6
CONTINUOUS
 62
           2
100
AcDbLine
 10
-13.596491646588
 20
617.112129389307
 30
0.0
 11
-15.596491646588
 21
619.112129389308
 31
0.0
  0
LINE
  5
1FE
100
AcDbEntity
  8
WHITE
  6
CONTINUOUS
 62
           2
100
AcDbLine
 10
-13.596491646588
 20
618.172789561087
 30
0.0
 11
-15.596491646588
 21
620.172789561087
 31
0.0
  0
LINE
  5
1FF
100
AcDbEntity
  8
WHITE
  6
CONTINUOUS
 62
           2
100
AcDbLine
 10
-13.596491646588
 20
619.233449732867
 30
0.0
 11
-15.596491646588
 21
621.233449732867
 31
0.0
  0
LINE
  5
200
100
AcDbEntity
  8
WHITE
  6
CONTINUOUS
 62
           2
100
AcDbLine
 10
-13.596491646589
 20
620.294109904647
 30
0.0
 11
-15.596491646588
 21
622.294109904647
 31
0.0
  0
LINE
  5
201
100
AcDbEntity
  8
WHITE
  6
CONTINUOUS
 62
           2
100
AcDbLine
 10
-13.596491646589
 20
621.354770076427
 30
0.0
 11
-15.596491646588
 21
623.354770076426
 31
0.0
  0
LINE
  5
202
100
AcDbEntity
  8
WHITE
  6
CONTINUOUS
 62
           2
100
AcDbLine
 10
-13.596491646589
 20
622.415430248207
 30
0.0
 11
-15.596491646588
 21
624.415430248207
 31
0.0
  0
LINE
  5
203
100
AcDbEntity
  8
WHITE
  6
CONTINUOUS
 62
           2
100
AcDbLine
 10
-13.596491646589
 20
623.476090419987
 30
0.0
 11
-15.596491646588
 21
625.476090419986
 31
0.0
  0
LINE
  5
204
100
AcDbEntity
  8
WHITE
  6
CONTINUOUS
 62
           2
100
AcDbLine
 10
-13.596491646589
 20
624.536750591766
 30
0.0
 11
-15.596491646588
 21
626.536750591766
 31
0.0
  0
LINE
  5
205
100
AcDbEntity
  8
WHITE
  6
CONTINUOUS
 62
           2
100
AcDbLine
 10
-13.596491646589
 20
625.597410763546
 30
0.0
 11
-15.596491646588
 21
627.597410763546
 31
0.0
  0
LINE
  5
206
100
AcDbEntity
  8
WHITE
  6
CONTINUOUS
 62
           2
100
AcDbLine
 10
-13.596491646589
 20
626.658070935325
 30
0.0
 11
-15.596491646588
 21
628.658070935325
 31
0.0
  0
LINE
  5
207
100
AcDbEntity
  8
WHITE
  6
CONTINUOUS
 62
           2
100
AcDbLine
 10
-13.596491646589
 20
627.718731107105
 30
0.0
 11
-15.596491646588
 21
629.718731107105
 31
0.0
  0
LINE
  5
208
100
AcDbEntity
  8
WHITE
  6
CONTINUOUS
 62
           2
100
AcDbLine
 10
-13.596491646589
 20
628.779391278885
 30
0.0
 11
-15.596491646588
 21
630.779391278885
 31
0.0
  0
LINE
  5
209
100
AcDbEntity
  8
WHITE
  6
CONTINUOUS
 62
           2
100
AcDbLine
 10
-13.596491646588
 20
629.840051450665
 30
0.0
 11
-15.354389033613
 21
631.597948837689
 31
0.0
  0
LINE
  5
20A
100
AcDbEntity
  8
WHITE
  6
CONTINUOUS
 62
           2
100
AcDbLine
 10
-13.596491646588
 20
630.900711622445
 30
0.0
 11
-14.293728861832
 21
631.597948837689
 31
0.0
  0
LINE
  5
20B
100
AcDbEntity
  8
WHITE
  6
CONTINUOUS
 62
           2
100
AcDbLine
 10
-15.596491646588
 20
631.406213139102
 30
0.0
 11
-15.404755948002
 21
631.597948837689
 31
0.0
  0
LINE
  5
20C
100
AcDbEntity
  8
WHITE
  6
CONTINUOUS
 62
           2
100
AcDbLine
 10
-15.596491646588
 20
630.345552967322
 30
0.0
 11
-14.344095776222
 21
631.597948837689
 31
0.0
  0
LINE
  5
20D
100
AcDbEntity
  8
WHITE
  6
CONTINUOUS
 62
           2
100
AcDbLine
 10
-15.596491646588
 20
629.284892795542
 30
0.0
 11
-13.596491646588
 21
631.284892795542
 31
0.0
  0
LINE
  5
20E
100
AcDbEntity
  8
WHITE
  6
CONTINUOUS
 62
           2
100
AcDbLine
 10
-15.596491646588
 20
628.224232623762
 30
0.0
 11
-13.596491646588
 21
630.224232623762
 31
0.0
  0
LINE
  5
20F
100
AcDbEntity
  8
WHITE
  6
CONTINUOUS
 62
           2
100
AcDbLine
 10
-15.596491646588
 20
627.163572451982
 30
0.0
 11
-13.596491646588
 21
629.163572451983
 31
0.0
  0
LINE
  5
210
100
AcDbEntity
  8
WHITE
  6
CONTINUOUS
 62
           2
100
AcDbLine
 10
-15.596491646588
 20
626.102912280202
 30
0.0
 11
-13.596491646588
 21
628.102912280202
 31
0.0
  0
LINE
  5
211
100
AcDbEntity
  8
WHITE
  6
CONTINUOUS
 62
           2
100
AcDbLine
 10
-15.596491646588
 20
625.042252108423
 30
0.0
 11
-13.596491646589
 21
627.042252108423
 31
0.0
  0
LINE
  5
212
100
AcDbEntity
  8
WHITE
  6
CONTINUOUS
 62
           2
100
AcDbLine
 10
-15.596491646587
 20
623.981591936643
 30
0.0
 11
-13.596491646589
 21
625.981591936643
 31
0.0
  0
LINE
  5
213
100
AcDbEntity
  8
WHITE
  6
CONTINUOUS
 62
           2
100
AcDbLine
 10
-15.596491646588
 20
622.920931764863
 30
0.0
 11
-13.596491646588
 21
624.920931764863
 31
0.0
  0
LINE
  5
214
100
AcDbEntity
  8
WHITE
  6
CONTINUOUS
 62
           2
100
AcDbLine
 10
-15.596491646589
 20
621.860271593084
 30
0.0
 11
-13.596491646588
 21
623.860271593083
 31
0.0
  0
LINE
  5
215
100
AcDbEntity
  8
WHITE
  6
CONTINUOUS
 62
           2
100
AcDbLine
 10
-15.596491646589
 20
620.799611421304
 30
0.0
 11
-13.596491646588
 21
622.799611421303
 31
0.0
  0
LINE
  5
216
100
AcDbEntity
  8
WHITE
  6
CONTINUOUS
 62
           2
100
AcDbLine
 10
-15.596491646589
 20
619.738951249524
 30
0.0
 11
-13.596491646588
 21
621.738951249524
 31
0.0
  0
LINE
  5
217
100
AcDbEntity
  8
WHITE
  6
CONTINUOUS
 62
           2
100
AcDbLine
 10
-15.596491646589
 20
618.678291077744
 30
0.0
 11
-13.596491646588
 21
620.678291077744
 31
0.0
  0
LINE
  5
218
100
AcDbEntity
  8
WHITE
  6
CONTINUOUS
 62
           2
100
AcDbLine
 10
-15.596491646589
 20
617.617630905965
 30
0.0
 11
-13.596491646588
 21
619.617630905964
 31
0.0
  0
LINE
  5
219
100
AcDbEntity
  8
WHITE
  6
CONTINUOUS
 62
           2
100
AcDbLine
 10
-15.596491646589
 20
616.556970734185
 30
0.0
 11
-13.596491646588
 21
618.556970734185
 31
0.0
  0
LINE
  5
21A
100
AcDbEntity
  8
WHITE
  6
CONTINUOUS
 62
           2
100
AcDbLine
 10
-15.596491646589
 20
615.496310562405
 30
0.0
 11
-13.596491646588
 21
617.496310562405
 31
0.0
  0
LINE
  5
21B
100
AcDbEntity
  8
WHITE
  6
CONTINUOUS
 62
           2
100
AcDbLine
 10
-15.596491646589
 20
614.435650390625
 30
0.0
 11
-13.596491646588
 21
616.435650390625
 31
0.0
  0
LINE
  5
21C
100
AcDbEntity
  8
WHITE
  6
CONTINUOUS
 62
           2
100
AcDbLine
 10
-15.596491646589
 20
613.374990218845
 30
0.0
 11
-13.596491646588
 21
615.374990218845
 31
0.0
  0
LINE
  5
21D
100
AcDbEntity
  8
WHITE
  6
CONTINUOUS
 62
           2
100
AcDbLine
 10
-15.596491646589
 20
612.314330047066
 30
0.0
 11
-13.596491646588
 21
614.314330047066
 31
0.0
  0
LINE
  5
21E
100
AcDbEntity
  8
WHITE
  6
CONTINUOUS
 62
           2
100
AcDbLine
 10
-15.252212684185
 20
611.597948837689
 30
0.0
 11
-13.596491646588
 21
613.253669875286
 31
0.0
  0
LINE
  5
21F
100
AcDbEntity
  8
WHITE
  6
CONTINUOUS
 62
           2
100
AcDbLine
 10
-14.191552512406
 20
611.597948837689
 30
0.0
 11
-13.596491646588
 21
612.193009703506
 31
0.0
  0
ENDBLK
  5
220
100
AcDbEntity
  8
0
  6
BYBLOCK
 62
           0
100
AcDbBlockEnd
  0
ENDSEC
  0
SECTION
  2
ENTITIES
  0
INSERT
  5
27
100
AcDbEntity
  8
0
  6
CONTINUOUS
 62
           7
100
AcDbBlockReference
  2
01081201_SNCB-____TOP__1
 10
-5750.020715942837
 20
2728.763726100869
 30
0.0
 41
0.84375
 42
0.84375
 43
0.84375
 50
353.069999999999
  0
INSERT
  5
28
100
AcDbEntity
  8
0
  6
CONTINUOUS
 62
           7
100
AcDbBlockReference
  2
MAK2
 10
-4987.463913734944
 20
1791.370901909081
 30
0.0
 50
353.069999999999
  0
LINE
  5
29
100
AcDbEntity
  8
0
  6
CONTINUOUS
 62
          15
100
AcDbLine
 10
-5134.431448439899
 20
2324.22633127299
 30
0.0
 11
-5006.431448439899
 21
2324.22633127299
 31
0.0
  0
LINE
  5
2A
100
AcDbEntity
  8
0
  6
CONTINUOUS
 62
          15
100
AcDbLine
 10
-5006.431448439899
 20
2431.131305623081
 30
0.0
 11
-5006.431448439899
 21
2449.22633127299
 31
0.0
  0
LINE
  5
2B
100
AcDbEntity
  8
0
  6
GESTRICHELT
 62
          15
100
AcDbLine
 10
-5006.431448439899
 20
2411.72633127299
 30
0.0
 11
-5006.431448439899
 21
2431.131305623081
 31
0.0
  0
LINE
  5
2C
100
AcDbEntity
  8
0
  6
GESTRICHELT
 62
          15
100
AcDbLine
 10
-5006.431448439899
 20
2346.72633127299
 30
0.0
 11
-5006.431448439899
 21
2411.72633127299
 31
0.0
  0
LINE
  5
2D
100
AcDbEntity
  8
0
  6
CONTINUOUS
 62
          15
100
AcDbLine
 10
-5006.431448439899
 20
2324.22633127299
 30
0.0
 11
-5006.431448439899
 21
2346.72633127299
 31
0.0
  0
LINE
  5
2E
100
AcDbEntity
  8
0
  6
CONTINUOUS
 62
          15
100
AcDbLine
 10
-5132.382241928732
 20
2449.22633127299
 30
0.0
 11
-5134.431448439899
 21
2449.22633127299
 31
0.0
  0
LINE
  5
2F
100
AcDbEntity
  8
0
  6
GESTRICHELT
 62
          15
100
AcDbLine
 10
-5109.509967718266
 20
2449.22633127299
 30
0.0
 11
-5132.382241928732
 21
2449.22633127299
 31
0.0
  0
LINE
  5
30
100
AcDbEntity
  8
0
  6
CONTINUOUS
 62
          15
100
AcDbLine
 10
-5006.431448439899
 20
2449.22633127299
 30
0.0
 11
-5109.509967718266
 21
2449.22633127299
 31
0.0
  0
LINE
  5
31
100
AcDbEntity
  8
0
  6
CONTINUOUS
 62
          15
100
AcDbLine
 10
-5134.431448439899
 20
2361.72633127299
 30
0.0
 11
-5134.431448439899
 21
2324.22633127299
 31
0.0
  0
LINE
  5
32
100
AcDbEntity
  8
0
  6
GESTRICHELT
 62
          15
100
AcDbLine
 10
-5134.431448439899
 20
2411.72633127299
 30
0.0
 11
-5134.431448439899
 21
2361.72633127299
 31
0.0
  0
LINE
  5
33
100
AcDbEntity
  8
0
  6
CONTINUOUS
 62
          15
100
AcDbLine
 10
-5134.431448439899
 20
2425.977598340524
 30
0.0
 11
-5134.431448439899
 21
2411.72633127299
 31
0.0
  0
LINE
  5
34
100
AcDbEntity
  8
0
  6
GESTRICHELT
 62
          15
100
AcDbLine
 10
-5134.431448439899
 20
2447.177120352758
 30
0.0
 11
-5134.431448439899
 21
2425.977598340524
 31
0.0
  0
LINE
  5
35
100
AcDbEntity
  8
0
  6
CONTINUOUS
 62
          15
100
AcDbLine
 10
-5134.431448439899
 20
2449.22633127299
 30
0.0
 11
-5134.431448439899
 21
2447.177120352758
 31
0.0
  0
LINE
  5
36
100
AcDbEntity
  8
0
  6
STRICHPUNKT
 62
          15
100
AcDbLine
 10
-5070.431448439899
 20
2449.22633127299
 30
0.0
 11
-5070.431448439899
 21
2324.22633127299
 31
0.0
  0
LINE
  5
37
100
AcDbEntity
  8
0
  6
GESTRICHELT
 62
          15
100
AcDbLine
 10
-5134.431448439899
 20
2386.72633127299
 30
0.0
 11
-5006.431448439899
 21
2386.72633127299
 31
0.0
  0
CIRCLE
  5
38
100
AcDbEntity
  8
0
  6
CONTINUOUS
 62
          15
100
AcDbCircle
 10
-5070.431448439899
 20
2386.72633127299
 30
0.0
 40
7.25
  0
LINE
  5
39
100
AcDbEntity
  8
0
  6
CONTINUOUS
 62
          15
100
AcDbLine
 10
-5141.431448439899
 20
2411.72633127299
 30
0.0
 11
-5141.431448439899
 21
2361.72633127299
 31
0.0
  0
LINE
  5
3A
100
AcDbEntity
  8
0
  6
GESTRICHELT
 62
          15
100
AcDbLine
 10
-4999.431448439899
 20
2361.72633127299
 30
0.0
 11
-4999.431448439899
 21
2411.72633127299
 31
0.0
  0
LINE
  5
3B
100
AcDbEntity
  8
0
  6
GESTRICHELT
 62
          15
100
AcDbLine
 10
-5108.2467894399
 20
2361.72633127299
 30
0.0
 11
-4999.431448439899
 21
2361.72633127299
 31
0.0
  0
LINE
  5
3C
100
AcDbEntity
  8
0
  6
CONTINUOUS
 62
          15
100
AcDbLine
 10
-5141.431448439899
 20
2361.72633127299
 30
0.0
 11
-5108.2467894399
 21
2361.72633127299
 31
0.0
  0
LINE
  5
3D
100
AcDbEntity
  8
0
  6
GESTRICHELT
 62
          15
100
AcDbLine
 10
-5120.180185781428
 20
2411.72633127299
 30
0.0
 11
-4999.431448439899
 21
2411.72633127299
 31
0.0
  0
LINE
  5
3E
100
AcDbEntity
  8
0
  6
CONTINUOUS
 62
          15
100
AcDbLine
 10
-5141.431448439899
 20
2411.72633127299
 30
0.0
 11
-5120.180185781428
 21
2411.72633127299
 31
0.0
  0
TEXT
  5
3F
100
AcDbEntity
  8
0
  6
CONTINUOUS
 62
          15
100
AcDbText
 10
-5120.216687986535
 20
2334.525019223151
 30
0.0
 40
3.5
  1
125-730
 41
0.900000010218
  7
GOTHICG
100
AcDbText
  0
CIRCLE
  5
40
100
AcDbEntity
  8
0
  6
GESTRICHELT
 62
          15
100
AcDbCircle
 10
-5070.431448439899
 20
2386.72633127299
 30
0.0
 40
12.5
  0
LINE
  5
41
100
AcDbEntity
  8
WHITE
  6
CONTINUOUS
 62
          15
100
AcDbLine
 10
-4667.399510439899
 20
2426.72633127299
 30
0.0
 11
-4667.399510439899
 21
2346.72633127299
 31
0.0
  0
LINE
  5
42
100
AcDbEntity
  8
WHITE
  6
GESTRICHELT
 62
          15
100
AcDbLine
 10
-5108.2467894399
 20
2399.792934931461
 30
0.0
 11
-5108.2467894399
 21
2426.72633127299
 31
0.0
  0
LINE
  5
43
100
AcDbEntity
  8
WHITE
  6
CONTINUOUS
 62
          15
100
AcDbLine
 10
-5108.2467894399
 20
2346.72633127299
 30
0.0
 11
-5108.2467894399
 21
2399.792934931461
 31
0.0
  0
ARC
  5
44
100
AcDbEntity
  8
WHITE
  6
GESTRICHELT
 62
          15
100
AcDbCircle
 10
-5070.431448439899
 20
2386.72633127299
 30
0.0
 40
22.5
100
AcDbArc
 50
109.064916387405
 51
186.057558731021
  0
ARC
  5
45
100
AcDbEntity
  8
WHITE
  6
CONTINUOUS
 62
          15
100
AcDbCircle
 10
-5070.431448439899
 20
2386.72633127299
 30
0.0
 40
22.5
100
AcDbArc
 50
186.057558731021
 51
109.064916387405
  0
LINE
  5
46
100
AcDbEntity
  8
YELLOW
  6
CONTINUOUS
 62
          15
100
AcDbLine
 10
-5108.2467894399
 20
2346.72633127299
 30
0.0
 11
-4667.399510439899
 21
2346.72633127299
 31
0.0
  0
LINE
  5
47
100
AcDbEntity
  8
YELLOW
  6
CONTINUOUS
 62
          15
100
AcDbLine
 10
-4816.862146253664
 20
2426.72633127299
 30
0.0
 11
-4667.399510439899
 21
2426.72633127299
 31
0.0
  0
LINE
  5
48
100
AcDbEntity
  8
YELLOW
  6
GESTRICHELT
 62
          15
100
AcDbLine
 10
-4953.653552865178
 20
2426.72633127299
 30
0.0
 11
-4816.862146253664
 21
2426.72633127299
 31
0.0
  0
LINE
  5
49
100
AcDbEntity
  8
YELLOW
  6
CONTINUOUS
 62
          15
100
AcDbLine
 10
-4970.18981811911
 20
2426.72633127299
 30
0.0
 11
-4953.653552865178
 21
2426.72633127299
 31
0.0
  0
LINE
  5
4A
100
AcDbEntity
  8
YELLOW
  6
GESTRICHELT
 62
          15
100
AcDbLine
 10
-5108.2467894399
 20
2426.72633127299
 30
0.0
 11
-4970.18981811911
 21
2426.72633127299
 31
0.0
  0
CIRCLE
  5
4B
100
AcDbEntity
  8
0
  6
CONTINUOUS
 62
          15
100
AcDbCircle
 10
-4707.399510439899
 20
2386.72633127299
 30
0.0
 40
6.25
  0
LINE
  5
4C
100
AcDbEntity
  8
WHITE
  6
CONTINUOUS
 62
          15
100
AcDbLine
 10
-5081.391603548291
 20
2372.937749039852
 30
0.0
 11
-5134.424612137282
 21
2425.970757628843
 31
0.0
  0
ARC
  5
4D
100
AcDbEntity
  8
WHITE
  6
CONTINUOUS
 62
          15
100
AcDbCircle
 10
-5123.818010419484
 20
2436.577359346641
 30
0.0
 40
15.0
100
AcDbArc
 50
135.0
 51
225.0
  0
LINE
  5
4E
100
AcDbEntity
  8
WHITE
  6
CONTINUOUS
 62
          15
100
AcDbLine
 10
-5134.424612137282
 20
2447.183961064439
 30
0.0
 11
-5130.889078231349
 21
2450.719494970372
 31
0.0
  0
ARC
  5
4F
100
AcDbEntity
  8
WHITE
  6
CONTINUOUS
 62
          15
100
AcDbCircle
 10
-5120.282476513551
 20
2440.112893252574
 30
0.0
 40
15.0
100
AcDbArc
 50
45.0
 51
135.0
  0
LINE
  5
50
100
AcDbEntity
  8
WHITE
  6
CONTINUOUS
 62
          15
100
AcDbLine
 10
-5106.613790773483
 20
2423.160738769938
 30
0.0
 11
-5106.14034088982
 21
2418.899689816978
 31
0.0
  0
LINE
  5
51
100
AcDbEntity
  8
WHITE
  6
GESTRICHELT
 62
          15
100
AcDbLine
 10
-5109.336857571767
 20
2447.668339954501
 30
0.0
 11
-5106.613790773483
 21
2423.160738769938
 31
0.0
  0
LINE
  5
52
100
AcDbEntity
  8
WHITE
  6
CONTINUOUS
 62
          15
100
AcDbLine
 10
-5109.675874795753
 20
2450.719494970372
 30
0.0
 11
-5109.336857571767
 21
2447.668339954501
 31
0.0
  0
LINE
  5
53
100
AcDbEntity
  8
WHITE
  6
CONTINUOUS
 62
          15
100
AcDbLine
 10
-5106.14034088982
 20
2418.899689816978
 30
0.0
 11
-5060.178400112694
 21
2401.222020287314
 31
0.0
  0
LINE
  5
54
100
AcDbEntity
  8
WHITE
  6
CONTINUOUS
 62
          15
100
AcDbLine
 10
-5060.178400112694
 20
2401.222020287314
 30
0.0
 11
-5056.642866206762
 21
2397.686486381381
 31
0.0
  0
ARC
  5
55
100
AcDbEntity
  8
WHITE
  6
CONTINUOUS
 62
          15
100
AcDbCircle
 10
-5067.24946792456
 20
2387.079884663583
 30
0.0
 40
15.0
100
AcDbArc
 50
314.999999999999
 51
45.0
  0
LINE
  5
56
100
AcDbEntity
  8
WHITE
  6
CONTINUOUS
 62
          15
100
AcDbLine
 10
-5056.642866206762
 20
2376.473282945785
 30
0.0
 11
-5060.178400112694
 21
2372.937749039852
 31
0.0
  0
ARC
  5
57
100
AcDbEntity
  8
WHITE
  6
CONTINUOUS
 62
          15
100
AcDbCircle
 10
-5070.785001830493
 20
2383.54435075765
 30
0.0
 40
15.0
100
AcDbArc
 50
224.999999999999
 51
314.999999999999
  0
CIRCLE
  5
58
100
AcDbEntity
  8
WHITE
  6
CONTINUOUS
 62
          15
100
AcDbCircle
 10
-5120.636029904144
 20
2436.930912737235
 30
0.0
 40
6.5
  0
LINE
  5
59
100
AcDbEntity
  8
BLACK
  6
GESTRICHELT
 62
          15
100
AcDbLine
 10
-4726.043504520359
 20
2388.992790280842
 30
0.0
 11
-4723.932013515108
 21
2406.364940571889
 31
0.0
  0
LINE
  5
5A
100
AcDbEntity
  8
BLACK
  6
GESTRICHELT
 62
          15
100
AcDbLine
 10
-4723.932013515108
 20
2406.364940571889
 30
0.0
 11
-4727.90279072449
 21
2406.847567087375
 31
0.0
  0
LINE
  5
5B
100
AcDbEntity
  8
BLACK
  6
CONTINUOUS
 62
          15
100
AcDbLine
 10
-4726.756552750211
 20
2416.278162959658
 30
0.0
 11
-4756.14030409964
 21
2419.849599174255
 31
0.0
  0
LINE
  5
5C
100
AcDbEntity
  8
BLACK
  6
CONTINUOUS
 62
          15
100
AcDbLine
 10
-4756.14030409964
 20
2419.849599174255
 30
0.0
 11
-4756.200632414076
 21
2419.353252023082
 31
0.0
  0
LINE
  5
5D
100
AcDbEntity
  8
BLACK
  6
CONTINUOUS
 62
          15
100
AcDbLine
 10
-4756.200632414076
 20
2419.353252023082
 30
0.0
 11
-4900.93546169606
 21
2436.944988512546
 31
0.0
  0
LINE
  5
5E
100
AcDbEntity
  8
BLACK
  6
CONTINUOUS
 62
          15
100
AcDbLine
 10
-4900.93546169606
 20
2436.944988512546
 30
0.0
 11
-4900.875133381624
 21
2437.441335663719
 31
0.0
  0
LINE
  5
5F
100
AcDbEntity
  8
BLACK
  6
CONTINUOUS
 62
          15
100
AcDbLine
 10
-4900.875133381624
 20
2437.441335663719
 30
0.0
 11
-4930.258884731054
 21
2441.012771878316
 31
0.0
  0
LINE
  5
60
100
AcDbEntity
  8
BLACK
  6
CONTINUOUS
 62
          15
100
AcDbLine
 10
-4930.258884731054
 20
2441.012771878316
 30
0.0
 11
-4931.405122705333
 21
2431.582176006033
 31
0.0
  0
LINE
  5
61
100
AcDbEntity
  8
BLACK
  6
CONTINUOUS
 62
          15
100
AcDbLine
 10
-4931.405122705333
 20
2431.582176006033
 30
0.0
 11
-4941.828412879961
 21
2432.849070609183
 31
0.0
  0
LINE
  5
62
100
AcDbEntity
  8
BLACK
  6
CONTINUOUS
 62
          15
100
AcDbLine
 10
-4941.828412879961
 20
2432.849070609183
 30
0.0
 11
-4941.888741194397
 21
2432.352723458011
 31
0.0
  0
LINE
  5
63
100
AcDbEntity
  8
BLACK
  6
CONTINUOUS
 62
          15
100
AcDbLine
 10
-4941.888741194397
 20
2432.352723458011
 30
0.0
 11
-4952.808378520198
 21
2433.679946375597
 31
0.0
  0
LINE
  5
64
100
AcDbEntity
  8
BLACK
  6
CONTINUOUS
 62
          15
100
AcDbLine
 10
-4952.808378520198
 20
2433.679946375597
 30
0.0
 11
-4956.910703901829
 21
2399.928340095848
 31
0.0
  0
LINE
  5
65
100
AcDbEntity
  8
BLACK
  6
CONTINUOUS
 62
          15
100
AcDbLine
 10
-4956.910703901829
 20
2399.928340095848
 30
0.0
 11
-4945.991066576028
 21
2398.601117178261
 31
0.0
  0
LINE
  5
66
100
AcDbEntity
  8
BLACK
  6
CONTINUOUS
 62
          15
100
AcDbLine
 10
-4945.991066576028
 20
2398.601117178261
 30
0.0
 11
-4946.051394890464
 21
2398.104770027088
 31
0.0
  0
LINE
  5
67
100
AcDbEntity
  8
BLACK
  6
CONTINUOUS
 62
          15
100
AcDbLine
 10
-4946.051394890464
 20
2398.104770027088
 30
0.0
 11
-4935.628104715835
 21
2396.837875423938
 31
0.0
  0
LINE
  5
68
100
AcDbEntity
  8
BLACK
  6
CONTINUOUS
 62
          15
100
AcDbLine
 10
-4935.628104715835
 20
2396.837875423938
 30
0.0
 11
-4936.774342690114
 21
2387.407279551655
 31
0.0
  0
LINE
  5
69
100
AcDbEntity
  8
BLACK
  6
GESTRICHELT
 62
          15
100
AcDbLine
 10
-4927.343746817832
 20
2386.261041577375
 30
0.0
 11
-4907.390591340685
 21
2383.835843337058
 31
0.0
  0
LINE
  5
6A
100
AcDbEntity
  8
BLACK
  6
CONTINUOUS
 62
          15
100
AcDbLine
 10
-4936.774342690114
 20
2387.407279551655
 30
0.0
 11
-4927.343746817832
 21
2386.261041577375
 31
0.0
  0
LINE
  5
6B
100
AcDbEntity
  8
BLACK
  6
GESTRICHELT
 62
          15
100
AcDbLine
 10
-4907.390591340685
 20
2383.835843337058
 30
0.0
 11
-4907.33026302625
 21
2384.332190488231
 31
0.0
  0
LINE
  5
6C
100
AcDbEntity
  8
BLACK
  6
CONTINUOUS
 62
          15
100
AcDbLine
 10
-4899.48797803772
 20
2383.379003120146
 30
0.0
 11
-4762.595433744265
 21
2366.740453998767
 31
0.0
  0
LINE
  5
6D
100
AcDbEntity
  8
BLACK
  6
GESTRICHELT
 62
          15
100
AcDbLine
 10
-4907.33026302625
 20
2384.332190488231
 30
0.0
 11
-4899.48797803772
 21
2383.379003120146
 31
0.0
  0
LINE
  5
6E
100
AcDbEntity
  8
BLACK
  6
CONTINUOUS
 62
          15
100
AcDbLine
 10
-4762.595433744265
 20
2366.740453998767
 30
0.0
 11
-4762.655762058701
 21
2366.244106847594
 31
0.0
  0
LINE
  5
6F
100
AcDbEntity
  8
BLACK
  6
CONTINUOUS
 62
          15
100
AcDbLine
 10
-4762.655762058701
 20
2366.244106847594
 30
0.0
 11
-4733.272010709272
 21
2362.672670632997
 31
0.0
  0
LINE
  5
70
100
AcDbEntity
  8
BLACK
  6
GESTRICHELT
 62
          15
100
AcDbLine
 10
-4732.125772734992
 20
2372.10326650528
 30
0.0
 11
-4728.154995525611
 21
2371.620639989794
 31
0.0
  0
LINE
  5
71
100
AcDbEntity
  8
BLACK
  6
GESTRICHELT
 62
          15
100
AcDbLine
 10
-4728.154995525611
 20
2371.620639989794
 30
0.0
 11
-4726.043504520359
 21
2388.992790280842
 31
0.0
  0
LINE
  5
72
100
AcDbEntity
  8
BLACK
  6
CONTINUOUS
 62
          15
100
AcDbLine
 10
-4756.200632414076
 20
2419.353252023082
 30
0.0
 11
-4762.595433744265
 21
2366.740453998767
 31
0.0
  0
LINE
  5
73
100
AcDbEntity
  8
BLACK
  6
GESTRICHELT
 62
          15
100
AcDbLine
 10
-4903.046148460176
 20
2419.579455061376
 30
0.0
 11
-4907.33026302625
 21
2384.332190488231
 31
0.0
  0
LINE
  5
74
100
AcDbEntity
  8
BLACK
  6
CONTINUOUS
 62
          15
100
AcDbLine
 10
-4900.93546169606
 20
2436.944988512546
 30
0.0
 11
-4903.046148460176
 21
2419.579455061376
 31
0.0
  0
LINE
  5
75
100
AcDbEntity
  8
BLACK
  6
CONTINUOUS
 62
          15
100
AcDbLine
 10
-4931.405122705333
 20
2431.582176006033
 30
0.0
 11
-4935.628104715835
 21
2396.837875423938
 31
0.0
  0
LINE
  5
76
100
AcDbEntity
  8
BLACK
  6
CONTINUOUS
 62
          15
100
AcDbLine
 10
-4941.828412879961
 20
2432.849070609183
 30
0.0
 11
-4946.051394890464
 21
2398.104770027088
 31
0.0
  0
LINE
  5
77
100
AcDbEntity
  8
BLACK
  6
GESTRICHELT
 62
          15
100
AcDbLine
 10
-5066.317233338781
 20
2436.395380284208
 30
0.0
 11
-5084.410051356362
 21
2438.594464557815
 31
0.0
  0
LINE
  5
78
100
AcDbEntity
  8
BLACK
  6
CONTINUOUS
 62
          15
100
AcDbLine
 10
-5061.346586091107
 20
2435.791224967918
 30
0.0
 11
-5066.317233338781
 21
2436.395380284208
 31
0.0
  0
LINE
  5
79
100
AcDbEntity
  8
BLACK
  6
GESTRICHELT
 62
          15
100
AcDbLine
 10
-5067.765112885239
 20
2424.483048656061
 30
0.0
 11
-5085.85793090282
 21
2426.682132929668
 31
0.0
  0
LINE
  5
7A
100
AcDbEntity
  8
BLACK
  6
CONTINUOUS
 62
          15
100
AcDbLine
 10
-5062.794465637565
 20
2423.878893339771
 30
0.0
 11
-5067.765112885239
 21
2424.483048656061
 31
0.0
  0
LINE
  5
7B
100
AcDbEntity
  8
BLACK
  6
GESTRICHELT
 62
          15
100
AcDbLine
 10
-5085.263767643853
 20
2437.925795996738
 30
0.0
 11
-5084.410051356362
 21
2438.594464557815
 31
0.0
  0
LINE
  5
7C
100
AcDbEntity
  8
BLACK
  6
GESTRICHELT
 62
          15
100
AcDbLine
 10
-5086.526610597406
 20
2427.535840496782
 30
0.0
 11
-5085.85793090282
 21
2426.682132929668
 31
0.0
  0
LINE
  5
7D
100
AcDbEntity
  8
BLACK
  6
GESTRICHELT
 62
          15
100
AcDbLine
 10
-5085.263767643853
 20
2437.925795996738
 30
0.0
 11
-5086.526610597406
 21
2427.535840496782
 31
0.0
  0
LINE
  5
7E
100
AcDbEntity
  8
BLACK
  6
CONTINUOUS
 62
          15
100
AcDbLine
 10
-5066.409751635233
 20
2435.634192220113
 30
0.0
 11
-5061.439104387559
 21
2435.030036903822
 31
0.0
  0
LINE
  5
7F
100
AcDbEntity
  8
BLACK
  6
GESTRICHELT
 62
          15
100
AcDbLine
 10
-5085.263767643853
 20
2437.925795996738
 30
0.0
 11
-5066.409751635233
 21
2435.634192220113
 31
0.0
  0
LINE
  5
80
100
AcDbEntity
  8
BLACK
  6
CONTINUOUS
 62
          15
100
AcDbLine
 10
-5067.672594588787
 20
2425.244236720157
 30
0.0
 11
-5062.701947341113
 21
2424.640081403866
 31
0.0
  0
LINE
  5
81
100
AcDbEntity
  8
BLACK
  6
GESTRICHELT
 62
          15
100
AcDbLine
 10
-5086.526610597406
 20
2427.535840496782
 30
0.0
 11
-5067.672594588787
 21
2425.244236720157
 31
0.0
  0
LINE
  5
82
100
AcDbEntity
  8
BLACK
  6
GESTRICHELT
 62
          15
100
AcDbLine
 10
-5084.410051356362
 20
2438.594464557815
 30
0.0
 11
-5085.85793090282
 21
2426.682132929668
 31
0.0
  0
LINE
  5
83
100
AcDbEntity
  8
BLACK
  6
CONTINUOUS
 62
          15
100
AcDbLine
 10
-4953.894288180041
 20
2424.745697654487
 30
0.0
 11
-5061.105272833363
 21
2437.776613572608
 31
0.0
  0
LINE
  5
84
100
AcDbEntity
  8
BLACK
  6
CONTINUOUS
 62
          15
100
AcDbLine
 10
-5061.105272833363
 20
2437.776613572608
 30
0.0
 11
-5063.035778895308
 21
2421.893504735079
 31
0.0
  0
LINE
  5
85
100
AcDbEntity
  8
BLACK
  6
CONTINUOUS
 62
          15
100
AcDbLine
 10
-5063.035778895308
 20
2421.893504735079
 30
0.0
 11
-4955.824794241986
 21
2408.862588816958
 31
0.0
  0
LINE
  5
86
100
AcDbEntity
  8
BLACK
  6
CONTINUOUS
 62
          15
100
AcDbLine
 10
-5061.507820750834
 20
2434.46467764475
 30
0.0
 11
-5056.213454447306
 21
2433.821176026291
 31
0.0
  0
LINE
  5
87
100
AcDbEntity
  8
BLACK
  6
CONTINUOUS
 62
          15
100
AcDbLine
 10
-5062.633230977837
 20
2425.205440662938
 30
0.0
 11
-5057.338864674309
 21
2424.561939044479
 31
0.0
  0
LINE
  5
88
100
AcDbEntity
  8
BLACK
  6
CONTINUOUS
 62
          15
100
AcDbLine
 10
-5056.213454447306
 20
2433.821176026291
 30
0.0
 11
-5057.338864674309
 21
2424.561939044479
 31
0.0
  0
LINE
  5
89
100
AcDbEntity
  8
BLACK
  6
CONTINUOUS
 62
          15
100
AcDbLine
 10
-5061.507820750834
 20
2434.46467764475
 30
0.0
 11
-5057.338864674309
 21
2424.561939044479
 31
0.0
  0
LINE
  5
8A
100
AcDbEntity
  8
BLACK
  6
CONTINUOUS
 62
          15
100
AcDbLine
 10
-5056.213454447306
 20
2433.821176026291
 30
0.0
 11
-5062.633230977837
 21
2425.205440662938
 31
0.0
  0
CIRCLE
  5
8B
100
AcDbEntity
  8
BLACK
  6
GESTRICHELT
 62
          15
100
AcDbCircle
 10
-4920.342833250975
 20
2406.564667096711
 30
0.0
 40
5.7225
  0
ARC
  5
8C
100
AcDbEntity
  8
BLACK
  6
GESTRICHELT
 62
          15
100
AcDbCircle
 10
-4920.342833250975
 20
2406.564667096711
 30
0.0
 40
6.5785
100
AcDbArc
 50
103.07
 51
13.07
  0
CIRCLE
  5
8D
100
AcDbEntity
  8
BLACK
  6
CONTINUOUS
 62
          15
100
AcDbCircle
 10
-4743.18806218935
 20
2397.120775414602
 30
0.0
 40
5.7225
  0
ARC
  5
8E
100
AcDbEntity
  8
BLACK
  6
CONTINUOUS
 62
          15
100
AcDbCircle
 10
-4743.18806218935
 20
2397.120775414602
 30
0.0
 40
6.57849
100
AcDbArc
 50
103.07
 51
13.07
  0
LINE
  5
8F
100
AcDbEntity
  8
BLACK
  6
GESTRICHELT
 62
          15
100
AcDbLine
 10
-4913.489079414939
 20
2420.480238397957
 30
0.0
 11
-4918.600005939777
 21
2416.477050303379
 31
0.0
  0
LINE
  5
90
100
AcDbEntity
  8
BLACK
  6
CONTINUOUS
 62
          15
100
AcDbLine
 10
-4910.789175113898
 20
2422.594967440119
 30
0.0
 11
-4913.489079414939
 21
2420.480238397957
 31
0.0
  0
LINE
  5
91
100
AcDbEntity
  8
BLACK
  6
GESTRICHELT
 62
          15
100
AcDbLine
 10
-4915.315012912415
 20
2420.637739244736
 30
0.0
 11
-4919.370701976496
 21
2417.461119198876
 31
0.0
  0
LINE
  5
92
100
AcDbEntity
  8
BLACK
  6
CONTINUOUS
 62
          15
100
AcDbLine
 10
-4911.559882009715
 20
2423.578946993128
 30
0.0
 11
-4915.315012912415
 21
2420.637739244736
 31
0.0
  0
ARC
  5
93
100
AcDbEntity
  8
BLACK
  6
GESTRICHELT
 62
          15
100
AcDbCircle
 10
-4915.07994095833
 20
2420.028023465611
 30
0.0
 40
5.0
100
AcDbArc
 50
168.324946168168
 51
1.815053831834
  0
ARC
  5
94
100
AcDbEntity
  8
BLACK
  6
CONTINUOUS
 62
          15
100
AcDbCircle
 10
-4915.07994095833
 20
2420.028023465611
 30
0.0
 40
5.0
100
AcDbArc
 50
1.815053831834
 51
168.324946168168
  0
LINE
  5
95
100
AcDbEntity
  8
BLACK
  6
CONTINUOUS
 62
          15
100
AcDbLine
 10
-4744.159895655539
 20
2386.224287115449
 30
0.0
 11
-4751.971112700041
 21
2380.106507583847
 31
0.0
  0
LINE
  5
96
100
AcDbEntity
  8
BLACK
  6
CONTINUOUS
 62
          15
100
AcDbLine
 10
-4744.930790231118
 20
2387.208380142271
 30
0.0
 11
-4752.742018134718
 21
2381.090511268183
 31
0.0
  0
CIRCLE
  5
97
100
AcDbEntity
  8
BLACK
  6
CONTINUOUS
 62
          15
100
AcDbCircle
 10
-4748.450954481995
 20
2383.657419045701
 30
0.0
 40
5.0
  0
LINE
  5
98
100
AcDbEntity
  8
BLACK
  6
CONTINUOUS
 62
          15
100
AcDbLine
 10
-5066.104601547888
 20
2441.37611257333
 30
0.0
 11
-5068.691682023116
 21
2441.690558226965
 31
0.0
  0
LINE
  5
99
100
AcDbEntity
  8
BLACK
  6
CONTINUOUS
 62
          15
100
AcDbLine
 10
-5071.278742644459
 20
2442.005001467467
 30
0.0
 11
-5068.691682023116
 21
2441.690558226965
 31
0.0
  0
LINE
  5
9A
100
AcDbEntity
  8
BLACK
  6
CONTINUOUS
 62
          15
100
AcDbLine
 10
-5073.9259490819
 20
2420.225288474005
 30
0.0
 11
-5071.338888460557
 21
2419.910845233503
 31
0.0
  0
LINE
  5
9B
100
AcDbEntity
  8
BLACK
  6
CONTINUOUS
 62
          15
100
AcDbLine
 10
-5068.751807985328
 20
2419.596399579868
 30
0.0
 11
-5071.338888460557
 21
2419.910845233503
 31
0.0
  0
LINE
  5
9C
100
AcDbEntity
  8
BLACK
  6
CONTINUOUS
 62
          15
100
AcDbLine
 10
-5066.766404363814
 20
2435.931174398022
 30
0.0
 11
-5069.353484839043
 21
2436.245620051656
 31
0.0
  0
LINE
  5
9D
100
AcDbEntity
  8
BLACK
  6
CONTINUOUS
 62
          15
100
AcDbLine
 10
-5071.940545460386
 20
2436.560063292158
 30
0.0
 11
-5069.353484839043
 21
2436.245620051656
 31
0.0
  0
LINE
  5
9E
100
AcDbEntity
  8
BLACK
  6
CONTINUOUS
 62
          15
100
AcDbLine
 10
-5073.264146265973
 20
2425.670226649314
 30
0.0
 11
-5070.677085644631
 21
2425.355783408812
 31
0.0
  0
LINE
  5
9F
100
AcDbEntity
  8
BLACK
  6
CONTINUOUS
 62
          15
100
AcDbLine
 10
-5068.090005169402
 20
2425.041337755177
 30
0.0
 11
-5070.677085644631
 21
2425.355783408812
 31
0.0
  0
ARC
  5
A0
100
AcDbEntity
  8
BLACK
  6
CONTINUOUS
 62
          15
100
AcDbCircle
 10
-5105.535475690662
 20
2435.117988961865
 30
0.0
 40
38.777600000016
100
AcDbArc
 50
353.929436999998
 51
1.201609999996
  0
ARC
  5
A1
100
AcDbEntity
  8
BLACK
  6
CONTINUOUS
 62
          15
100
AcDbCircle
 10
-5034.495094793028
 20
2426.483414498603
 30
0.0
 40
38.7776
100
AcDbArc
 50
164.937999999996
 51
172.210999999996
  0
ARC
  5
A2
100
AcDbEntity
  8
BLACK
  6
CONTINUOUS
 62
          15
100
AcDbCircle
 10
-5034.495094793027
 20
2426.483414498608
 30
0.0
 40
38.7776
100
AcDbArc
 50
173.929000000003
 51
181.202000000003
  0
ARC
  5
A3
100
AcDbEntity
  8
BLACK
  6
CONTINUOUS
 62
          15
100
AcDbCircle
 10
-5105.535475690662
 20
2435.117988961864
 30
0.0
 40
38.777600000016
100
AcDbArc
 50
344.938390000003
 51
352.210563
  0
LINE
  5
A4
100
AcDbEntity
  8
BLACK
  6
CONTINUOUS
 62
          15
100
AcDbLine
 10
-5066.975322296238
 20
2431.017133232442
 30
0.0
 11
-5067.04117311201
 21
2430.439214470135
 31
0.0
  0
LINE
  5
A5
100
AcDbEntity
  8
BLACK
  6
CONTINUOUS
 62
          15
100
AcDbLine
 10
-5072.914850553803
 20
2431.739050800571
 30
0.0
 11
-5072.989397371664
 21
2431.162188990333
 31
0.0
  0
LINE
  5
A6
100
AcDbEntity
  8
BLACK
  6
CONTINUOUS
 62
          15
100
AcDbLine
 10
-5073.055208479664
 20
2430.584265401761
 30
0.0
 11
-5072.989397371664
 21
2431.162188990333
 31
0.0
  0
LINE
  5
A7
100
AcDbEntity
  8
BLACK
  6
CONTINUOUS
 62
          15
100
AcDbLine
 10
-5067.115680222099
 20
2429.862347833632
 30
0.0
 11
-5067.04117311201
 21
2430.439214470135
 31
0.0
  0
ARC
  5
A8
100
AcDbEntity
  8
BLACK
  6
CONTINUOUS
 62
          15
100
AcDbCircle
 10
-5076.108933518248
 20
2439.829381594101
 30
0.0
 40
10.134500000026
100
AcDbArc
 50
337.351500000022
 51
353.069999999982
  0
ARC
  5
A9
100
AcDbEntity
  8
BLACK
  6
CONTINUOUS
 62
          15
100
AcDbCircle
 10
-5061.936227036698
 20
2438.106765697131
 30
0.0
 40
10.123199999994
100
AcDbArc
 50
173.069999999998
 51
188.789000000007
  0
ARC
  5
AA
100
AcDbEntity
  8
BLACK
  6
CONTINUOUS
 62
          15
100
AcDbCircle
 10
-5063.92162703849
 20
2421.772020659801
 30
0.0
 40
10.134500000018
100
AcDbArc
 50
157.351000000007
 51
173.069999999979
  0
ARC
  5
AB
100
AcDbEntity
  8
BLACK
  6
CONTINUOUS
 62
          15
100
AcDbCircle
 10
-5078.094333520025
 20
2423.494636556772
 30
0.0
 40
10.123199999986
100
AcDbArc
 50
353.069999999985
 51
8.788500000007
  0
ARC
  5
AC
100
AcDbEntity
  8
BLACK
  6
CONTINUOUS
 62
          15
100
AcDbCircle
 10
-5076.10893351821
 20
2439.829381594096
 30
0.0
 40
10.123199999986
100
AcDbArc
 50
353.069999999985
 51
8.788500000007
  0
ARC
  5
AD
100
AcDbEntity
  8
BLACK
  6
CONTINUOUS
 62
          15
100
AcDbCircle
 10
-5061.936227036676
 20
2438.106765697125
 30
0.0
 40
10.134500000018
100
AcDbArc
 50
157.351000000007
 51
173.069999999979
  0
ARC
  5
AE
100
AcDbEntity
  8
BLACK
  6
CONTINUOUS
 62
          15
100
AcDbCircle
 10
-5063.921627038513
 20
2421.772020659807
 30
0.0
 40
10.123199999994
100
AcDbArc
 50
173.069999999998
 51
188.789000000007
  0
ARC
  5
AF
100
AcDbEntity
  8
BLACK
  6
CONTINUOUS
 62
          15
100
AcDbCircle
 10
-5078.094333520064
 20
2423.494636556777
 30
0.0
 40
10.134500000026
100
AcDbArc
 50
337.351500000022
 51
353.069999999982
  0
LINE
  5
B0
100
AcDbEntity
  8
BLACK
  6
CONTINUOUS
 62
          15
100
AcDbLine
 10
-5066.048473111102
 20
2438.606586988797
 30
0.0
 11
-5067.04117311201
 21
2430.439214470135
 31
0.0
  0
LINE
  5
B1
100
AcDbEntity
  8
BLACK
  6
CONTINUOUS
 62
          15
100
AcDbLine
 10
-5071.996697370757
 20
2439.329561508995
 30
0.0
 11
-5072.989397371664
 21
2431.162188990333
 31
0.0
  0
LINE
  5
B2
100
AcDbEntity
  8
BLACK
  6
CONTINUOUS
 62
          15
100
AcDbLine
 10
-5073.982097372572
 20
2422.994816471671
 30
0.0
 11
-5072.989397371664
 21
2431.162188990333
 31
0.0
  0
LINE
  5
B3
100
AcDbEntity
  8
BLACK
  6
CONTINUOUS
 62
          15
100
AcDbLine
 10
-5068.033873112918
 20
2422.271841951473
 30
0.0
 11
-5067.04117311201
 21
2430.439214470135
 31
0.0
  0
LINE
  5
B4
100
AcDbEntity
  8
WHITE
  6
CONTINUOUS
 62
          15
100
AcDbLine
 10
-5073.713337144894
 20
2425.206023176259
 30
0.0
 11
-5073.64094316757
 21
2425.801639757667
 31
0.0
  0
LINE
  5
B5
100
AcDbEntity
  8
WHITE
  6
CONTINUOUS
 62
          15
100
AcDbLine
 10
-5073.64094316757
 20
2425.801639757667
 30
0.0
 11
-5072.337851575759
 21
2436.522738222999
 31
0.0
  0
LINE
  5
B6
100
AcDbEntity
  8
WHITE
  6
CONTINUOUS
 62
          15
100
AcDbLine
 10
-5072.337851575759
 20
2436.522738222999
 30
0.0
 11
-5072.265457598435
 21
2437.118354804406
 31
0.0
  0
LINE
  5
B7
100
AcDbEntity
  8
WHITE
  6
CONTINUOUS
 62
          15
100
AcDbLine
 10
-5072.265457598435
 20
2437.118354804406
 30
0.0
 11
-5071.867290723159
 21
2440.394246002147
 31
0.0
  0
LINE
  5
B8
100
AcDbEntity
  8
WHITE
  6
CONTINUOUS
 62
          15
100
AcDbLine
 10
-5098.261940174416
 20
2422.145616455102
 30
0.0
 11
-5096.967296102513
 21
2421.988259463191
 31
0.0
  0
LINE
  5
B9
100
AcDbEntity
  8
WHITE
  6
CONTINUOUS
 62
          15
100
AcDbLine
 10
-5094.071537009597
 20
2445.812922719485
 30
0.0
 11
-5095.3661810815
 21
2445.970279711396
 31
0.0
  0
LINE
  5
BA
100
AcDbEntity
  8
WHITE
  6
CONTINUOUS
 62
          15
100
AcDbLine
 10
-5096.967296102513
 20
2421.988259463191
 30
0.0
 11
-5093.199199232454
 21
2421.530267647857
 31
0.0
  0
LINE
  5
BB
100
AcDbEntity
  8
WHITE
  6
CONTINUOUS
 62
          15
100
AcDbLine
 10
-5090.303440139538
 20
2445.354930904151
 30
0.0
 11
-5094.071537009597
 21
2445.812922719485
 31
0.0
  0
LINE
  5
BC
100
AcDbEntity
  8
WHITE
  6
CONTINUOUS
 62
          15
100
AcDbLine
 10
-5130.642464936885
 20
2450.257921414433
 30
0.0
 11
-5095.3661810815
 21
2445.970279711396
 31
0.0
  0
LINE
  5
BD
100
AcDbEntity
  8
WHITE
  6
CONTINUOUS
 62
          15
100
AcDbLine
 10
-5133.5382240298
 20
2426.433258158139
 30
0.0
 11
-5098.261940174416
 21
2422.145616455102
 31
0.0
  0
LINE
  5
BE
100
AcDbEntity
  8
WHITE
  6
CONTINUOUS
 62
          15
100
AcDbLine
 10
-5089.627197199396
 20
2443.459490193945
 30
0.0
 11
-5092.088592428374
 21
2423.208526426095
 31
0.0
  0
LINE
  5
BF
100
AcDbEntity
  8
WHITE
  6
CONTINUOUS
 62
          15
100
AcDbLine
 10
-5072.652124629286
 20
2441.396261840242
 30
0.0
 11
-5075.352629907022
 21
2441.724493665781
 31
0.0
  0
LINE
  5
C0
100
AcDbEntity
  8
WHITE
  6
CONTINUOUS
 62
          15
100
AcDbLine
 10
-5074.111504020169
 20
2421.930131978519
 30
0.0
 11
-5073.713337144894
 21
2425.206023176259
 31
0.0
  0
LINE
  5
C1
100
AcDbEntity
  8
WHITE
  6
CONTINUOUS
 62
          15
100
AcDbLine
 10
-5091.195167556263
 20
2423.099935460111
 30
0.0
 11
-5089.368075093991
 21
2422.877862243196
 31
0.0
  0
LINE
  5
C2
100
AcDbEntity
  8
WHITE
  6
CONTINUOUS
 62
          15
100
AcDbLine
 10
-5086.761891910367
 20
2444.320059173861
 30
0.0
 11
-5086.906679865013
 21
2443.128826011046
 31
0.0
  0
LINE
  5
C3
100
AcDbEntity
  8
WHITE
  6
CONTINUOUS
 62
          15
100
AcDbLine
 10
-5086.906679865013
 20
2443.128826011046
 30
0.0
 11
-5088.733772327285
 21
2443.35089922796
 31
0.0
  0
LINE
  5
C4
100
AcDbEntity
  8
WHITE
  6
CONTINUOUS
 62
          15
100
AcDbLine
 10
-5086.906679865013
 20
2443.128826011046
 30
0.0
 11
-5089.368075093991
 21
2422.877862243196
 31
0.0
  0
LINE
  5
C5
100
AcDbEntity
  8
WHITE
  6
CONTINUOUS
 62
          15
100
AcDbLine
 10
-5089.368075093991
 20
2422.877862243196
 30
0.0
 11
-5089.512863048637
 21
2421.686629080382
 31
0.0
  0
LINE
  5
C6
100
AcDbEntity
  8
WHITE
  6
CONTINUOUS
 62
          15
100
AcDbLine
 10
-5077.958813090646
 20
2420.282296735117
 30
0.0
 11
-5077.814025136
 21
2421.473529897932
 31
0.0
  0
LINE
  5
C7
100
AcDbEntity
  8
WHITE
  6
CONTINUOUS
 62
          15
100
AcDbLine
 10
-5077.814025136
 20
2421.473529897932
 30
0.0
 11
-5075.113519858264
 21
2421.145298072393
 31
0.0
  0
LINE
  5
C8
100
AcDbEntity
  8
WHITE
  6
CONTINUOUS
 62
          15
100
AcDbLine
 10
-5077.814025136
 20
2421.473529897932
 30
0.0
 11
-5075.352629907022
 21
2441.724493665781
 31
0.0
  0
LINE
  5
C9
100
AcDbEntity
  8
WHITE
  6
CONTINUOUS
 62
          15
100
AcDbLine
 10
-5075.352629907022
 20
2441.724493665781
 30
0.0
 11
-5075.207841952376
 21
2442.915726828596
 31
0.0
  0
LINE
  5
CA
100
AcDbEntity
  8
WHITE
  6
CONTINUOUS
 62
          15
100
AcDbLine
 10
-5086.761891910367
 20
2444.320059173861
 30
0.0
 11
-5075.207841952376
 21
2442.915726828596
 31
0.0
  0
LINE
  5
CB
100
AcDbEntity
  8
WHITE
  6
CONTINUOUS
 62
          15
100
AcDbLine
 10
-5089.512863048637
 20
2421.686629080382
 30
0.0
 11
-5077.958813090646
 21
2420.282296735117
 31
0.0
  0
ARC
  5
CC
100
AcDbEntity
  8
WHITE
  6
CONTINUOUS
 62
          15
100
AcDbCircle
 10
-5112.464985526366
 20
2435.960233441895
 30
0.0
 40
20.866107311614
100
AcDbArc
 50
317.963694434247
 51
28.176305565752
  0
ARC
  5
CD
100
AcDbEntity
  8
WHITE
  6
CONTINUOUS
 62
          15
100
AcDbCircle
 10
-5102.646779293847
 20
2434.766883522607
 30
0.0
 40
29.660254037848
100
AcDbArc
 50
149.205074583953
 51
196.934925416046
  0
ARC
  5
CE
100
AcDbEntity
  8
WHITE
  6
CONTINUOUS
 62
          15
100
AcDbCircle
 10
-5113.176977834829
 20
2436.046772260057
 30
0.0
 40
22.516660498396
100
AcDbArc
 50
140.865772496028
 51
205.274227503971
  0
ARC
  5
CF
100
AcDbEntity
  8
WHITE
  6
CONTINUOUS
 62
          15
100
AcDbCircle
 10
-5090.412031105522
 20
2444.46150603204
 30
0.0
 40
0.9
100
AcDbArc
 50
353.069999999999
 51
83.07
  0
ARC
  5
D0
100
AcDbEntity
  8
WHITE
  6
CONTINUOUS
 62
          15
100
AcDbCircle
 10
-5088.6251813613
 20
2444.244324100072
 30
0.0
 40
0.9
100
AcDbArc
 50
173.07
 51
263.069999999999
  0
ARC
  5
D1
100
AcDbEntity
  8
WHITE
  6
CONTINUOUS
 62
          15
100
AcDbCircle
 10
-5072.76071559527
 20
2440.502836968131
 30
0.0
 40
0.9
100
AcDbArc
 50
353.069999999999
 51
83.07
  0
ARC
  5
D2
100
AcDbEntity
  8
WHITE
  6
CONTINUOUS
 62
          15
100
AcDbCircle
 10
-5075.00492889228
 20
2422.038722944503
 30
0.0
 40
0.9
100
AcDbArc
 50
263.069999999999
 51
353.069999999999
  0
ARC
  5
D3
100
AcDbEntity
  8
WHITE
  6
CONTINUOUS
 62
          15
100
AcDbCircle
 10
-5091.303758522247
 20
2422.206510588
 30
0.0
 40
0.9
100
AcDbArc
 50
83.07
 51
173.069999999985
  0
ARC
  5
D4
100
AcDbEntity
  8
WHITE
  6
CONTINUOUS
 62
          15
100
AcDbCircle
 10
-5093.09060826647
 20
2422.423692519968
 30
0.0
 40
0.9
100
AcDbArc
 50
263.069999999999
 51
353.069999999985
  0
LINE
  5
D5
100
AcDbEntity
  8
WHITE
  6
CONTINUOUS
 62
          15
100
AcDbLine
 10
-4892.787826288332
 20
2414.03966947641
 30
0.0
 11
-4889.319240903232
 21
2413.169719544725
 31
0.0
  0
LINE
  5
D6
100
AcDbEntity
  8
WHITE
  6
CONTINUOUS
 62
          15
100
AcDbLine
 10
-4892.914128681557
 20
2416.62873712183
 30
0.0
 11
-4893.162536722454
 21
2414.58497666571
 31
0.0
  0
LINE
  5
D7
100
AcDbEntity
  8
WHITE
  6
CONTINUOUS
 62
          15
100
AcDbLine
 10
-4892.05063516459
 20
2420.104859885954
 30
0.0
 11
-4888.474644501131
 21
2420.118579661144
 31
0.0
  0
LINE
  5
D8
100
AcDbEntity
  8
WHITE
  6
CONTINUOUS
 62
          15
100
AcDbLine
 10
-4892.793472052685
 20
2417.621431424175
 30
0.0
 11
-4892.545064011787
 21
2419.665191880294
 31
0.0
  0
LINE
  5
D9
100
AcDbEntity
  8
WHITE
  6
CONTINUOUS
 62
          15
100
AcDbLine
 10
-4891.339400618974
 20
2416.43733743416
 30
0.0
 11
-4892.914128681557
 21
2416.62873712183
 31
0.0
  0
LINE
  5
DA
100
AcDbEntity
  8
WHITE
  6
CONTINUOUS
 62
          15
100
AcDbLine
 10
-4891.279072304537
 20
2416.933684585331
 30
0.0
 11
-4891.339400618974
 21
2416.43733743416
 31
0.0
  0
LINE
  5
DB
100
AcDbEntity
  8
WHITE
  6
CONTINUOUS
 62
          15
100
AcDbLine
 10
-4891.218743990102
 20
2417.430031736505
 30
0.0
 11
-4891.279072304537
 21
2416.933684585331
 31
0.0
  0
LINE
  5
DC
100
AcDbEntity
  8
WHITE
  6
CONTINUOUS
 62
          15
100
AcDbLine
 10
-4892.793472052685
 20
2417.621431424175
 30
0.0
 11
-4891.218743990102
 21
2417.430031736505
 31
0.0
  0
LINE
  5
DD
100
AcDbEntity
  8
WHITE
  6
CONTINUOUS
 62
          15
100
AcDbLine
 10
-4888.233331243388
 20
2422.103968265836
 30
0.0
 11
-4877.810041068759
 21
2420.837073662685
 31
0.0
  0
LINE
  5
DE
100
AcDbEntity
  8
WHITE
  6
CONTINUOUS
 62
          15
100
AcDbLine
 10
-4888.233331243388
 20
2422.103968265836
 30
0.0
 11
-4889.379569217667
 21
2412.673372393552
 31
0.0
  0
LINE
  5
DF
100
AcDbEntity
  8
WHITE
  6
CONTINUOUS
 62
          15
100
AcDbLine
 10
-4882.250205011231
 20
2384.305923336367
 30
0.0
 11
-4873.812303441293
 21
2383.28034199096
 31
0.0
  0
LINE
  5
E0
100
AcDbEntity
  8
WHITE
  6
CONTINUOUS
 62
          15
100
AcDbLine
 10
-4873.812303441293
 20
2383.28034199096
 30
0.0
 11
-4873.751975126857
 21
2383.776689142133
 31
0.0
  0
LINE
  5
E1
100
AcDbEntity
  8
WHITE
  6
CONTINUOUS
 62
          15
100
AcDbLine
 10
-4873.751975126857
 20
2383.776689142133
 30
0.0
 11
-4868.141441884332
 21
2429.936974201201
 31
0.0
  0
LINE
  5
E2
100
AcDbEntity
  8
WHITE
  6
CONTINUOUS
 62
          15
100
AcDbLine
 10
-4867.148747581987
 20
2429.81631757233
 30
0.0
 11
-4867.209075896422
 21
2429.319970421157
 31
0.0
  0
LINE
  5
E3
100
AcDbEntity
  8
WHITE
  6
CONTINUOUS
 62
          15
100
AcDbLine
 10
-4867.209075896422
 20
2429.319970421157
 30
0.0
 11
-4868.201770198768
 21
2429.440627050029
 31
0.0
  0
LINE
  5
E4
100
AcDbEntity
  8
WHITE
  6
CONTINUOUS
 62
          15
100
AcDbLine
 10
-4867.209075896422
 20
2429.319970421157
 30
0.0
 11
-4872.759280824512
 21
2383.656032513261
 31
0.0
  0
LINE
  5
E5
100
AcDbEntity
  8
WHITE
  6
CONTINUOUS
 62
          15
100
AcDbLine
 10
-4872.759280824512
 20
2383.656032513261
 30
0.0
 11
-4873.751975126857
 21
2383.776689142133
 31
0.0
  0
LINE
  5
E6
100
AcDbEntity
  8
WHITE
  6
CONTINUOUS
 62
          15
100
AcDbLine
 10
-4878.306388219932
 20
2420.897401977121
 30
0.0
 11
-4877.075690605443
 21
2431.022883861045
 31
0.0
  0
LINE
  5
E7
100
AcDbEntity
  8
WHITE
  6
CONTINUOUS
 62
          15
100
AcDbLine
 10
-4868.141441884332
 20
2429.936974201201
 30
0.0
 11
-4877.075690605443
 21
2431.022883861045
 31
0.0
  0
LINE
  5
E8
100
AcDbEntity
  8
WHITE
  6
CONTINUOUS
 62
          15
100
AcDbLine
 10
-4878.306388219932
 20
2420.897401977121
 30
0.0
 11
-4877.810041068759
 21
2420.837073662685
 31
0.0
  0
LINE
  5
E9
100
AcDbEntity
  8
WHITE
  6
CONTINUOUS
 62
          15
100
AcDbLine
 10
-4877.810041068759
 20
2420.837073662685
 30
0.0
 11
-4882.250205011231
 21
2384.305923336367
 31
0.0
  0
LINE
  5
EA
100
AcDbEntity
  8
WHITE
  6
CONTINUOUS
 62
          15
100
AcDbLine
 10
-4790.711286301378
 20
2420.525757149225
 30
0.0
 11
-4867.148747581987
 21
2429.81631757233
 31
0.0
  0
LINE
  5
EB
100
AcDbEntity
  8
WHITE
  6
CONTINUOUS
 62
          15
100
AcDbLine
 10
-4796.382147858339
 20
2373.869124938983
 30
0.0
 11
-4790.711286301378
 21
2420.525757149225
 31
0.0
  0
LINE
  5
EC
100
AcDbEntity
  8
WHITE
  6
CONTINUOUS
 62
          15
100
AcDbLine
 10
-4872.819609138947
 20
2383.159685362088
 30
0.0
 11
-4796.382147858339
 21
2373.869124938983
 31
0.0
  0
LINE
  5
ED
100
AcDbEntity
  8
WHITE
  6
CONTINUOUS
 62
          15
100
AcDbLine
 10
-4872.759280824512
 20
2383.656032513261
 30
0.0
 11
-4872.819609138947
 21
2383.159685362088
 31
0.0
  0
LINE
  5
EE
100
AcDbEntity
  8
WHITE
  6
CONTINUOUS
 62
          15
100
AcDbLine
 10
-4895.324737281898
 20
2401.055822019741
 30
0.0
 11
-4894.691289980323
 21
2406.267467107055
 31
0.0
  0
LINE
  5
EF
100
AcDbEntity
  8
WHITE
  6
CONTINUOUS
 62
          15
100
AcDbLine
 10
-4896.561467727831
 20
2390.880705420699
 30
0.0
 11
-4892.821112232814
 21
2421.654228793412
 31
0.0
  0
LINE
  5
F0
100
AcDbEntity
  8
WHITE
  6
CONTINUOUS
 62
          15
100
AcDbLine
 10
-4891.707761301597
 20
2422.526266466886
 30
0.0
 11
-4888.233331243388
 21
2422.103968265836
 31
0.0
  0
LINE
  5
F1
100
AcDbEntity
  8
WHITE
  6
CONTINUOUS
 62
          15
100
AcDbLine
 10
-4895.689430054356
 20
2389.767354489482
 30
0.0
 11
-4881.791709821519
 21
2388.078161685281
 31
0.0
  0
LINE
  5
F2
100
AcDbEntity
  8
WHITE
  6
CONTINUOUS
 62
           1
100
AcDbLine
 10
-4922.476800609201
 20
2384.863602991142
 30
0.0
 11
-4904.608303166981
 21
2382.691783671455
 31
0.0
  0
LINE
  5
F3
100
AcDbEntity
  8
WHITE
  6
CONTINUOUS
 62
           1
100
AcDbLine
 10
-4904.608303166981
 20
2382.691783671455
 30
0.0
 11
-4905.131525771065
 21
2383.359794230184
 31
0.0
  0
LINE
  5
F4
100
AcDbEntity
  8
WHITE
  6
CONTINUOUS
 62
           1
100
AcDbLine
 10
-4905.131525771065
 20
2383.359794230184
 30
0.0
 11
-4904.463515212335
 21
2383.883016834269
 31
0.0
  0
LINE
  5
F5
100
AcDbEntity
  8
WHITE
  6
CONTINUOUS
 62
           1
100
AcDbLine
 10
-4904.463515212335
 20
2383.883016834269
 30
0.0
 11
-4922.332012654555
 21
2386.054836153956
 31
0.0
  0
LINE
  5
F6
100
AcDbEntity
  8
WHITE
  6
CONTINUOUS
 62
           1
100
AcDbLine
 10
-4922.332012654555
 20
2386.054836153956
 30
0.0
 11
-4921.808790050471
 21
2385.386825595226
 31
0.0
  0
LINE
  5
F7
100
AcDbEntity
  8
WHITE
  6
CONTINUOUS
 62
           1
100
AcDbLine
 10
-4921.808790050471
 20
2385.386825595226
 30
0.0
 11
-4922.476800609201
 21
2384.863602991142
 31
0.0
  0
LINE
  5
F8
100
AcDbEntity
  8
WHITE
  6
CONTINUOUS
 62
           1
100
AcDbLine
 10
-4921.808790050471
 20
2385.386825595226
 30
0.0
 11
-4905.131525771065
 21
2383.359794230184
 31
0.0
  0
LINE
  5
F9
100
AcDbEntity
  8
WHITE
  6
CONTINUOUS
 62
           1
100
AcDbLine
 10
-4922.050103308214
 20
2383.401436990534
 30
0.0
 11
-4922.573325912298
 21
2384.069447549265
 31
0.0
  0
LINE
  5
FA
100
AcDbEntity
  8
WHITE
  6
CONTINUOUS
 62
           1
100
AcDbLine
 10
-4922.573325912298
 20
2384.069447549265
 30
0.0
 11
-4904.704828470078
 21
2381.897628229578
 31
0.0
  0
LINE
  5
FB
100
AcDbEntity
  8
WHITE
  6
CONTINUOUS
 62
           1
100
AcDbLine
 10
-4904.704828470078
 20
2381.897628229578
 30
0.0
 11
-4905.372839028808
 21
2381.374405625493
 31
0.0
  0
LINE
  5
FC
100
AcDbEntity
  8
WHITE
  6
CONTINUOUS
 62
           1
100
AcDbLine
 10
-4905.372839028808
 20
2381.374405625493
 30
0.0
 11
-4904.849616424724
 21
2380.706395066764
 31
0.0
  0
LINE
  5
FD
100
AcDbEntity
  8
WHITE
  6
CONTINUOUS
 62
           1
100
AcDbLine
 10
-4904.849616424724
 20
2380.706395066764
 30
0.0
 11
-4922.718113866944
 21
2382.878214386451
 31
0.0
  0
LINE
  5
FE
100
AcDbEntity
  8
WHITE
  6
CONTINUOUS
 62
           1
100
AcDbLine
 10
-4922.718113866944
 20
2382.878214386451
 30
0.0
 11
-4922.050103308214
 21
2383.401436990534
 31
0.0
  0
LINE
  5
FF
100
AcDbEntity
  8
WHITE
  6
CONTINUOUS
 62
           1
100
AcDbLine
 10
-4905.372839028808
 20
2381.374405625493
 30
0.0
 11
-4922.050103308214
 21
2383.401436990534
 31
0.0
  0
LINE
  5
100
100
AcDbEntity
  8
WHITE
  6
CONTINUOUS
 62
           1
100
AcDbLine
 10
-4922.291416565957
 20
2381.416048385843
 30
0.0
 11
-4922.814639170041
 21
2382.084058944573
 31
0.0
  0
LINE
  5
101
100
AcDbEntity
  8
WHITE
  6
CONTINUOUS
 62
           1
100
AcDbLine
 10
-4922.814639170041
 20
2382.084058944573
 30
0.0
 11
-4904.946141727821
 21
2379.912239624886
 31
0.0
  0
LINE
  5
102
100
AcDbEntity
  8
WHITE
  6
CONTINUOUS
 62
           1
100
AcDbLine
 10
-4904.946141727821
 20
2379.912239624886
 30
0.0
 11
-4905.614152286551
 21
2379.389017020802
 31
0.0
  0
LINE
  5
103
100
AcDbEntity
  8
WHITE
  6
CONTINUOUS
 62
           1
100
AcDbLine
 10
-4905.614152286551
 20
2379.389017020802
 30
0.0
 11
-4905.090929682466
 21
2378.721006462073
 31
0.0
  0
LINE
  5
104
100
AcDbEntity
  8
WHITE
  6
CONTINUOUS
 62
           1
100
AcDbLine
 10
-4905.090929682466
 20
2378.721006462073
 30
0.0
 11
-4922.959427124686
 21
2380.89282578176
 31
0.0
  0
LINE
  5
105
100
AcDbEntity
  8
WHITE
  6
CONTINUOUS
 62
           1
100
AcDbLine
 10
-4922.959427124686
 20
2380.89282578176
 30
0.0
 11
-4922.291416565957
 21
2381.416048385843
 31
0.0
  0
LINE
  5
106
100
AcDbEntity
  8
WHITE
  6
CONTINUOUS
 62
           1
100
AcDbLine
 10
-4922.5327298237
 20
2379.430659781152
 30
0.0
 11
-4923.055952427784
 21
2380.098670339883
 31
0.0
  0
LINE
  5
107
100
AcDbEntity
  8
WHITE
  6
CONTINUOUS
 62
           1
100
AcDbLine
 10
-4923.055952427784
 20
2380.098670339883
 30
0.0
 11
-4917.007546165928
 21
2379.363519238606
 31
0.0
  0
LINE
  5
108
100
AcDbEntity
  8
WHITE
  6
CONTINUOUS
 62
           1
100
AcDbLine
 10
-4905.187454985564
 20
2377.926851020196
 30
0.0
 11
-4905.855465544294
 21
2377.403628416111
 31
0.0
  0
LINE
  5
109
100
AcDbEntity
  8
WHITE
  6
CONTINUOUS
 62
           1
100
AcDbLine
 10
-4905.855465544294
 20
2377.403628416111
 30
0.0
 11
-4905.332242940209
 21
2376.735617857382
 31
0.0
  0
LINE
  5
10A
100
AcDbEntity
  8
WHITE
  6
CONTINUOUS
 62
           1
100
AcDbLine
 10
-4905.332242940209
 20
2376.735617857382
 30
0.0
 11
-4911.380649202065
 21
2377.470768958659
 31
0.0
  0
LINE
  5
10B
100
AcDbEntity
  8
WHITE
  6
CONTINUOUS
 62
           1
100
AcDbLine
 10
-4923.200740382429
 20
2378.907437177069
 30
0.0
 11
-4922.5327298237
 21
2379.430659781152
 31
0.0
  0
LINE
  5
10C
100
AcDbEntity
  8
WHITE
  6
CONTINUOUS
 62
           1
100
AcDbLine
 10
-4922.774043081442
 20
2377.445271176462
 30
0.0
 11
-4923.297265685527
 21
2378.113281735191
 31
0.0
  0
LINE
  5
10D
100
AcDbEntity
  8
WHITE
  6
CONTINUOUS
 62
           1
100
AcDbLine
 10
-4923.297265685527
 20
2378.113281735191
 30
0.0
 11
-4917.989623892756
 21
2377.468166552743
 31
0.0
  0
LINE
  5
10E
100
AcDbEntity
  8
WHITE
  6
CONTINUOUS
 62
           1
100
AcDbLine
 10
-4905.428768243307
 20
2375.941462415504
 30
0.0
 11
-4906.096778802037
 21
2375.418239811421
 31
0.0
  0
LINE
  5
10F
100
AcDbEntity
  8
WHITE
  6
CONTINUOUS
 62
           1
100
AcDbLine
 10
-4922.5327298237
 20
2379.430659781152
 30
0.0
 11
-4916.484323561844
 21
2378.695508679875
 31
0.0
  0
LINE
  5
110
100
AcDbEntity
  8
WHITE
  6
CONTINUOUS
 62
           1
100
AcDbLine
 10
-4922.291416565957
 20
2381.416048385843
 30
0.0
 11
-4905.614152286551
 21
2379.389017020802
 31
0.0
  0
LINE
  5
111
100
AcDbEntity
  8
WHITE
  6
CONTINUOUS
 62
           1
100
AcDbLine
 10
-4917.152334120574
 20
2378.172286075792
 30
0.0
 11
-4916.484323561844
 21
2378.695508679875
 31
0.0
  0
LINE
  5
112
100
AcDbEntity
  8
WHITE
  6
CONTINUOUS
 62
           1
100
AcDbLine
 10
-4917.152334120574
 20
2378.172286075792
 30
0.0
 11
-4923.200740382429
 21
2378.907437177069
 31
0.0
  0
LINE
  5
113
100
AcDbEntity
  8
WHITE
  6
CONTINUOUS
 62
           1
100
AcDbLine
 10
-4916.484323561844
 20
2378.695508679875
 30
0.0
 11
-4917.007546165928
 21
2379.363519238606
 31
0.0
  0
LINE
  5
114
100
AcDbEntity
  8
WHITE
  6
CONTINUOUS
 62
           1
100
AcDbLine
 10
-4917.989623892756
 20
2377.468166552743
 30
0.0
 11
-4917.466401288672
 21
2376.800155994014
 31
0.0
  0
LINE
  5
115
100
AcDbEntity
  8
WHITE
  6
CONTINUOUS
 62
           1
100
AcDbLine
 10
-4911.404420594808
 20
2376.063354993869
 30
0.0
 11
-4910.736410036077
 21
2376.586577597953
 31
0.0
  0
LINE
  5
116
100
AcDbEntity
  8
WHITE
  6
CONTINUOUS
 62
           1
100
AcDbLine
 10
-4910.736410036077
 20
2376.586577597953
 30
0.0
 11
-4905.428768243307
 21
2375.941462415504
 31
0.0
  0
LINE
  5
117
100
AcDbEntity
  8
WHITE
  6
CONTINUOUS
 62
           1
100
AcDbLine
 10
-4911.380649202065
 20
2377.470768958659
 30
0.0
 11
-4911.90387180615
 21
2378.138779517388
 31
0.0
  0
LINE
  5
118
100
AcDbEntity
  8
WHITE
  6
CONTINUOUS
 62
           1
100
AcDbLine
 10
-4911.90387180615
 20
2378.138779517388
 30
0.0
 11
-4905.855465544294
 21
2377.403628416111
 31
0.0
  0
LINE
  5
119
100
AcDbEntity
  8
WHITE
  6
CONTINUOUS
 62
           1
100
AcDbLine
 10
-4911.90387180615
 20
2378.138779517388
 30
0.0
 11
-4911.23586124742
 21
2378.662002121473
 31
0.0
  0
LINE
  5
11A
100
AcDbEntity
  8
WHITE
  6
CONTINUOUS
 62
           1
100
AcDbLine
 10
-4911.23586124742
 20
2378.662002121473
 30
0.0
 11
-4905.187454985564
 21
2377.926851020196
 31
0.0
  0
LINE
  5
11B
100
AcDbEntity
  8
WHITE
  6
CONTINUOUS
 62
           1
100
AcDbLine
 10
-4923.055952427784
 20
2380.098670339883
 30
0.0
 11
-4923.200740382429
 21
2378.907437177069
 31
0.0
  0
LINE
  5
11C
100
AcDbEntity
  8
WHITE
  6
CONTINUOUS
 62
           1
100
AcDbLine
 10
-4922.959427124686
 20
2380.89282578176
 30
0.0
 11
-4922.814639170041
 21
2382.084058944573
 31
0.0
  0
LINE
  5
11D
100
AcDbEntity
  8
WHITE
  6
CONTINUOUS
 62
           1
100
AcDbLine
 10
-4922.718113866944
 20
2382.878214386451
 30
0.0
 11
-4922.573325912298
 21
2384.069447549265
 31
0.0
  0
LINE
  5
11E
100
AcDbEntity
  8
WHITE
  6
CONTINUOUS
 62
           1
100
AcDbLine
 10
-4922.476800609201
 20
2384.863602991142
 30
0.0
 11
-4922.332012654555
 21
2386.054836153956
 31
0.0
  0
LINE
  5
11F
100
AcDbEntity
  8
WHITE
  6
CONTINUOUS
 62
           1
100
AcDbLine
 10
-4923.297265685527
 20
2378.113281735191
 30
0.0
 11
-4923.36965966285
 21
2377.517665153785
 31
0.0
  0
LINE
  5
120
100
AcDbEntity
  8
WHITE
  6
CONTINUOUS
 62
           1
100
AcDbLine
 10
-4905.501162220629
 20
2375.345845834098
 30
0.0
 11
-4905.428768243307
 21
2375.941462415504
 31
0.0
  0
LINE
  5
121
100
AcDbEntity
  8
WHITE
  6
CONTINUOUS
 62
           1
100
AcDbLine
 10
-4905.332242940209
 20
2376.735617857382
 30
0.0
 11
-4905.187454985564
 21
2377.926851020196
 31
0.0
  0
LINE
  5
122
100
AcDbEntity
  8
WHITE
  6
CONTINUOUS
 62
           1
100
AcDbLine
 10
-4905.090929682466
 20
2378.721006462073
 30
0.0
 11
-4904.946141727821
 21
2379.912239624886
 31
0.0
  0
LINE
  5
123
100
AcDbEntity
  8
WHITE
  6
CONTINUOUS
 62
           1
100
AcDbLine
 10
-4904.849616424724
 20
2380.706395066764
 30
0.0
 11
-4904.704828470078
 21
2381.897628229578
 31
0.0
  0
LINE
  5
124
100
AcDbEntity
  8
WHITE
  6
CONTINUOUS
 62
           1
100
AcDbLine
 10
-4904.608303166981
 20
2382.691783671455
 30
0.0
 11
-4904.463515212335
 21
2383.883016834269
 31
0.0
  0
LINE
  5
125
100
AcDbEntity
  8
WHITE
  6
CONTINUOUS
 62
           1
100
AcDbLine
 10
-4906.538809228924
 20
2366.808674833926
 30
0.0
 11
-4906.394021274278
 21
2367.99990799674
 31
0.0
  0
LINE
  5
126
100
AcDbEntity
  8
WHITE
  6
CONTINUOUS
 62
           1
100
AcDbLine
 10
-4906.297495971181
 20
2368.794063438617
 30
0.0
 11
-4906.152708016535
 21
2369.985296601431
 31
0.0
  0
LINE
  5
127
100
AcDbEntity
  8
WHITE
  6
CONTINUOUS
 62
           1
100
AcDbLine
 10
-4906.056182713438
 20
2370.779452043308
 30
0.0
 11
-4905.911394758792
 21
2371.970685206122
 31
0.0
  0
LINE
  5
128
100
AcDbEntity
  8
WHITE
  6
CONTINUOUS
 62
           1
100
AcDbLine
 10
-4905.814869455695
 20
2372.764840647999
 30
0.0
 11
-4905.670081501049
 21
2373.956073810813
 31
0.0
  0
LINE
  5
129
100
AcDbEntity
  8
WHITE
  6
CONTINUOUS
 62
           1
100
AcDbLine
 10
-4905.573556197952
 20
2374.750229252691
 30
0.0
 11
-4905.501162220629
 21
2375.345845834098
 31
0.0
  0
LINE
  5
12A
100
AcDbEntity
  8
WHITE
  6
CONTINUOUS
 62
           1
100
AcDbLine
 10
-4923.36965966285
 20
2377.517665153785
 30
0.0
 11
-4923.442053640172
 21
2376.922048572378
 31
0.0
  0
LINE
  5
12B
100
AcDbEntity
  8
WHITE
  6
CONTINUOUS
 62
           1
100
AcDbLine
 10
-4924.407306671144
 20
2368.980494153613
 30
0.0
 11
-4924.262518716499
 21
2370.171727316427
 31
0.0
  0
LINE
  5
12C
100
AcDbEntity
  8
WHITE
  6
CONTINUOUS
 62
           1
100
AcDbLine
 10
-4924.165993413401
 20
2370.965882758304
 30
0.0
 11
-4924.021205458756
 21
2372.157115921118
 31
0.0
  0
LINE
  5
12D
100
AcDbEntity
  8
WHITE
  6
CONTINUOUS
 62
           1
100
AcDbLine
 10
-4923.924680155658
 20
2372.951271362995
 30
0.0
 11
-4923.779892201012
 21
2374.142504525809
 31
0.0
  0
LINE
  5
12E
100
AcDbEntity
  8
WHITE
  6
CONTINUOUS
 62
           1
100
AcDbLine
 10
-4923.538578943269
 20
2376.1278931305
 30
0.0
 11
-4923.683366897915
 21
2374.936659967686
 31
0.0
  0
LINE
  5
12F
100
AcDbEntity
  8
WHITE
  6
CONTINUOUS
 62
           1
100
AcDbLine
 10
-4905.814869455695
 20
2372.764840647999
 30
0.0
 11
-4911.863275717551
 21
2373.499991749276
 31
0.0
  0
LINE
  5
130
100
AcDbEntity
  8
WHITE
  6
CONTINUOUS
 62
           1
100
AcDbLine
 10
-4911.863275717551
 20
2373.499991749276
 30
0.0
 11
-4912.386498321636
 21
2374.168002308007
 31
0.0
  0
LINE
  5
131
100
AcDbEntity
  8
WHITE
  6
CONTINUOUS
 62
           1
100
AcDbLine
 10
-4906.33809205978
 20
2373.43285120673
 30
0.0
 11
-4912.386498321636
 21
2374.168002308007
 31
0.0
  0
LINE
  5
132
100
AcDbEntity
  8
WHITE
  6
CONTINUOUS
 62
           1
100
AcDbLine
 10
-4912.386498321636
 20
2374.168002308007
 30
0.0
 11
-4911.718487762905
 21
2374.69122491209
 31
0.0
  0
LINE
  5
133
100
AcDbEntity
  8
WHITE
  6
CONTINUOUS
 62
           1
100
AcDbLine
 10
-4905.573556197952
 20
2374.750229252691
 30
0.0
 11
-4910.881197990723
 21
2375.395344435139
 31
0.0
  0
LINE
  5
134
100
AcDbEntity
  8
WHITE
  6
CONTINUOUS
 62
           1
100
AcDbLine
 10
-4910.881197990723
 20
2375.395344435139
 30
0.0
 11
-4911.404420594808
 21
2376.063354993869
 31
0.0
  0
LINE
  5
135
100
AcDbEntity
  8
WHITE
  6
CONTINUOUS
 62
           1
100
AcDbLine
 10
-4922.774043081442
 20
2377.445271176462
 30
0.0
 11
-4917.466401288672
 21
2376.800155994014
 31
0.0
  0
LINE
  5
136
100
AcDbEntity
  8
WHITE
  6
CONTINUOUS
 62
           1
100
AcDbLine
 10
-4917.466401288672
 20
2376.800155994014
 30
0.0
 11
-4918.134411847402
 21
2376.276933389929
 31
0.0
  0
LINE
  5
137
100
AcDbEntity
  8
WHITE
  6
CONTINUOUS
 62
           1
100
AcDbLine
 10
-4917.63496063606
 20
2374.201508866409
 30
0.0
 11
-4916.966950077329
 21
2374.724731470494
 31
0.0
  0
LINE
  5
138
100
AcDbEntity
  8
WHITE
  6
CONTINUOUS
 62
           1
100
AcDbLine
 10
-4923.538578943269
 20
2376.1278931305
 30
0.0
 11
-4917.490172681414
 21
2375.392742029223
 31
0.0
  0
LINE
  5
139
100
AcDbEntity
  8
WHITE
  6
CONTINUOUS
 62
           1
100
AcDbLine
 10
-4916.966950077329
 20
2374.724731470494
 30
0.0
 11
-4917.490172681414
 21
2375.392742029223
 31
0.0
  0
LINE
  5
13A
100
AcDbEntity
  8
WHITE
  6
CONTINUOUS
 62
           1
100
AcDbLine
 10
-4906.579405317523
 20
2371.447462602038
 30
0.0
 11
-4923.256669596928
 21
2373.47449396708
 31
0.0
  0
LINE
  5
13B
100
AcDbEntity
  8
WHITE
  6
CONTINUOUS
 62
           1
100
AcDbLine
 10
-4916.966950077329
 20
2374.724731470494
 30
0.0
 11
-4923.015356339185
 21
2375.459882571771
 31
0.0
  0
LINE
  5
13C
100
AcDbEntity
  8
WHITE
  6
CONTINUOUS
 62
           1
100
AcDbLine
 10
-4911.404420594808
 20
2376.063354993869
 30
0.0
 11
-4906.096778802037
 21
2375.418239811421
 31
0.0
  0
LINE
  5
13D
100
AcDbEntity
  8
WHITE
  6
CONTINUOUS
 62
           1
100
AcDbLine
 10
-4906.096778802037
 20
2375.418239811421
 30
0.0
 11
-4905.573556197952
 21
2374.750229252691
 31
0.0
  0
LINE
  5
13E
100
AcDbEntity
  8
WHITE
  6
CONTINUOUS
 62
           1
100
AcDbLine
 10
-4918.134411847402
 20
2376.276933389929
 30
0.0
 11
-4923.442053640172
 21
2376.922048572378
 31
0.0
  0
LINE
  5
13F
100
AcDbEntity
  8
WHITE
  6
CONTINUOUS
 62
           1
100
AcDbLine
 10
-4923.442053640172
 20
2376.922048572378
 30
0.0
 11
-4922.774043081442
 21
2377.445271176462
 31
0.0
  0
LINE
  5
140
100
AcDbEntity
  8
WHITE
  6
CONTINUOUS
 62
           1
100
AcDbLine
 10
-4923.015356339185
 20
2375.459882571771
 30
0.0
 11
-4923.538578943269
 21
2376.1278931305
 31
0.0
  0
LINE
  5
141
100
AcDbEntity
  8
WHITE
  6
CONTINUOUS
 62
           1
100
AcDbLine
 10
-4911.718487762905
 20
2374.69122491209
 30
0.0
 11
-4905.670081501049
 21
2373.956073810813
 31
0.0
  0
LINE
  5
142
100
AcDbEntity
  8
WHITE
  6
CONTINUOUS
 62
           1
100
AcDbLine
 10
-4905.670081501049
 20
2373.956073810813
 30
0.0
 11
-4906.33809205978
 21
2373.43285120673
 31
0.0
  0
LINE
  5
143
100
AcDbEntity
  8
WHITE
  6
CONTINUOUS
 62
           1
100
AcDbLine
 10
-4906.33809205978
 20
2373.43285120673
 30
0.0
 11
-4905.814869455695
 21
2372.764840647999
 31
0.0
  0
LINE
  5
144
100
AcDbEntity
  8
WHITE
  6
CONTINUOUS
 62
           1
100
AcDbLine
 10
-4917.63496063606
 20
2374.201508866409
 30
0.0
 11
-4923.683366897915
 21
2374.936659967686
 31
0.0
  0
LINE
  5
145
100
AcDbEntity
  8
WHITE
  6
CONTINUOUS
 62
           1
100
AcDbLine
 10
-4923.683366897915
 20
2374.936659967686
 30
0.0
 11
-4923.015356339185
 21
2375.459882571771
 31
0.0
  0
LINE
  5
146
100
AcDbEntity
  8
WHITE
  6
CONTINUOUS
 62
           1
100
AcDbLine
 10
-4923.256669596928
 20
2373.47449396708
 30
0.0
 11
-4923.779892201012
 21
2374.142504525809
 31
0.0
  0
LINE
  5
147
100
AcDbEntity
  8
WHITE
  6
CONTINUOUS
 62
           1
100
AcDbLine
 10
-4923.779892201012
 20
2374.142504525809
 30
0.0
 11
-4905.911394758792
 21
2371.970685206122
 31
0.0
  0
LINE
  5
148
100
AcDbEntity
  8
WHITE
  6
CONTINUOUS
 62
           1
100
AcDbLine
 10
-4905.911394758792
 20
2371.970685206122
 30
0.0
 11
-4906.579405317523
 21
2371.447462602038
 31
0.0
  0
LINE
  5
149
100
AcDbEntity
  8
WHITE
  6
CONTINUOUS
 62
           1
100
AcDbLine
 10
-4906.579405317523
 20
2371.447462602038
 30
0.0
 11
-4906.056182713438
 21
2370.779452043308
 31
0.0
  0
LINE
  5
14A
100
AcDbEntity
  8
WHITE
  6
CONTINUOUS
 62
           1
100
AcDbLine
 10
-4906.056182713438
 20
2370.779452043308
 30
0.0
 11
-4923.924680155658
 21
2372.951271362995
 31
0.0
  0
LINE
  5
14B
100
AcDbEntity
  8
WHITE
  6
CONTINUOUS
 62
           1
100
AcDbLine
 10
-4923.924680155658
 20
2372.951271362995
 30
0.0
 11
-4923.256669596928
 21
2373.47449396708
 31
0.0
  0
LINE
  5
14C
100
AcDbEntity
  8
WHITE
  6
CONTINUOUS
 62
           1
100
AcDbLine
 10
-4923.497982854671
 20
2371.489105362389
 30
0.0
 11
-4906.820718575266
 21
2369.462073997348
 31
0.0
  0
LINE
  5
14D
100
AcDbEntity
  8
WHITE
  6
CONTINUOUS
 62
           1
100
AcDbLine
 10
-4923.497982854671
 20
2371.489105362389
 30
0.0
 11
-4924.021205458756
 21
2372.157115921118
 31
0.0
  0
LINE
  5
14E
100
AcDbEntity
  8
WHITE
  6
CONTINUOUS
 62
           1
100
AcDbLine
 10
-4924.021205458756
 20
2372.157115921118
 30
0.0
 11
-4906.152708016535
 21
2369.985296601431
 31
0.0
  0
LINE
  5
14F
100
AcDbEntity
  8
WHITE
  6
CONTINUOUS
 62
           1
100
AcDbLine
 10
-4906.152708016535
 20
2369.985296601431
 30
0.0
 11
-4906.820718575266
 21
2369.462073997348
 31
0.0
  0
LINE
  5
150
100
AcDbEntity
  8
WHITE
  6
CONTINUOUS
 62
           1
100
AcDbLine
 10
-4906.820718575266
 20
2369.462073997348
 30
0.0
 11
-4906.297495971181
 21
2368.794063438617
 31
0.0
  0
LINE
  5
151
100
AcDbEntity
  8
WHITE
  6
CONTINUOUS
 62
           1
100
AcDbLine
 10
-4906.297495971181
 20
2368.794063438617
 30
0.0
 11
-4924.165993413401
 21
2370.965882758304
 31
0.0
  0
LINE
  5
152
100
AcDbEntity
  8
WHITE
  6
CONTINUOUS
 62
           1
100
AcDbLine
 10
-4924.165993413401
 20
2370.965882758304
 30
0.0
 11
-4923.497982854671
 21
2371.489105362389
 31
0.0
  0
LINE
  5
153
100
AcDbEntity
  8
WHITE
  6
CONTINUOUS
 62
           1
100
AcDbLine
 10
-4907.062031833009
 20
2367.476685392656
 30
0.0
 11
-4923.739296112414
 21
2369.503716757698
 31
0.0
  0
LINE
  5
154
100
AcDbEntity
  8
WHITE
  6
CONTINUOUS
 62
           1
100
AcDbLine
 10
-4924.262518716499
 20
2370.171727316427
 30
0.0
 11
-4923.739296112414
 21
2369.503716757698
 31
0.0
  0
LINE
  5
155
100
AcDbEntity
  8
WHITE
  6
CONTINUOUS
 62
           1
100
AcDbLine
 10
-4923.739296112414
 20
2369.503716757698
 30
0.0
 11
-4924.407306671144
 21
2368.980494153613
 31
0.0
  0
LINE
  5
156
100
AcDbEntity
  8
WHITE
  6
CONTINUOUS
 62
           1
100
AcDbLine
 10
-4924.407306671144
 20
2368.980494153613
 30
0.0
 11
-4906.538809228924
 21
2366.808674833926
 31
0.0
  0
LINE
  5
157
100
AcDbEntity
  8
WHITE
  6
CONTINUOUS
 62
           1
100
AcDbLine
 10
-4906.538809228924
 20
2366.808674833926
 30
0.0
 11
-4907.062031833009
 21
2367.476685392656
 31
0.0
  0
LINE
  5
158
100
AcDbEntity
  8
WHITE
  6
CONTINUOUS
 62
           1
100
AcDbLine
 10
-4907.062031833009
 20
2367.476685392656
 30
0.0
 11
-4906.394021274278
 21
2367.99990799674
 31
0.0
  0
LINE
  5
159
100
AcDbEntity
  8
WHITE
  6
CONTINUOUS
 62
           1
100
AcDbLine
 10
-4906.394021274278
 20
2367.99990799674
 30
0.0
 11
-4924.262518716499
 21
2370.171727316427
 31
0.0
  0
LINE
  5
15A
100
AcDbEntity
  8
WHITE
  6
CONTINUOUS
 62
          15
100
AcDbLine
 10
-4950.591447453909
 20
2367.299298774948
 30
0.0
 11
-4949.682999453701
 21
2368.507919395327
 31
0.0
  0
LINE
  5
15B
100
AcDbEntity
  8
WHITE
  6
CONTINUOUS
 62
          15
100
AcDbLine
 10
-4945.469988022419
 20
2367.995850618973
 30
0.0
 11
-4949.682999453701
 21
2368.507919395327
 31
0.0
  0
LINE
  5
15C
100
AcDbEntity
  8
WHITE
  6
CONTINUOUS
 62
          15
100
AcDbLine
 10
-4949.682999453701
 20
2368.507919395327
 30
0.0
 11
-4950.117483694621
 21
2371.198803740098
 31
0.0
  0
LINE
  5
15D
100
AcDbEntity
  8
WHITE
  6
CONTINUOUS
 62
          15
100
AcDbLine
 10
-4949.634857179135
 20
2375.16958094948
 30
0.0
 11
-4948.568421259166
 21
2377.678036558243
 31
0.0
  0
LINE
  5
15E
100
AcDbEntity
  8
WHITE
  6
CONTINUOUS
 62
          15
100
AcDbLine
 10
-4944.355409827883
 20
2377.165967781888
 30
0.0
 11
-4948.568421259166
 21
2377.678036558243
 31
0.0
  0
LINE
  5
15F
100
AcDbEntity
  8
WHITE
  6
CONTINUOUS
 62
          15
100
AcDbLine
 10
-4948.568421259166
 20
2377.678036558243
 30
0.0
 11
-4949.160893419848
 21
2379.069085914629
 31
0.0
  0
LINE
  5
160
100
AcDbEntity
  8
WHITE
  6
CONTINUOUS
 62
          15
100
AcDbLine
 10
-4950.240288550969
 20
2363.922860813869
 30
0.0
 11
-4950.832760711652
 21
2365.313910170256
 31
0.0
  0
LINE
  5
161
100
AcDbEntity
  8
WHITE
  6
CONTINUOUS
 62
          15
100
AcDbLine
 10
-4943.798120730615
 20
2381.751026363348
 30
0.0
 11
-4948.011132161898
 21
2382.263095139701
 31
0.0
  0
LINE
  5
162
100
AcDbEntity
  8
WHITE
  6
CONTINUOUS
 62
          15
100
AcDbLine
 10
-4948.919580162105
 20
2381.05447451932
 30
0.0
 11
-4948.011132161898
 21
2382.263095139701
 31
0.0
  0
LINE
  5
163
100
AcDbEntity
  8
WHITE
  6
CONTINUOUS
 62
          15
100
AcDbLine
 10
-4946.027277119686
 20
2363.410792037515
 30
0.0
 11
-4945.869289199924
 21
2364.710627025899
 31
0.0
  0
LINE
  5
164
100
AcDbEntity
  8
WHITE
  6
CONTINUOUS
 62
          15
100
AcDbLine
 10
-4950.591447453909
 20
2367.299298774948
 30
0.0
 11
-4950.832760711652
 21
2365.313910170256
 31
0.0
  0
LINE
  5
165
100
AcDbEntity
  8
WHITE
  6
CONTINUOUS
 62
          15
100
AcDbLine
 10
-4945.869289199924
 20
2364.710627025899
 30
0.0
 11
-4950.832760711652
 21
2365.313910170256
 31
0.0
  0
LINE
  5
166
100
AcDbEntity
  8
WHITE
  6
CONTINUOUS
 62
          15
100
AcDbLine
 10
-4945.869289199924
 20
2364.710627025899
 30
0.0
 11
-4945.627975942181
 21
2366.69601563059
 31
0.0
  0
LINE
  5
167
100
AcDbEntity
  8
WHITE
  6
CONTINUOUS
 62
          15
100
AcDbLine
 10
-4950.117483694621
 20
2371.198803740098
 30
0.0
 11
-4950.591447453909
 21
2367.299298774948
 31
0.0
  0
LINE
  5
168
100
AcDbEntity
  8
WHITE
  6
CONTINUOUS
 62
          15
100
AcDbLine
 10
-4945.627975942181
 20
2366.69601563059
 30
0.0
 11
-4950.591447453909
 21
2367.299298774948
 31
0.0
  0
LINE
  5
169
100
AcDbEntity
  8
WHITE
  6
CONTINUOUS
 62
          15
100
AcDbLine
 10
-4945.627975942181
 20
2366.69601563059
 30
0.0
 11
-4945.469988022419
 21
2367.995850618973
 31
0.0
  0
LINE
  5
16A
100
AcDbEntity
  8
WHITE
  6
CONTINUOUS
 62
          15
100
AcDbLine
 10
-4945.469988022419
 20
2367.995850618973
 30
0.0
 11
-4945.154012182894
 21
2370.59552059574
 31
0.0
  0
LINE
  5
16B
100
AcDbEntity
  8
WHITE
  6
CONTINUOUS
 62
          15
100
AcDbLine
 10
-4949.634857179135
 20
2375.16958094948
 30
0.0
 11
-4950.117483694621
 21
2371.198803740098
 31
0.0
  0
LINE
  5
16C
100
AcDbEntity
  8
WHITE
  6
CONTINUOUS
 62
          15
100
AcDbLine
 10
-4945.154012182894
 20
2370.59552059574
 30
0.0
 11
-4950.117483694621
 21
2371.198803740098
 31
0.0
  0
LINE
  5
16D
100
AcDbEntity
  8
WHITE
  6
CONTINUOUS
 62
          15
100
AcDbLine
 10
-4945.154012182894
 20
2370.59552059574
 30
0.0
 11
-4944.671385667408
 21
2374.566297805123
 31
0.0
  0
LINE
  5
16E
100
AcDbEntity
  8
WHITE
  6
CONTINUOUS
 62
          15
100
AcDbLine
 10
-4949.160893419848
 20
2379.069085914629
 30
0.0
 11
-4949.634857179135
 21
2375.16958094948
 31
0.0
  0
LINE
  5
16F
100
AcDbEntity
  8
WHITE
  6
CONTINUOUS
 62
          15
100
AcDbLine
 10
-4944.671385667408
 20
2374.566297805123
 30
0.0
 11
-4949.634857179135
 21
2375.16958094948
 31
0.0
  0
LINE
  5
170
100
AcDbEntity
  8
WHITE
  6
CONTINUOUS
 62
          15
100
AcDbLine
 10
-4944.671385667408
 20
2374.566297805123
 30
0.0
 11
-4944.355409827883
 21
2377.165967781888
 31
0.0
  0
LINE
  5
171
100
AcDbEntity
  8
WHITE
  6
CONTINUOUS
 62
          15
100
AcDbLine
 10
-4944.355409827883
 20
2377.165967781888
 30
0.0
 11
-4944.19742190812
 21
2378.465802770271
 31
0.0
  0
LINE
  5
172
100
AcDbEntity
  8
WHITE
  6
CONTINUOUS
 62
          15
100
AcDbLine
 10
-4948.919580162105
 20
2381.05447451932
 30
0.0
 11
-4949.160893419848
 21
2379.069085914629
 31
0.0
  0
LINE
  5
173
100
AcDbEntity
  8
WHITE
  6
CONTINUOUS
 62
          15
100
AcDbLine
 10
-4944.19742190812
 20
2378.465802770271
 30
0.0
 11
-4949.160893419848
 21
2379.069085914629
 31
0.0
  0
LINE
  5
174
100
AcDbEntity
  8
WHITE
  6
CONTINUOUS
 62
          15
100
AcDbLine
 10
-4944.19742190812
 20
2378.465802770271
 30
0.0
 11
-4943.956108650378
 21
2380.451191374963
 31
0.0
  0
LINE
  5
175
100
AcDbEntity
  8
WHITE
  6
CONTINUOUS
 62
          15
100
AcDbLine
 10
-4948.919580162105
 20
2381.05447451932
 30
0.0
 11
-4943.956108650378
 21
2380.451191374963
 31
0.0
  0
LINE
  5
176
100
AcDbEntity
  8
WHITE
  6
CONTINUOUS
 62
          15
100
AcDbLine
 10
-4950.240288550969
 20
2363.922860813869
 30
0.0
 11
-4946.027277119686
 21
2363.410792037515
 31
0.0
  0
LINE
  5
177
100
AcDbEntity
  8
WHITE
  6
CONTINUOUS
 62
          15
100
AcDbLine
 10
-4943.956108650378
 20
2380.451191374963
 30
0.0
 11
-4943.798120730615
 21
2381.751026363348
 31
0.0
  0
LINE
  5
178
100
AcDbEntity
  8
WHITE
  6
CONTINUOUS
 62
          15
100
AcDbLine
 10
-4894.691289980323
 20
2406.267467107055
 30
0.0
 11
-4894.057842678747
 21
2411.479112194369
 31
0.0
  0
LINE
  5
179
100
AcDbEntity
  8
WHITE
  6
CONTINUOUS
 62
          15
100
AcDbLine
 10
-4896.602629634891
 20
2402.974021992154
 30
0.0
 11
-4897.024927835942
 21
2399.499591933943
 31
0.0
  0
LINE
  5
17A
100
AcDbEntity
  8
WHITE
  6
CONTINUOUS
 62
          15
100
AcDbLine
 10
-4897.024927835942
 20
2399.499591933943
 30
0.0
 11
-4896.274462204632
 21
2399.408376891262
 31
0.0
  0
LINE
  5
17B
100
AcDbEntity
  8
WHITE
  6
CONTINUOUS
 62
          15
100
AcDbLine
 10
-4895.758033232791
 20
2409.922882108573
 30
0.0
 11
-4896.602629634891
 21
2402.974021992154
 31
0.0
  0
LINE
  5
17C
100
AcDbEntity
  8
WHITE
  6
CONTINUOUS
 62
          15
100
AcDbLine
 10
-4896.602629634891
 20
2402.974021992154
 30
0.0
 11
-4895.852164003582
 21
2402.882806949473
 31
0.0
  0
LINE
  5
17D
100
AcDbEntity
  8
WHITE
  6
CONTINUOUS
 62
          15
100
AcDbLine
 10
-4895.33573503174
 20
2413.397312166781
 30
0.0
 11
-4895.758033232791
 21
2409.922882108573
 31
0.0
  0
LINE
  5
17E
100
AcDbEntity
  8
WHITE
  6
CONTINUOUS
 62
          15
100
AcDbLine
 10
-4895.758033232791
 20
2409.922882108573
 30
0.0
 11
-4895.007567601481
 21
2409.831667065892
 31
0.0
  0
LINE
  5
17F
100
AcDbEntity
  8
WHITE
  6
CONTINUOUS
 62
          15
100
AcDbLine
 10
-4894.672123572947
 20
2418.857130829683
 30
0.0
 11
-4895.33573503174
 21
2413.397312166781
 31
0.0
  0
LINE
  5
180
100
AcDbEntity
  8
WHITE
  6
CONTINUOUS
 62
          15
100
AcDbLine
 10
-4895.33573503174
 20
2413.397312166781
 30
0.0
 11
-4894.585269400431
 21
2413.3060971241
 31
0.0
  0
LINE
  5
181
100
AcDbEntity
  8
WHITE
  6
CONTINUOUS
 62
          15
100
AcDbLine
 10
-4940.426447746032
 20
2378.079786391082
 30
0.0
 11
-4941.874327292489
 21
2366.167454762934
 31
0.0
  0
LINE
  5
182
100
AcDbEntity
  8
WHITE
  6
CONTINUOUS
 62
           2
100
AcDbLine
 10
-4941.874327292489
 20
2366.167454762934
 30
0.0
 11
-4945.63663869838
 21
2366.624743386357
 31
0.0
  0
LINE
  5
183
100
AcDbEntity
  8
WHITE
  6
CONTINUOUS
 62
          15
100
AcDbLine
 10
-4940.30579111716
 20
2379.072480693428
 30
0.0
 11
-4940.426447746032
 21
2378.079786391082
 31
0.0
  0
LINE
  5
184
100
AcDbEntity
  8
WHITE
  6
CONTINUOUS
 62
           2
100
AcDbLine
 10
-4940.426447746032
 20
2378.079786391082
 30
0.0
 11
-4944.188759151922
 21
2378.537075014505
 31
0.0
  0
LINE
  5
185
100
AcDbEntity
  8
WHITE
  6
CONTINUOUS
 62
          15
100
AcDbLine
 10
-4941.874327292489
 20
2366.167454762934
 30
0.0
 11
-4941.994983921361
 21
2365.174760460589
 31
0.0
  0
LINE
  5
186
100
AcDbEntity
  8
WHITE
  6
CONTINUOUS
 62
          15
100
AcDbLine
 10
-4945.757295327251
 20
2365.632049084012
 30
0.0
 11
-4941.994983921361
 21
2365.174760460589
 31
0.0
  0
LINE
  5
187
100
AcDbEntity
  8
WHITE
  6
CONTINUOUS
 62
          15
100
AcDbLine
 10
-4940.245462802724
 20
2379.568827844601
 30
0.0
 11
-4940.30579111716
 21
2379.072480693428
 31
0.0
  0
LINE
  5
188
100
AcDbEntity
  8
WHITE
  6
CONTINUOUS
 62
          15
100
AcDbLine
 10
-4944.068102523051
 20
2379.52976931685
 30
0.0
 11
-4940.30579111716
 21
2379.072480693428
 31
0.0
  0
LINE
  5
189
100
AcDbEntity
  8
WHITE
  6
CONTINUOUS
 62
          15
100
AcDbLine
 10
-4903.776253281057
 20
2360.529480249036
 30
0.0
 11
-4922.673081147739
 21
2362.826287575694
 31
0.0
  0
LINE
  5
18A
100
AcDbEntity
  8
WHITE
  6
CONTINUOUS
 62
          15
100
AcDbLine
 10
-4922.673081147739
 20
2362.826287575694
 30
0.0
 11
-4930.323965550958
 21
2361.741492309439
 31
0.0
  0
LINE
  5
18B
100
AcDbEntity
  8
WHITE
  6
CONTINUOUS
 62
          15
100
AcDbLine
 10
-4898.291822439092
 20
2389.076301759315
 30
0.0
 11
-4898.788169590265
 21
2389.136630073751
 31
0.0
  0
LINE
  5
18C
100
AcDbEntity
  8
WHITE
  6
CONTINUOUS
 62
          15
100
AcDbLine
 10
-4902.106226884231
 20
2361.837536759248
 30
0.0
 11
-4898.788169590265
 21
2389.136630073751
 31
0.0
  0
LINE
  5
18D
100
AcDbEntity
  8
WHITE
  6
CONTINUOUS
 62
          15
100
AcDbLine
 10
-4928.593610839696
 20
2363.545895970824
 30
0.0
 11
-4922.673081147739
 21
2362.826287575694
 31
0.0
  0
LINE
  5
18E
100
AcDbEntity
  8
WHITE
  6
CONTINUOUS
 62
          15
100
AcDbLine
 10
-4898.788169590265
 20
2389.136630073751
 30
0.0
 11
-4926.583610055941
 21
2392.515015682153
 31
0.0
  0
LINE
  5
18F
100
AcDbEntity
  8
WHITE
  6
CONTINUOUS
 62
          15
100
AcDbLine
 10
-4929.901667349907
 20
2365.21592236765
 30
0.0
 11
-4926.583610055941
 21
2392.515015682153
 31
0.0
  0
LINE
  5
190
100
AcDbEntity
  8
WHITE
  6
CONTINUOUS
 62
          15
100
AcDbLine
 10
-4940.747255725586
 20
2363.00838691259
 30
0.0
 11
-4930.323965550958
 21
2361.741492309439
 31
0.0
  0
LINE
  5
191
100
AcDbEntity
  8
WHITE
  6
CONTINUOUS
 62
          15
100
AcDbLine
 10
-4941.994983921361
 20
2365.174760460589
 30
0.0
 11
-4942.055312235797
 21
2364.678413309417
 31
0.0
  0
LINE
  5
192
100
AcDbEntity
  8
WHITE
  6
CONTINUOUS
 62
          15
100
AcDbLine
 10
-4938.575436405899
 20
2380.876884354811
 30
0.0
 11
-4928.15214623127
 21
2379.609989751661
 31
0.0
  0
LINE
  5
193
100
AcDbEntity
  8
WHITE
  6
CONTINUOUS
 62
          15
100
AcDbLine
 10
-4898.17116581022
 20
2390.068996061661
 30
0.0
 11
-4898.291822439092
 21
2389.076301759315
 31
0.0
  0
LINE
  5
194
100
AcDbEntity
  8
WHITE
  6
CONTINUOUS
 62
          15
100
AcDbLine
 10
-4926.583610055941
 20
2392.515015682153
 30
0.0
 11
-4927.079957207114
 21
2392.575343996589
 31
0.0
  0
LINE
  5
195
100
AcDbEntity
  8
WHITE
  6
CONTINUOUS
 62
          15
100
AcDbLine
 10
-4927.079957207114
 20
2392.575343996589
 30
0.0
 11
-4926.959300578243
 21
2393.568038298934
 31
0.0
  0
LINE
  5
196
100
AcDbEntity
  8
WHITE
  6
CONTINUOUS
 62
          15
100
AcDbLine
 10
-4898.17116581022
 20
2390.068996061661
 30
0.0
 11
-4926.959300578243
 21
2393.568038298934
 31
0.0
  0
LINE
  5
197
100
AcDbEntity
  8
WHITE
  6
CONTINUOUS
 62
           7
100
AcDbLine
 10
-4923.815481092594
 20
2419.433601759444
 30
0.0
 11
-4923.882556542019
 21
2418.881743008746
 31
0.0
  0
LINE
  5
198
100
AcDbEntity
  8
WHITE
  6
CONTINUOUS
 62
          15
100
AcDbLine
 10
-4921.658215294738
 20
2421.184889372541
 30
0.0
 11
-4894.672123572947
 21
2418.857130829683
 31
0.0
  0
LINE
  5
199
100
AcDbEntity
  8
WHITE
  6
CONTINUOUS
 62
           7
100
AcDbLine
 10
-4930.233579285769
 20
2408.06904167613
 30
0.0
 11
-4930.173250971334
 21
2408.565388827302
 31
0.0
  0
LINE
  5
19A
100
AcDbEntity
  8
WHITE
  6
CONTINUOUS
 62
           1
100
AcDbLine
 10
-4927.703079168067
 20
2408.265152791081
 30
0.0
 11
-4930.173250971334
 21
2408.565388827302
 31
0.0
  0
LINE
  5
19B
100
AcDbEntity
  8
WHITE
  6
CONTINUOUS
 62
           7
100
AcDbLine
 10
-4930.173250971334
 20
2408.565388827302
 30
0.0
 11
-4929.690624455848
 21
2412.536166036684
 31
0.0
  0
LINE
  5
19C
100
AcDbEntity
  8
WHITE
  6
CONTINUOUS
 62
           1
100
AcDbLine
 10
-4927.220452652581
 20
2412.235930000463
 30
0.0
 11
-4929.690624455848
 21
2412.536166036684
 31
0.0
  0
LINE
  5
19D
100
AcDbEntity
  8
WHITE
  6
CONTINUOUS
 62
           7
100
AcDbLine
 10
-4930.293907600205
 20
2407.572694524956
 30
0.0
 11
-4930.233579285769
 21
2408.06904167613
 31
0.0
  0
LINE
  5
19E
100
AcDbEntity
  8
WHITE
  6
CONTINUOUS
 62
           1
100
AcDbLine
 10
-4927.763407482503
 20
2407.768805639909
 30
0.0
 11
-4930.233579285769
 21
2408.06904167613
 31
0.0
  0
LINE
  5
19F
100
AcDbEntity
  8
WHITE
  6
CONTINUOUS
 62
           7
100
AcDbLine
 10
-4929.690624455848
 20
2412.536166036684
 30
0.0
 11
-4929.630296141411
 21
2413.032513187858
 31
0.0
  0
LINE
  5
1A0
100
AcDbEntity
  8
WHITE
  6
CONTINUOUS
 62
           1
100
AcDbLine
 10
-4927.160124338145
 20
2412.732277151637
 30
0.0
 11
-4929.630296141411
 21
2413.032513187858
 31
0.0
  0
LINE
  5
1A1
100
AcDbEntity
  8
WHITE
  6
CONTINUOUS
 62
           7
100
AcDbLine
 10
-4928.57727352463
 20
2413.408203710158
 30
0.0
 11
-4929.301213297859
 21
2407.452037896085
 31
0.0
  0
LINE
  5
1A2
100
AcDbEntity
  8
WHITE
  6
CONTINUOUS
 62
           2
100
AcDbLine
 10
-4929.301213297859
 20
2407.452037896085
 30
0.0
 11
-4930.293907600205
 21
2407.572694524956
 31
0.0
  0
LINE
  5
1A3
100
AcDbEntity
  8
WHITE
  6
CONTINUOUS
 62
           7
100
AcDbLine
 10
-4928.456616895759
 20
2414.400898012504
 30
0.0
 11
-4928.57727352463
 21
2413.408203710158
 31
0.0
  0
LINE
  5
1A4
100
AcDbEntity
  8
WHITE
  6
CONTINUOUS
 62
           2
100
AcDbLine
 10
-4928.57727352463
 20
2413.408203710158
 30
0.0
 11
-4929.569967826976
 21
2413.52886033903
 31
0.0
  0
LINE
  5
1A5
100
AcDbEntity
  8
WHITE
  6
CONTINUOUS
 62
           7
100
AcDbLine
 10
-4929.301213297859
 20
2407.452037896085
 30
0.0
 11
-4929.42186992673
 21
2406.45934359374
 31
0.0
  0
LINE
  5
1A6
100
AcDbEntity
  8
WHITE
  6
CONTINUOUS
 62
           7
100
AcDbLine
 10
-4929.42186992673
 20
2406.45934359374
 30
0.0
 11
-4930.293907600205
 21
2407.572694524956
 31
0.0
  0
LINE
  5
1A7
100
AcDbEntity
  8
WHITE
  6
CONTINUOUS
 62
           7
100
AcDbLine
 10
-4929.630296141411
 20
2413.032513187858
 30
0.0
 11
-4929.569967826976
 21
2413.52886033903
 31
0.0
  0
LINE
  5
1A8
100
AcDbEntity
  8
WHITE
  6
CONTINUOUS
 62
           7
100
AcDbLine
 10
-4927.853333751401
 20
2419.364369524232
 30
0.0
 11
-4928.456616895759
 21
2414.400898012504
 31
0.0
  0
LINE
  5
1A9
100
AcDbEntity
  8
WHITE
  6
CONTINUOUS
 62
           7
100
AcDbLine
 10
-4929.569967826976
 20
2413.52886033903
 30
0.0
 11
-4928.456616895759
 21
2414.400898012504
 31
0.0
  0
LINE
  5
1AA
100
AcDbEntity
  8
WHITE
  6
CONTINUOUS
 62
          15
100
AcDbLine
 10
-4897.024927835942
 20
2399.499591933943
 30
0.0
 11
-4898.17116581022
 21
2390.068996061661
 31
0.0
  0
LINE
  5
1AB
100
AcDbEntity
  8
WHITE
  6
CONTINUOUS
 62
          15
100
AcDbLine
 10
-4926.959300578243
 20
2393.568038298934
 30
0.0
 11
-4926.054375861706
 21
2401.013245566525
 31
0.0
  0
LINE
  5
1AC
100
AcDbEntity
  8
WHITE
  6
CONTINUOUS
 62
           7
100
AcDbLine
 10
-4927.167726792923
 20
2400.141207893051
 30
0.0
 11
-4924.754594215493
 21
2419.995093939963
 31
0.0
  0
LINE
  5
1AD
100
AcDbEntity
  8
WHITE
  6
CONTINUOUS
 62
           7
100
AcDbLine
 10
-4929.153115397614
 20
2400.382521150794
 30
0.0
 11
-4926.739982820184
 21
2420.236407197706
 31
0.0
  0
LINE
  5
1AE
100
AcDbEntity
  8
WHITE
  6
CONTINUOUS
 62
           7
100
AcDbLine
 10
-4929.153115397614
 20
2400.382521150794
 30
0.0
 11
-4930.025153071088
 21
2401.495872082011
 31
0.0
  0
LINE
  5
1AF
100
AcDbEntity
  8
WHITE
  6
CONTINUOUS
 62
           7
100
AcDbLine
 10
-4926.054375861706
 20
2401.013245566525
 30
0.0
 11
-4927.167726792923
 21
2400.141207893051
 31
0.0
  0
LINE
  5
1B0
100
AcDbEntity
  8
WHITE
  6
CONTINUOUS
 62
           7
100
AcDbLine
 10
-4924.754594215493
 20
2419.995093939963
 30
0.0
 11
-4923.882556542019
 21
2418.881743008746
 31
0.0
  0
LINE
  5
1B1
100
AcDbEntity
  8
WHITE
  6
CONTINUOUS
 62
           7
100
AcDbLine
 10
-4926.739982820184
 20
2420.236407197706
 30
0.0
 11
-4927.853333751401
 21
2419.364369524232
 31
0.0
  0
LINE
  5
1B2
100
AcDbEntity
  8
WHITE
  6
CONTINUOUS
 62
           7
100
AcDbLine
 10
-4929.42186992673
 20
2406.45934359374
 30
0.0
 11
-4930.025153071088
 21
2401.495872082011
 31
0.0
  0
LINE
  5
1B3
100
AcDbEntity
  8
WHITE
  6
CONTINUOUS
 62
           7
100
AcDbLine
 10
-4929.153115397614
 20
2400.382521150794
 30
0.0
 11
-4927.167726792923
 21
2400.141207893051
 31
0.0
  0
LINE
  5
1B4
100
AcDbEntity
  8
WHITE
  6
CONTINUOUS
 62
          15
100
AcDbLine
 10
-4926.054375861706
 20
2401.013245566525
 30
0.0
 11
-4923.882556542019
 21
2418.881743008746
 31
0.0
  0
LINE
  5
1B5
100
AcDbEntity
  8
WHITE
  6
CONTINUOUS
 62
           7
100
AcDbLine
 10
-4924.754594215493
 20
2419.995093939963
 30
0.0
 11
-4926.739982820184
 21
2420.236407197706
 31
0.0
  0
LINE
  5
1B6
100
AcDbEntity
  8
WHITE
  6
CONTINUOUS
 62
          15
100
AcDbLine
 10
-4878.306388219932
 20
2420.897401977121
 30
0.0
 11
-4877.810041068759
 21
2420.837073662685
 31
0.0
  0
LINE
  5
1B7
100
AcDbEntity
  8
WHITE
  6
CONTINUOUS
 62
          15
100
AcDbLine
 10
-4893.846693578222
 20
2413.216327223474
 30
0.0
 11
-4889.379569217667
 21
2412.673372393552
 31
0.0
  0
LINE
  5
1B8
100
AcDbEntity
  8
WHITE
  6
CONTINUOUS
 62
           7
100
AcDbLine
 10
-4906.203639693454
 20
2398.694444868024
 30
0.0
 11
-4914.463958717263
 21
2399.698442014438
 31
0.0
  0
LINE
  5
1B9
100
AcDbEntity
  8
WHITE
  6
CONTINUOUS
 62
           7
100
AcDbLine
 10
-4914.463958717263
 20
2399.698442014438
 30
0.0
 11
-4913.635864035855
 21
2406.511535333269
 31
0.0
  0
LINE
  5
1BA
100
AcDbEntity
  8
WHITE
  6
CONTINUOUS
 62
           7
100
AcDbLine
 10
-4913.635864035855
 20
2406.511535333269
 30
0.0
 11
-4905.375545012045
 21
2405.507538186856
 31
0.0
  0
LINE
  5
1BB
100
AcDbEntity
  8
WHITE
  6
CONTINUOUS
 62
           7
100
AcDbLine
 10
-4905.375545012045
 20
2405.507538186856
 30
0.0
 11
-4906.203639693454
 21
2398.694444868024
 31
0.0
  0
ARC
  5
1BC
100
AcDbEntity
  8
WHITE
  6
CONTINUOUS
 62
          15
100
AcDbCircle
 10
-4849.702548340817
 20
2424.170068194434
 30
0.0
 40
2.25
100
AcDbArc
 50
173.07
 51
353.069999999999
  0
ARC
  5
1BD
100
AcDbEntity
  8
WHITE
  6
CONTINUOUS
 62
          15
100
AcDbCircle
 10
-4849.702548340817
 20
2424.170068194434
 30
0.0
 40
2.25
100
AcDbArc
 50
353.069999999999
 51
173.07
  0
ARC
  5
1BE
100
AcDbEntity
  8
WHITE
  6
CONTINUOUS
 62
          15
100
AcDbCircle
 10
-4903.232835814309
 20
2407.305645852763
 30
0.0
 40
8.604407030244
100
AcDbArc
 50
353.069999999999
 51
17.07198532828
  0
ARC
  5
1BF
100
AcDbEntity
  8
WHITE
  6
CONTINUOUS
 62
          15
100
AcDbCircle
 10
-4897.737089673723
 20
2401.349030418903
 30
0.0
 40
2.430106011614
100
AcDbArc
 50
353.069999999999
 51
39.135478142734
  0
ARC
  5
1C0
100
AcDbEntity
  8
WHITE
  6
CONTINUOUS
 62
          15
100
AcDbCircle
 10
-4896.470195070572
 20
2411.772320593531
 30
0.0
 40
2.430106011614
100
AcDbArc
 50
353.069999999999
 51
39.135478142734
  0
ARC
  5
1C1
100
AcDbEntity
  8
WHITE
  6
CONTINUOUS
 62
          15
100
AcDbCircle
 10
-4897.737089673723
 20
2401.349030418903
 30
0.0
 40
2.430106011614
100
AcDbArc
 50
307.004521857251
 51
353.069999999999
  0
ARC
  5
1C2
100
AcDbEntity
  8
WHITE
  6
CONTINUOUS
 62
          15
100
AcDbCircle
 10
-4896.470195070572
 20
2411.772320593531
 30
0.0
 40
2.430106011613
100
AcDbArc
 50
307.004521857281
 51
353.069999999999
  0
ARC
  5
1C3
100
AcDbEntity
  8
WHITE
  6
CONTINUOUS
 62
          15
100
AcDbCircle
 10
-4903.232835814309
 20
2407.305645852763
 30
0.0
 40
8.604407030244
100
AcDbArc
 50
329.068014671731
 51
353.069999999999
  0
CIRCLE
  5
1C4
100
AcDbEntity
  8
WHITE
  6
CONTINUOUS
 62
          15
100
AcDbCircle
 10
-4823.755290122964
 20
2380.721940605594
 30
0.0
 40
2.25
  0
CIRCLE
  5
1C5
100
AcDbEntity
  8
WHITE
  6
CONTINUOUS
 62
          15
100
AcDbCircle
 10
-4844.601870472221
 20
2383.255729811895
 30
0.0
 40
2.25
  0
CIRCLE
  5
1C6
100
AcDbEntity
  8
WHITE
  6
CONTINUOUS
 62
          15
100
AcDbCircle
 10
-4809.002081944648
 20
2419.223146410702
 30
0.0
 40
2.25
  0
ARC
  5
1C7
100
AcDbEntity
  8
WHITE
  6
CONTINUOUS
 62
          15
100
AcDbCircle
 10
-4892.048716860614
 20
2419.604863565858
 30
0.0
 40
0.5
100
AcDbArc
 50
90.219821982564
 51
173.07
  0
ARC
  5
1C8
100
AcDbEntity
  8
WHITE
  6
CONTINUOUS
 62
          15
100
AcDbCircle
 10
-4892.666189571281
 20
2414.524648351274
 30
0.0
 40
0.5
100
AcDbArc
 50
173.07
 51
255.92017801742
  0
ARC
  5
1C9
100
AcDbEntity
  8
WHITE
  6
CONTINUOUS
 62
          15
100
AcDbCircle
 10
-4891.828417930468
 20
2421.533572164541
 30
0.0
 40
1.0
100
AcDbArc
 50
83.07
 51
173.07
  0
ARC
  5
1CA
100
AcDbEntity
  8
WHITE
  6
CONTINUOUS
 62
          15
100
AcDbCircle
 10
-4895.568773425485
 20
2390.760048791828
 30
0.0
 40
1.0
100
AcDbArc
 50
173.07
 51
263.07
  0
ARC
  5
1CB
100
AcDbEntity
  8
WHITE
  6
CONTINUOUS
 62
          15
100
AcDbCircle
 10
-4903.595268337749
 20
2362.018521702555
 30
0.0
 40
1.500000000001
100
AcDbArc
 50
263.07
 51
353.069999999999
  0
ARC
  5
1CC
100
AcDbEntity
  8
WHITE
  6
CONTINUOUS
 62
          15
100
AcDbCircle
 10
-4928.412625896389
 20
2365.034937424342
 30
0.0
 40
1.5
100
AcDbArc
 50
173.07
 51
263.07
  0
ARC
  5
1CD
100
AcDbEntity
  8
WHITE
  6
CONTINUOUS
 62
          15
100
AcDbCircle
 10
-4938.756421349206
 20
2379.387842901293
 30
0.0
 40
1.5
100
AcDbArc
 50
83.07
 51
173.07
  0
ARC
  5
1CE
100
AcDbEntity
  8
WHITE
  6
CONTINUOUS
 62
          15
100
AcDbCircle
 10
-4940.566270782279
 20
2364.49742836611
 30
0.0
 40
1.5
100
AcDbArc
 50
173.07
 51
263.07
  0
ARC
  5
1CF
100
AcDbEntity
  8
WHITE
  6
CONTINUOUS
 62
          15
100
AcDbCircle
 10
-4921.830092487902
 20
2419.192288501701
 30
0.0
 40
2.0
100
AcDbArc
 50
85.07
 51
173.07
  0
TEXT
  5
1D0
100
AcDbEntity
  8
WHITE
  6
CONTINUOUS
 62
           7
100
AcDbText
 10
-4912.955755960541
 20
2401.10697345654
 30
0.0
 40
4.0
  1
14
 50
-6.93
 41
0.955
  7
TXT
100
AcDbText
  0
ENDSEC
  0
SECTION
  2
OBJECTS
  0
DICTIONARY
  5
19
100
AcDbDictionary
  3
ACAD_GROUP
350
1A
  3
ACAD_MLINESTYLE
350
1B
  0
DICTIONARY
  5
1A
102
{ACAD_REACTORS
330
19
102
}
100
AcDbDictionary
  0
DICTIONARY
  5
1B
102
{ACAD_REACTORS
330
19
102
}
100
AcDbDictionary
  3
STANDARD
350
1C
  0
MLINESTYLE
  5
1C
102
{ACAD_REACTORS
330
1B
102
}
100
AcDbMlineStyle
  2
STANDARD
 70
           0
  3

 62
           0
 51
90.0
 52
90.0
 71
           2
 49
0.5
 62
         256
  6
BYLAYER
 49
-0.5
 62
         256
  6
BYLAYER
  0
ENDSEC
  0
EOF
