  0
SECTION
  2
HEADER
  9
$ACADVER
  1
AC1012
  9
$DWGCODEPAGE
  3
dos850
  9
$INSBASE
 10
0.0
 20
0.0
 30
0.0
  9
$EXTMIN
 10
-5138.469052435164
 20
1926.434298954012
 30
0.0
  9
$EXTMAX
 10
-4656.937114435164
 20
2113.934298954012
 30
0.0
  9
$LIMMIN
 10
-5138.469052435164
 20
1926.434298954012
  9
$LIMMAX
 10
-4656.937114435164
 20
2113.934298954012
  9
$ORTHOMODE
 70
           0
  9
$REGENMODE
 70
           1
  9
$FILLMODE
 70
           1
  9
$QTEXTMODE
 70
           0
  9
$MIRRTEXT
 70
           1
  9
$DRAGMODE
 70
           2
  9
$LTSCALE
 40
5.0
  9
$OSMODE
 70
           0
  9
$ATTMODE
 70
           1
  9
$TEXTSIZE
 40
0.2
  9
$TRACEWID
 40
0.05
  9
$TEXTSTYLE
  7
TXT
  9
$CLAYER
  8
0
  9
$CELTYPE
  6
CONTINUOUS
  9
$CECOLOR
 62
         256
  9
$CELTSCALE
 40
1.0
  9
$DELOBJ
 70
           1
  9
$DISPSILH
 70
           0
  9
$DIMSCALE
 40
1.0
  9
$DIMASZ
 40
3.5
  9
$DIMEXO
 40
0.0625
  9
$DIMDLI
 40
0.38
  9
$DIMRND
 40
0.0
  9
$DIMDLE
 40
0.0
  9
$DIMEXE
 40
0.18
  9
$DIMTP
 40
0.0
  9
$DIMTM
 40
0.0
  9
$DIMTXT
 40
3.5
  9
$DIMCEN
 40
0.09
  9
$DIMTSZ
 40
0.0
  9
$DIMTOL
 70
           0
  9
$DIMLIM
 70
           0
  9
$DIMTIH
 70
           1
  9
$DIMTOH
 70
           1
  9
$DIMSE1
 70
           0
  9
$DIMSE2
 70
           0
  9
$DIMTAD
 70
           0
  9
$DIMZIN
 70
           0
  9
$DIMBLK
  1

  9
$DIMASO
 70
           1
  9
$DIMSHO
 70
           1
  9
$DIMPOST
  1

  9
$DIMAPOST
  1

  9
$DIMALT
 70
           0
  9
$DIMALTD
 70
           2
  9
$DIMALTF
 40
25.4
  9
$DIMLFAC
 40
1.0
  9
$DIMTOFL
 70
           0
  9
$DIMTVP
 40
0.0
  9
$DIMTIX
 70
           0
  9
$DIMSOXD
 70
           0
  9
$DIMSAH
 70
           0
  9
$DIMBLK1
  1

  9
$DIMBLK2
  1

  9
$DIMSTYLE
  2
STANDARD
  9
$DIMCLRD
 70
           0
  9
$DIMCLRE
 70
           0
  9
$DIMCLRT
 70
           0
  9
$DIMTFAC
 40
1.0
  9
$DIMGAP
 40
0.09
  9
$DIMJUST
 70
           0
  9
$DIMSD1
 70
           0
  9
$DIMSD2
 70
           0
  9
$DIMTOLJ
 70
           1
  9
$DIMTZIN
 70
           0
  9
$DIMALTZ
 70
           0
  9
$DIMALTTZ
 70
           0
  9
$DIMFIT
 70
           3
  9
$DIMUPT
 70
           0
  9
$DIMUNIT
 70
           2
  9
$DIMDEC
 70
           4
  9
$DIMTDEC
 70
           4
  9
$DIMALTU
 70
           2
  9
$DIMALTTD
 70
           2
  9
$DIMTXSTY
  7
TXT
  9
$DIMAUNIT
 70
           0
  9
$LUNITS
 70
           2
  9
$LUPREC
 70
           2
  9
$SKETCHINC
 40
0.1
  9
$FILLETRAD
 40
0.0
  9
$AUNITS
 70
           0
  9
$AUPREC
 70
           2
  9
$MENU
  1
acad
  9
$ELEVATION
 40
0.0
  9
$PELEVATION
 40
0.0
  9
$THICKNESS
 40
0.0
  9
$LIMCHECK
 70
           0
  9
$BLIPMODE
 70
           1
  9
$CHAMFERA
 40
0.0
  9
$CHAMFERB
 40
0.0
  9
$CHAMFERC
 40
0.0
  9
$CHAMFERD
 40
0.0
  9
$SKPOLY
 70
           0
  9
$TDCREATE
 40
0.000000000
  9
$TDUPDATE
 40
0.000000000
  9
$TDINDWG
 40
0.0000000000
  9
$TDUSRTIMER
 40
0.0000000000
  9
$USRTIMER
 70
           1
  9
$ANGBASE
 50
0.0
  9
$ANGDIR
 70
           0
  9
$PDMODE
 70
           2
  9
$PDSIZE
 40
0.5
  9
$PLINEWID
 40
0.0
  9
$COORDS
 70
           0
  9
$SPLFRAME
 70
           0
  9
$SPLINETYPE
 70
           6
  9
$SPLINESEGS
 70
           8
  9
$ATTDIA
 70
           0
  9
$ATTREQ
 70
           1
  9
$HANDLING
 70
           1
  9
$HANDSEED
  5
21E
  9
$SURFTAB1
 70
           6
  9
$SURFTAB2
 70
           6
  9
$SURFTYPE
 70
           6
  9
$SURFU
 70
           6
  9
$SURFV
 70
           6
  9
$UCSNAME
  2

  9
$UCSORG
 10
0.0
 20
0.0
 30
0.0
  9
$UCSXDIR
 10
1.0
 20
0.0
 30
0.0
  9
$UCSYDIR
 10
0.0
 20
1.0
 30
0.0
  9
$PUCSNAME
  2

  9
$PUCSORG
 10
0.0
 20
0.0
 30
0.0
  9
$PUCSXDIR
 10
1.0
 20
0.0
 30
0.0
  9
$PUCSYDIR
 10
0.0
 20
1.0
 30
0.0
  9
$USERI1
 70
           0
  9
$USERI2
 70
           0
  9
$USERI3
 70
           0
  9
$USERI4
 70
           0
  9
$USERI5
 70
           0
  9
$USERR1
 40
0.0
  9
$USERR2
 40
0.0
  9
$USERR3
 40
0.0
  9
$USERR4
 40
0.0
  9
$USERR5
 40
0.0
  9
$WORLDVIEW
 70
           1
  9
$SHADEDGE
 70
           3
  9
$SHADEDIF
 70
          70
  9
$TILEMODE
 70
           1
  9
$MAXACTVP
 70
          16
  9
$PINSBASE
 10
0.0
 20
0.0
 30
0.0
  9
$PLIMCHECK
 70
           0
  9
$PEXTMIN
 10
1.000000000000E+20
 20
1.000000000000E+20
 30
1.000000000000E+20
  9
$PEXTMAX
 10
-1.000000000000E+20
 20
-1.000000000000E+20
 30
-1.000000000000E+20
  9
$PLIMMIN
 10
0.0
 20
0.0
  9
$PLIMMAX
 10
12.0
 20
9.0
  9
$UNITMODE
 70
           0
  9
$VISRETAIN
 70
           0
  9
$PLINEGEN
 70
           1
  9
$PSLTSCALE
 70
           0
  9
$TREEDEPTH
 70
        3020
  9
$PICKSTYLE
 70
           1
  9
$CMLSTYLE
  2
STANDARD
  9
$CMLJUST
 70
           0
  9
$CMLSCALE
 40
1.0
  9
$SAVEIMAGES
 70
           0
  0
ENDSEC
  0
SECTION
  2
CLASSES
  0
CLASS
  1
LWPOLYLINE
  2
AcDbPolyline
  3
"AutoCAD"
 90
        0
280
           0
281
           1
  0
CLASS
  1
IMAGE
  2
AcDbRasterImage
  3
ISM
 90
      127
280
           0
281
           1
  0
CLASS
  1
OLE2FRAME
  2
AcDbOle2Frame
  3
""
 90
        0
280
           0
281
           1
  0
CLASS
  1
HATCH
  2
AcDbHatch
  3
"ACAD_SEDONA"
 90
        0
280
           0
281
           1
  0
CLASS
  1
DICTIONARYVAR
  2
AcDbDictionaryVar
  3
"AutoCAD"
 90
        0
280
           0
281
           0
  0
CLASS
  1
RASTERVARIABLES
  2
AcDbRasterVariables
  3
ISM
 90
        0
280
           0
281
           0
  0
CLASS
  1
IMAGEDEF
  2
AcDbRasterImageDef
  3
ISM
 90
        0
280
           0
281
           0
  0
CLASS
  1
IMAGEDEF_REACTOR
  2
AcDbRasterImageDefReactor
  3
ISM
 90
        1
280
           0
281
           0
  0
CLASS
  1
IDBUFFER
  2
AcDbIdBuffer
  3
"Acad"
 90
        0
280
           0
281
           0
  0
CLASS
  1
SPATIAL_FILTER
  2
AcDbSpatialFilter
  3
"Acad"
 90
        0
280
           0
281
           0
  0
CLASS
  1
XRECORD
  2
AcDbXrecord
  3
"<Built In>"
 90
        0
280
           0
281
           0
  0
ENDSEC
  0
SECTION
  2
TABLES
  0
TABLE
  2
VPORT
  5
7
100
AcDbSymbolTable
 70
           1
  0
VPORT
  5
15
100
AcDbSymbolTableRecord
100
AcDbViewportTableRecord
  2
*ACTIVE
 70
           0
 10
0.0
 20
0.0
 11
1.0
 21
1.0
 12
6.591288
 22
4.579184
 13
0.0
 23
0.0
 14
1.0
 24
1.0
 15
0.0
 25
0.0
 16
0.0
 26
0.0
 36
1.0
 17
0.0
 27
0.0
 37
0.0
 40
9.158369
 41
0.688564
 42
50.0
 43
0.0
 44
0.0
 50
0.0
 51
0.0
 71
           0
 72
         100
 73
           1
 74
           1
 75
           0
 76
           0
 77
           0
 78
           0
  0
ENDTAB
  0
TABLE
  2
LTYPE
  5
4
100
AcDbSymbolTable
 70
           5
  0
LTYPE
  5
11
100
AcDbSymbolTableRecord
100
AcDbLinetypeTableRecord
  2
BYBLOCK
 70
           0
  3

 72
          65
 73
           0
 40
0.0
  0
LTYPE
  5
12
100
AcDbSymbolTableRecord
100
AcDbLinetypeTableRecord
  2
BYLAYER
 70
           0
  3

 72
          65
 73
           0
 40
0.0
  0
LTYPE
  5
13
100
AcDbSymbolTableRecord
100
AcDbLinetypeTableRecord
  2
CONTINUOUS
 70
           0
  3
Solid line
 72
          65
 73
           0
 40
0.0
  0
LTYPE
  5
1D
100
AcDbSymbolTableRecord
100
AcDbLinetypeTableRecord
  2
GESTRICHELT
 70
           0
  3

 72
          65
 73
           2
 40
0.75
 49
0.5
 74
           0
 49
-0.25
 74
           0
  0
LTYPE
  5
1E
100
AcDbSymbolTableRecord
100
AcDbLinetypeTableRecord
  2
STRICHPUNKT
 70
           0
  3

 72
          65
 73
           4
 40
1.0
 49
0.5
 74
           0
 49
-0.25
 74
           0
 49
0.0
 74
           0
 49
-0.25
 74
           0
  0
ENDTAB
  0
TABLE
  2
LAYER
  5
2
100
AcDbSymbolTable
 70
           4
  0
LAYER
  5
14
100
AcDbSymbolTableRecord
100
AcDbLayerTableRecord
  2
0
 70
           0
 62
           7
  6
CONTINUOUS
  0
LAYER
  5
20
100
AcDbSymbolTableRecord
100
AcDbLayerTableRecord
  2
BLACK
 70
           0
 62
           7
  6
CONTINUOUS
  0
LAYER
  5
21
100
AcDbSymbolTableRecord
100
AcDbLayerTableRecord
  2
WHITE
 70
           0
 62
           7
  6
CONTINUOUS
  0
LAYER
  5
22
100
AcDbSymbolTableRecord
100
AcDbLayerTableRecord
  2
YELLOW
 70
           0
 62
           7
  6
CONTINUOUS
  0
ENDTAB
  0
TABLE
  2
STYLE
  5
3
100
AcDbSymbolTable
 70
           2
  0
STYLE
  5
17
100
AcDbSymbolTableRecord
100
AcDbTextStyleTableRecord
  2
TXT
 70
           0
 40
3.5
 41
1.0
 50
0.0
 71
           0
 42
3.5
  3
TXT
  4

  0
STYLE
  5
1F
100
AcDbSymbolTableRecord
100
AcDbTextStyleTableRecord
  2
GOTHICG
 70
           0
 40
3.5
 41
1.0
 50
0.0
 71
           0
 42
3.5
  3
GOTHICG
  4

  0
ENDTAB
  0
TABLE
  2
VIEW
  5
5
100
AcDbSymbolTable
 70
           0
  0
ENDTAB
  0
TABLE
  2
UCS
  5
6
100
AcDbSymbolTable
 70
           0
  0
ENDTAB
  0
TABLE
  2
APPID
  5
8
100
AcDbSymbolTable
 70
           2
  0
APPID
  5
16
100
AcDbSymbolTableRecord
100
AcDbRegAppTableRecord
  2
ACAD
 70
           0
  0
APPID
  5
23
100
AcDbSymbolTableRecord
100
AcDbRegAppTableRecord
  2
MegaCADPntStyle
 70
           0
  0
ENDTAB
  0
TABLE
  2
DIMSTYLE
  5
9
100
AcDbSymbolTable
 70
           1
  0
DIMSTYLE
105
18
100
AcDbSymbolTableRecord
100
AcDbDimStyleTableRecord
  2
STANDARD
 70
           0
  3

  4

  5

  6

  7

 40
1.0
 41
0.18
 42
0.0625
 43
0.38
 44
0.18
 45
0.0
 46
0.0
 47
0.0
 48
0.0
140
0.18
141
0.09
142
0.0
143
25.4
144
1.0
145
0.0
146
1.0
147
0.09
 71
           0
 72
           0
 73
           1
 74
           1
 75
           0
 76
           0
 77
           0
 78
           0
170
           0
171
           2
172
           0
173
           0
174
           0
175
           0
176
           0
177
           0
178
           0
270
           2
271
           4
272
           4
273
           2
274
           2
340
17
275
           0
280
           0
281
           0
282
           0
283
           1
284
           0
285
           0
286
           0
287
           0
288
           0
  0
ENDTAB
  0
TABLE
  2
BLOCK_RECORD
  5
1
100
AcDbSymbolTable
 70
           3
  0
BLOCK_RECORD
  5
A
100
AcDbSymbolTableRecord
100
AcDbBlockTableRecord
  2
*MODEL_SPACE
  0
BLOCK_RECORD
  5
B
100
AcDbSymbolTableRecord
100
AcDbBlockTableRecord
  2
*PAPER_SPACE
  0
BLOCK_RECORD
  5
24
100
AcDbSymbolTableRecord
100
AcDbBlockTableRecord
  2
ELIPPSE
  0
BLOCK_RECORD
  5
25
100
AcDbSymbolTableRecord
100
AcDbBlockTableRecord
  2
01081201_SNCB-____TOP__1
  0
BLOCK_RECORD
  5
26
100
AcDbSymbolTableRecord
100
AcDbBlockTableRecord
  2
MAK2
  0
ENDTAB
  0
ENDSEC
  0
SECTION
  2
BLOCKS
  0
BLOCK
  5
D
100
AcDbEntity
  8
0
100
AcDbBlockBegin
  2
*MODEL_SPACE
 70
           0
 10
0.0
 20
0.0
 30
0.0
  3
*MODEL_SPACE
  1

  0
ENDBLK
  5
E
100
AcDbEntity
  8
0
100
AcDbBlockEnd
  0
BLOCK
  5
F
100
AcDbEntity
 67
           1
  8
0
100
AcDbBlockBegin
  2
*PAPER_SPACE
 70
           0
 10
0.0
 20
0.0
 30
0.0
  3
*PAPER_SPACE
  1

  0
ENDBLK
  5
10
100
AcDbEntity
 67
           1
  8
0
100
AcDbBlockEnd
  0
BLOCK
  5
1CC
100
AcDbEntity
  8
0
100
AcDbBlockBegin
  2
ELIPPSE
 70
          64
 10
0.0
 20
0.0
 30
0.0
  3
ELIPPSE
  1

  0
CIRCLE
  5
1CD
100
AcDbEntity
  8
0
  6
BYBLOCK
 62
           0
100
AcDbCircle
 10
0.0
 20
0.0
 30
0.0
 40
1.0
  0
ENDBLK
  5
1CE
100
AcDbEntity
  8
0
  6
BYBLOCK
 62
           0
100
AcDbBlockEnd
  0
BLOCK
  5
1CF
100
AcDbEntity
  8
0
100
AcDbBlockBegin
  2
01081201_SNCB-____TOP__1
 70
          64
 10
0.0
 20
0.0
 30
0.0
  3
01081201_SNCB-____TOP__1
  1

  0
LINE
  5
1D0
100
AcDbEntity
  8
BLACK
  6
CONTINUOUS
 62
          15
100
AcDbLine
 10
1258.600515180217
 20
-267.768116173917
 30
0.0
 11
1257.548157960908
 21
-267.786485137506
 31
0.0
  0
LINE
  5
1D1
100
AcDbEntity
  8
BLACK
  6
CONTINUOUS
 62
          15
100
AcDbLine
 10
1259.583062773781
 20
-266.76826847876
 30
0.0
 11
1259.583062773781
 21
-275.754670443263
 31
0.0
  0
LINE
  5
1D2
100
AcDbEntity
  8
BLACK
  6
CONTINUOUS
 62
          15
100
AcDbLine
 10
1259.58306277378
 20
-239.873303524415
 30
0.0
 11
1259.58306277378
 21
-240.056979763094
 31
0.0
  0
LINE
  5
1D3
100
AcDbEntity
  8
BLACK
  6
CONTINUOUS
 62
          15
100
AcDbLine
 10
1257.548157960906
 20
-238.855086865668
 30
0.0
 11
1258.600515180217
 21
-238.873455829258
 31
0.0
  0
LINE
  5
1D4
100
AcDbEntity
  8
WHITE
  6
CONTINUOUS
 62
          15
100
AcDbLine
 10
1259.88306277378
 20
-240.77112260595
 30
0.0
 11
1259.88306277378
 21
-265.870449397228
 31
0.0
  0
LINE
  5
1D5
100
AcDbEntity
  8
WHITE
  6
CONTINUOUS
 62
          15
100
AcDbLine
 10
1275.792491651027
 20
-265.318958343465
 30
0.0
 11
1260.565610367343
 21
-265.584744544926
 31
0.0
  0
LINE
  5
1D6
100
AcDbEntity
  8
WHITE
  6
CONTINUOUS
 62
          15
100
AcDbLine
 10
1275.792491651027
 20
-241.32261365971
 30
0.0
 11
1260.565610367343
 21
-241.05682745825
 31
0.0
  0
LINE
  5
1D7
100
AcDbEntity
  8
BLACK
  6
CONTINUOUS
 62
          15
100
AcDbLine
 10
1259.583062773781
 20
-266.584592240081
 30
0.0
 11
1259.583062773781
 21
-266.76826847876
 31
0.0
  0
LINE
  5
1D8
100
AcDbEntity
  8
WHITE
  6
CONTINUOUS
 62
          15
100
AcDbLine
 10
1255.583062773781
 20
-227.850152157526
 30
0.0
 11
1256.687761263888
 21
-227.888729078857
 31
0.0
  0
LINE
  5
1D9
100
AcDbEntity
  8
BLACK
  6
CONTINUOUS
 62
          15
100
AcDbLine
 10
1259.58306277378
 20
-230.886901559914
 30
0.0
 11
1259.58306277378
 21
-239.873303524415
 31
0.0
  0
LINE
  5
1DA
100
AcDbEntity
  8
WHITE
  6
CONTINUOUS
 62
          15
100
AcDbLine
 10
1256.687761263886
 20
-278.752842924321
 30
0.0
 11
1255.58306277378
 21
-278.791419845651
 31
0.0
  0
LINE
  5
1DB
100
AcDbEntity
  8
BLACK
  6
CONTINUOUS
 62
          15
100
AcDbLine
 10
1253.652861767186
 20
-221.532748053098
 30
0.0
 11
1248.583062773781
 21
-221.355706771079
 31
0.0
  0
LINE
  5
1DC
100
AcDbEntity
  8
BLACK
  6
CONTINUOUS
 62
          15
100
AcDbLine
 10
1253.652861767185
 20
-285.108823950078
 30
0.0
 11
1248.58306277378
 21
-285.285865232096
 31
0.0
  0
LINE
  5
1DD
100
AcDbEntity
  8
WHITE
  6
CONTINUOUS
 62
          15
100
AcDbLine
 10
1255.583062773781
 20
-269.786180527818
 30
0.0
 11
1255.58306277378
 21
-278.791419845651
 31
0.0
  0
LINE
  5
1DE
100
AcDbEntity
  8
WHITE
  6
CONTINUOUS
 62
          15
100
AcDbLine
 10
1255.583062773781
 20
-227.850152157526
 30
0.0
 11
1255.583062773781
 21
-236.855391475356
 31
0.0
  0
LINE
  5
1DF
100
AcDbEntity
  8
WHITE
  6
CONTINUOUS
 62
          15
100
AcDbLine
 10
1255.58306277378
 20
-223.531529707135
 30
0.0
 11
1255.583062773781
 21
-227.850152157526
 31
0.0
  0
LINE
  5
1E0
100
AcDbEntity
  8
WHITE
  6
CONTINUOUS
 62
          15
100
AcDbLine
 10
1255.58306277378
 20
-278.791419845651
 30
0.0
 11
1255.583062773781
 21
-283.11004229604
 31
0.0
  0
LINE
  5
1E1
100
AcDbEntity
  8
WHITE
  6
CONTINUOUS
 62
          15
100
AcDbLine
 10
1248.58306277378
 20
-221.320336260378
 30
0.0
 11
1248.58306277378
 21
-285.320336260379
 31
0.0
  0
ARC
  5
1E2
100
AcDbEntity
  8
WHITE
  6
CONTINUOUS
 62
          15
100
AcDbCircle
 10
1275.583062773781
 20
-253.320786001588
 30
0.0
 40
12.0
100
AcDbArc
 50
271.0
 51
89.000000000001
  0
ARC
  5
1E3
100
AcDbEntity
  8
BLACK
  6
CONTINUOUS
 62
          15
100
AcDbCircle
 10
1260.583062773781
 20
-266.584592240081
 30
0.0
 40
0.999999999999
100
AcDbArc
 50
91.000000000009
 51
134.427004000836
  0
ARC
  5
1E4
100
AcDbEntity
  8
BLACK
  6
CONTINUOUS
 62
          15
100
AcDbCircle
 10
1260.583062773781
 20
-266.584592240081
 30
0.0
 40
1.0
100
AcDbArc
 50
134.42700400083
 51
180.0
  0
ARC
  5
1E5
100
AcDbEntity
  8
BLACK
  6
CONTINUOUS
 62
          15
100
AcDbCircle
 10
1258.583062773781
 20
-266.76826847876
 30
0.0
 40
1.0
100
AcDbArc
 50
270.999999999927
 51
0.0
  0
ARC
  5
1E6
100
AcDbEntity
  8
BLACK
  6
CONTINUOUS
 62
          15
100
AcDbCircle
 10
1257.583062773781
 20
-269.786180527818
 30
0.0
 40
1.999999999999
100
AcDbArc
 50
90.999999999919
 51
180.0
  0
ARC
  5
1E7
100
AcDbEntity
  8
BLACK
  6
CONTINUOUS
 62
          15
100
AcDbCircle
 10
1260.58306277378
 20
-240.056979763094
 30
0.0
 40
1.0
100
AcDbArc
 50
180.0
 51
225.572995999247
  0
ARC
  5
1E8
100
AcDbEntity
  8
BLACK
  6
CONTINUOUS
 62
          15
100
AcDbCircle
 10
1260.58306277378
 20
-240.056979763094
 30
0.0
 40
1.000000000001
100
AcDbArc
 50
225.572995999246
 51
268.999999999992
  0
ARC
  5
1E9
100
AcDbEntity
  8
BLACK
  6
CONTINUOUS
 62
          15
100
AcDbCircle
 10
1257.583062773781
 20
-236.855391475356
 30
0.0
 40
2.0
100
AcDbArc
 50
180.0
 51
269.000000000016
  0
ARC
  5
1EA
100
AcDbEntity
  8
BLACK
  6
CONTINUOUS
 62
          15
100
AcDbCircle
 10
1258.58306277378
 20
-239.873303524415
 30
0.0
 40
1.0
100
AcDbArc
 50
0.0
 51
89.000000000073
  0
ARC
  5
1EB
100
AcDbEntity
  8
BLACK
  6
CONTINUOUS
 62
          15
100
AcDbCircle
 10
1253.583062773781
 20
-283.110042296039
 30
0.0
 40
2.0
100
AcDbArc
 50
271.999999999993
 51
0.0
  0
ARC
  5
1EC
100
AcDbEntity
  8
BLACK
  6
CONTINUOUS
 62
          15
100
AcDbCircle
 10
1256.583062773781
 20
-275.754670443263
 30
0.0
 40
3.0
100
AcDbArc
 50
271.999999999993
 51
0.0
  0
ARC
  5
1ED
100
AcDbEntity
  8
BLACK
  6
CONTINUOUS
 62
          15
100
AcDbCircle
 10
1256.58306277378
 20
-230.886901559914
 30
0.0
 40
3.0
100
AcDbArc
 50
0.0
 51
87.99999999999
  0
ARC
  5
1EE
100
AcDbEntity
  8
BLACK
  6
CONTINUOUS
 62
          15
100
AcDbCircle
 10
1253.58306277378
 20
-223.531529707136
 30
0.0
 40
2.0
100
AcDbArc
 50
0.0
 51
88.000000000006
  0
ENDBLK
  5
1EF
100
AcDbEntity
  8
0
  6
BYBLOCK
 62
           0
100
AcDbBlockEnd
  0
BLOCK
  5
1F0
100
AcDbEntity
  8
0
100
AcDbBlockBegin
  2
MAK2
 70
          64
 10
0.0
 20
0.0
 30
0.0
  3
MAK2
  1

  0
LINE
  5
1F1
100
AcDbEntity
  8
WHITE
  6
CONTINUOUS
 62
           2
100
AcDbLine
 10
-15.50693229743
 20
611.597948837689
 30
0.0
 11
-15.596491646589
 21
611.687508186849
 31
0.0
  0
LINE
  5
1F2
100
AcDbEntity
  8
WHITE
  6
CONTINUOUS
 62
           2
100
AcDbLine
 10
-14.44627212565
 20
611.597948837689
 30
0.0
 11
-15.596491646588
 21
612.748168358629
 31
0.0
  0
LINE
  5
1F3
100
AcDbEntity
  8
WHITE
  6
CONTINUOUS
 62
           2
100
AcDbLine
 10
-13.596491646589
 20
611.808828530409
 30
0.0
 11
-15.596491646588
 21
613.808828530409
 31
0.0
  0
LINE
  5
1F4
100
AcDbEntity
  8
WHITE
  6
CONTINUOUS
 62
           2
100
AcDbLine
 10
-13.596491646589
 20
612.869488702189
 30
0.0
 11
-15.596491646588
 21
614.869488702188
 31
0.0
  0
LINE
  5
1F5
100
AcDbEntity
  8
WHITE
  6
CONTINUOUS
 62
           2
100
AcDbLine
 10
-13.596491646589
 20
613.930148873969
 30
0.0
 11
-15.596491646588
 21
615.930148873968
 31
0.0
  0
LINE
  5
1F6
100
AcDbEntity
  8
WHITE
  6
CONTINUOUS
 62
           2
100
AcDbLine
 10
-13.596491646589
 20
614.990809045748
 30
0.0
 11
-15.596491646588
 21
616.990809045748
 31
0.0
  0
LINE
  5
1F7
100
AcDbEntity
  8
WHITE
  6
CONTINUOUS
 62
           2
100
AcDbLine
 10
-13.596491646589
 20
616.051469217528
 30
0.0
 11
-15.596491646588
 21
618.051469217528
 31
0.0
  0
LINE
  5
1F8
100
AcDbEntity
  8
WHITE
  6
CONTINUOUS
 62
           2
100
AcDbLine
 10
-13.596491646589
 20
617.112129389307
 30
0.0
 11
-15.596491646588
 21
619.112129389308
 31
0.0
  0
LINE
  5
1F9
100
AcDbEntity
  8
WHITE
  6
CONTINUOUS
 62
           2
100
AcDbLine
 10
-13.596491646589
 20
618.172789561087
 30
0.0
 11
-15.596491646588
 21
620.172789561087
 31
0.0
  0
LINE
  5
1FA
100
AcDbEntity
  8
WHITE
  6
CONTINUOUS
 62
           2
100
AcDbLine
 10
-13.596491646589
 20
619.233449732867
 30
0.0
 11
-15.596491646589
 21
621.233449732867
 31
0.0
  0
LINE
  5
1FB
100
AcDbEntity
  8
WHITE
  6
CONTINUOUS
 62
           2
100
AcDbLine
 10
-13.59649164659
 20
620.294109904647
 30
0.0
 11
-15.596491646589
 21
622.294109904647
 31
0.0
  0
LINE
  5
1FC
100
AcDbEntity
  8
WHITE
  6
CONTINUOUS
 62
           2
100
AcDbLine
 10
-13.59649164659
 20
621.354770076426
 30
0.0
 11
-15.596491646589
 21
623.354770076426
 31
0.0
  0
LINE
  5
1FD
100
AcDbEntity
  8
WHITE
  6
CONTINUOUS
 62
           2
100
AcDbLine
 10
-13.596491646589
 20
622.415430248206
 30
0.0
 11
-15.596491646589
 21
624.415430248207
 31
0.0
  0
LINE
  5
1FE
100
AcDbEntity
  8
WHITE
  6
CONTINUOUS
 62
           2
100
AcDbLine
 10
-13.596491646589
 20
623.476090419986
 30
0.0
 11
-15.596491646589
 21
625.476090419986
 31
0.0
  0
LINE
  5
1FF
100
AcDbEntity
  8
WHITE
  6
CONTINUOUS
 62
           2
100
AcDbLine
 10
-13.596491646589
 20
624.536750591766
 30
0.0
 11
-15.596491646589
 21
626.536750591766
 31
0.0
  0
LINE
  5
200
100
AcDbEntity
  8
WHITE
  6
CONTINUOUS
 62
           2
100
AcDbLine
 10
-13.596491646589
 20
625.597410763546
 30
0.0
 11
-15.596491646589
 21
627.597410763546
 31
0.0
  0
LINE
  5
201
100
AcDbEntity
  8
WHITE
  6
CONTINUOUS
 62
           2
100
AcDbLine
 10
-13.596491646589
 20
626.658070935326
 30
0.0
 11
-15.596491646589
 21
628.658070935326
 31
0.0
  0
LINE
  5
202
100
AcDbEntity
  8
WHITE
  6
CONTINUOUS
 62
           2
100
AcDbLine
 10
-13.596491646589
 20
627.718731107105
 30
0.0
 11
-15.596491646589
 21
629.718731107105
 31
0.0
  0
LINE
  5
203
100
AcDbEntity
  8
WHITE
  6
CONTINUOUS
 62
           2
100
AcDbLine
 10
-13.596491646589
 20
628.779391278885
 30
0.0
 11
-15.596491646589
 21
630.779391278885
 31
0.0
  0
LINE
  5
204
100
AcDbEntity
  8
WHITE
  6
CONTINUOUS
 62
           2
100
AcDbLine
 10
-13.596491646588
 20
629.840051450665
 30
0.0
 11
-15.354389033613
 21
631.597948837689
 31
0.0
  0
LINE
  5
205
100
AcDbEntity
  8
WHITE
  6
CONTINUOUS
 62
           2
100
AcDbLine
 10
-13.596491646588
 20
630.900711622445
 30
0.0
 11
-14.293728861833
 21
631.597948837689
 31
0.0
  0
LINE
  5
206
100
AcDbEntity
  8
WHITE
  6
CONTINUOUS
 62
           2
100
AcDbLine
 10
-15.596491646589
 20
631.406213139102
 30
0.0
 11
-15.404755948002
 21
631.597948837689
 31
0.0
  0
LINE
  5
207
100
AcDbEntity
  8
WHITE
  6
CONTINUOUS
 62
           2
100
AcDbLine
 10
-15.596491646589
 20
630.345552967322
 30
0.0
 11
-14.344095776222
 21
631.597948837689
 31
0.0
  0
LINE
  5
208
100
AcDbEntity
  8
WHITE
  6
CONTINUOUS
 62
           2
100
AcDbLine
 10
-15.596491646589
 20
629.284892795542
 30
0.0
 11
-13.596491646589
 21
631.284892795542
 31
0.0
  0
LINE
  5
209
100
AcDbEntity
  8
WHITE
  6
CONTINUOUS
 62
           2
100
AcDbLine
 10
-15.596491646589
 20
628.224232623762
 30
0.0
 11
-13.596491646589
 21
630.224232623762
 31
0.0
  0
LINE
  5
20A
100
AcDbEntity
  8
WHITE
  6
CONTINUOUS
 62
           2
100
AcDbLine
 10
-15.596491646589
 20
627.163572451982
 30
0.0
 11
-13.596491646589
 21
629.163572451982
 31
0.0
  0
LINE
  5
20B
100
AcDbEntity
  8
WHITE
  6
CONTINUOUS
 62
           2
100
AcDbLine
 10
-15.596491646589
 20
626.102912280203
 30
0.0
 11
-13.596491646589
 21
628.102912280203
 31
0.0
  0
LINE
  5
20C
100
AcDbEntity
  8
WHITE
  6
CONTINUOUS
 62
           2
100
AcDbLine
 10
-15.596491646589
 20
625.042252108423
 30
0.0
 11
-13.596491646589
 21
627.042252108423
 31
0.0
  0
LINE
  5
20D
100
AcDbEntity
  8
WHITE
  6
CONTINUOUS
 62
           2
100
AcDbLine
 10
-15.596491646588
 20
623.981591936643
 30
0.0
 11
-13.596491646589
 21
625.981591936643
 31
0.0
  0
LINE
  5
20E
100
AcDbEntity
  8
WHITE
  6
CONTINUOUS
 62
           2
100
AcDbLine
 10
-15.596491646588
 20
622.920931764863
 30
0.0
 11
-13.596491646588
 21
624.920931764863
 31
0.0
  0
LINE
  5
20F
100
AcDbEntity
  8
WHITE
  6
CONTINUOUS
 62
           2
100
AcDbLine
 10
-15.596491646588
 20
621.860271593084
 30
0.0
 11
-13.596491646588
 21
623.860271593083
 31
0.0
  0
LINE
  5
210
100
AcDbEntity
  8
WHITE
  6
CONTINUOUS
 62
           2
100
AcDbLine
 10
-15.596491646588
 20
620.799611421304
 30
0.0
 11
-13.596491646588
 21
622.799611421304
 31
0.0
  0
LINE
  5
211
100
AcDbEntity
  8
WHITE
  6
CONTINUOUS
 62
           2
100
AcDbLine
 10
-15.596491646588
 20
619.738951249524
 30
0.0
 11
-13.596491646588
 21
621.738951249524
 31
0.0
  0
LINE
  5
212
100
AcDbEntity
  8
WHITE
  6
CONTINUOUS
 62
           2
100
AcDbLine
 10
-15.596491646588
 20
618.678291077744
 30
0.0
 11
-13.596491646588
 21
620.678291077745
 31
0.0
  0
LINE
  5
213
100
AcDbEntity
  8
WHITE
  6
CONTINUOUS
 62
           2
100
AcDbLine
 10
-15.596491646589
 20
617.617630905965
 30
0.0
 11
-13.596491646589
 21
619.617630905965
 31
0.0
  0
LINE
  5
214
100
AcDbEntity
  8
WHITE
  6
CONTINUOUS
 62
           2
100
AcDbLine
 10
-15.596491646589
 20
616.556970734185
 30
0.0
 11
-13.596491646589
 21
618.556970734185
 31
0.0
  0
LINE
  5
215
100
AcDbEntity
  8
WHITE
  6
CONTINUOUS
 62
           2
100
AcDbLine
 10
-15.596491646589
 20
615.496310562405
 30
0.0
 11
-13.596491646589
 21
617.496310562405
 31
0.0
  0
LINE
  5
216
100
AcDbEntity
  8
WHITE
  6
CONTINUOUS
 62
           2
100
AcDbLine
 10
-15.596491646589
 20
614.435650390625
 30
0.0
 11
-13.596491646589
 21
616.435650390625
 31
0.0
  0
LINE
  5
217
100
AcDbEntity
  8
WHITE
  6
CONTINUOUS
 62
           2
100
AcDbLine
 10
-15.59649164659
 20
613.374990218845
 30
0.0
 11
-13.596491646589
 21
615.374990218845
 31
0.0
  0
LINE
  5
218
100
AcDbEntity
  8
WHITE
  6
CONTINUOUS
 62
           2
100
AcDbLine
 10
-15.59649164659
 20
612.314330047065
 30
0.0
 11
-13.596491646589
 21
614.314330047065
 31
0.0
  0
LINE
  5
219
100
AcDbEntity
  8
WHITE
  6
CONTINUOUS
 62
           2
100
AcDbLine
 10
-15.252212684186
 20
611.597948837689
 30
0.0
 11
-13.596491646589
 21
613.253669875285
 31
0.0
  0
LINE
  5
21A
100
AcDbEntity
  8
WHITE
  6
CONTINUOUS
 62
           2
100
AcDbLine
 10
-14.191552512406
 20
611.597948837689
 30
0.0
 11
-13.596491646589
 21
612.193009703506
 31
0.0
  0
ENDBLK
  5
21B
100
AcDbEntity
  8
0
  6
BYBLOCK
 62
           0
100
AcDbBlockEnd
  0
ENDSEC
  0
SECTION
  2
ENTITIES
  0
INSERT
  5
27
100
AcDbEntity
  8
0
  6
CONTINUOUS
 62
           7
100
AcDbBlockReference
  2
01081201_SNCB-____TOP__1
 10
-5739.558319938102
 20
2362.221693781892
 30
0.0
 41
0.84375
 42
0.84375
 43
0.84375
 50
353.069999999999
  0
INSERT
  5
28
100
AcDbEntity
  8
0
  6
CONTINUOUS
 62
           7
100
AcDbBlockReference
  2
MAK2
 10
-4977.001517730208
 20
1424.828869590104
 30
0.0
 50
353.069999999999
  0
LINE
  5
29
100
AcDbEntity
  8
0
  6
CONTINUOUS
 62
          15
100
AcDbLine
 10
-5131.469052435164
 20
2113.934298954012
 30
0.0
 11
-4988.469052435164
 21
2113.934298954012
 31
0.0
  0
LINE
  5
2A
100
AcDbEntity
  8
0
  6
CONTINUOUS
 62
          15
100
AcDbLine
 10
-4988.469052435164
 20
1980.184298954013
 30
0.0
 11
-4988.469052435164
 21
1926.434298954012
 31
0.0
  0
LINE
  5
2B
100
AcDbEntity
  8
0
  6
GESTRICHELT
 62
          15
100
AcDbLine
 10
-4988.469052435164
 20
2063.677688826991
 30
0.0
 11
-4988.469052435164
 21
1980.184298954013
 31
0.0
  0
LINE
  5
2C
100
AcDbEntity
  8
0
  6
CONTINUOUS
 62
          15
100
AcDbLine
 10
-4988.469052435164
 20
2113.934298954012
 30
0.0
 11
-4988.469052435164
 21
2063.677688826991
 31
0.0
  0
LINE
  5
2D
100
AcDbEntity
  8
0
  6
CONTINUOUS
 62
          15
100
AcDbLine
 10
-4988.469052435164
 20
1926.434298954012
 30
0.0
 11
-5131.469052435164
 21
1926.434298954012
 31
0.0
  0
LINE
  5
2E
100
AcDbEntity
  8
0
  6
CONTINUOUS
 62
          15
100
AcDbLine
 10
-5131.469052435164
 20
2045.184298954012
 30
0.0
 11
-5131.469052435164
 21
2113.934298954012
 31
0.0
  0
LINE
  5
2F
100
AcDbEntity
  8
0
  6
GESTRICHELT
 62
          15
100
AcDbLine
 10
-5131.469052435164
 20
1995.184298954012
 30
0.0
 11
-5131.469052435164
 21
2045.184298954012
 31
0.0
  0
LINE
  5
30
100
AcDbEntity
  8
0
  6
CONTINUOUS
 62
          15
100
AcDbLine
 10
-5131.469052435164
 20
1926.434298954012
 30
0.0
 11
-5131.469052435164
 21
1995.184298954012
 31
0.0
  0
LINE
  5
31
100
AcDbEntity
  8
0
  6
STRICHPUNKT
 62
          15
100
AcDbLine
 10
-5059.969052435164
 20
2113.934298954012
 30
0.0
 11
-5059.969052435164
 21
1926.434298954012
 31
0.0
  0
LINE
  5
32
100
AcDbEntity
  8
0
  6
GESTRICHELT
 62
          15
100
AcDbLine
 10
-5131.469052435164
 20
2020.184298954012
 30
0.0
 11
-4988.469052435164
 21
2020.184298954012
 31
0.0
  0
CIRCLE
  5
33
100
AcDbEntity
  8
0
  6
CONTINUOUS
 62
          15
100
AcDbCircle
 10
-5059.969052435164
 20
2020.184298954012
 30
0.0
 40
7.25
  0
LINE
  5
34
100
AcDbEntity
  8
0
  6
CONTINUOUS
 62
          15
100
AcDbLine
 10
-5138.469052435164
 20
1995.184298954012
 30
0.0
 11
-5138.469052435164
 21
2045.184298954012
 31
0.0
  0
LINE
  5
35
100
AcDbEntity
  8
0
  6
GESTRICHELT
 62
          15
100
AcDbLine
 10
-4981.469052435164
 20
2045.184298954012
 30
0.0
 11
-4981.469052435164
 21
1995.184298954012
 31
0.0
  0
LINE
  5
36
100
AcDbEntity
  8
0
  6
GESTRICHELT
 62
          15
100
AcDbLine
 10
-5097.784393435164
 20
1995.184298954012
 30
0.0
 11
-4981.469052435164
 21
1995.184298954012
 31
0.0
  0
LINE
  5
37
100
AcDbEntity
  8
0
  6
CONTINUOUS
 62
          15
100
AcDbLine
 10
-5138.469052435164
 20
1995.184298954012
 30
0.0
 11
-5097.784393435164
 21
1995.184298954012
 31
0.0
  0
LINE
  5
38
100
AcDbEntity
  8
0
  6
GESTRICHELT
 62
          15
100
AcDbLine
 10
-5109.717789776692
 20
2045.184298954012
 30
0.0
 11
-4981.469052435164
 21
2045.184298954012
 31
0.0
  0
LINE
  5
39
100
AcDbEntity
  8
0
  6
CONTINUOUS
 62
          15
100
AcDbLine
 10
-5138.469052435164
 20
2045.184298954012
 30
0.0
 11
-5109.717789776692
 21
2045.184298954012
 31
0.0
  0
TEXT
  5
3A
100
AcDbEntity
  8
0
  6
CONTINUOUS
 62
          15
100
AcDbText
 10
-5105.180224208256
 20
1953.495606052733
 30
0.0
 40
3.5
  1
140-730
 41
0.900000010218
  7
GOTHICG
100
AcDbText
  0
CIRCLE
  5
3B
100
AcDbEntity
  8
0
  6
GESTRICHELT
 62
          15
100
AcDbCircle
 10
-5059.969052435164
 20
2020.184298954012
 30
0.0
 40
12.5
  0
LINE
  5
3C
100
AcDbEntity
  8
WHITE
  6
CONTINUOUS
 62
          15
100
AcDbLine
 10
-4656.937114435164
 20
2060.184298954013
 30
0.0
 11
-4656.937114435164
 21
1980.184298954013
 31
0.0
  0
LINE
  5
3D
100
AcDbEntity
  8
WHITE
  6
GESTRICHELT
 62
          15
100
AcDbLine
 10
-5097.784393435164
 20
2033.250902612484
 30
0.0
 11
-5097.784393435164
 21
2060.184298954013
 31
0.0
  0
LINE
  5
3E
100
AcDbEntity
  8
WHITE
  6
CONTINUOUS
 62
          15
100
AcDbLine
 10
-5097.784393435164
 20
1980.184298954013
 30
0.0
 11
-5097.784393435164
 21
2033.250902612484
 31
0.0
  0
ARC
  5
3F
100
AcDbEntity
  8
WHITE
  6
GESTRICHELT
 62
          15
100
AcDbCircle
 10
-5059.969052435164
 20
2020.184298954013
 30
0.0
 40
22.5
100
AcDbArc
 50
109.064916387405
 51
186.057558731021
  0
ARC
  5
40
100
AcDbEntity
  8
WHITE
  6
CONTINUOUS
 62
          15
100
AcDbCircle
 10
-5059.969052435164
 20
2020.184298954013
 30
0.0
 40
22.5
100
AcDbArc
 50
186.057558731021
 51
109.064916387405
  0
LINE
  5
41
100
AcDbEntity
  8
YELLOW
  6
CONTINUOUS
 62
          15
100
AcDbLine
 10
-5097.784393435164
 20
1980.184298954013
 30
0.0
 11
-4656.937114435164
 21
1980.184298954013
 31
0.0
  0
LINE
  5
42
100
AcDbEntity
  8
YELLOW
  6
CONTINUOUS
 62
          15
100
AcDbLine
 10
-4806.399750248928
 20
2060.184298954013
 30
0.0
 11
-4656.937114435164
 21
2060.184298954013
 31
0.0
  0
LINE
  5
43
100
AcDbEntity
  8
YELLOW
  6
GESTRICHELT
 62
          15
100
AcDbLine
 10
-4943.191156860443
 20
2060.184298954013
 30
0.0
 11
-4806.399750248928
 21
2060.184298954013
 31
0.0
  0
LINE
  5
44
100
AcDbEntity
  8
YELLOW
  6
CONTINUOUS
 62
          15
100
AcDbLine
 10
-4959.727422114374
 20
2060.184298954013
 30
0.0
 11
-4943.191156860443
 21
2060.184298954013
 31
0.0
  0
LINE
  5
45
100
AcDbEntity
  8
YELLOW
  6
GESTRICHELT
 62
          15
100
AcDbLine
 10
-5097.784393435164
 20
2060.184298954013
 30
0.0
 11
-4959.727422114374
 21
2060.184298954013
 31
0.0
  0
CIRCLE
  5
46
100
AcDbEntity
  8
0
  6
CONTINUOUS
 62
          15
100
AcDbCircle
 10
-4696.937114435164
 20
2020.184298954013
 30
0.0
 40
6.25
  0
LINE
  5
47
100
AcDbEntity
  8
WHITE
  6
CONTINUOUS
 62
          15
100
AcDbLine
 10
-5070.929207543555
 20
2006.395716720875
 30
0.0
 11
-5123.962216132546
 21
2059.428725309866
 31
0.0
  0
ARC
  5
48
100
AcDbEntity
  8
WHITE
  6
CONTINUOUS
 62
          15
100
AcDbCircle
 10
-5113.355614414748
 20
2070.035327027664
 30
0.0
 40
15.0
100
AcDbArc
 50
135.0
 51
225.0
  0
LINE
  5
49
100
AcDbEntity
  8
WHITE
  6
CONTINUOUS
 62
          15
100
AcDbLine
 10
-5123.962216132546
 20
2080.641928745462
 30
0.0
 11
-5120.426682226614
 21
2084.177462651395
 31
0.0
  0
ARC
  5
4A
100
AcDbEntity
  8
WHITE
  6
CONTINUOUS
 62
          15
100
AcDbCircle
 10
-5109.820080508815
 20
2073.570860933597
 30
0.0
 40
15.0
100
AcDbArc
 50
45.0
 51
135.0
  0
LINE
  5
4B
100
AcDbEntity
  8
WHITE
  6
CONTINUOUS
 62
          15
100
AcDbLine
 10
-5096.151394768747
 20
2056.61870645096
 30
0.0
 11
-5095.677944885085
 21
2052.357657498
 31
0.0
  0
LINE
  5
4C
100
AcDbEntity
  8
WHITE
  6
GESTRICHELT
 62
          15
100
AcDbLine
 10
-5098.874461567031
 20
2081.126307635524
 30
0.0
 11
-5096.151394768747
 21
2056.61870645096
 31
0.0
  0
LINE
  5
4D
100
AcDbEntity
  8
WHITE
  6
CONTINUOUS
 62
          15
100
AcDbLine
 10
-5099.213478791017
 20
2084.177462651395
 30
0.0
 11
-5098.874461567031
 21
2081.126307635524
 31
0.0
  0
LINE
  5
4E
100
AcDbEntity
  8
WHITE
  6
CONTINUOUS
 62
          15
100
AcDbLine
 10
-5095.677944885085
 20
2052.357657498
 30
0.0
 11
-5049.716004107959
 21
2034.679987968337
 31
0.0
  0
LINE
  5
4F
100
AcDbEntity
  8
WHITE
  6
CONTINUOUS
 62
          15
100
AcDbLine
 10
-5049.716004107959
 20
2034.679987968337
 30
0.0
 11
-5046.180470202026
 21
2031.144454062404
 31
0.0
  0
ARC
  5
50
100
AcDbEntity
  8
WHITE
  6
CONTINUOUS
 62
          15
100
AcDbCircle
 10
-5056.787071919825
 20
2020.537852344606
 30
0.0
 40
15.0
100
AcDbArc
 50
314.999999999999
 51
45.0
  0
LINE
  5
51
100
AcDbEntity
  8
WHITE
  6
CONTINUOUS
 62
          15
100
AcDbLine
 10
-5046.180470202026
 20
2009.931250626808
 30
0.0
 11
-5049.716004107959
 21
2006.395716720875
 31
0.0
  0
ARC
  5
52
100
AcDbEntity
  8
WHITE
  6
CONTINUOUS
 62
          15
100
AcDbCircle
 10
-5060.322605825757
 20
2017.002318438673
 30
0.0
 40
15.0
100
AcDbArc
 50
224.999999999999
 51
314.999999999999
  0
CIRCLE
  5
53
100
AcDbEntity
  8
WHITE
  6
CONTINUOUS
 62
          15
100
AcDbCircle
 10
-5110.173633899409
 20
2070.388880418258
 30
0.0
 40
6.5
  0
LINE
  5
54
100
AcDbEntity
  8
BLACK
  6
GESTRICHELT
 62
          15
100
AcDbLine
 10
-4715.581108515624
 20
2022.450757961864
 30
0.0
 11
-4713.469617510373
 21
2039.822908252912
 31
0.0
  0
LINE
  5
55
100
AcDbEntity
  8
BLACK
  6
GESTRICHELT
 62
          15
100
AcDbLine
 10
-4713.469617510373
 20
2039.822908252912
 30
0.0
 11
-4717.440394719754
 21
2040.305534768398
 31
0.0
  0
LINE
  5
56
100
AcDbEntity
  8
BLACK
  6
CONTINUOUS
 62
          15
100
AcDbLine
 10
-4716.294156745475
 20
2049.736130640681
 30
0.0
 11
-4745.677908094905
 21
2053.307566855277
 31
0.0
  0
LINE
  5
57
100
AcDbEntity
  8
BLACK
  6
CONTINUOUS
 62
          15
100
AcDbLine
 10
-4745.677908094905
 20
2053.307566855277
 30
0.0
 11
-4745.73823640934
 21
2052.811219704105
 31
0.0
  0
LINE
  5
58
100
AcDbEntity
  8
BLACK
  6
CONTINUOUS
 62
          15
100
AcDbLine
 10
-4745.73823640934
 20
2052.811219704105
 30
0.0
 11
-4890.473065691324
 21
2070.402956193569
 31
0.0
  0
LINE
  5
59
100
AcDbEntity
  8
BLACK
  6
CONTINUOUS
 62
          15
100
AcDbLine
 10
-4890.473065691324
 20
2070.402956193569
 30
0.0
 11
-4890.412737376889
 21
2070.899303344742
 31
0.0
  0
LINE
  5
5A
100
AcDbEntity
  8
BLACK
  6
CONTINUOUS
 62
          15
100
AcDbLine
 10
-4890.412737376889
 20
2070.899303344742
 30
0.0
 11
-4919.796488726318
 21
2074.470739559338
 31
0.0
  0
LINE
  5
5B
100
AcDbEntity
  8
BLACK
  6
CONTINUOUS
 62
          15
100
AcDbLine
 10
-4919.796488726318
 20
2074.470739559338
 30
0.0
 11
-4920.942726700598
 21
2065.040143687055
 31
0.0
  0
LINE
  5
5C
100
AcDbEntity
  8
BLACK
  6
CONTINUOUS
 62
          15
100
AcDbLine
 10
-4920.942726700598
 20
2065.040143687055
 30
0.0
 11
-4931.366016875226
 21
2066.307038290206
 31
0.0
  0
LINE
  5
5D
100
AcDbEntity
  8
BLACK
  6
CONTINUOUS
 62
          15
100
AcDbLine
 10
-4931.366016875226
 20
2066.307038290206
 30
0.0
 11
-4931.426345189661
 21
2065.810691139033
 31
0.0
  0
LINE
  5
5E
100
AcDbEntity
  8
BLACK
  6
CONTINUOUS
 62
          15
100
AcDbLine
 10
-4931.426345189661
 20
2065.810691139033
 30
0.0
 11
-4942.345982515462
 21
2067.13791405662
 31
0.0
  0
LINE
  5
5F
100
AcDbEntity
  8
BLACK
  6
CONTINUOUS
 62
          15
100
AcDbLine
 10
-4942.345982515462
 20
2067.13791405662
 30
0.0
 11
-4946.448307897093
 21
2033.38630777687
 31
0.0
  0
LINE
  5
60
100
AcDbEntity
  8
BLACK
  6
CONTINUOUS
 62
          15
100
AcDbLine
 10
-4946.448307897093
 20
2033.38630777687
 30
0.0
 11
-4935.528670571292
 21
2032.059084859284
 31
0.0
  0
LINE
  5
61
100
AcDbEntity
  8
BLACK
  6
CONTINUOUS
 62
          15
100
AcDbLine
 10
-4935.528670571292
 20
2032.059084859284
 30
0.0
 11
-4935.588998885728
 21
2031.562737708111
 31
0.0
  0
LINE
  5
62
100
AcDbEntity
  8
BLACK
  6
CONTINUOUS
 62
          15
100
AcDbLine
 10
-4935.588998885728
 20
2031.562737708111
 30
0.0
 11
-4925.1657087111
 21
2030.29584310496
 31
0.0
  0
LINE
  5
63
100
AcDbEntity
  8
BLACK
  6
CONTINUOUS
 62
          15
100
AcDbLine
 10
-4925.1657087111
 20
2030.29584310496
 30
0.0
 11
-4926.311946685379
 21
2020.865247232677
 31
0.0
  0
LINE
  5
64
100
AcDbEntity
  8
BLACK
  6
GESTRICHELT
 62
          15
100
AcDbLine
 10
-4916.881350813096
 20
2019.719009258398
 30
0.0
 11
-4896.92819533595
 21
2017.293811018081
 31
0.0
  0
LINE
  5
65
100
AcDbEntity
  8
BLACK
  6
CONTINUOUS
 62
          15
100
AcDbLine
 10
-4926.311946685379
 20
2020.865247232677
 30
0.0
 11
-4916.881350813096
 21
2019.719009258398
 31
0.0
  0
LINE
  5
66
100
AcDbEntity
  8
BLACK
  6
GESTRICHELT
 62
          15
100
AcDbLine
 10
-4896.92819533595
 20
2017.293811018081
 30
0.0
 11
-4896.867867021514
 21
2017.790158169254
 31
0.0
  0
LINE
  5
67
100
AcDbEntity
  8
BLACK
  6
CONTINUOUS
 62
          15
100
AcDbLine
 10
-4889.025582032984
 20
2016.836970801169
 30
0.0
 11
-4752.13303773953
 21
2000.198421679789
 31
0.0
  0
LINE
  5
68
100
AcDbEntity
  8
BLACK
  6
GESTRICHELT
 62
          15
100
AcDbLine
 10
-4896.867867021514
 20
2017.790158169254
 30
0.0
 11
-4889.025582032984
 21
2016.836970801169
 31
0.0
  0
LINE
  5
69
100
AcDbEntity
  8
BLACK
  6
CONTINUOUS
 62
          15
100
AcDbLine
 10
-4752.13303773953
 20
2000.198421679789
 30
0.0
 11
-4752.193366053965
 21
1999.702074528616
 31
0.0
  0
LINE
  5
6A
100
AcDbEntity
  8
BLACK
  6
CONTINUOUS
 62
          15
100
AcDbLine
 10
-4752.193366053965
 20
1999.702074528616
 30
0.0
 11
-4722.809614704536
 21
1996.13063831402
 31
0.0
  0
LINE
  5
6B
100
AcDbEntity
  8
BLACK
  6
GESTRICHELT
 62
          15
100
AcDbLine
 10
-4721.663376730257
 20
2005.561234186303
 30
0.0
 11
-4717.692599520875
 21
2005.078607670817
 31
0.0
  0
LINE
  5
6C
100
AcDbEntity
  8
BLACK
  6
GESTRICHELT
 62
          15
100
AcDbLine
 10
-4717.692599520875
 20
2005.078607670817
 30
0.0
 11
-4715.581108515624
 21
2022.450757961864
 31
0.0
  0
LINE
  5
6D
100
AcDbEntity
  8
BLACK
  6
CONTINUOUS
 62
          15
100
AcDbLine
 10
-4745.73823640934
 20
2052.811219704105
 30
0.0
 11
-4752.13303773953
 21
2000.198421679789
 31
0.0
  0
LINE
  5
6E
100
AcDbEntity
  8
BLACK
  6
GESTRICHELT
 62
          15
100
AcDbLine
 10
-4892.58375245544
 20
2053.037422742399
 30
0.0
 11
-4896.867867021514
 21
2017.790158169254
 31
0.0
  0
LINE
  5
6F
100
AcDbEntity
  8
BLACK
  6
CONTINUOUS
 62
          15
100
AcDbLine
 10
-4890.473065691324
 20
2070.402956193569
 30
0.0
 11
-4892.58375245544
 21
2053.037422742399
 31
0.0
  0
LINE
  5
70
100
AcDbEntity
  8
BLACK
  6
CONTINUOUS
 62
          15
100
AcDbLine
 10
-4920.942726700598
 20
2065.040143687055
 30
0.0
 11
-4925.1657087111
 21
2030.29584310496
 31
0.0
  0
LINE
  5
71
100
AcDbEntity
  8
BLACK
  6
CONTINUOUS
 62
          15
100
AcDbLine
 10
-4931.366016875226
 20
2066.307038290206
 30
0.0
 11
-4935.588998885728
 21
2031.562737708111
 31
0.0
  0
LINE
  5
72
100
AcDbEntity
  8
BLACK
  6
GESTRICHELT
 62
          15
100
AcDbLine
 10
-5055.854837334045
 20
2069.853347965231
 30
0.0
 11
-5073.947655351626
 21
2072.052432238837
 31
0.0
  0
LINE
  5
73
100
AcDbEntity
  8
BLACK
  6
CONTINUOUS
 62
          15
100
AcDbLine
 10
-5050.884190086371
 20
2069.24919264894
 30
0.0
 11
-5055.854837334045
 21
2069.853347965231
 31
0.0
  0
LINE
  5
74
100
AcDbEntity
  8
BLACK
  6
GESTRICHELT
 62
          15
100
AcDbLine
 10
-5057.302716880503
 20
2057.941016337084
 30
0.0
 11
-5075.395534898084
 21
2060.140100610691
 31
0.0
  0
LINE
  5
75
100
AcDbEntity
  8
BLACK
  6
CONTINUOUS
 62
          15
100
AcDbLine
 10
-5052.332069632829
 20
2057.336861020793
 30
0.0
 11
-5057.302716880503
 21
2057.941016337084
 31
0.0
  0
LINE
  5
76
100
AcDbEntity
  8
BLACK
  6
GESTRICHELT
 62
          15
100
AcDbLine
 10
-5074.801371639117
 20
2071.383763677761
 30
0.0
 11
-5073.947655351626
 21
2072.052432238837
 31
0.0
  0
LINE
  5
77
100
AcDbEntity
  8
BLACK
  6
GESTRICHELT
 62
          15
100
AcDbLine
 10
-5076.06421459267
 20
2060.993808177805
 30
0.0
 11
-5075.395534898084
 21
2060.140100610691
 31
0.0
  0
LINE
  5
78
100
AcDbEntity
  8
BLACK
  6
GESTRICHELT
 62
          15
100
AcDbLine
 10
-5074.801371639117
 20
2071.383763677761
 30
0.0
 11
-5076.06421459267
 21
2060.993808177805
 31
0.0
  0
LINE
  5
79
100
AcDbEntity
  8
BLACK
  6
CONTINUOUS
 62
          15
100
AcDbLine
 10
-5055.947355630497
 20
2069.092159901135
 30
0.0
 11
-5050.976708382824
 21
2068.488004584845
 31
0.0
  0
LINE
  5
7A
100
AcDbEntity
  8
BLACK
  6
GESTRICHELT
 62
          15
100
AcDbLine
 10
-5074.801371639117
 20
2071.383763677761
 30
0.0
 11
-5055.947355630497
 21
2069.092159901135
 31
0.0
  0
LINE
  5
7B
100
AcDbEntity
  8
BLACK
  6
CONTINUOUS
 62
          15
100
AcDbLine
 10
-5057.210198584051
 20
2058.70220440118
 30
0.0
 11
-5052.239551336377
 21
2058.098049084889
 31
0.0
  0
LINE
  5
7C
100
AcDbEntity
  8
BLACK
  6
GESTRICHELT
 62
          15
100
AcDbLine
 10
-5076.06421459267
 20
2060.993808177805
 30
0.0
 11
-5057.210198584051
 21
2058.70220440118
 31
0.0
  0
LINE
  5
7D
100
AcDbEntity
  8
BLACK
  6
GESTRICHELT
 62
          15
100
AcDbLine
 10
-5073.947655351626
 20
2072.052432238837
 30
0.0
 11
-5075.395534898084
 21
2060.140100610691
 31
0.0
  0
LINE
  5
7E
100
AcDbEntity
  8
BLACK
  6
CONTINUOUS
 62
          15
100
AcDbLine
 10
-4943.431892175306
 20
2058.203665335509
 30
0.0
 11
-5050.642876828628
 21
2071.234581253631
 31
0.0
  0
LINE
  5
7F
100
AcDbEntity
  8
BLACK
  6
CONTINUOUS
 62
          15
100
AcDbLine
 10
-5050.642876828628
 20
2071.234581253631
 30
0.0
 11
-5052.573382890572
 21
2055.351472416102
 31
0.0
  0
LINE
  5
80
100
AcDbEntity
  8
BLACK
  6
CONTINUOUS
 62
          15
100
AcDbLine
 10
-5052.573382890572
 20
2055.351472416102
 30
0.0
 11
-4945.36239823725
 21
2042.32055649798
 31
0.0
  0
LINE
  5
81
100
AcDbEntity
  8
BLACK
  6
CONTINUOUS
 62
          15
100
AcDbLine
 10
-5051.045424746098
 20
2067.922645325773
 30
0.0
 11
-5045.75105844257
 21
2067.279143707313
 31
0.0
  0
LINE
  5
82
100
AcDbEntity
  8
BLACK
  6
CONTINUOUS
 62
          15
100
AcDbLine
 10
-5052.170834973102
 20
2058.66340834396
 30
0.0
 11
-5046.876468669573
 21
2058.019906725501
 31
0.0
  0
LINE
  5
83
100
AcDbEntity
  8
BLACK
  6
CONTINUOUS
 62
          15
100
AcDbLine
 10
-5045.75105844257
 20
2067.279143707313
 30
0.0
 11
-5046.876468669573
 21
2058.019906725501
 31
0.0
  0
LINE
  5
84
100
AcDbEntity
  8
BLACK
  6
CONTINUOUS
 62
          15
100
AcDbLine
 10
-5051.045424746098
 20
2067.922645325773
 30
0.0
 11
-5046.876468669573
 21
2058.019906725501
 31
0.0
  0
LINE
  5
85
100
AcDbEntity
  8
BLACK
  6
CONTINUOUS
 62
          15
100
AcDbLine
 10
-5045.75105844257
 20
2067.279143707313
 30
0.0
 11
-5052.170834973102
 21
2058.66340834396
 31
0.0
  0
CIRCLE
  5
86
100
AcDbEntity
  8
BLACK
  6
GESTRICHELT
 62
          15
100
AcDbCircle
 10
-4909.880437246239
 20
2040.022634777733
 30
0.0
 40
5.7225
  0
ARC
  5
87
100
AcDbEntity
  8
BLACK
  6
GESTRICHELT
 62
          15
100
AcDbCircle
 10
-4909.880437246239
 20
2040.022634777733
 30
0.0
 40
6.5785
100
AcDbArc
 50
103.07
 51
13.07
  0
CIRCLE
  5
88
100
AcDbEntity
  8
BLACK
  6
CONTINUOUS
 62
          15
100
AcDbCircle
 10
-4732.725666184614
 20
2030.578743095625
 30
0.0
 40
5.7225
  0
ARC
  5
89
100
AcDbEntity
  8
BLACK
  6
CONTINUOUS
 62
          15
100
AcDbCircle
 10
-4732.725666184614
 20
2030.578743095625
 30
0.0
 40
6.57849
100
AcDbArc
 50
103.07
 51
13.07
  0
LINE
  5
8A
100
AcDbEntity
  8
BLACK
  6
GESTRICHELT
 62
          15
100
AcDbLine
 10
-4903.026683410203
 20
2053.938206078979
 30
0.0
 11
-4908.137609935041
 21
2049.935017984401
 31
0.0
  0
LINE
  5
8B
100
AcDbEntity
  8
BLACK
  6
CONTINUOUS
 62
          15
100
AcDbLine
 10
-4900.326779109162
 20
2056.052935121141
 30
0.0
 11
-4903.026683410203
 21
2053.938206078979
 31
0.0
  0
LINE
  5
8C
100
AcDbEntity
  8
BLACK
  6
GESTRICHELT
 62
          15
100
AcDbLine
 10
-4904.85261690768
 20
2054.095706925758
 30
0.0
 11
-4908.908305971761
 21
2050.919086879898
 31
0.0
  0
LINE
  5
8D
100
AcDbEntity
  8
BLACK
  6
CONTINUOUS
 62
          15
100
AcDbLine
 10
-4901.097486004979
 20
2057.036914674151
 30
0.0
 11
-4904.85261690768
 21
2054.095706925758
 31
0.0
  0
ARC
  5
8E
100
AcDbEntity
  8
BLACK
  6
GESTRICHELT
 62
          15
100
AcDbCircle
 10
-4904.617544953594
 20
2053.485991146634
 30
0.0
 40
5.0
100
AcDbArc
 50
168.324946168168
 51
1.815053831834
  0
ARC
  5
8F
100
AcDbEntity
  8
BLACK
  6
CONTINUOUS
 62
          15
100
AcDbCircle
 10
-4904.617544953594
 20
2053.485991146634
 30
0.0
 40
5.0
100
AcDbArc
 50
1.815053831834
 51
168.324946168168
  0
LINE
  5
90
100
AcDbEntity
  8
BLACK
  6
CONTINUOUS
 62
          15
100
AcDbLine
 10
-4733.697499650803
 20
2019.682254796471
 30
0.0
 11
-4741.508716695305
 21
2013.56447526487
 31
0.0
  0
LINE
  5
91
100
AcDbEntity
  8
BLACK
  6
CONTINUOUS
 62
          15
100
AcDbLine
 10
-4734.468394226383
 20
2020.666347823294
 30
0.0
 11
-4742.279622129982
 21
2014.548478949205
 31
0.0
  0
CIRCLE
  5
92
100
AcDbEntity
  8
BLACK
  6
CONTINUOUS
 62
          15
100
AcDbCircle
 10
-4737.988558477259
 20
2017.115386726724
 30
0.0
 40
5.0
  0
LINE
  5
93
100
AcDbEntity
  8
BLACK
  6
CONTINUOUS
 62
          15
100
AcDbLine
 10
-5055.642205543152
 20
2074.834080254353
 30
0.0
 11
-5058.229286018381
 21
2075.148525907987
 31
0.0
  0
LINE
  5
94
100
AcDbEntity
  8
BLACK
  6
CONTINUOUS
 62
          15
100
AcDbLine
 10
-5060.816346639724
 20
2075.462969148489
 30
0.0
 11
-5058.229286018381
 21
2075.148525907987
 31
0.0
  0
LINE
  5
95
100
AcDbEntity
  8
BLACK
  6
CONTINUOUS
 62
          15
100
AcDbLine
 10
-5063.463553077164
 20
2053.683256155027
 30
0.0
 11
-5060.876492455822
 21
2053.368812914525
 31
0.0
  0
LINE
  5
96
100
AcDbEntity
  8
BLACK
  6
CONTINUOUS
 62
          15
100
AcDbLine
 10
-5058.289411980592
 20
2053.054367260891
 30
0.0
 11
-5060.876492455822
 21
2053.368812914525
 31
0.0
  0
LINE
  5
97
100
AcDbEntity
  8
BLACK
  6
CONTINUOUS
 62
          15
100
AcDbLine
 10
-5056.304008359079
 20
2069.389142079044
 30
0.0
 11
-5058.891088834307
 21
2069.703587732679
 31
0.0
  0
LINE
  5
98
100
AcDbEntity
  8
BLACK
  6
CONTINUOUS
 62
          15
100
AcDbLine
 10
-5061.47814945565
 20
2070.018030973181
 30
0.0
 11
-5058.891088834307
 21
2069.703587732679
 31
0.0
  0
LINE
  5
99
100
AcDbEntity
  8
BLACK
  6
CONTINUOUS
 62
          15
100
AcDbLine
 10
-5062.801750261237
 20
2059.128194330336
 30
0.0
 11
-5060.214689639895
 21
2058.813751089834
 31
0.0
  0
LINE
  5
9A
100
AcDbEntity
  8
BLACK
  6
CONTINUOUS
 62
          15
100
AcDbLine
 10
-5057.627609164666
 20
2058.499305436199
 30
0.0
 11
-5060.214689639895
 21
2058.813751089834
 31
0.0
  0
ARC
  5
9B
100
AcDbEntity
  8
BLACK
  6
CONTINUOUS
 62
          15
100
AcDbCircle
 10
-5095.073079685926
 20
2068.575956642887
 30
0.0
 40
38.777600000016
100
AcDbArc
 50
353.929436999998
 51
1.201609999996
  0
ARC
  5
9C
100
AcDbEntity
  8
BLACK
  6
CONTINUOUS
 62
          15
100
AcDbCircle
 10
-5024.032698788293
 20
2059.941382179625
 30
0.0
 40
38.7776
100
AcDbArc
 50
164.937999999996
 51
172.210999999996
  0
ARC
  5
9D
100
AcDbEntity
  8
BLACK
  6
CONTINUOUS
 62
          15
100
AcDbCircle
 10
-5024.032698788292
 20
2059.941382179631
 30
0.0
 40
38.7776
100
AcDbArc
 50
173.929000000003
 51
181.202000000003
  0
ARC
  5
9E
100
AcDbEntity
  8
BLACK
  6
CONTINUOUS
 62
          15
100
AcDbCircle
 10
-5095.073079685926
 20
2068.575956642887
 30
0.0
 40
38.777600000016
100
AcDbArc
 50
344.938390000003
 51
352.210563
  0
LINE
  5
9F
100
AcDbEntity
  8
BLACK
  6
CONTINUOUS
 62
          15
100
AcDbLine
 10
-5056.512926291503
 20
2064.475100913464
 30
0.0
 11
-5056.578777107275
 21
2063.897182151157
 31
0.0
  0
LINE
  5
A0
100
AcDbEntity
  8
BLACK
  6
CONTINUOUS
 62
          15
100
AcDbLine
 10
-5062.452454549068
 20
2065.197018481593
 30
0.0
 11
-5062.527001366929
 21
2064.620156671355
 31
0.0
  0
LINE
  5
A1
100
AcDbEntity
  8
BLACK
  6
CONTINUOUS
 62
          15
100
AcDbLine
 10
-5062.592812474928
 20
2064.042233082783
 30
0.0
 11
-5062.527001366929
 21
2064.620156671355
 31
0.0
  0
LINE
  5
A2
100
AcDbEntity
  8
BLACK
  6
CONTINUOUS
 62
          15
100
AcDbLine
 10
-5056.653284217363
 20
2063.320315514654
 30
0.0
 11
-5056.578777107275
 21
2063.897182151157
 31
0.0
  0
ARC
  5
A3
100
AcDbEntity
  8
BLACK
  6
CONTINUOUS
 62
          15
100
AcDbCircle
 10
-5065.646537513512
 20
2073.287349275124
 30
0.0
 40
10.134500000026
100
AcDbArc
 50
337.351500000022
 51
353.069999999982
  0
ARC
  5
A4
100
AcDbEntity
  8
BLACK
  6
CONTINUOUS
 62
          15
100
AcDbCircle
 10
-5051.473831031963
 20
2071.564733378154
 30
0.0
 40
10.123199999994
100
AcDbArc
 50
173.069999999998
 51
188.789000000007
  0
ARC
  5
A5
100
AcDbEntity
  8
BLACK
  6
CONTINUOUS
 62
          15
100
AcDbCircle
 10
-5053.459231033755
 20
2055.229988340823
 30
0.0
 40
10.134500000018
100
AcDbArc
 50
157.351000000007
 51
173.069999999979
  0
ARC
  5
A6
100
AcDbEntity
  8
BLACK
  6
CONTINUOUS
 62
          15
100
AcDbCircle
 10
-5067.631937515289
 20
2056.952604237794
 30
0.0
 40
10.123199999986
100
AcDbArc
 50
353.069999999985
 51
8.788500000007
  0
ARC
  5
A7
100
AcDbEntity
  8
BLACK
  6
CONTINUOUS
 62
          15
100
AcDbCircle
 10
-5065.646537513474
 20
2073.287349275119
 30
0.0
 40
10.123199999986
100
AcDbArc
 50
353.069999999985
 51
8.788500000007
  0
ARC
  5
A8
100
AcDbEntity
  8
BLACK
  6
CONTINUOUS
 62
          15
100
AcDbCircle
 10
-5051.47383103194
 20
2071.564733378147
 30
0.0
 40
10.134500000018
100
AcDbArc
 50
157.351000000007
 51
173.069999999979
  0
ARC
  5
A9
100
AcDbEntity
  8
BLACK
  6
CONTINUOUS
 62
          15
100
AcDbCircle
 10
-5053.459231033778
 20
2055.229988340829
 30
0.0
 40
10.123199999994
100
AcDbArc
 50
173.069999999998
 51
188.789000000007
  0
ARC
  5
AA
100
AcDbEntity
  8
BLACK
  6
CONTINUOUS
 62
          15
100
AcDbCircle
 10
-5067.631937515328
 20
2056.952604237799
 30
0.0
 40
10.134500000026
100
AcDbArc
 50
337.351500000022
 51
353.069999999982
  0
LINE
  5
AB
100
AcDbEntity
  8
BLACK
  6
CONTINUOUS
 62
          15
100
AcDbLine
 10
-5055.586077106366
 20
2072.06455466982
 30
0.0
 11
-5056.578777107275
 21
2063.897182151157
 31
0.0
  0
LINE
  5
AC
100
AcDbEntity
  8
BLACK
  6
CONTINUOUS
 62
          15
100
AcDbLine
 10
-5061.534301366021
 20
2072.787529190018
 30
0.0
 11
-5062.527001366929
 21
2064.620156671355
 31
0.0
  0
LINE
  5
AD
100
AcDbEntity
  8
BLACK
  6
CONTINUOUS
 62
          15
100
AcDbLine
 10
-5063.519701367836
 20
2056.452784152693
 30
0.0
 11
-5062.527001366929
 21
2064.620156671355
 31
0.0
  0
LINE
  5
AE
100
AcDbEntity
  8
BLACK
  6
CONTINUOUS
 62
          15
100
AcDbLine
 10
-5057.571477108182
 20
2055.729809632495
 30
0.0
 11
-5056.578777107275
 21
2063.897182151157
 31
0.0
  0
LINE
  5
AF
100
AcDbEntity
  8
WHITE
  6
CONTINUOUS
 62
          15
100
AcDbLine
 10
-5063.250941140158
 20
2058.663990857282
 30
0.0
 11
-5063.178547162835
 21
2059.259607438689
 31
0.0
  0
LINE
  5
B0
100
AcDbEntity
  8
WHITE
  6
CONTINUOUS
 62
          15
100
AcDbLine
 10
-5063.178547162835
 20
2059.259607438689
 30
0.0
 11
-5061.875455571023
 21
2069.980705904022
 31
0.0
  0
LINE
  5
B1
100
AcDbEntity
  8
WHITE
  6
CONTINUOUS
 62
          15
100
AcDbLine
 10
-5061.875455571023
 20
2069.980705904022
 30
0.0
 11
-5061.8030615937
 21
2070.576322485429
 31
0.0
  0
LINE
  5
B2
100
AcDbEntity
  8
WHITE
  6
CONTINUOUS
 62
          15
100
AcDbLine
 10
-5061.8030615937
 20
2070.576322485429
 30
0.0
 11
-5061.404894718424
 21
2073.852213683169
 31
0.0
  0
LINE
  5
B3
100
AcDbEntity
  8
WHITE
  6
CONTINUOUS
 62
          15
100
AcDbLine
 10
-5087.79954416968
 20
2055.603584136125
 30
0.0
 11
-5086.504900097777
 21
2055.446227144214
 31
0.0
  0
LINE
  5
B4
100
AcDbEntity
  8
WHITE
  6
CONTINUOUS
 62
          15
100
AcDbLine
 10
-5083.609141004861
 20
2079.270890400507
 30
0.0
 11
-5084.903785076765
 21
2079.428247392418
 31
0.0
  0
LINE
  5
B5
100
AcDbEntity
  8
WHITE
  6
CONTINUOUS
 62
          15
100
AcDbLine
 10
-5086.504900097777
 20
2055.446227144214
 30
0.0
 11
-5082.736803227718
 21
2054.98823532888
 31
0.0
  0
LINE
  5
B6
100
AcDbEntity
  8
WHITE
  6
CONTINUOUS
 62
          15
100
AcDbLine
 10
-5079.841044134802
 20
2078.812898585174
 30
0.0
 11
-5083.609141004861
 21
2079.270890400507
 31
0.0
  0
LINE
  5
B7
100
AcDbEntity
  8
WHITE
  6
CONTINUOUS
 62
          15
100
AcDbLine
 10
-5120.180068932149
 20
2083.715889095456
 30
0.0
 11
-5084.903785076765
 21
2079.428247392418
 31
0.0
  0
LINE
  5
B8
100
AcDbEntity
  8
WHITE
  6
CONTINUOUS
 62
          15
100
AcDbLine
 10
-5123.075828025065
 20
2059.891225839162
 30
0.0
 11
-5087.79954416968
 21
2055.603584136125
 31
0.0
  0
LINE
  5
B9
100
AcDbEntity
  8
WHITE
  6
CONTINUOUS
 62
          15
100
AcDbLine
 10
-5079.16480119466
 20
2076.917457874968
 30
0.0
 11
-5081.626196423638
 21
2056.666494107118
 31
0.0
  0
LINE
  5
BA
100
AcDbEntity
  8
WHITE
  6
CONTINUOUS
 62
          15
100
AcDbLine
 10
-5062.18972862455
 20
2074.854229521265
 30
0.0
 11
-5064.890233902286
 21
2075.182461346804
 31
0.0
  0
LINE
  5
BB
100
AcDbEntity
  8
WHITE
  6
CONTINUOUS
 62
          15
100
AcDbLine
 10
-5063.649108015434
 20
2055.388099659542
 30
0.0
 11
-5063.250941140158
 21
2058.663990857282
 31
0.0
  0
LINE
  5
BC
100
AcDbEntity
  8
WHITE
  6
CONTINUOUS
 62
          15
100
AcDbLine
 10
-5080.732771551528
 20
2056.557903141134
 30
0.0
 11
-5078.905679089256
 21
2056.335829924219
 31
0.0
  0
LINE
  5
BD
100
AcDbEntity
  8
WHITE
  6
CONTINUOUS
 62
          15
100
AcDbLine
 10
-5076.299495905631
 20
2077.778026854884
 30
0.0
 11
-5076.444283860277
 21
2076.586793692069
 31
0.0
  0
LINE
  5
BE
100
AcDbEntity
  8
WHITE
  6
CONTINUOUS
 62
          15
100
AcDbLine
 10
-5076.444283860277
 20
2076.586793692069
 30
0.0
 11
-5078.271376322549
 21
2076.808866908983
 31
0.0
  0
LINE
  5
BF
100
AcDbEntity
  8
WHITE
  6
CONTINUOUS
 62
          15
100
AcDbLine
 10
-5076.444283860277
 20
2076.586793692069
 30
0.0
 11
-5078.905679089256
 21
2056.335829924219
 31
0.0
  0
LINE
  5
C0
100
AcDbEntity
  8
WHITE
  6
CONTINUOUS
 62
          15
100
AcDbLine
 10
-5078.905679089256
 20
2056.335829924219
 30
0.0
 11
-5079.050467043901
 21
2055.144596761405
 31
0.0
  0
LINE
  5
C1
100
AcDbEntity
  8
WHITE
  6
CONTINUOUS
 62
          15
100
AcDbLine
 10
-5067.49641708591
 20
2053.74026441614
 30
0.0
 11
-5067.351629131264
 21
2054.931497578954
 31
0.0
  0
LINE
  5
C2
100
AcDbEntity
  8
WHITE
  6
CONTINUOUS
 62
          15
100
AcDbLine
 10
-5067.351629131264
 20
2054.931497578954
 30
0.0
 11
-5064.651123853529
 21
2054.603265753415
 31
0.0
  0
LINE
  5
C3
100
AcDbEntity
  8
WHITE
  6
CONTINUOUS
 62
          15
100
AcDbLine
 10
-5067.351629131264
 20
2054.931497578954
 30
0.0
 11
-5064.890233902286
 21
2075.182461346804
 31
0.0
  0
LINE
  5
C4
100
AcDbEntity
  8
WHITE
  6
CONTINUOUS
 62
          15
100
AcDbLine
 10
-5064.890233902286
 20
2075.182461346804
 30
0.0
 11
-5064.74544594764
 21
2076.373694509619
 31
0.0
  0
LINE
  5
C5
100
AcDbEntity
  8
WHITE
  6
CONTINUOUS
 62
          15
100
AcDbLine
 10
-5076.299495905631
 20
2077.778026854884
 30
0.0
 11
-5064.74544594764
 21
2076.373694509619
 31
0.0
  0
LINE
  5
C6
100
AcDbEntity
  8
WHITE
  6
CONTINUOUS
 62
          15
100
AcDbLine
 10
-5079.050467043901
 20
2055.144596761405
 30
0.0
 11
-5067.49641708591
 21
2053.74026441614
 31
0.0
  0
ARC
  5
C7
100
AcDbEntity
  8
WHITE
  6
CONTINUOUS
 62
          15
100
AcDbCircle
 10
-5102.00258952163
 20
2069.418201122917
 30
0.0
 40
20.866107311614
100
AcDbArc
 50
317.963694434247
 51
28.176305565752
  0
ARC
  5
C8
100
AcDbEntity
  8
WHITE
  6
CONTINUOUS
 62
          15
100
AcDbCircle
 10
-5092.184383289112
 20
2068.224851203629
 30
0.0
 40
29.660254037848
100
AcDbArc
 50
149.205074583953
 51
196.934925416046
  0
ARC
  5
C9
100
AcDbEntity
  8
WHITE
  6
CONTINUOUS
 62
          15
100
AcDbCircle
 10
-5102.714581830093
 20
2069.504739941079
 30
0.0
 40
22.516660498396
100
AcDbArc
 50
140.865772496028
 51
205.274227503971
  0
ARC
  5
CA
100
AcDbEntity
  8
WHITE
  6
CONTINUOUS
 62
          15
100
AcDbCircle
 10
-5079.949635100787
 20
2077.919473713063
 30
0.0
 40
0.9
100
AcDbArc
 50
353.069999999999
 51
83.07
  0
ARC
  5
CB
100
AcDbEntity
  8
WHITE
  6
CONTINUOUS
 62
          15
100
AcDbCircle
 10
-5078.162785356564
 20
2077.702291781094
 30
0.0
 40
0.9
100
AcDbArc
 50
173.07
 51
263.069999999999
  0
ARC
  5
CC
100
AcDbEntity
  8
WHITE
  6
CONTINUOUS
 62
          15
100
AcDbCircle
 10
-5062.298319590534
 20
2073.960804649154
 30
0.0
 40
0.9
100
AcDbArc
 50
353.069999999999
 51
83.07
  0
ARC
  5
CD
100
AcDbEntity
  8
WHITE
  6
CONTINUOUS
 62
          15
100
AcDbCircle
 10
-5064.542532887544
 20
2055.496690625526
 30
0.0
 40
0.9
100
AcDbArc
 50
263.069999999999
 51
353.069999999999
  0
ARC
  5
CE
100
AcDbEntity
  8
WHITE
  6
CONTINUOUS
 62
          15
100
AcDbCircle
 10
-5080.841362517512
 20
2055.664478269022
 30
0.0
 40
0.9
100
AcDbArc
 50
83.07
 51
173.069999999985
  0
ARC
  5
CF
100
AcDbEntity
  8
WHITE
  6
CONTINUOUS
 62
          15
100
AcDbCircle
 10
-5082.628212261734
 20
2055.881660200991
 30
0.0
 40
0.9
100
AcDbArc
 50
263.069999999999
 51
353.069999999985
  0
LINE
  5
D0
100
AcDbEntity
  8
WHITE
  6
CONTINUOUS
 62
          15
100
AcDbLine
 10
-4882.325430283597
 20
2047.497637157432
 30
0.0
 11
-4878.856844898496
 21
2046.627687225748
 31
0.0
  0
LINE
  5
D1
100
AcDbEntity
  8
WHITE
  6
CONTINUOUS
 62
          15
100
AcDbLine
 10
-4882.451732676821
 20
2050.086704802852
 30
0.0
 11
-4882.700140717719
 21
2048.042944346732
 31
0.0
  0
LINE
  5
D2
100
AcDbEntity
  8
WHITE
  6
CONTINUOUS
 62
          15
100
AcDbLine
 10
-4881.588239159854
 20
2053.562827566977
 30
0.0
 11
-4878.012248496395
 21
2053.576547342167
 31
0.0
  0
LINE
  5
D3
100
AcDbEntity
  8
WHITE
  6
CONTINUOUS
 62
          15
100
AcDbLine
 10
-4882.331076047949
 20
2051.079399105198
 30
0.0
 11
-4882.082668007051
 21
2053.123159561316
 31
0.0
  0
LINE
  5
D4
100
AcDbEntity
  8
WHITE
  6
CONTINUOUS
 62
          15
100
AcDbLine
 10
-4880.877004614238
 20
2049.895305115183
 30
0.0
 11
-4882.451732676821
 21
2050.086704802852
 31
0.0
  0
LINE
  5
D5
100
AcDbEntity
  8
WHITE
  6
CONTINUOUS
 62
          15
100
AcDbLine
 10
-4880.816676299802
 20
2050.391652266354
 30
0.0
 11
-4880.877004614238
 21
2049.895305115183
 31
0.0
  0
LINE
  5
D6
100
AcDbEntity
  8
WHITE
  6
CONTINUOUS
 62
          15
100
AcDbLine
 10
-4880.756347985366
 20
2050.887999417528
 30
0.0
 11
-4880.816676299802
 21
2050.391652266354
 31
0.0
  0
LINE
  5
D7
100
AcDbEntity
  8
WHITE
  6
CONTINUOUS
 62
          15
100
AcDbLine
 10
-4882.331076047949
 20
2051.079399105198
 30
0.0
 11
-4880.756347985366
 21
2050.887999417528
 31
0.0
  0
LINE
  5
D8
100
AcDbEntity
  8
WHITE
  6
CONTINUOUS
 62
          15
100
AcDbLine
 10
-4877.770935238652
 20
2055.561935946859
 30
0.0
 11
-4867.347645064024
 21
2054.295041343708
 31
0.0
  0
LINE
  5
D9
100
AcDbEntity
  8
WHITE
  6
CONTINUOUS
 62
          15
100
AcDbLine
 10
-4877.770935238652
 20
2055.561935946859
 30
0.0
 11
-4878.917173212932
 21
2046.131340074575
 31
0.0
  0
LINE
  5
DA
100
AcDbEntity
  8
WHITE
  6
CONTINUOUS
 62
          15
100
AcDbLine
 10
-4871.787809006495
 20
2017.76389101739
 30
0.0
 11
-4863.349907436557
 21
2016.738309671982
 31
0.0
  0
LINE
  5
DB
100
AcDbEntity
  8
WHITE
  6
CONTINUOUS
 62
          15
100
AcDbLine
 10
-4863.349907436557
 20
2016.738309671982
 30
0.0
 11
-4863.289579122122
 21
2017.234656823155
 31
0.0
  0
LINE
  5
DC
100
AcDbEntity
  8
WHITE
  6
CONTINUOUS
 62
          15
100
AcDbLine
 10
-4863.289579122122
 20
2017.234656823155
 30
0.0
 11
-4857.679045879597
 21
2063.394941882224
 31
0.0
  0
LINE
  5
DD
100
AcDbEntity
  8
WHITE
  6
CONTINUOUS
 62
          15
100
AcDbLine
 10
-4856.686351577251
 20
2063.274285253353
 30
0.0
 11
-4856.746679891687
 21
2062.77793810218
 31
0.0
  0
LINE
  5
DE
100
AcDbEntity
  8
WHITE
  6
CONTINUOUS
 62
          15
100
AcDbLine
 10
-4856.746679891687
 20
2062.77793810218
 30
0.0
 11
-4857.739374194032
 21
2062.898594731051
 31
0.0
  0
LINE
  5
DF
100
AcDbEntity
  8
WHITE
  6
CONTINUOUS
 62
          15
100
AcDbLine
 10
-4856.746679891687
 20
2062.77793810218
 30
0.0
 11
-4862.296884819776
 21
2017.114000194284
 31
0.0
  0
LINE
  5
E0
100
AcDbEntity
  8
WHITE
  6
CONTINUOUS
 62
          15
100
AcDbLine
 10
-4862.296884819776
 20
2017.114000194284
 30
0.0
 11
-4863.289579122122
 21
2017.234656823155
 31
0.0
  0
LINE
  5
E1
100
AcDbEntity
  8
WHITE
  6
CONTINUOUS
 62
          15
100
AcDbLine
 10
-4867.843992215197
 20
2054.355369658143
 30
0.0
 11
-4866.613294600707
 21
2064.480851542068
 31
0.0
  0
LINE
  5
E2
100
AcDbEntity
  8
WHITE
  6
CONTINUOUS
 62
          15
100
AcDbLine
 10
-4857.679045879597
 20
2063.394941882224
 30
0.0
 11
-4866.613294600707
 21
2064.480851542068
 31
0.0
  0
LINE
  5
E3
100
AcDbEntity
  8
WHITE
  6
CONTINUOUS
 62
          15
100
AcDbLine
 10
-4867.843992215197
 20
2054.355369658143
 30
0.0
 11
-4867.347645064024
 21
2054.295041343708
 31
0.0
  0
LINE
  5
E4
100
AcDbEntity
  8
WHITE
  6
CONTINUOUS
 62
          15
100
AcDbLine
 10
-4867.347645064024
 20
2054.295041343708
 30
0.0
 11
-4871.787809006495
 21
2017.76389101739
 31
0.0
  0
LINE
  5
E5
100
AcDbEntity
  8
WHITE
  6
CONTINUOUS
 62
          15
100
AcDbLine
 10
-4780.248890296643
 20
2053.983724830247
 30
0.0
 11
-4856.686351577251
 21
2063.274285253353
 31
0.0
  0
LINE
  5
E6
100
AcDbEntity
  8
WHITE
  6
CONTINUOUS
 62
          15
100
AcDbLine
 10
-4785.919751853603
 20
2007.327092620005
 30
0.0
 11
-4780.248890296643
 21
2053.983724830247
 31
0.0
  0
LINE
  5
E7
100
AcDbEntity
  8
WHITE
  6
CONTINUOUS
 62
          15
100
AcDbLine
 10
-4862.357213134212
 20
2016.617653043111
 30
0.0
 11
-4785.919751853603
 21
2007.327092620005
 31
0.0
  0
LINE
  5
E8
100
AcDbEntity
  8
WHITE
  6
CONTINUOUS
 62
          15
100
AcDbLine
 10
-4862.296884819776
 20
2017.114000194284
 30
0.0
 11
-4862.357213134212
 21
2016.617653043111
 31
0.0
  0
LINE
  5
E9
100
AcDbEntity
  8
WHITE
  6
CONTINUOUS
 62
          15
100
AcDbLine
 10
-4884.862341277162
 20
2034.513789700764
 30
0.0
 11
-4884.228893975587
 21
2039.725434788078
 31
0.0
  0
LINE
  5
EA
100
AcDbEntity
  8
WHITE
  6
CONTINUOUS
 62
          15
100
AcDbLine
 10
-4886.099071723095
 20
2024.338673101722
 30
0.0
 11
-4882.358716228078
 21
2055.112196474435
 31
0.0
  0
LINE
  5
EB
100
AcDbEntity
  8
WHITE
  6
CONTINUOUS
 62
          15
100
AcDbLine
 10
-4881.245365296862
 20
2055.984234147909
 30
0.0
 11
-4877.770935238652
 21
2055.561935946859
 31
0.0
  0
LINE
  5
EC
100
AcDbEntity
  8
WHITE
  6
CONTINUOUS
 62
          15
100
AcDbLine
 10
-4885.227034049621
 20
2023.225322170505
 30
0.0
 11
-4871.329313816783
 21
2021.536129366304
 31
0.0
  0
LINE
  5
ED
100
AcDbEntity
  8
WHITE
  6
CONTINUOUS
 62
           1
100
AcDbLine
 10
-4912.014404604465
 20
2018.321570672165
 30
0.0
 11
-4894.145907162245
 21
2016.149751352478
 31
0.0
  0
LINE
  5
EE
100
AcDbEntity
  8
WHITE
  6
CONTINUOUS
 62
           1
100
AcDbLine
 10
-4894.145907162245
 20
2016.149751352478
 30
0.0
 11
-4894.669129766329
 21
2016.817761911207
 31
0.0
  0
LINE
  5
EF
100
AcDbEntity
  8
WHITE
  6
CONTINUOUS
 62
           1
100
AcDbLine
 10
-4894.669129766329
 20
2016.817761911207
 30
0.0
 11
-4894.001119207599
 21
2017.340984515291
 31
0.0
  0
LINE
  5
F0
100
AcDbEntity
  8
WHITE
  6
CONTINUOUS
 62
           1
100
AcDbLine
 10
-4894.001119207599
 20
2017.340984515291
 30
0.0
 11
-4911.869616649819
 21
2019.512803834979
 31
0.0
  0
LINE
  5
F1
100
AcDbEntity
  8
WHITE
  6
CONTINUOUS
 62
           1
100
AcDbLine
 10
-4911.869616649819
 20
2019.512803834979
 30
0.0
 11
-4911.346394045735
 21
2018.844793276248
 31
0.0
  0
LINE
  5
F2
100
AcDbEntity
  8
WHITE
  6
CONTINUOUS
 62
           1
100
AcDbLine
 10
-4911.346394045735
 20
2018.844793276248
 30
0.0
 11
-4912.014404604465
 21
2018.321570672165
 31
0.0
  0
LINE
  5
F3
100
AcDbEntity
  8
WHITE
  6
CONTINUOUS
 62
           1
100
AcDbLine
 10
-4911.346394045735
 20
2018.844793276248
 30
0.0
 11
-4894.669129766329
 21
2016.817761911207
 31
0.0
  0
LINE
  5
F4
100
AcDbEntity
  8
WHITE
  6
CONTINUOUS
 62
           1
100
AcDbLine
 10
-4911.587707303478
 20
2016.859404671557
 30
0.0
 11
-4912.110929907562
 21
2017.527415230287
 31
0.0
  0
LINE
  5
F5
100
AcDbEntity
  8
WHITE
  6
CONTINUOUS
 62
           1
100
AcDbLine
 10
-4912.110929907562
 20
2017.527415230287
 30
0.0
 11
-4894.242432465342
 21
2015.3555959106
 31
0.0
  0
LINE
  5
F6
100
AcDbEntity
  8
WHITE
  6
CONTINUOUS
 62
           1
100
AcDbLine
 10
-4894.242432465342
 20
2015.3555959106
 30
0.0
 11
-4894.910443024072
 21
2014.832373306516
 31
0.0
  0
LINE
  5
F7
100
AcDbEntity
  8
WHITE
  6
CONTINUOUS
 62
           1
100
AcDbLine
 10
-4894.910443024072
 20
2014.832373306516
 30
0.0
 11
-4894.387220419988
 21
2014.164362747787
 31
0.0
  0
LINE
  5
F8
100
AcDbEntity
  8
WHITE
  6
CONTINUOUS
 62
           1
100
AcDbLine
 10
-4894.387220419988
 20
2014.164362747787
 30
0.0
 11
-4912.255717862208
 21
2016.336182067474
 31
0.0
  0
LINE
  5
F9
100
AcDbEntity
  8
WHITE
  6
CONTINUOUS
 62
           1
100
AcDbLine
 10
-4912.255717862208
 20
2016.336182067474
 30
0.0
 11
-4911.587707303478
 21
2016.859404671557
 31
0.0
  0
LINE
  5
FA
100
AcDbEntity
  8
WHITE
  6
CONTINUOUS
 62
           1
100
AcDbLine
 10
-4894.910443024072
 20
2014.832373306516
 30
0.0
 11
-4911.587707303478
 21
2016.859404671557
 31
0.0
  0
LINE
  5
FB
100
AcDbEntity
  8
WHITE
  6
CONTINUOUS
 62
           1
100
AcDbLine
 10
-4911.829020561221
 20
2014.874016066866
 30
0.0
 11
-4912.352243165306
 21
2015.542026625596
 31
0.0
  0
LINE
  5
FC
100
AcDbEntity
  8
WHITE
  6
CONTINUOUS
 62
           1
100
AcDbLine
 10
-4912.352243165306
 20
2015.542026625596
 30
0.0
 11
-4894.483745723085
 21
2013.370207305909
 31
0.0
  0
LINE
  5
FD
100
AcDbEntity
  8
WHITE
  6
CONTINUOUS
 62
           1
100
AcDbLine
 10
-4894.483745723085
 20
2013.370207305909
 30
0.0
 11
-4895.151756281815
 21
2012.846984701825
 31
0.0
  0
LINE
  5
FE
100
AcDbEntity
  8
WHITE
  6
CONTINUOUS
 62
           1
100
AcDbLine
 10
-4895.151756281815
 20
2012.846984701825
 30
0.0
 11
-4894.62853367773
 21
2012.178974143096
 31
0.0
  0
LINE
  5
FF
100
AcDbEntity
  8
WHITE
  6
CONTINUOUS
 62
           1
100
AcDbLine
 10
-4894.62853367773
 20
2012.178974143096
 30
0.0
 11
-4912.49703111995
 21
2014.350793462783
 31
0.0
  0
LINE
  5
100
100
AcDbEntity
  8
WHITE
  6
CONTINUOUS
 62
           1
100
AcDbLine
 10
-4912.49703111995
 20
2014.350793462783
 30
0.0
 11
-4911.829020561221
 21
2014.874016066866
 31
0.0
  0
LINE
  5
101
100
AcDbEntity
  8
WHITE
  6
CONTINUOUS
 62
           1
100
AcDbLine
 10
-4912.070333818964
 20
2012.888627462175
 30
0.0
 11
-4912.593556423049
 21
2013.556638020905
 31
0.0
  0
LINE
  5
102
100
AcDbEntity
  8
WHITE
  6
CONTINUOUS
 62
           1
100
AcDbLine
 10
-4912.593556423049
 20
2013.556638020905
 30
0.0
 11
-4906.545150161192
 21
2012.821486919628
 31
0.0
  0
LINE
  5
103
100
AcDbEntity
  8
WHITE
  6
CONTINUOUS
 62
           1
100
AcDbLine
 10
-4894.725058980828
 20
2011.384818701218
 30
0.0
 11
-4895.393069539558
 21
2010.861596097134
 31
0.0
  0
LINE
  5
104
100
AcDbEntity
  8
WHITE
  6
CONTINUOUS
 62
           1
100
AcDbLine
 10
-4895.393069539558
 20
2010.861596097134
 30
0.0
 11
-4894.869846935473
 21
2010.193585538405
 31
0.0
  0
LINE
  5
105
100
AcDbEntity
  8
WHITE
  6
CONTINUOUS
 62
           1
100
AcDbLine
 10
-4894.869846935473
 20
2010.193585538405
 30
0.0
 11
-4900.918253197329
 21
2010.928736639682
 31
0.0
  0
LINE
  5
106
100
AcDbEntity
  8
WHITE
  6
CONTINUOUS
 62
           1
100
AcDbLine
 10
-4912.738344377694
 20
2012.365404858092
 30
0.0
 11
-4912.070333818964
 21
2012.888627462175
 31
0.0
  0
LINE
  5
107
100
AcDbEntity
  8
WHITE
  6
CONTINUOUS
 62
           1
100
AcDbLine
 10
-4912.311647076706
 20
2010.903238857485
 30
0.0
 11
-4912.834869680792
 21
2011.571249416214
 31
0.0
  0
LINE
  5
108
100
AcDbEntity
  8
WHITE
  6
CONTINUOUS
 62
           1
100
AcDbLine
 10
-4912.834869680792
 20
2011.571249416214
 30
0.0
 11
-4907.52722788802
 21
2010.926134233765
 31
0.0
  0
LINE
  5
109
100
AcDbEntity
  8
WHITE
  6
CONTINUOUS
 62
           1
100
AcDbLine
 10
-4894.966372238571
 20
2009.399430096527
 30
0.0
 11
-4895.634382797301
 21
2008.876207492443
 31
0.0
  0
LINE
  5
10A
100
AcDbEntity
  8
WHITE
  6
CONTINUOUS
 62
           1
100
AcDbLine
 10
-4912.070333818964
 20
2012.888627462175
 30
0.0
 11
-4906.021927557108
 21
2012.153476360898
 31
0.0
  0
LINE
  5
10B
100
AcDbEntity
  8
WHITE
  6
CONTINUOUS
 62
           1
100
AcDbLine
 10
-4911.829020561221
 20
2014.874016066866
 30
0.0
 11
-4895.151756281815
 21
2012.846984701825
 31
0.0
  0
LINE
  5
10C
100
AcDbEntity
  8
WHITE
  6
CONTINUOUS
 62
           1
100
AcDbLine
 10
-4906.689938115838
 20
2011.630253756815
 30
0.0
 11
-4906.021927557108
 21
2012.153476360898
 31
0.0
  0
LINE
  5
10D
100
AcDbEntity
  8
WHITE
  6
CONTINUOUS
 62
           1
100
AcDbLine
 10
-4906.689938115838
 20
2011.630253756815
 30
0.0
 11
-4912.738344377694
 21
2012.365404858092
 31
0.0
  0
LINE
  5
10E
100
AcDbEntity
  8
WHITE
  6
CONTINUOUS
 62
           1
100
AcDbLine
 10
-4906.021927557108
 20
2012.153476360898
 30
0.0
 11
-4906.545150161192
 21
2012.821486919628
 31
0.0
  0
LINE
  5
10F
100
AcDbEntity
  8
WHITE
  6
CONTINUOUS
 62
           1
100
AcDbLine
 10
-4907.52722788802
 20
2010.926134233765
 30
0.0
 11
-4907.004005283936
 21
2010.258123675036
 31
0.0
  0
LINE
  5
110
100
AcDbEntity
  8
WHITE
  6
CONTINUOUS
 62
           1
100
AcDbLine
 10
-4900.942024590072
 20
2009.521322674892
 30
0.0
 11
-4900.274014031342
 21
2010.044545278975
 31
0.0
  0
LINE
  5
111
100
AcDbEntity
  8
WHITE
  6
CONTINUOUS
 62
           1
100
AcDbLine
 10
-4900.274014031342
 20
2010.044545278975
 30
0.0
 11
-4894.966372238571
 21
2009.399430096527
 31
0.0
  0
LINE
  5
112
100
AcDbEntity
  8
WHITE
  6
CONTINUOUS
 62
           1
100
AcDbLine
 10
-4900.918253197329
 20
2010.928736639682
 30
0.0
 11
-4901.441475801415
 21
2011.596747198411
 31
0.0
  0
LINE
  5
113
100
AcDbEntity
  8
WHITE
  6
CONTINUOUS
 62
           1
100
AcDbLine
 10
-4901.441475801415
 20
2011.596747198411
 30
0.0
 11
-4895.393069539558
 21
2010.861596097134
 31
0.0
  0
LINE
  5
114
100
AcDbEntity
  8
WHITE
  6
CONTINUOUS
 62
           1
100
AcDbLine
 10
-4901.441475801415
 20
2011.596747198411
 30
0.0
 11
-4900.773465242684
 21
2012.119969802495
 31
0.0
  0
LINE
  5
115
100
AcDbEntity
  8
WHITE
  6
CONTINUOUS
 62
           1
100
AcDbLine
 10
-4900.773465242684
 20
2012.119969802495
 30
0.0
 11
-4894.725058980828
 21
2011.384818701218
 31
0.0
  0
LINE
  5
116
100
AcDbEntity
  8
WHITE
  6
CONTINUOUS
 62
           1
100
AcDbLine
 10
-4912.593556423049
 20
2013.556638020905
 30
0.0
 11
-4912.738344377694
 21
2012.365404858092
 31
0.0
  0
LINE
  5
117
100
AcDbEntity
  8
WHITE
  6
CONTINUOUS
 62
           1
100
AcDbLine
 10
-4912.49703111995
 20
2014.350793462783
 30
0.0
 11
-4912.352243165306
 21
2015.542026625596
 31
0.0
  0
LINE
  5
118
100
AcDbEntity
  8
WHITE
  6
CONTINUOUS
 62
           1
100
AcDbLine
 10
-4912.255717862208
 20
2016.336182067474
 30
0.0
 11
-4912.110929907562
 21
2017.527415230287
 31
0.0
  0
LINE
  5
119
100
AcDbEntity
  8
WHITE
  6
CONTINUOUS
 62
           1
100
AcDbLine
 10
-4912.014404604465
 20
2018.321570672165
 30
0.0
 11
-4911.869616649819
 21
2019.512803834979
 31
0.0
  0
LINE
  5
11A
100
AcDbEntity
  8
WHITE
  6
CONTINUOUS
 62
           1
100
AcDbLine
 10
-4912.834869680792
 20
2011.571249416214
 30
0.0
 11
-4912.907263658114
 21
2010.975632834808
 31
0.0
  0
LINE
  5
11B
100
AcDbEntity
  8
WHITE
  6
CONTINUOUS
 62
           1
100
AcDbLine
 10
-4895.038766215894
 20
2008.803813515121
 30
0.0
 11
-4894.966372238571
 21
2009.399430096527
 31
0.0
  0
LINE
  5
11C
100
AcDbEntity
  8
WHITE
  6
CONTINUOUS
 62
           1
100
AcDbLine
 10
-4894.869846935473
 20
2010.193585538405
 30
0.0
 11
-4894.725058980828
 21
2011.384818701218
 31
0.0
  0
LINE
  5
11D
100
AcDbEntity
  8
WHITE
  6
CONTINUOUS
 62
           1
100
AcDbLine
 10
-4894.62853367773
 20
2012.178974143096
 30
0.0
 11
-4894.483745723085
 21
2013.370207305909
 31
0.0
  0
LINE
  5
11E
100
AcDbEntity
  8
WHITE
  6
CONTINUOUS
 62
           1
100
AcDbLine
 10
-4894.387220419988
 20
2014.164362747787
 30
0.0
 11
-4894.242432465342
 21
2015.3555959106
 31
0.0
  0
LINE
  5
11F
100
AcDbEntity
  8
WHITE
  6
CONTINUOUS
 62
           1
100
AcDbLine
 10
-4894.145907162245
 20
2016.149751352478
 30
0.0
 11
-4894.001119207599
 21
2017.340984515291
 31
0.0
  0
LINE
  5
120
100
AcDbEntity
  8
WHITE
  6
CONTINUOUS
 62
           1
100
AcDbLine
 10
-4896.076413224188
 20
2000.266642514949
 30
0.0
 11
-4895.931625269543
 21
2001.457875677762
 31
0.0
  0
LINE
  5
121
100
AcDbEntity
  8
WHITE
  6
CONTINUOUS
 62
           1
100
AcDbLine
 10
-4895.835099966445
 20
2002.25203111964
 30
0.0
 11
-4895.6903120118
 21
2003.443264282454
 31
0.0
  0
LINE
  5
122
100
AcDbEntity
  8
WHITE
  6
CONTINUOUS
 62
           1
100
AcDbLine
 10
-4895.593786708702
 20
2004.237419724331
 30
0.0
 11
-4895.448998754056
 21
2005.428652887144
 31
0.0
  0
LINE
  5
123
100
AcDbEntity
  8
WHITE
  6
CONTINUOUS
 62
           1
100
AcDbLine
 10
-4895.352473450959
 20
2006.222808329022
 30
0.0
 11
-4895.207685496313
 21
2007.414041491836
 31
0.0
  0
LINE
  5
124
100
AcDbEntity
  8
WHITE
  6
CONTINUOUS
 62
           1
100
AcDbLine
 10
-4895.111160193216
 20
2008.208196933713
 30
0.0
 11
-4895.038766215894
 21
2008.803813515121
 31
0.0
  0
LINE
  5
125
100
AcDbEntity
  8
WHITE
  6
CONTINUOUS
 62
           1
100
AcDbLine
 10
-4912.907263658114
 20
2010.975632834808
 30
0.0
 11
-4912.979657635437
 21
2010.3800162534
 31
0.0
  0
LINE
  5
126
100
AcDbEntity
  8
WHITE
  6
CONTINUOUS
 62
           1
100
AcDbLine
 10
-4913.944910666409
 20
2002.438461834636
 30
0.0
 11
-4913.800122711763
 21
2003.629694997449
 31
0.0
  0
LINE
  5
127
100
AcDbEntity
  8
WHITE
  6
CONTINUOUS
 62
           1
100
AcDbLine
 10
-4913.703597408666
 20
2004.423850439327
 30
0.0
 11
-4913.55880945402
 21
2005.615083602141
 31
0.0
  0
LINE
  5
128
100
AcDbEntity
  8
WHITE
  6
CONTINUOUS
 62
           1
100
AcDbLine
 10
-4913.462284150923
 20
2006.409239044018
 30
0.0
 11
-4913.317496196277
 21
2007.600472206832
 31
0.0
  0
LINE
  5
129
100
AcDbEntity
  8
WHITE
  6
CONTINUOUS
 62
           1
100
AcDbLine
 10
-4913.076182938534
 20
2009.585860811523
 30
0.0
 11
-4913.22097089318
 21
2008.394627648709
 31
0.0
  0
LINE
  5
12A
100
AcDbEntity
  8
WHITE
  6
CONTINUOUS
 62
           1
100
AcDbLine
 10
-4895.352473450959
 20
2006.222808329022
 30
0.0
 11
-4901.400879712815
 21
2006.957959430299
 31
0.0
  0
LINE
  5
12B
100
AcDbEntity
  8
WHITE
  6
CONTINUOUS
 62
           1
100
AcDbLine
 10
-4901.400879712815
 20
2006.957959430299
 30
0.0
 11
-4901.924102316901
 21
2007.625969989029
 31
0.0
  0
LINE
  5
12C
100
AcDbEntity
  8
WHITE
  6
CONTINUOUS
 62
           1
100
AcDbLine
 10
-4895.875696055045
 20
2006.890818887752
 30
0.0
 11
-4901.924102316901
 21
2007.625969989029
 31
0.0
  0
LINE
  5
12D
100
AcDbEntity
  8
WHITE
  6
CONTINUOUS
 62
           1
100
AcDbLine
 10
-4901.924102316901
 20
2007.625969989029
 30
0.0
 11
-4901.25609175817
 21
2008.149192593113
 31
0.0
  0
LINE
  5
12E
100
AcDbEntity
  8
WHITE
  6
CONTINUOUS
 62
           1
100
AcDbLine
 10
-4895.111160193216
 20
2008.208196933713
 30
0.0
 11
-4900.418801985988
 21
2008.853312116162
 31
0.0
  0
LINE
  5
12F
100
AcDbEntity
  8
WHITE
  6
CONTINUOUS
 62
           1
100
AcDbLine
 10
-4900.418801985988
 20
2008.853312116162
 30
0.0
 11
-4900.942024590072
 21
2009.521322674892
 31
0.0
  0
LINE
  5
130
100
AcDbEntity
  8
WHITE
  6
CONTINUOUS
 62
           1
100
AcDbLine
 10
-4912.311647076706
 20
2010.903238857485
 30
0.0
 11
-4907.004005283936
 21
2010.258123675036
 31
0.0
  0
LINE
  5
131
100
AcDbEntity
  8
WHITE
  6
CONTINUOUS
 62
           1
100
AcDbLine
 10
-4907.004005283936
 20
2010.258123675036
 30
0.0
 11
-4907.672015842666
 21
2009.734901070952
 31
0.0
  0
LINE
  5
132
100
AcDbEntity
  8
WHITE
  6
CONTINUOUS
 62
           1
100
AcDbLine
 10
-4907.172564631324
 20
2007.659476547432
 30
0.0
 11
-4906.504554072593
 21
2008.182699151516
 31
0.0
  0
LINE
  5
133
100
AcDbEntity
  8
WHITE
  6
CONTINUOUS
 62
           1
100
AcDbLine
 10
-4913.076182938534
 20
2009.585860811523
 30
0.0
 11
-4907.027776676679
 21
2008.850709710246
 31
0.0
  0
LINE
  5
134
100
AcDbEntity
  8
WHITE
  6
CONTINUOUS
 62
           1
100
AcDbLine
 10
-4906.504554072593
 20
2008.182699151516
 30
0.0
 11
-4907.027776676679
 21
2008.850709710246
 31
0.0
  0
LINE
  5
135
100
AcDbEntity
  8
WHITE
  6
CONTINUOUS
 62
           1
100
AcDbLine
 10
-4896.117009312788
 20
2004.905430283061
 30
0.0
 11
-4912.794273592192
 21
2006.932461648102
 31
0.0
  0
LINE
  5
136
100
AcDbEntity
  8
WHITE
  6
CONTINUOUS
 62
           1
100
AcDbLine
 10
-4906.504554072593
 20
2008.182699151516
 30
0.0
 11
-4912.552960334449
 21
2008.917850252793
 31
0.0
  0
LINE
  5
137
100
AcDbEntity
  8
WHITE
  6
CONTINUOUS
 62
           1
100
AcDbLine
 10
-4900.942024590072
 20
2009.521322674892
 30
0.0
 11
-4895.634382797301
 21
2008.876207492443
 31
0.0
  0
LINE
  5
138
100
AcDbEntity
  8
WHITE
  6
CONTINUOUS
 62
           1
100
AcDbLine
 10
-4895.634382797301
 20
2008.876207492443
 30
0.0
 11
-4895.111160193216
 21
2008.208196933713
 31
0.0
  0
LINE
  5
139
100
AcDbEntity
  8
WHITE
  6
CONTINUOUS
 62
           1
100
AcDbLine
 10
-4907.672015842666
 20
2009.734901070952
 30
0.0
 11
-4912.979657635437
 21
2010.3800162534
 31
0.0
  0
LINE
  5
13A
100
AcDbEntity
  8
WHITE
  6
CONTINUOUS
 62
           1
100
AcDbLine
 10
-4912.979657635437
 20
2010.3800162534
 30
0.0
 11
-4912.311647076706
 21
2010.903238857485
 31
0.0
  0
LINE
  5
13B
100
AcDbEntity
  8
WHITE
  6
CONTINUOUS
 62
           1
100
AcDbLine
 10
-4912.552960334449
 20
2008.917850252793
 30
0.0
 11
-4913.076182938534
 21
2009.585860811523
 31
0.0
  0
LINE
  5
13C
100
AcDbEntity
  8
WHITE
  6
CONTINUOUS
 62
           1
100
AcDbLine
 10
-4901.25609175817
 20
2008.149192593113
 30
0.0
 11
-4895.207685496313
 21
2007.414041491836
 31
0.0
  0
LINE
  5
13D
100
AcDbEntity
  8
WHITE
  6
CONTINUOUS
 62
           1
100
AcDbLine
 10
-4895.207685496313
 20
2007.414041491836
 30
0.0
 11
-4895.875696055045
 21
2006.890818887752
 31
0.0
  0
LINE
  5
13E
100
AcDbEntity
  8
WHITE
  6
CONTINUOUS
 62
           1
100
AcDbLine
 10
-4895.875696055045
 20
2006.890818887752
 30
0.0
 11
-4895.352473450959
 21
2006.222808329022
 31
0.0
  0
LINE
  5
13F
100
AcDbEntity
  8
WHITE
  6
CONTINUOUS
 62
           1
100
AcDbLine
 10
-4907.172564631324
 20
2007.659476547432
 30
0.0
 11
-4913.22097089318
 21
2008.394627648709
 31
0.0
  0
LINE
  5
140
100
AcDbEntity
  8
WHITE
  6
CONTINUOUS
 62
           1
100
AcDbLine
 10
-4913.22097089318
 20
2008.394627648709
 30
0.0
 11
-4912.552960334449
 21
2008.917850252793
 31
0.0
  0
LINE
  5
141
100
AcDbEntity
  8
WHITE
  6
CONTINUOUS
 62
           1
100
AcDbLine
 10
-4912.794273592192
 20
2006.932461648102
 30
0.0
 11
-4913.317496196277
 21
2007.600472206832
 31
0.0
  0
LINE
  5
142
100
AcDbEntity
  8
WHITE
  6
CONTINUOUS
 62
           1
100
AcDbLine
 10
-4913.317496196277
 20
2007.600472206832
 30
0.0
 11
-4895.448998754056
 21
2005.428652887144
 31
0.0
  0
LINE
  5
143
100
AcDbEntity
  8
WHITE
  6
CONTINUOUS
 62
           1
100
AcDbLine
 10
-4895.448998754056
 20
2005.428652887144
 30
0.0
 11
-4896.117009312788
 21
2004.905430283061
 31
0.0
  0
LINE
  5
144
100
AcDbEntity
  8
WHITE
  6
CONTINUOUS
 62
           1
100
AcDbLine
 10
-4896.117009312788
 20
2004.905430283061
 30
0.0
 11
-4895.593786708702
 21
2004.237419724331
 31
0.0
  0
LINE
  5
145
100
AcDbEntity
  8
WHITE
  6
CONTINUOUS
 62
           1
100
AcDbLine
 10
-4895.593786708702
 20
2004.237419724331
 30
0.0
 11
-4913.462284150923
 21
2006.409239044018
 31
0.0
  0
LINE
  5
146
100
AcDbEntity
  8
WHITE
  6
CONTINUOUS
 62
           1
100
AcDbLine
 10
-4913.462284150923
 20
2006.409239044018
 30
0.0
 11
-4912.794273592192
 21
2006.932461648102
 31
0.0
  0
LINE
  5
147
100
AcDbEntity
  8
WHITE
  6
CONTINUOUS
 62
           1
100
AcDbLine
 10
-4913.035586849936
 20
2004.947073043411
 30
0.0
 11
-4896.358322570531
 21
2002.92004167837
 31
0.0
  0
LINE
  5
148
100
AcDbEntity
  8
WHITE
  6
CONTINUOUS
 62
           1
100
AcDbLine
 10
-4913.035586849936
 20
2004.947073043411
 30
0.0
 11
-4913.55880945402
 21
2005.615083602141
 31
0.0
  0
LINE
  5
149
100
AcDbEntity
  8
WHITE
  6
CONTINUOUS
 62
           1
100
AcDbLine
 10
-4913.55880945402
 20
2005.615083602141
 30
0.0
 11
-4895.6903120118
 21
2003.443264282454
 31
0.0
  0
LINE
  5
14A
100
AcDbEntity
  8
WHITE
  6
CONTINUOUS
 62
           1
100
AcDbLine
 10
-4895.6903120118
 20
2003.443264282454
 30
0.0
 11
-4896.358322570531
 21
2002.92004167837
 31
0.0
  0
LINE
  5
14B
100
AcDbEntity
  8
WHITE
  6
CONTINUOUS
 62
           1
100
AcDbLine
 10
-4896.358322570531
 20
2002.92004167837
 30
0.0
 11
-4895.835099966445
 21
2002.25203111964
 31
0.0
  0
LINE
  5
14C
100
AcDbEntity
  8
WHITE
  6
CONTINUOUS
 62
           1
100
AcDbLine
 10
-4895.835099966445
 20
2002.25203111964
 30
0.0
 11
-4913.703597408666
 21
2004.423850439327
 31
0.0
  0
LINE
  5
14D
100
AcDbEntity
  8
WHITE
  6
CONTINUOUS
 62
           1
100
AcDbLine
 10
-4913.703597408666
 20
2004.423850439327
 30
0.0
 11
-4913.035586849936
 21
2004.947073043411
 31
0.0
  0
LINE
  5
14E
100
AcDbEntity
  8
WHITE
  6
CONTINUOUS
 62
           1
100
AcDbLine
 10
-4896.599635828274
 20
2000.934653073679
 30
0.0
 11
-4913.276900107679
 21
2002.96168443872
 31
0.0
  0
LINE
  5
14F
100
AcDbEntity
  8
WHITE
  6
CONTINUOUS
 62
           1
100
AcDbLine
 10
-4913.800122711763
 20
2003.629694997449
 30
0.0
 11
-4913.276900107679
 21
2002.96168443872
 31
0.0
  0
LINE
  5
150
100
AcDbEntity
  8
WHITE
  6
CONTINUOUS
 62
           1
100
AcDbLine
 10
-4913.276900107679
 20
2002.96168443872
 30
0.0
 11
-4913.944910666409
 21
2002.438461834636
 31
0.0
  0
LINE
  5
151
100
AcDbEntity
  8
WHITE
  6
CONTINUOUS
 62
           1
100
AcDbLine
 10
-4913.944910666409
 20
2002.438461834636
 30
0.0
 11
-4896.076413224188
 21
2000.266642514949
 31
0.0
  0
LINE
  5
152
100
AcDbEntity
  8
WHITE
  6
CONTINUOUS
 62
           1
100
AcDbLine
 10
-4896.076413224188
 20
2000.266642514949
 30
0.0
 11
-4896.599635828274
 21
2000.934653073679
 31
0.0
  0
LINE
  5
153
100
AcDbEntity
  8
WHITE
  6
CONTINUOUS
 62
           1
100
AcDbLine
 10
-4896.599635828274
 20
2000.934653073679
 30
0.0
 11
-4895.931625269543
 21
2001.457875677762
 31
0.0
  0
LINE
  5
154
100
AcDbEntity
  8
WHITE
  6
CONTINUOUS
 62
           1
100
AcDbLine
 10
-4895.931625269543
 20
2001.457875677762
 30
0.0
 11
-4913.800122711763
 21
2003.629694997449
 31
0.0
  0
LINE
  5
155
100
AcDbEntity
  8
WHITE
  6
CONTINUOUS
 62
          15
100
AcDbLine
 10
-4940.129051449173
 20
2000.75726645597
 30
0.0
 11
-4939.220603448965
 21
2001.96588707635
 31
0.0
  0
LINE
  5
156
100
AcDbEntity
  8
WHITE
  6
CONTINUOUS
 62
          15
100
AcDbLine
 10
-4935.007592017683
 20
2001.453818299995
 30
0.0
 11
-4939.220603448965
 21
2001.96588707635
 31
0.0
  0
LINE
  5
157
100
AcDbEntity
  8
WHITE
  6
CONTINUOUS
 62
          15
100
AcDbLine
 10
-4939.220603448965
 20
2001.96588707635
 30
0.0
 11
-4939.655087689886
 21
2004.656771421121
 31
0.0
  0
LINE
  5
158
100
AcDbEntity
  8
WHITE
  6
CONTINUOUS
 62
          15
100
AcDbLine
 10
-4939.172461174399
 20
2008.627548630503
 30
0.0
 11
-4938.10602525443
 21
2011.136004239265
 31
0.0
  0
LINE
  5
159
100
AcDbEntity
  8
WHITE
  6
CONTINUOUS
 62
          15
100
AcDbLine
 10
-4933.893013823147
 20
2010.623935462911
 30
0.0
 11
-4938.10602525443
 21
2011.136004239265
 31
0.0
  0
LINE
  5
15A
100
AcDbEntity
  8
WHITE
  6
CONTINUOUS
 62
          15
100
AcDbLine
 10
-4938.10602525443
 20
2011.136004239265
 30
0.0
 11
-4938.698497415113
 21
2012.527053595652
 31
0.0
  0
LINE
  5
15B
100
AcDbEntity
  8
WHITE
  6
CONTINUOUS
 62
          15
100
AcDbLine
 10
-4939.777892546234
 20
1997.380828494891
 30
0.0
 11
-4940.370364706916
 21
1998.771877851279
 31
0.0
  0
LINE
  5
15C
100
AcDbEntity
  8
WHITE
  6
CONTINUOUS
 62
          15
100
AcDbLine
 10
-4933.335724725879
 20
2015.20899404437
 30
0.0
 11
-4937.548736157162
 21
2015.721062820724
 31
0.0
  0
LINE
  5
15D
100
AcDbEntity
  8
WHITE
  6
CONTINUOUS
 62
          15
100
AcDbLine
 10
-4938.45718415737
 20
2014.512442200342
 30
0.0
 11
-4937.548736157162
 21
2015.721062820724
 31
0.0
  0
LINE
  5
15E
100
AcDbEntity
  8
WHITE
  6
CONTINUOUS
 62
          15
100
AcDbLine
 10
-4935.56488111495
 20
1996.868759718538
 30
0.0
 11
-4935.406893195188
 21
1998.168594706921
 31
0.0
  0
LINE
  5
15F
100
AcDbEntity
  8
WHITE
  6
CONTINUOUS
 62
          15
100
AcDbLine
 10
-4940.129051449173
 20
2000.75726645597
 30
0.0
 11
-4940.370364706916
 21
1998.771877851279
 31
0.0
  0
LINE
  5
160
100
AcDbEntity
  8
WHITE
  6
CONTINUOUS
 62
          15
100
AcDbLine
 10
-4935.406893195188
 20
1998.168594706921
 30
0.0
 11
-4940.370364706916
 21
1998.771877851279
 31
0.0
  0
LINE
  5
161
100
AcDbEntity
  8
WHITE
  6
CONTINUOUS
 62
          15
100
AcDbLine
 10
-4935.406893195188
 20
1998.168594706921
 30
0.0
 11
-4935.165579937446
 21
2000.153983311613
 31
0.0
  0
LINE
  5
162
100
AcDbEntity
  8
WHITE
  6
CONTINUOUS
 62
          15
100
AcDbLine
 10
-4939.655087689886
 20
2004.656771421121
 30
0.0
 11
-4940.129051449173
 21
2000.75726645597
 31
0.0
  0
LINE
  5
163
100
AcDbEntity
  8
WHITE
  6
CONTINUOUS
 62
          15
100
AcDbLine
 10
-4935.165579937446
 20
2000.153983311613
 30
0.0
 11
-4940.129051449173
 21
2000.75726645597
 31
0.0
  0
LINE
  5
164
100
AcDbEntity
  8
WHITE
  6
CONTINUOUS
 62
          15
100
AcDbLine
 10
-4935.165579937446
 20
2000.153983311613
 30
0.0
 11
-4935.007592017683
 21
2001.453818299995
 31
0.0
  0
LINE
  5
165
100
AcDbEntity
  8
WHITE
  6
CONTINUOUS
 62
          15
100
AcDbLine
 10
-4935.007592017683
 20
2001.453818299995
 30
0.0
 11
-4934.691616178158
 21
2004.053488276763
 31
0.0
  0
LINE
  5
166
100
AcDbEntity
  8
WHITE
  6
CONTINUOUS
 62
          15
100
AcDbLine
 10
-4939.172461174399
 20
2008.627548630503
 30
0.0
 11
-4939.655087689886
 21
2004.656771421121
 31
0.0
  0
LINE
  5
167
100
AcDbEntity
  8
WHITE
  6
CONTINUOUS
 62
          15
100
AcDbLine
 10
-4934.691616178158
 20
2004.053488276763
 30
0.0
 11
-4939.655087689886
 21
2004.656771421121
 31
0.0
  0
LINE
  5
168
100
AcDbEntity
  8
WHITE
  6
CONTINUOUS
 62
          15
100
AcDbLine
 10
-4934.691616178158
 20
2004.053488276763
 30
0.0
 11
-4934.208989662672
 21
2008.024265486145
 31
0.0
  0
LINE
  5
169
100
AcDbEntity
  8
WHITE
  6
CONTINUOUS
 62
          15
100
AcDbLine
 10
-4938.698497415113
 20
2012.527053595652
 30
0.0
 11
-4939.172461174399
 21
2008.627548630503
 31
0.0
  0
LINE
  5
16A
100
AcDbEntity
  8
WHITE
  6
CONTINUOUS
 62
          15
100
AcDbLine
 10
-4934.208989662672
 20
2008.024265486145
 30
0.0
 11
-4939.172461174399
 21
2008.627548630503
 31
0.0
  0
LINE
  5
16B
100
AcDbEntity
  8
WHITE
  6
CONTINUOUS
 62
          15
100
AcDbLine
 10
-4934.208989662672
 20
2008.024265486145
 30
0.0
 11
-4933.893013823147
 21
2010.623935462911
 31
0.0
  0
LINE
  5
16C
100
AcDbEntity
  8
WHITE
  6
CONTINUOUS
 62
          15
100
AcDbLine
 10
-4933.893013823147
 20
2010.623935462911
 30
0.0
 11
-4933.735025903385
 21
2011.923770451294
 31
0.0
  0
LINE
  5
16D
100
AcDbEntity
  8
WHITE
  6
CONTINUOUS
 62
          15
100
AcDbLine
 10
-4938.45718415737
 20
2014.512442200342
 30
0.0
 11
-4938.698497415113
 21
2012.527053595652
 31
0.0
  0
LINE
  5
16E
100
AcDbEntity
  8
WHITE
  6
CONTINUOUS
 62
          15
100
AcDbLine
 10
-4933.735025903385
 20
2011.923770451294
 30
0.0
 11
-4938.698497415113
 21
2012.527053595652
 31
0.0
  0
LINE
  5
16F
100
AcDbEntity
  8
WHITE
  6
CONTINUOUS
 62
          15
100
AcDbLine
 10
-4933.735025903385
 20
2011.923770451294
 30
0.0
 11
-4933.493712645643
 21
2013.909159055985
 31
0.0
  0
LINE
  5
170
100
AcDbEntity
  8
WHITE
  6
CONTINUOUS
 62
          15
100
AcDbLine
 10
-4938.45718415737
 20
2014.512442200342
 30
0.0
 11
-4933.493712645643
 21
2013.909159055985
 31
0.0
  0
LINE
  5
171
100
AcDbEntity
  8
WHITE
  6
CONTINUOUS
 62
          15
100
AcDbLine
 10
-4939.777892546234
 20
1997.380828494891
 30
0.0
 11
-4935.56488111495
 21
1996.868759718538
 31
0.0
  0
LINE
  5
172
100
AcDbEntity
  8
WHITE
  6
CONTINUOUS
 62
          15
100
AcDbLine
 10
-4933.493712645643
 20
2013.909159055985
 30
0.0
 11
-4933.335724725879
 21
2015.20899404437
 31
0.0
  0
LINE
  5
173
100
AcDbEntity
  8
WHITE
  6
CONTINUOUS
 62
          15
100
AcDbLine
 10
-4884.228893975587
 20
2039.725434788078
 30
0.0
 11
-4883.595446674011
 21
2044.937079875392
 31
0.0
  0
LINE
  5
174
100
AcDbEntity
  8
WHITE
  6
CONTINUOUS
 62
          15
100
AcDbLine
 10
-4886.140233630155
 20
2036.431989673176
 30
0.0
 11
-4886.562531831206
 21
2032.957559614966
 31
0.0
  0
LINE
  5
175
100
AcDbEntity
  8
WHITE
  6
CONTINUOUS
 62
          15
100
AcDbLine
 10
-4886.562531831206
 20
2032.957559614966
 30
0.0
 11
-4885.812066199896
 21
2032.866344572285
 31
0.0
  0
LINE
  5
176
100
AcDbEntity
  8
WHITE
  6
CONTINUOUS
 62
          15
100
AcDbLine
 10
-4885.295637228055
 20
2043.380849789595
 30
0.0
 11
-4886.140233630155
 21
2036.431989673176
 31
0.0
  0
LINE
  5
177
100
AcDbEntity
  8
WHITE
  6
CONTINUOUS
 62
          15
100
AcDbLine
 10
-4886.140233630155
 20
2036.431989673176
 30
0.0
 11
-4885.389767998846
 21
2036.340774630495
 31
0.0
  0
LINE
  5
178
100
AcDbEntity
  8
WHITE
  6
CONTINUOUS
 62
          15
100
AcDbLine
 10
-4884.873339027005
 20
2046.855279847804
 30
0.0
 11
-4885.295637228055
 21
2043.380849789595
 31
0.0
  0
LINE
  5
179
100
AcDbEntity
  8
WHITE
  6
CONTINUOUS
 62
          15
100
AcDbLine
 10
-4885.295637228055
 20
2043.380849789595
 30
0.0
 11
-4884.545171596746
 21
2043.289634746914
 31
0.0
  0
LINE
  5
17A
100
AcDbEntity
  8
WHITE
  6
CONTINUOUS
 62
          15
100
AcDbLine
 10
-4884.209727568212
 20
2052.315098510705
 30
0.0
 11
-4884.873339027005
 21
2046.855279847804
 31
0.0
  0
LINE
  5
17B
100
AcDbEntity
  8
WHITE
  6
CONTINUOUS
 62
          15
100
AcDbLine
 10
-4884.873339027005
 20
2046.855279847804
 30
0.0
 11
-4884.122873395695
 21
2046.764064805122
 31
0.0
  0
LINE
  5
17C
100
AcDbEntity
  8
WHITE
  6
CONTINUOUS
 62
          15
100
AcDbLine
 10
-4929.964051741296
 20
2011.537754072105
 30
0.0
 11
-4931.411931287754
 21
1999.625422443957
 31
0.0
  0
LINE
  5
17D
100
AcDbEntity
  8
WHITE
  6
CONTINUOUS
 62
           2
100
AcDbLine
 10
-4931.411931287754
 20
1999.625422443957
 30
0.0
 11
-4935.174242693644
 21
2000.08271106738
 31
0.0
  0
LINE
  5
17E
100
AcDbEntity
  8
WHITE
  6
CONTINUOUS
 62
          15
100
AcDbLine
 10
-4929.843395112424
 20
2012.53044837445
 30
0.0
 11
-4929.964051741296
 21
2011.537754072105
 31
0.0
  0
LINE
  5
17F
100
AcDbEntity
  8
WHITE
  6
CONTINUOUS
 62
           2
100
AcDbLine
 10
-4929.964051741296
 20
2011.537754072105
 30
0.0
 11
-4933.726363147186
 21
2011.995042695528
 31
0.0
  0
LINE
  5
180
100
AcDbEntity
  8
WHITE
  6
CONTINUOUS
 62
          15
100
AcDbLine
 10
-4931.411931287754
 20
1999.625422443957
 30
0.0
 11
-4931.532587916626
 21
1998.632728141612
 31
0.0
  0
LINE
  5
181
100
AcDbEntity
  8
WHITE
  6
CONTINUOUS
 62
          15
100
AcDbLine
 10
-4935.294899322515
 20
1999.090016765034
 30
0.0
 11
-4931.532587916626
 21
1998.632728141612
 31
0.0
  0
LINE
  5
182
100
AcDbEntity
  8
WHITE
  6
CONTINUOUS
 62
          15
100
AcDbLine
 10
-4929.783066797989
 20
2013.026795525623
 30
0.0
 11
-4929.843395112424
 21
2012.53044837445
 31
0.0
  0
LINE
  5
183
100
AcDbEntity
  8
WHITE
  6
CONTINUOUS
 62
          15
100
AcDbLine
 10
-4933.605706518315
 20
2012.987736997873
 30
0.0
 11
-4929.843395112424
 21
2012.53044837445
 31
0.0
  0
LINE
  5
184
100
AcDbEntity
  8
WHITE
  6
CONTINUOUS
 62
          15
100
AcDbLine
 10
-4893.313857276321
 20
1993.987447930059
 30
0.0
 11
-4912.210685143004
 21
1996.284255256716
 31
0.0
  0
LINE
  5
185
100
AcDbEntity
  8
WHITE
  6
CONTINUOUS
 62
          15
100
AcDbLine
 10
-4912.210685143004
 20
1996.284255256716
 30
0.0
 11
-4919.861569546222
 21
1995.199459990462
 31
0.0
  0
LINE
  5
186
100
AcDbEntity
  8
WHITE
  6
CONTINUOUS
 62
          15
100
AcDbLine
 10
-4887.829426434357
 20
2022.534269440338
 30
0.0
 11
-4888.32577358553
 21
2022.594597754774
 31
0.0
  0
LINE
  5
187
100
AcDbEntity
  8
WHITE
  6
CONTINUOUS
 62
          15
100
AcDbLine
 10
-4891.643830879495
 20
1995.295504440271
 30
0.0
 11
-4888.32577358553
 21
2022.594597754774
 31
0.0
  0
LINE
  5
188
100
AcDbEntity
  8
WHITE
  6
CONTINUOUS
 62
          15
100
AcDbLine
 10
-4918.131214834961
 20
1997.003863651846
 30
0.0
 11
-4912.210685143004
 21
1996.284255256716
 31
0.0
  0
LINE
  5
189
100
AcDbEntity
  8
WHITE
  6
CONTINUOUS
 62
          15
100
AcDbLine
 10
-4888.32577358553
 20
2022.594597754774
 30
0.0
 11
-4916.121214051205
 21
2025.972983363176
 31
0.0
  0
LINE
  5
18A
100
AcDbEntity
  8
WHITE
  6
CONTINUOUS
 62
          15
100
AcDbLine
 10
-4919.439271345172
 20
1998.673890048673
 30
0.0
 11
-4916.121214051205
 21
2025.972983363176
 31
0.0
  0
LINE
  5
18B
100
AcDbEntity
  8
WHITE
  6
CONTINUOUS
 62
          15
100
AcDbLine
 10
-4930.28485972085
 20
1996.466354593613
 30
0.0
 11
-4919.861569546222
 21
1995.199459990462
 31
0.0
  0
LINE
  5
18C
100
AcDbEntity
  8
WHITE
  6
CONTINUOUS
 62
          15
100
AcDbLine
 10
-4931.532587916626
 20
1998.632728141612
 30
0.0
 11
-4931.592916231061
 21
1998.13638099044
 31
0.0
  0
LINE
  5
18D
100
AcDbEntity
  8
WHITE
  6
CONTINUOUS
 62
          15
100
AcDbLine
 10
-4928.113040401163
 20
2014.334852035834
 30
0.0
 11
-4917.689750226535
 21
2013.067957432683
 31
0.0
  0
LINE
  5
18E
100
AcDbEntity
  8
WHITE
  6
CONTINUOUS
 62
          15
100
AcDbLine
 10
-4887.708769805485
 20
2023.526963742684
 30
0.0
 11
-4887.829426434357
 21
2022.534269440338
 31
0.0
  0
LINE
  5
18F
100
AcDbEntity
  8
WHITE
  6
CONTINUOUS
 62
          15
100
AcDbLine
 10
-4916.121214051205
 20
2025.972983363176
 30
0.0
 11
-4916.617561202378
 21
2026.033311677611
 31
0.0
  0
LINE
  5
190
100
AcDbEntity
  8
WHITE
  6
CONTINUOUS
 62
          15
100
AcDbLine
 10
-4916.617561202378
 20
2026.033311677611
 30
0.0
 11
-4916.496904573507
 21
2027.026005979957
 31
0.0
  0
LINE
  5
191
100
AcDbEntity
  8
WHITE
  6
CONTINUOUS
 62
          15
100
AcDbLine
 10
-4887.708769805485
 20
2023.526963742684
 30
0.0
 11
-4916.496904573507
 21
2027.026005979957
 31
0.0
  0
LINE
  5
192
100
AcDbEntity
  8
WHITE
  6
CONTINUOUS
 62
           7
100
AcDbLine
 10
-4913.353085087858
 20
2052.891569440467
 30
0.0
 11
-4913.420160537284
 21
2052.339710689768
 31
0.0
  0
LINE
  5
193
100
AcDbEntity
  8
WHITE
  6
CONTINUOUS
 62
          15
100
AcDbLine
 10
-4911.195819290002
 20
2054.642857053563
 30
0.0
 11
-4884.209727568212
 21
2052.315098510705
 31
0.0
  0
LINE
  5
194
100
AcDbEntity
  8
WHITE
  6
CONTINUOUS
 62
           7
100
AcDbLine
 10
-4919.771183281034
 20
2041.527009357153
 30
0.0
 11
-4919.710854966598
 21
2042.023356508325
 31
0.0
  0
LINE
  5
195
100
AcDbEntity
  8
WHITE
  6
CONTINUOUS
 62
           1
100
AcDbLine
 10
-4917.240683163332
 20
2041.723120472103
 30
0.0
 11
-4919.710854966598
 21
2042.023356508325
 31
0.0
  0
LINE
  5
196
100
AcDbEntity
  8
WHITE
  6
CONTINUOUS
 62
           7
100
AcDbLine
 10
-4919.710854966598
 20
2042.023356508325
 30
0.0
 11
-4919.228228451112
 21
2045.994133717707
 31
0.0
  0
LINE
  5
197
100
AcDbEntity
  8
WHITE
  6
CONTINUOUS
 62
           1
100
AcDbLine
 10
-4916.758056647846
 20
2045.693897681485
 30
0.0
 11
-4919.228228451112
 21
2045.994133717707
 31
0.0
  0
LINE
  5
198
100
AcDbEntity
  8
WHITE
  6
CONTINUOUS
 62
           7
100
AcDbLine
 10
-4919.831511595469
 20
2041.030662205979
 30
0.0
 11
-4919.771183281034
 21
2041.527009357153
 31
0.0
  0
LINE
  5
199
100
AcDbEntity
  8
WHITE
  6
CONTINUOUS
 62
           1
100
AcDbLine
 10
-4917.301011477767
 20
2041.226773320931
 30
0.0
 11
-4919.771183281034
 21
2041.527009357153
 31
0.0
  0
LINE
  5
19A
100
AcDbEntity
  8
WHITE
  6
CONTINUOUS
 62
           7
100
AcDbLine
 10
-4919.228228451112
 20
2045.994133717707
 30
0.0
 11
-4919.167900136676
 21
2046.49048086888
 31
0.0
  0
LINE
  5
19B
100
AcDbEntity
  8
WHITE
  6
CONTINUOUS
 62
           1
100
AcDbLine
 10
-4916.697728333409
 20
2046.190244832659
 30
0.0
 11
-4919.167900136676
 21
2046.49048086888
 31
0.0
  0
LINE
  5
19C
100
AcDbEntity
  8
WHITE
  6
CONTINUOUS
 62
           7
100
AcDbLine
 10
-4918.114877519894
 20
2046.866171391181
 30
0.0
 11
-4918.838817293124
 21
2040.910005577108
 31
0.0
  0
LINE
  5
19D
100
AcDbEntity
  8
WHITE
  6
CONTINUOUS
 62
           2
100
AcDbLine
 10
-4918.838817293124
 20
2040.910005577108
 30
0.0
 11
-4919.831511595469
 21
2041.030662205979
 31
0.0
  0
LINE
  5
19E
100
AcDbEntity
  8
WHITE
  6
CONTINUOUS
 62
           7
100
AcDbLine
 10
-4917.994220891023
 20
2047.858865693526
 30
0.0
 11
-4918.114877519894
 21
2046.866171391181
 31
0.0
  0
LINE
  5
19F
100
AcDbEntity
  8
WHITE
  6
CONTINUOUS
 62
           2
100
AcDbLine
 10
-4918.114877519894
 20
2046.866171391181
 30
0.0
 11
-4919.10757182224
 21
2046.986828020052
 31
0.0
  0
LINE
  5
1A0
100
AcDbEntity
  8
WHITE
  6
CONTINUOUS
 62
           7
100
AcDbLine
 10
-4918.838817293124
 20
2040.910005577108
 30
0.0
 11
-4918.959473921995
 21
2039.917311274762
 31
0.0
  0
LINE
  5
1A1
100
AcDbEntity
  8
WHITE
  6
CONTINUOUS
 62
           7
100
AcDbLine
 10
-4918.959473921995
 20
2039.917311274762
 30
0.0
 11
-4919.831511595469
 21
2041.030662205979
 31
0.0
  0
LINE
  5
1A2
100
AcDbEntity
  8
WHITE
  6
CONTINUOUS
 62
           7
100
AcDbLine
 10
-4919.167900136676
 20
2046.49048086888
 30
0.0
 11
-4919.10757182224
 21
2046.986828020052
 31
0.0
  0
LINE
  5
1A3
100
AcDbEntity
  8
WHITE
  6
CONTINUOUS
 62
           7
100
AcDbLine
 10
-4917.390937746665
 20
2052.822337205254
 30
0.0
 11
-4917.994220891023
 21
2047.858865693526
 31
0.0
  0
LINE
  5
1A4
100
AcDbEntity
  8
WHITE
  6
CONTINUOUS
 62
           7
100
AcDbLine
 10
-4919.10757182224
 20
2046.986828020052
 30
0.0
 11
-4917.994220891023
 21
2047.858865693526
 31
0.0
  0
LINE
  5
1A5
100
AcDbEntity
  8
WHITE
  6
CONTINUOUS
 62
          15
100
AcDbLine
 10
-4886.562531831206
 20
2032.957559614966
 30
0.0
 11
-4887.708769805485
 21
2023.526963742684
 31
0.0
  0
LINE
  5
1A6
100
AcDbEntity
  8
WHITE
  6
CONTINUOUS
 62
          15
100
AcDbLine
 10
-4916.496904573507
 20
2027.026005979957
 30
0.0
 11
-4915.59197985697
 21
2034.471213247548
 31
0.0
  0
LINE
  5
1A7
100
AcDbEntity
  8
WHITE
  6
CONTINUOUS
 62
           7
100
AcDbLine
 10
-4916.705330788187
 20
2033.599175574074
 30
0.0
 11
-4914.292198210757
 21
2053.453061620985
 31
0.0
  0
LINE
  5
1A8
100
AcDbEntity
  8
WHITE
  6
CONTINUOUS
 62
           7
100
AcDbLine
 10
-4918.690719392878
 20
2033.840488831817
 30
0.0
 11
-4916.277586815449
 21
2053.694374878729
 31
0.0
  0
LINE
  5
1A9
100
AcDbEntity
  8
WHITE
  6
CONTINUOUS
 62
           7
100
AcDbLine
 10
-4918.690719392878
 20
2033.840488831817
 30
0.0
 11
-4919.562757066353
 21
2034.953839763034
 31
0.0
  0
LINE
  5
1AA
100
AcDbEntity
  8
WHITE
  6
CONTINUOUS
 62
           7
100
AcDbLine
 10
-4915.59197985697
 20
2034.471213247548
 30
0.0
 11
-4916.705330788187
 21
2033.599175574074
 31
0.0
  0
LINE
  5
1AB
100
AcDbEntity
  8
WHITE
  6
CONTINUOUS
 62
           7
100
AcDbLine
 10
-4914.292198210757
 20
2053.453061620985
 30
0.0
 11
-4913.420160537284
 21
2052.339710689768
 31
0.0
  0
LINE
  5
1AC
100
AcDbEntity
  8
WHITE
  6
CONTINUOUS
 62
           7
100
AcDbLine
 10
-4916.277586815449
 20
2053.694374878729
 30
0.0
 11
-4917.390937746665
 21
2052.822337205254
 31
0.0
  0
LINE
  5
1AD
100
AcDbEntity
  8
WHITE
  6
CONTINUOUS
 62
           7
100
AcDbLine
 10
-4918.959473921995
 20
2039.917311274762
 30
0.0
 11
-4919.562757066353
 21
2034.953839763034
 31
0.0
  0
LINE
  5
1AE
100
AcDbEntity
  8
WHITE
  6
CONTINUOUS
 62
           7
100
AcDbLine
 10
-4918.690719392878
 20
2033.840488831817
 30
0.0
 11
-4916.705330788187
 21
2033.599175574074
 31
0.0
  0
LINE
  5
1AF
100
AcDbEntity
  8
WHITE
  6
CONTINUOUS
 62
          15
100
AcDbLine
 10
-4915.59197985697
 20
2034.471213247548
 30
0.0
 11
-4913.420160537284
 21
2052.339710689768
 31
0.0
  0
LINE
  5
1B0
100
AcDbEntity
  8
WHITE
  6
CONTINUOUS
 62
           7
100
AcDbLine
 10
-4914.292198210757
 20
2053.453061620985
 30
0.0
 11
-4916.277586815449
 21
2053.694374878729
 31
0.0
  0
LINE
  5
1B1
100
AcDbEntity
  8
WHITE
  6
CONTINUOUS
 62
          15
100
AcDbLine
 10
-4867.843992215197
 20
2054.355369658143
 30
0.0
 11
-4867.347645064024
 21
2054.295041343708
 31
0.0
  0
LINE
  5
1B2
100
AcDbEntity
  8
WHITE
  6
CONTINUOUS
 62
          15
100
AcDbLine
 10
-4883.384297573486
 20
2046.674294904497
 30
0.0
 11
-4878.917173212932
 21
2046.131340074575
 31
0.0
  0
LINE
  5
1B3
100
AcDbEntity
  8
WHITE
  6
CONTINUOUS
 62
           7
100
AcDbLine
 10
-4895.741243688718
 20
2032.152412549047
 30
0.0
 11
-4904.001562712528
 21
2033.15640969546
 31
0.0
  0
LINE
  5
1B4
100
AcDbEntity
  8
WHITE
  6
CONTINUOUS
 62
           7
100
AcDbLine
 10
-4904.001562712528
 20
2033.15640969546
 30
0.0
 11
-4903.173468031119
 21
2039.969503014292
 31
0.0
  0
LINE
  5
1B5
100
AcDbEntity
  8
WHITE
  6
CONTINUOUS
 62
           7
100
AcDbLine
 10
-4903.173468031119
 20
2039.969503014292
 30
0.0
 11
-4894.91314900731
 21
2038.965505867879
 31
0.0
  0
LINE
  5
1B6
100
AcDbEntity
  8
WHITE
  6
CONTINUOUS
 62
           7
100
AcDbLine
 10
-4894.91314900731
 20
2038.965505867879
 30
0.0
 11
-4895.741243688718
 21
2032.152412549047
 31
0.0
  0
ARC
  5
1B7
100
AcDbEntity
  8
WHITE
  6
CONTINUOUS
 62
          15
100
AcDbCircle
 10
-4839.240152336081
 20
2057.628035875456
 30
0.0
 40
2.25
100
AcDbArc
 50
173.07
 51
353.069999999999
  0
ARC
  5
1B8
100
AcDbEntity
  8
WHITE
  6
CONTINUOUS
 62
          15
100
AcDbCircle
 10
-4839.240152336081
 20
2057.628035875456
 30
0.0
 40
2.25
100
AcDbArc
 50
353.069999999999
 51
173.07
  0
ARC
  5
1B9
100
AcDbEntity
  8
WHITE
  6
CONTINUOUS
 62
          15
100
AcDbCircle
 10
-4892.770439809573
 20
2040.763613533785
 30
0.0
 40
8.604407030244
100
AcDbArc
 50
353.069999999999
 51
17.07198532828
  0
ARC
  5
1BA
100
AcDbEntity
  8
WHITE
  6
CONTINUOUS
 62
          15
100
AcDbCircle
 10
-4887.274693668987
 20
2034.806998099926
 30
0.0
 40
2.430106011614
100
AcDbArc
 50
353.069999999999
 51
39.135478142734
  0
ARC
  5
1BB
100
AcDbEntity
  8
WHITE
  6
CONTINUOUS
 62
          15
100
AcDbCircle
 10
-4886.007799065837
 20
2045.230288274554
 30
0.0
 40
2.430106011614
100
AcDbArc
 50
353.069999999999
 51
39.135478142734
  0
ARC
  5
1BC
100
AcDbEntity
  8
WHITE
  6
CONTINUOUS
 62
          15
100
AcDbCircle
 10
-4887.274693668987
 20
2034.806998099926
 30
0.0
 40
2.430106011614
100
AcDbArc
 50
307.004521857251
 51
353.069999999999
  0
ARC
  5
1BD
100
AcDbEntity
  8
WHITE
  6
CONTINUOUS
 62
          15
100
AcDbCircle
 10
-4886.007799065837
 20
2045.230288274554
 30
0.0
 40
2.430106011613
100
AcDbArc
 50
307.004521857281
 51
353.069999999999
  0
ARC
  5
1BE
100
AcDbEntity
  8
WHITE
  6
CONTINUOUS
 62
          15
100
AcDbCircle
 10
-4892.770439809573
 20
2040.763613533785
 30
0.0
 40
8.604407030244
100
AcDbArc
 50
329.068014671731
 51
353.069999999999
  0
CIRCLE
  5
1BF
100
AcDbEntity
  8
WHITE
  6
CONTINUOUS
 62
          15
100
AcDbCircle
 10
-4813.292894118228
 20
2014.179908286617
 30
0.0
 40
2.25
  0
CIRCLE
  5
1C0
100
AcDbEntity
  8
WHITE
  6
CONTINUOUS
 62
          15
100
AcDbCircle
 10
-4834.139474467485
 20
2016.713697492918
 30
0.0
 40
2.25
  0
CIRCLE
  5
1C1
100
AcDbEntity
  8
WHITE
  6
CONTINUOUS
 62
          15
100
AcDbCircle
 10
-4798.539685939913
 20
2052.681114091725
 30
0.0
 40
2.25
  0
ARC
  5
1C2
100
AcDbEntity
  8
WHITE
  6
CONTINUOUS
 62
          15
100
AcDbCircle
 10
-4881.586320855879
 20
2053.062831246881
 30
0.0
 40
0.5
100
AcDbArc
 50
90.219821982564
 51
173.07
  0
ARC
  5
1C3
100
AcDbEntity
  8
WHITE
  6
CONTINUOUS
 62
          15
100
AcDbCircle
 10
-4882.203793566546
 20
2047.982616032297
 30
0.0
 40
0.5
100
AcDbArc
 50
173.07
 51
255.92017801742
  0
ARC
  5
1C4
100
AcDbEntity
  8
WHITE
  6
CONTINUOUS
 62
          15
100
AcDbCircle
 10
-4881.366021925733
 20
2054.991539845563
 30
0.0
 40
1.0
100
AcDbArc
 50
83.07
 51
173.07
  0
ARC
  5
1C5
100
AcDbEntity
  8
WHITE
  6
CONTINUOUS
 62
          15
100
AcDbCircle
 10
-4885.10637742075
 20
2024.21801647285
 30
0.0
 40
1.0
100
AcDbArc
 50
173.07
 51
263.07
  0
ARC
  5
1C6
100
AcDbEntity
  8
WHITE
  6
CONTINUOUS
 62
          15
100
AcDbCircle
 10
-4893.132872333013
 20
1995.476489383578
 30
0.0
 40
1.500000000001
100
AcDbArc
 50
263.07
 51
353.069999999999
  0
ARC
  5
1C7
100
AcDbEntity
  8
WHITE
  6
CONTINUOUS
 62
          15
100
AcDbCircle
 10
-4917.950229891653
 20
1998.492905105365
 30
0.0
 40
1.5
100
AcDbArc
 50
173.07
 51
263.07
  0
ARC
  5
1C8
100
AcDbEntity
  8
WHITE
  6
CONTINUOUS
 62
          15
100
AcDbCircle
 10
-4928.29402534447
 20
2012.845810582316
 30
0.0
 40
1.5
100
AcDbArc
 50
83.07
 51
173.07
  0
ARC
  5
1C9
100
AcDbEntity
  8
WHITE
  6
CONTINUOUS
 62
          15
100
AcDbCircle
 10
-4930.103874777543
 20
1997.955396047132
 30
0.0
 40
1.5
100
AcDbArc
 50
173.07
 51
263.07
  0
ARC
  5
1CA
100
AcDbEntity
  8
WHITE
  6
CONTINUOUS
 62
          15
100
AcDbCircle
 10
-4911.367696483167
 20
2052.650256182724
 30
0.0
 40
2.0
100
AcDbArc
 50
85.07
 51
173.07
  0
TEXT
  5
1CB
100
AcDbEntity
  8
WHITE
  6
CONTINUOUS
 62
           7
100
AcDbText
 10
-4902.493359955805
 20
2034.564941137563
 30
0.0
 40
4.0
  1
14
 50
-6.93
 41
0.955
  7
TXT
100
AcDbText
  0
ENDSEC
  0
SECTION
  2
OBJECTS
  0
DICTIONARY
  5
19
100
AcDbDictionary
  3
ACAD_GROUP
350
1A
  3
ACAD_MLINESTYLE
350
1B
  0
DICTIONARY
  5
1A
102
{ACAD_REACTORS
330
19
102
}
100
AcDbDictionary
  0
DICTIONARY
  5
1B
102
{ACAD_REACTORS
330
19
102
}
100
AcDbDictionary
  3
STANDARD
350
1C
  0
MLINESTYLE
  5
1C
102
{ACAD_REACTORS
330
1B
102
}
100
AcDbMlineStyle
  2
STANDARD
 70
           0
  3

 62
           0
 51
90.0
 52
90.0
 71
           2
 49
0.5
 62
         256
  6
BYLAYER
 49
-0.5
 62
         256
  6
BYLAYER
  0
ENDSEC
  0
EOF
