  0
SECTION
  2
HEADER
  9
$ACADVER
  1
AC1012
  9
$DWGCODEPAGE
  3
dos850
  9
$INSBASE
 10
0.0
 20
0.0
 30
0.0
  9
$EXTMIN
 10
-5132.531408128745
 20
1582.050929181752
 30
0.0
  9
$EXTMAX
 10
-4646.999470128745
 20
1769.550929181752
 30
0.0
  9
$LIMMIN
 10
-5132.531408128745
 20
1582.050929181752
  9
$LIMMAX
 10
-4646.999470128745
 20
1769.550929181752
  9
$ORTHOMODE
 70
           0
  9
$REGENMODE
 70
           1
  9
$FILLMODE
 70
           1
  9
$QTEXTMODE
 70
           0
  9
$MIRRTEXT
 70
           1
  9
$DRAGMODE
 70
           2
  9
$LTSCALE
 40
5.0
  9
$OSMODE
 70
           0
  9
$ATTMODE
 70
           1
  9
$TEXTSIZE
 40
0.2
  9
$TRACEWID
 40
0.05
  9
$TEXTSTYLE
  7
TXT
  9
$CLAYER
  8
0
  9
$CELTYPE
  6
CONTINUOUS
  9
$CECOLOR
 62
         256
  9
$CELTSCALE
 40
1.0
  9
$DELOBJ
 70
           1
  9
$DISPSILH
 70
           0
  9
$DIMSCALE
 40
1.0
  9
$DIMASZ
 40
3.5
  9
$DIMEXO
 40
0.0625
  9
$DIMDLI
 40
0.38
  9
$DIMRND
 40
0.0
  9
$DIMDLE
 40
0.0
  9
$DIMEXE
 40
0.18
  9
$DIMTP
 40
0.0
  9
$DIMTM
 40
0.0
  9
$DIMTXT
 40
3.5
  9
$DIMCEN
 40
0.09
  9
$DIMTSZ
 40
0.0
  9
$DIMTOL
 70
           0
  9
$DIMLIM
 70
           0
  9
$DIMTIH
 70
           1
  9
$DIMTOH
 70
           1
  9
$DIMSE1
 70
           0
  9
$DIMSE2
 70
           0
  9
$DIMTAD
 70
           0
  9
$DIMZIN
 70
           0
  9
$DIMBLK
  1

  9
$DIMASO
 70
           1
  9
$DIMSHO
 70
           1
  9
$DIMPOST
  1

  9
$DIMAPOST
  1

  9
$DIMALT
 70
           0
  9
$DIMALTD
 70
           2
  9
$DIMALTF
 40
25.4
  9
$DIMLFAC
 40
1.0
  9
$DIMTOFL
 70
           0
  9
$DIMTVP
 40
0.0
  9
$DIMTIX
 70
           0
  9
$DIMSOXD
 70
           0
  9
$DIMSAH
 70
           0
  9
$DIMBLK1
  1

  9
$DIMBLK2
  1

  9
$DIMSTYLE
  2
STANDARD
  9
$DIMCLRD
 70
           0
  9
$DIMCLRE
 70
           0
  9
$DIMCLRT
 70
           0
  9
$DIMTFAC
 40
1.0
  9
$DIMGAP
 40
0.09
  9
$DIMJUST
 70
           0
  9
$DIMSD1
 70
           0
  9
$DIMSD2
 70
           0
  9
$DIMTOLJ
 70
           1
  9
$DIMTZIN
 70
           0
  9
$DIMALTZ
 70
           0
  9
$DIMALTTZ
 70
           0
  9
$DIMFIT
 70
           3
  9
$DIMUPT
 70
           0
  9
$DIMUNIT
 70
           2
  9
$DIMDEC
 70
           4
  9
$DIMTDEC
 70
           4
  9
$DIMALTU
 70
           2
  9
$DIMALTTD
 70
           2
  9
$DIMTXSTY
  7
TXT
  9
$DIMAUNIT
 70
           0
  9
$LUNITS
 70
           2
  9
$LUPREC
 70
           2
  9
$SKETCHINC
 40
0.1
  9
$FILLETRAD
 40
0.0
  9
$AUNITS
 70
           0
  9
$AUPREC
 70
           2
  9
$MENU
  1
acad
  9
$ELEVATION
 40
0.0
  9
$PELEVATION
 40
0.0
  9
$THICKNESS
 40
0.0
  9
$LIMCHECK
 70
           0
  9
$BLIPMODE
 70
           1
  9
$CHAMFERA
 40
0.0
  9
$CHAMFERB
 40
0.0
  9
$CHAMFERC
 40
0.0
  9
$CHAMFERD
 40
0.0
  9
$SKPOLY
 70
           0
  9
$TDCREATE
 40
0.000000000
  9
$TDUPDATE
 40
0.000000000
  9
$TDINDWG
 40
0.0000000000
  9
$TDUSRTIMER
 40
0.0000000000
  9
$USRTIMER
 70
           1
  9
$ANGBASE
 50
0.0
  9
$ANGDIR
 70
           0
  9
$PDMODE
 70
           2
  9
$PDSIZE
 40
0.5
  9
$PLINEWID
 40
0.0
  9
$COORDS
 70
           0
  9
$SPLFRAME
 70
           0
  9
$SPLINETYPE
 70
           6
  9
$SPLINESEGS
 70
           8
  9
$ATTDIA
 70
           0
  9
$ATTREQ
 70
           1
  9
$HANDLING
 70
           1
  9
$HANDSEED
  5
21E
  9
$SURFTAB1
 70
           6
  9
$SURFTAB2
 70
           6
  9
$SURFTYPE
 70
           6
  9
$SURFU
 70
           6
  9
$SURFV
 70
           6
  9
$UCSNAME
  2

  9
$UCSORG
 10
0.0
 20
0.0
 30
0.0
  9
$UCSXDIR
 10
1.0
 20
0.0
 30
0.0
  9
$UCSYDIR
 10
0.0
 20
1.0
 30
0.0
  9
$PUCSNAME
  2

  9
$PUCSORG
 10
0.0
 20
0.0
 30
0.0
  9
$PUCSXDIR
 10
1.0
 20
0.0
 30
0.0
  9
$PUCSYDIR
 10
0.0
 20
1.0
 30
0.0
  9
$USERI1
 70
           0
  9
$USERI2
 70
           0
  9
$USERI3
 70
           0
  9
$USERI4
 70
           0
  9
$USERI5
 70
           0
  9
$USERR1
 40
0.0
  9
$USERR2
 40
0.0
  9
$USERR3
 40
0.0
  9
$USERR4
 40
0.0
  9
$USERR5
 40
0.0
  9
$WORLDVIEW
 70
           1
  9
$SHADEDGE
 70
           3
  9
$SHADEDIF
 70
          70
  9
$TILEMODE
 70
           1
  9
$MAXACTVP
 70
          16
  9
$PINSBASE
 10
0.0
 20
0.0
 30
0.0
  9
$PLIMCHECK
 70
           0
  9
$PEXTMIN
 10
1.000000000000E+20
 20
1.000000000000E+20
 30
1.000000000000E+20
  9
$PEXTMAX
 10
-1.000000000000E+20
 20
-1.000000000000E+20
 30
-1.000000000000E+20
  9
$PLIMMIN
 10
0.0
 20
0.0
  9
$PLIMMAX
 10
12.0
 20
9.0
  9
$UNITMODE
 70
           0
  9
$VISRETAIN
 70
           0
  9
$PLINEGEN
 70
           1
  9
$PSLTSCALE
 70
           0
  9
$TREEDEPTH
 70
        3020
  9
$PICKSTYLE
 70
           1
  9
$CMLSTYLE
  2
STANDARD
  9
$CMLJUST
 70
           0
  9
$CMLSCALE
 40
1.0
  9
$SAVEIMAGES
 70
           0
  0
ENDSEC
  0
SECTION
  2
CLASSES
  0
CLASS
  1
LWPOLYLINE
  2
AcDbPolyline
  3
"AutoCAD"
 90
        0
280
           0
281
           1
  0
CLASS
  1
IMAGE
  2
AcDbRasterImage
  3
ISM
 90
      127
280
           0
281
           1
  0
CLASS
  1
OLE2FRAME
  2
AcDbOle2Frame
  3
""
 90
        0
280
           0
281
           1
  0
CLASS
  1
HATCH
  2
AcDbHatch
  3
"ACAD_SEDONA"
 90
        0
280
           0
281
           1
  0
CLASS
  1
DICTIONARYVAR
  2
AcDbDictionaryVar
  3
"AutoCAD"
 90
        0
280
           0
281
           0
  0
CLASS
  1
RASTERVARIABLES
  2
AcDbRasterVariables
  3
ISM
 90
        0
280
           0
281
           0
  0
CLASS
  1
IMAGEDEF
  2
AcDbRasterImageDef
  3
ISM
 90
        0
280
           0
281
           0
  0
CLASS
  1
IMAGEDEF_REACTOR
  2
AcDbRasterImageDefReactor
  3
ISM
 90
        1
280
           0
281
           0
  0
CLASS
  1
IDBUFFER
  2
AcDbIdBuffer
  3
"Acad"
 90
        0
280
           0
281
           0
  0
CLASS
  1
SPATIAL_FILTER
  2
AcDbSpatialFilter
  3
"Acad"
 90
        0
280
           0
281
           0
  0
CLASS
  1
XRECORD
  2
AcDbXrecord
  3
"<Built In>"
 90
        0
280
           0
281
           0
  0
ENDSEC
  0
SECTION
  2
TABLES
  0
TABLE
  2
VPORT
  5
7
100
AcDbSymbolTable
 70
           1
  0
VPORT
  5
15
100
AcDbSymbolTableRecord
100
AcDbViewportTableRecord
  2
*ACTIVE
 70
           0
 10
0.0
 20
0.0
 11
1.0
 21
1.0
 12
6.591288
 22
4.579184
 13
0.0
 23
0.0
 14
1.0
 24
1.0
 15
0.0
 25
0.0
 16
0.0
 26
0.0
 36
1.0
 17
0.0
 27
0.0
 37
0.0
 40
9.158369
 41
0.688564
 42
50.0
 43
0.0
 44
0.0
 50
0.0
 51
0.0
 71
           0
 72
         100
 73
           1
 74
           1
 75
           0
 76
           0
 77
           0
 78
           0
  0
ENDTAB
  0
TABLE
  2
LTYPE
  5
4
100
AcDbSymbolTable
 70
           5
  0
LTYPE
  5
11
100
AcDbSymbolTableRecord
100
AcDbLinetypeTableRecord
  2
BYBLOCK
 70
           0
  3

 72
          65
 73
           0
 40
0.0
  0
LTYPE
  5
12
100
AcDbSymbolTableRecord
100
AcDbLinetypeTableRecord
  2
BYLAYER
 70
           0
  3

 72
          65
 73
           0
 40
0.0
  0
LTYPE
  5
13
100
AcDbSymbolTableRecord
100
AcDbLinetypeTableRecord
  2
CONTINUOUS
 70
           0
  3
Solid line
 72
          65
 73
           0
 40
0.0
  0
LTYPE
  5
1D
100
AcDbSymbolTableRecord
100
AcDbLinetypeTableRecord
  2
GESTRICHELT
 70
           0
  3

 72
          65
 73
           2
 40
0.75
 49
0.5
 74
           0
 49
-0.25
 74
           0
  0
LTYPE
  5
1E
100
AcDbSymbolTableRecord
100
AcDbLinetypeTableRecord
  2
STRICHPUNKT
 70
           0
  3

 72
          65
 73
           4
 40
1.0
 49
0.5
 74
           0
 49
-0.25
 74
           0
 49
0.0
 74
           0
 49
-0.25
 74
           0
  0
ENDTAB
  0
TABLE
  2
LAYER
  5
2
100
AcDbSymbolTable
 70
           4
  0
LAYER
  5
14
100
AcDbSymbolTableRecord
100
AcDbLayerTableRecord
  2
0
 70
           0
 62
           7
  6
CONTINUOUS
  0
LAYER
  5
20
100
AcDbSymbolTableRecord
100
AcDbLayerTableRecord
  2
BLACK
 70
           0
 62
           7
  6
CONTINUOUS
  0
LAYER
  5
21
100
AcDbSymbolTableRecord
100
AcDbLayerTableRecord
  2
WHITE
 70
           0
 62
           7
  6
CONTINUOUS
  0
LAYER
  5
22
100
AcDbSymbolTableRecord
100
AcDbLayerTableRecord
  2
YELLOW
 70
           0
 62
           7
  6
CONTINUOUS
  0
ENDTAB
  0
TABLE
  2
STYLE
  5
3
100
AcDbSymbolTable
 70
           2
  0
STYLE
  5
17
100
AcDbSymbolTableRecord
100
AcDbTextStyleTableRecord
  2
TXT
 70
           0
 40
3.5
 41
1.0
 50
0.0
 71
           0
 42
3.5
  3
TXT
  4

  0
STYLE
  5
1F
100
AcDbSymbolTableRecord
100
AcDbTextStyleTableRecord
  2
GOTHICG
 70
           0
 40
3.5
 41
1.0
 50
0.0
 71
           0
 42
3.5
  3
GOTHICG
  4

  0
ENDTAB
  0
TABLE
  2
VIEW
  5
5
100
AcDbSymbolTable
 70
           0
  0
ENDTAB
  0
TABLE
  2
UCS
  5
6
100
AcDbSymbolTable
 70
           0
  0
ENDTAB
  0
TABLE
  2
APPID
  5
8
100
AcDbSymbolTable
 70
           2
  0
APPID
  5
16
100
AcDbSymbolTableRecord
100
AcDbRegAppTableRecord
  2
ACAD
 70
           0
  0
APPID
  5
23
100
AcDbSymbolTableRecord
100
AcDbRegAppTableRecord
  2
MegaCADPntStyle
 70
           0
  0
ENDTAB
  0
TABLE
  2
DIMSTYLE
  5
9
100
AcDbSymbolTable
 70
           1
  0
DIMSTYLE
105
18
100
AcDbSymbolTableRecord
100
AcDbDimStyleTableRecord
  2
STANDARD
 70
           0
  3

  4

  5

  6

  7

 40
1.0
 41
0.18
 42
0.0625
 43
0.38
 44
0.18
 45
0.0
 46
0.0
 47
0.0
 48
0.0
140
0.18
141
0.09
142
0.0
143
25.4
144
1.0
145
0.0
146
1.0
147
0.09
 71
           0
 72
           0
 73
           1
 74
           1
 75
           0
 76
           0
 77
           0
 78
           0
170
           0
171
           2
172
           0
173
           0
174
           0
175
           0
176
           0
177
           0
178
           0
270
           2
271
           4
272
           4
273
           2
274
           2
340
17
275
           0
280
           0
281
           0
282
           0
283
           1
284
           0
285
           0
286
           0
287
           0
288
           0
  0
ENDTAB
  0
TABLE
  2
BLOCK_RECORD
  5
1
100
AcDbSymbolTable
 70
           3
  0
BLOCK_RECORD
  5
A
100
AcDbSymbolTableRecord
100
AcDbBlockTableRecord
  2
*MODEL_SPACE
  0
BLOCK_RECORD
  5
B
100
AcDbSymbolTableRecord
100
AcDbBlockTableRecord
  2
*PAPER_SPACE
  0
BLOCK_RECORD
  5
24
100
AcDbSymbolTableRecord
100
AcDbBlockTableRecord
  2
ELIPPSE
  0
BLOCK_RECORD
  5
25
100
AcDbSymbolTableRecord
100
AcDbBlockTableRecord
  2
01081201_SNCB-____TOP__1
  0
BLOCK_RECORD
  5
26
100
AcDbSymbolTableRecord
100
AcDbBlockTableRecord
  2
MAK2
  0
ENDTAB
  0
ENDSEC
  0
SECTION
  2
BLOCKS
  0
BLOCK
  5
D
100
AcDbEntity
  8
0
100
AcDbBlockBegin
  2
*MODEL_SPACE
 70
           0
 10
0.0
 20
0.0
 30
0.0
  3
*MODEL_SPACE
  1

  0
ENDBLK
  5
E
100
AcDbEntity
  8
0
100
AcDbBlockEnd
  0
BLOCK
  5
F
100
AcDbEntity
 67
           1
  8
0
100
AcDbBlockBegin
  2
*PAPER_SPACE
 70
           0
 10
0.0
 20
0.0
 30
0.0
  3
*PAPER_SPACE
  1

  0
ENDBLK
  5
10
100
AcDbEntity
 67
           1
  8
0
100
AcDbBlockEnd
  0
BLOCK
  5
1CC
100
AcDbEntity
  8
0
100
AcDbBlockBegin
  2
ELIPPSE
 70
          64
 10
0.0
 20
0.0
 30
0.0
  3
ELIPPSE
  1

  0
CIRCLE
  5
1CD
100
AcDbEntity
  8
0
  6
BYBLOCK
 62
           0
100
AcDbCircle
 10
0.0
 20
0.0
 30
0.0
 40
1.0
  0
ENDBLK
  5
1CE
100
AcDbEntity
  8
0
  6
BYBLOCK
 62
           0
100
AcDbBlockEnd
  0
BLOCK
  5
1CF
100
AcDbEntity
  8
0
100
AcDbBlockBegin
  2
01081201_SNCB-____TOP__1
 70
          64
 10
0.0
 20
0.0
 30
0.0
  3
01081201_SNCB-____TOP__1
  1

  0
LINE
  5
1D0
100
AcDbEntity
  8
BLACK
  6
CONTINUOUS
 62
          15
100
AcDbLine
 10
1258.600515180217
 20
-267.768116173917
 30
0.0
 11
1257.548157960908
 21
-267.786485137506
 31
0.0
  0
LINE
  5
1D1
100
AcDbEntity
  8
BLACK
  6
CONTINUOUS
 62
          15
100
AcDbLine
 10
1259.583062773781
 20
-266.76826847876
 30
0.0
 11
1259.583062773781
 21
-275.754670443263
 31
0.0
  0
LINE
  5
1D2
100
AcDbEntity
  8
BLACK
  6
CONTINUOUS
 62
          15
100
AcDbLine
 10
1259.58306277378
 20
-239.873303524415
 30
0.0
 11
1259.583062773781
 21
-240.056979763094
 31
0.0
  0
LINE
  5
1D3
100
AcDbEntity
  8
BLACK
  6
CONTINUOUS
 62
          15
100
AcDbLine
 10
1257.548157960906
 20
-238.855086865668
 30
0.0
 11
1258.600515180217
 21
-238.873455829258
 31
0.0
  0
LINE
  5
1D4
100
AcDbEntity
  8
WHITE
  6
CONTINUOUS
 62
          15
100
AcDbLine
 10
1259.88306277378
 20
-240.771122605949
 30
0.0
 11
1259.883062773781
 21
-265.870449397228
 31
0.0
  0
LINE
  5
1D5
100
AcDbEntity
  8
WHITE
  6
CONTINUOUS
 62
          15
100
AcDbLine
 10
1275.792491651027
 20
-265.318958343465
 30
0.0
 11
1260.565610367343
 21
-265.584744544926
 31
0.0
  0
LINE
  5
1D6
100
AcDbEntity
  8
WHITE
  6
CONTINUOUS
 62
          15
100
AcDbLine
 10
1275.792491651027
 20
-241.32261365971
 30
0.0
 11
1260.565610367343
 21
-241.056827458249
 31
0.0
  0
LINE
  5
1D7
100
AcDbEntity
  8
BLACK
  6
CONTINUOUS
 62
          15
100
AcDbLine
 10
1259.58306277378
 20
-266.584592240081
 30
0.0
 11
1259.583062773781
 21
-266.76826847876
 31
0.0
  0
LINE
  5
1D8
100
AcDbEntity
  8
WHITE
  6
CONTINUOUS
 62
          15
100
AcDbLine
 10
1255.583062773781
 20
-227.850152157526
 30
0.0
 11
1256.687761263887
 21
-227.888729078856
 31
0.0
  0
LINE
  5
1D9
100
AcDbEntity
  8
BLACK
  6
CONTINUOUS
 62
          15
100
AcDbLine
 10
1259.583062773781
 20
-230.886901559913
 30
0.0
 11
1259.58306277378
 21
-239.873303524415
 31
0.0
  0
LINE
  5
1DA
100
AcDbEntity
  8
WHITE
  6
CONTINUOUS
 62
          15
100
AcDbLine
 10
1256.687761263886
 20
-278.75284292432
 30
0.0
 11
1255.58306277378
 21
-278.791419845651
 31
0.0
  0
LINE
  5
1DB
100
AcDbEntity
  8
BLACK
  6
CONTINUOUS
 62
          15
100
AcDbLine
 10
1253.652861767185
 20
-221.532748053097
 30
0.0
 11
1248.58306277378
 21
-221.355706771079
 31
0.0
  0
LINE
  5
1DC
100
AcDbEntity
  8
BLACK
  6
CONTINUOUS
 62
          15
100
AcDbLine
 10
1253.652861767185
 20
-285.108823950077
 30
0.0
 11
1248.583062773781
 21
-285.285865232095
 31
0.0
  0
LINE
  5
1DD
100
AcDbEntity
  8
WHITE
  6
CONTINUOUS
 62
          15
100
AcDbLine
 10
1255.583062773781
 20
-269.786180527818
 30
0.0
 11
1255.58306277378
 21
-278.791419845651
 31
0.0
  0
LINE
  5
1DE
100
AcDbEntity
  8
WHITE
  6
CONTINUOUS
 62
          15
100
AcDbLine
 10
1255.583062773781
 20
-227.850152157526
 30
0.0
 11
1255.583062773781
 21
-236.855391475356
 31
0.0
  0
LINE
  5
1DF
100
AcDbEntity
  8
WHITE
  6
CONTINUOUS
 62
          15
100
AcDbLine
 10
1255.583062773779
 20
-223.531529707135
 30
0.0
 11
1255.583062773781
 21
-227.850152157526
 31
0.0
  0
LINE
  5
1E0
100
AcDbEntity
  8
WHITE
  6
CONTINUOUS
 62
          15
100
AcDbLine
 10
1255.58306277378
 20
-278.791419845651
 30
0.0
 11
1255.58306277378
 21
-283.11004229604
 31
0.0
  0
LINE
  5
1E1
100
AcDbEntity
  8
WHITE
  6
CONTINUOUS
 62
          15
100
AcDbLine
 10
1248.583062773779
 20
-221.320336260377
 30
0.0
 11
1248.58306277378
 21
-285.320336260378
 31
0.0
  0
ARC
  5
1E2
100
AcDbEntity
  8
WHITE
  6
CONTINUOUS
 62
          15
100
AcDbCircle
 10
1275.58306277378
 20
-253.320786001587
 30
0.0
 40
12.0
100
AcDbArc
 50
271.0
 51
89.000000000001
  0
ARC
  5
1E3
100
AcDbEntity
  8
BLACK
  6
CONTINUOUS
 62
          15
100
AcDbCircle
 10
1260.58306277378
 20
-266.584592240081
 30
0.0
 40
0.999999999999
100
AcDbArc
 50
91.000000000009
 51
134.427004000836
  0
ARC
  5
1E4
100
AcDbEntity
  8
BLACK
  6
CONTINUOUS
 62
          15
100
AcDbCircle
 10
1260.58306277378
 20
-266.584592240081
 30
0.0
 40
1.0
100
AcDbArc
 50
134.42700400083
 51
180.0
  0
ARC
  5
1E5
100
AcDbEntity
  8
BLACK
  6
CONTINUOUS
 62
          15
100
AcDbCircle
 10
1258.583062773781
 20
-266.76826847876
 30
0.0
 40
1.0
100
AcDbArc
 50
270.999999999927
 51
0.0
  0
ARC
  5
1E6
100
AcDbEntity
  8
BLACK
  6
CONTINUOUS
 62
          15
100
AcDbCircle
 10
1257.583062773781
 20
-269.786180527818
 30
0.0
 40
1.999999999999
100
AcDbArc
 50
90.999999999919
 51
180.0
  0
ARC
  5
1E7
100
AcDbEntity
  8
BLACK
  6
CONTINUOUS
 62
          15
100
AcDbCircle
 10
1260.583062773781
 20
-240.056979763094
 30
0.0
 40
1.0
100
AcDbArc
 50
180.0
 51
225.572995999247
  0
ARC
  5
1E8
100
AcDbEntity
  8
BLACK
  6
CONTINUOUS
 62
          15
100
AcDbCircle
 10
1260.583062773781
 20
-240.056979763094
 30
0.0
 40
1.000000000001
100
AcDbArc
 50
225.572995999246
 51
268.999999999992
  0
ARC
  5
1E9
100
AcDbEntity
  8
BLACK
  6
CONTINUOUS
 62
          15
100
AcDbCircle
 10
1257.583062773781
 20
-236.855391475356
 30
0.0
 40
2.0
100
AcDbArc
 50
180.0
 51
269.000000000016
  0
ARC
  5
1EA
100
AcDbEntity
  8
BLACK
  6
CONTINUOUS
 62
          15
100
AcDbCircle
 10
1258.58306277378
 20
-239.873303524415
 30
0.0
 40
1.0
100
AcDbArc
 50
0.0
 51
89.000000000073
  0
ARC
  5
1EB
100
AcDbEntity
  8
BLACK
  6
CONTINUOUS
 62
          15
100
AcDbCircle
 10
1253.58306277378
 20
-283.110042296039
 30
0.0
 40
2.0
100
AcDbArc
 50
271.999999999993
 51
0.0
  0
ARC
  5
1EC
100
AcDbEntity
  8
BLACK
  6
CONTINUOUS
 62
          15
100
AcDbCircle
 10
1256.58306277378
 20
-275.754670443263
 30
0.0
 40
3.0
100
AcDbArc
 50
271.999999999993
 51
0.0
  0
ARC
  5
1ED
100
AcDbEntity
  8
BLACK
  6
CONTINUOUS
 62
          15
100
AcDbCircle
 10
1256.58306277378
 20
-230.886901559913
 30
0.0
 40
3.0
100
AcDbArc
 50
0.0
 51
87.99999999999
  0
ARC
  5
1EE
100
AcDbEntity
  8
BLACK
  6
CONTINUOUS
 62
          15
100
AcDbCircle
 10
1253.583062773779
 20
-223.531529707135
 30
0.0
 40
2.0
100
AcDbArc
 50
0.0
 51
88.000000000006
  0
ENDBLK
  5
1EF
100
AcDbEntity
  8
0
  6
BYBLOCK
 62
           0
100
AcDbBlockEnd
  0
BLOCK
  5
1F0
100
AcDbEntity
  8
0
100
AcDbBlockBegin
  2
MAK2
 70
          64
 10
0.0
 20
0.0
 30
0.0
  3
MAK2
  1

  0
LINE
  5
1F1
100
AcDbEntity
  8
WHITE
  6
CONTINUOUS
 62
           2
100
AcDbLine
 10
-15.50693229743
 20
611.597948837689
 30
0.0
 11
-15.596491646588
 21
611.687508186849
 31
0.0
  0
LINE
  5
1F2
100
AcDbEntity
  8
WHITE
  6
CONTINUOUS
 62
           2
100
AcDbLine
 10
-14.44627212565
 20
611.597948837689
 30
0.0
 11
-15.596491646588
 21
612.748168358629
 31
0.0
  0
LINE
  5
1F3
100
AcDbEntity
  8
WHITE
  6
CONTINUOUS
 62
           2
100
AcDbLine
 10
-13.596491646588
 20
611.808828530409
 30
0.0
 11
-15.596491646588
 21
613.808828530409
 31
0.0
  0
LINE
  5
1F4
100
AcDbEntity
  8
WHITE
  6
CONTINUOUS
 62
           2
100
AcDbLine
 10
-13.596491646588
 20
612.869488702189
 30
0.0
 11
-15.596491646588
 21
614.869488702188
 31
0.0
  0
LINE
  5
1F5
100
AcDbEntity
  8
WHITE
  6
CONTINUOUS
 62
           2
100
AcDbLine
 10
-13.596491646588
 20
613.930148873969
 30
0.0
 11
-15.596491646588
 21
615.930148873968
 31
0.0
  0
LINE
  5
1F6
100
AcDbEntity
  8
WHITE
  6
CONTINUOUS
 62
           2
100
AcDbLine
 10
-13.596491646588
 20
614.990809045748
 30
0.0
 11
-15.596491646588
 21
616.990809045748
 31
0.0
  0
LINE
  5
1F7
100
AcDbEntity
  8
WHITE
  6
CONTINUOUS
 62
           2
100
AcDbLine
 10
-13.596491646588
 20
616.051469217528
 30
0.0
 11
-15.596491646588
 21
618.051469217528
 31
0.0
  0
LINE
  5
1F8
100
AcDbEntity
  8
WHITE
  6
CONTINUOUS
 62
           2
100
AcDbLine
 10
-13.596491646588
 20
617.112129389307
 30
0.0
 11
-15.596491646588
 21
619.112129389308
 31
0.0
  0
LINE
  5
1F9
100
AcDbEntity
  8
WHITE
  6
CONTINUOUS
 62
           2
100
AcDbLine
 10
-13.596491646588
 20
618.172789561087
 30
0.0
 11
-15.596491646588
 21
620.172789561087
 31
0.0
  0
LINE
  5
1FA
100
AcDbEntity
  8
WHITE
  6
CONTINUOUS
 62
           2
100
AcDbLine
 10
-13.596491646587
 20
619.233449732867
 30
0.0
 11
-15.596491646589
 21
621.233449732867
 31
0.0
  0
LINE
  5
1FB
100
AcDbEntity
  8
WHITE
  6
CONTINUOUS
 62
           2
100
AcDbLine
 10
-13.596491646588
 20
620.294109904647
 30
0.0
 11
-15.596491646589
 21
622.294109904647
 31
0.0
  0
LINE
  5
1FC
100
AcDbEntity
  8
WHITE
  6
CONTINUOUS
 62
           2
100
AcDbLine
 10
-13.596491646588
 20
621.354770076427
 30
0.0
 11
-15.596491646589
 21
623.354770076426
 31
0.0
  0
LINE
  5
1FD
100
AcDbEntity
  8
WHITE
  6
CONTINUOUS
 62
           2
100
AcDbLine
 10
-13.596491646588
 20
622.415430248206
 30
0.0
 11
-15.596491646589
 21
624.415430248207
 31
0.0
  0
LINE
  5
1FE
100
AcDbEntity
  8
WHITE
  6
CONTINUOUS
 62
           2
100
AcDbLine
 10
-13.596491646588
 20
623.476090419986
 30
0.0
 11
-15.596491646589
 21
625.476090419986
 31
0.0
  0
LINE
  5
1FF
100
AcDbEntity
  8
WHITE
  6
CONTINUOUS
 62
           2
100
AcDbLine
 10
-13.596491646588
 20
624.536750591766
 30
0.0
 11
-15.596491646589
 21
626.536750591766
 31
0.0
  0
LINE
  5
200
100
AcDbEntity
  8
WHITE
  6
CONTINUOUS
 62
           2
100
AcDbLine
 10
-13.596491646588
 20
625.597410763546
 30
0.0
 11
-15.596491646589
 21
627.597410763546
 31
0.0
  0
LINE
  5
201
100
AcDbEntity
  8
WHITE
  6
CONTINUOUS
 62
           2
100
AcDbLine
 10
-13.596491646588
 20
626.658070935325
 30
0.0
 11
-15.596491646589
 21
628.658070935325
 31
0.0
  0
LINE
  5
202
100
AcDbEntity
  8
WHITE
  6
CONTINUOUS
 62
           2
100
AcDbLine
 10
-13.596491646588
 20
627.718731107105
 30
0.0
 11
-15.596491646588
 21
629.718731107105
 31
0.0
  0
LINE
  5
203
100
AcDbEntity
  8
WHITE
  6
CONTINUOUS
 62
           2
100
AcDbLine
 10
-13.596491646588
 20
628.779391278885
 30
0.0
 11
-15.596491646588
 21
630.779391278885
 31
0.0
  0
LINE
  5
204
100
AcDbEntity
  8
WHITE
  6
CONTINUOUS
 62
           2
100
AcDbLine
 10
-13.596491646588
 20
629.840051450665
 30
0.0
 11
-15.354389033612
 21
631.597948837689
 31
0.0
  0
LINE
  5
205
100
AcDbEntity
  8
WHITE
  6
CONTINUOUS
 62
           2
100
AcDbLine
 10
-13.596491646588
 20
630.900711622445
 30
0.0
 11
-14.293728861833
 21
631.597948837689
 31
0.0
  0
LINE
  5
206
100
AcDbEntity
  8
WHITE
  6
CONTINUOUS
 62
           2
100
AcDbLine
 10
-15.596491646589
 20
631.406213139102
 30
0.0
 11
-15.404755948001
 21
631.597948837689
 31
0.0
  0
LINE
  5
207
100
AcDbEntity
  8
WHITE
  6
CONTINUOUS
 62
           2
100
AcDbLine
 10
-15.596491646589
 20
630.345552967322
 30
0.0
 11
-14.344095776222
 21
631.597948837689
 31
0.0
  0
LINE
  5
208
100
AcDbEntity
  8
WHITE
  6
CONTINUOUS
 62
           2
100
AcDbLine
 10
-15.596491646589
 20
629.284892795542
 30
0.0
 11
-13.596491646589
 21
631.284892795542
 31
0.0
  0
LINE
  5
209
100
AcDbEntity
  8
WHITE
  6
CONTINUOUS
 62
           2
100
AcDbLine
 10
-15.596491646589
 20
628.224232623762
 30
0.0
 11
-13.596491646589
 21
630.224232623762
 31
0.0
  0
LINE
  5
20A
100
AcDbEntity
  8
WHITE
  6
CONTINUOUS
 62
           2
100
AcDbLine
 10
-15.596491646589
 20
627.163572451982
 30
0.0
 11
-13.596491646589
 21
629.163572451982
 31
0.0
  0
LINE
  5
20B
100
AcDbEntity
  8
WHITE
  6
CONTINUOUS
 62
           2
100
AcDbLine
 10
-15.596491646589
 20
626.102912280202
 30
0.0
 11
-13.596491646589
 21
628.102912280203
 31
0.0
  0
LINE
  5
20C
100
AcDbEntity
  8
WHITE
  6
CONTINUOUS
 62
           2
100
AcDbLine
 10
-15.596491646589
 20
625.042252108423
 30
0.0
 11
-13.596491646589
 21
627.042252108423
 31
0.0
  0
LINE
  5
20D
100
AcDbEntity
  8
WHITE
  6
CONTINUOUS
 62
           2
100
AcDbLine
 10
-15.596491646588
 20
623.981591936643
 30
0.0
 11
-13.596491646589
 21
625.981591936643
 31
0.0
  0
LINE
  5
20E
100
AcDbEntity
  8
WHITE
  6
CONTINUOUS
 62
           2
100
AcDbLine
 10
-15.596491646588
 20
622.920931764863
 30
0.0
 11
-13.596491646588
 21
624.920931764863
 31
0.0
  0
LINE
  5
20F
100
AcDbEntity
  8
WHITE
  6
CONTINUOUS
 62
           2
100
AcDbLine
 10
-15.596491646588
 20
621.860271593084
 30
0.0
 11
-13.596491646588
 21
623.860271593084
 31
0.0
  0
LINE
  5
210
100
AcDbEntity
  8
WHITE
  6
CONTINUOUS
 62
           2
100
AcDbLine
 10
-15.596491646588
 20
620.799611421304
 30
0.0
 11
-13.596491646588
 21
622.799611421304
 31
0.0
  0
LINE
  5
211
100
AcDbEntity
  8
WHITE
  6
CONTINUOUS
 62
           2
100
AcDbLine
 10
-15.596491646588
 20
619.738951249524
 30
0.0
 11
-13.596491646588
 21
621.738951249524
 31
0.0
  0
LINE
  5
212
100
AcDbEntity
  8
WHITE
  6
CONTINUOUS
 62
           2
100
AcDbLine
 10
-15.596491646588
 20
618.678291077744
 30
0.0
 11
-13.596491646588
 21
620.678291077744
 31
0.0
  0
LINE
  5
213
100
AcDbEntity
  8
WHITE
  6
CONTINUOUS
 62
           2
100
AcDbLine
 10
-15.596491646588
 20
617.617630905964
 30
0.0
 11
-13.596491646588
 21
619.617630905964
 31
0.0
  0
LINE
  5
214
100
AcDbEntity
  8
WHITE
  6
CONTINUOUS
 62
           2
100
AcDbLine
 10
-15.596491646588
 20
616.556970734185
 30
0.0
 11
-13.596491646588
 21
618.556970734185
 31
0.0
  0
LINE
  5
215
100
AcDbEntity
  8
WHITE
  6
CONTINUOUS
 62
           2
100
AcDbLine
 10
-15.596491646588
 20
615.496310562405
 30
0.0
 11
-13.596491646588
 21
617.496310562405
 31
0.0
  0
LINE
  5
216
100
AcDbEntity
  8
WHITE
  6
CONTINUOUS
 62
           2
100
AcDbLine
 10
-15.596491646588
 20
614.435650390625
 30
0.0
 11
-13.596491646588
 21
616.435650390625
 31
0.0
  0
LINE
  5
217
100
AcDbEntity
  8
WHITE
  6
CONTINUOUS
 62
           2
100
AcDbLine
 10
-15.596491646588
 20
613.374990218845
 30
0.0
 11
-13.596491646589
 21
615.374990218845
 31
0.0
  0
LINE
  5
218
100
AcDbEntity
  8
WHITE
  6
CONTINUOUS
 62
           2
100
AcDbLine
 10
-15.596491646588
 20
612.314330047065
 30
0.0
 11
-13.596491646589
 21
614.314330047065
 31
0.0
  0
LINE
  5
219
100
AcDbEntity
  8
WHITE
  6
CONTINUOUS
 62
           2
100
AcDbLine
 10
-15.252212684185
 20
611.597948837689
 30
0.0
 11
-13.596491646589
 21
613.253669875286
 31
0.0
  0
LINE
  5
21A
100
AcDbEntity
  8
WHITE
  6
CONTINUOUS
 62
           2
100
AcDbLine
 10
-14.191552512406
 20
611.597948837689
 30
0.0
 11
-13.596491646589
 21
612.193009703506
 31
0.0
  0
ENDBLK
  5
21B
100
AcDbEntity
  8
0
  6
BYBLOCK
 62
           0
100
AcDbBlockEnd
  0
ENDSEC
  0
SECTION
  2
ENTITIES
  0
INSERT
  5
27
100
AcDbEntity
  8
0
  6
CONTINUOUS
 62
           7
100
AcDbBlockReference
  2
01081201_SNCB-____TOP__1
 10
-5729.620675631683
 20
2017.838324009631
 30
0.0
 41
0.84375
 42
0.84375
 43
0.84375
 50
353.069999999999
  0
INSERT
  5
28
100
AcDbEntity
  8
0
  6
CONTINUOUS
 62
           7
100
AcDbBlockReference
  2
MAK2
 10
-4967.06387342379
 20
1080.445499817843
 30
0.0
 50
353.069999999999
  0
LINE
  5
29
100
AcDbEntity
  8
0
  6
CONTINUOUS
 62
          15
100
AcDbLine
 10
-5125.531408128745
 20
1769.550929181752
 30
0.0
 11
-4974.531408128745
 21
1769.550929181752
 31
0.0
  0
LINE
  5
2A
100
AcDbEntity
  8
0
  6
CONTINUOUS
 62
          15
100
AcDbLine
 10
-4974.531408128745
 20
1635.800929181752
 30
0.0
 11
-4974.531408128745
 21
1582.050929181752
 31
0.0
  0
LINE
  5
2B
100
AcDbEntity
  8
0
  6
GESTRICHELT
 62
          15
100
AcDbLine
 10
-4974.531408128745
 20
1718.808140666937
 30
0.0
 11
-4974.531408128745
 21
1635.800929181752
 31
0.0
  0
LINE
  5
2C
100
AcDbEntity
  8
0
  6
CONTINUOUS
 62
          15
100
AcDbLine
 10
-4974.531408128745
 20
1769.550929181752
 30
0.0
 11
-4974.531408128745
 21
1718.808140666937
 31
0.0
  0
LINE
  5
2D
100
AcDbEntity
  8
0
  6
CONTINUOUS
 62
          15
100
AcDbLine
 10
-4974.531408128745
 20
1582.050929181752
 30
0.0
 11
-5125.531408128745
 21
1582.050929181752
 31
0.0
  0
LINE
  5
2E
100
AcDbEntity
  8
0
  6
CONTINUOUS
 62
          15
100
AcDbLine
 10
-5125.531408128745
 20
1700.800929181752
 30
0.0
 11
-5125.531408128745
 21
1769.550929181752
 31
0.0
  0
LINE
  5
2F
100
AcDbEntity
  8
0
  6
GESTRICHELT
 62
          15
100
AcDbLine
 10
-5125.531408128745
 20
1650.800929181752
 30
0.0
 11
-5125.531408128745
 21
1700.800929181752
 31
0.0
  0
LINE
  5
30
100
AcDbEntity
  8
0
  6
CONTINUOUS
 62
          15
100
AcDbLine
 10
-5125.531408128745
 20
1582.050929181752
 30
0.0
 11
-5125.531408128745
 21
1650.800929181752
 31
0.0
  0
LINE
  5
31
100
AcDbEntity
  8
0
  6
STRICHPUNKT
 62
          15
100
AcDbLine
 10
-5050.031408128745
 20
1769.550929181752
 30
0.0
 11
-5050.031408128745
 21
1582.050929181752
 31
0.0
  0
LINE
  5
32
100
AcDbEntity
  8
0
  6
GESTRICHELT
 62
          15
100
AcDbLine
 10
-5125.531408128745
 20
1675.800929181752
 30
0.0
 11
-4974.531408128745
 21
1675.800929181752
 31
0.0
  0
CIRCLE
  5
33
100
AcDbEntity
  8
0
  6
CONTINUOUS
 62
          15
100
AcDbCircle
 10
-5050.031408128745
 20
1675.800929181752
 30
0.0
 40
7.25
  0
LINE
  5
34
100
AcDbEntity
  8
0
  6
GESTRICHELT
 62
          15
100
AcDbLine
 10
-4967.531408128745
 20
1700.800929181752
 30
0.0
 11
-4967.531408128745
 21
1650.800929181752
 31
0.0
  0
LINE
  5
35
100
AcDbEntity
  8
0
  6
CONTINUOUS
 62
          15
100
AcDbLine
 10
-5132.531408128745
 20
1650.800929181752
 30
0.0
 11
-5132.531408128745
 21
1700.800929181752
 31
0.0
  0
LINE
  5
36
100
AcDbEntity
  8
0
  6
GESTRICHELT
 62
          15
100
AcDbLine
 10
-5087.846749128746
 20
1650.800929181752
 30
0.0
 11
-4967.531408128745
 21
1650.800929181752
 31
0.0
  0
LINE
  5
37
100
AcDbEntity
  8
0
  6
CONTINUOUS
 62
          15
100
AcDbLine
 10
-5132.531408128745
 20
1650.800929181752
 30
0.0
 11
-5087.846749128746
 21
1650.800929181752
 31
0.0
  0
LINE
  5
38
100
AcDbEntity
  8
0
  6
GESTRICHELT
 62
          15
100
AcDbLine
 10
-5099.780145470275
 20
1700.800929181752
 30
0.0
 11
-4967.531408128745
 21
1700.800929181752
 31
0.0
  0
LINE
  5
39
100
AcDbEntity
  8
0
  6
CONTINUOUS
 62
          15
100
AcDbLine
 10
-5132.531408128745
 20
1700.800929181752
 30
0.0
 11
-5099.780145470275
 21
1700.800929181752
 31
0.0
  0
TEXT
  5
3A
100
AcDbEntity
  8
0
  6
CONTINUOUS
 62
          15
100
AcDbText
 10
-5098.739306940565
 20
1599.245156329794
 30
0.0
 40
3.5
  1
150-730
 41
0.900000010218
  7
GOTHICG
100
AcDbText
  0
CIRCLE
  5
3B
100
AcDbEntity
  8
0
  6
GESTRICHELT
 62
          15
100
AcDbCircle
 10
-5050.031408128745
 20
1675.800929181752
 30
0.0
 40
12.5
  0
LINE
  5
3C
100
AcDbEntity
  8
WHITE
  6
CONTINUOUS
 62
          15
100
AcDbLine
 10
-4646.999470128745
 20
1715.800929181752
 30
0.0
 11
-4646.999470128745
 21
1635.800929181752
 31
0.0
  0
LINE
  5
3D
100
AcDbEntity
  8
WHITE
  6
GESTRICHELT
 62
          15
100
AcDbLine
 10
-5087.846749128746
 20
1688.867532840223
 30
0.0
 11
-5087.846749128746
 21
1715.800929181752
 31
0.0
  0
LINE
  5
3E
100
AcDbEntity
  8
WHITE
  6
CONTINUOUS
 62
          15
100
AcDbLine
 10
-5087.846749128746
 20
1635.800929181752
 30
0.0
 11
-5087.846749128746
 21
1688.867532840223
 31
0.0
  0
ARC
  5
3F
100
AcDbEntity
  8
WHITE
  6
GESTRICHELT
 62
          15
100
AcDbCircle
 10
-5050.031408128745
 20
1675.800929181752
 30
0.0
 40
22.5
100
AcDbArc
 50
109.064916387405
 51
186.057558731021
  0
ARC
  5
40
100
AcDbEntity
  8
WHITE
  6
CONTINUOUS
 62
          15
100
AcDbCircle
 10
-5050.031408128745
 20
1675.800929181752
 30
0.0
 40
22.5
100
AcDbArc
 50
186.057558731021
 51
109.064916387405
  0
LINE
  5
41
100
AcDbEntity
  8
YELLOW
  6
CONTINUOUS
 62
          15
100
AcDbLine
 10
-5087.846749128746
 20
1635.800929181752
 30
0.0
 11
-4646.999470128745
 21
1635.800929181752
 31
0.0
  0
LINE
  5
42
100
AcDbEntity
  8
YELLOW
  6
CONTINUOUS
 62
          15
100
AcDbLine
 10
-4796.46210594251
 20
1715.800929181752
 30
0.0
 11
-4646.999470128745
 21
1715.800929181752
 31
0.0
  0
LINE
  5
43
100
AcDbEntity
  8
YELLOW
  6
GESTRICHELT
 62
          15
100
AcDbLine
 10
-4933.253512554024
 20
1715.800929181752
 30
0.0
 11
-4796.46210594251
 21
1715.800929181752
 31
0.0
  0
LINE
  5
44
100
AcDbEntity
  8
YELLOW
  6
CONTINUOUS
 62
          15
100
AcDbLine
 10
-4949.789777807957
 20
1715.800929181752
 30
0.0
 11
-4933.253512554024
 21
1715.800929181752
 31
0.0
  0
LINE
  5
45
100
AcDbEntity
  8
YELLOW
  6
GESTRICHELT
 62
          15
100
AcDbLine
 10
-5087.846749128746
 20
1715.800929181752
 30
0.0
 11
-4949.789777807957
 21
1715.800929181752
 31
0.0
  0
CIRCLE
  5
46
100
AcDbEntity
  8
0
  6
CONTINUOUS
 62
          15
100
AcDbCircle
 10
-4686.999470128745
 20
1675.800929181752
 30
0.0
 40
6.25
  0
LINE
  5
47
100
AcDbEntity
  8
WHITE
  6
CONTINUOUS
 62
          15
100
AcDbLine
 10
-5060.991563237137
 20
1662.012346948614
 30
0.0
 11
-5114.024571826128
 21
1715.045355537605
 31
0.0
  0
ARC
  5
48
100
AcDbEntity
  8
WHITE
  6
CONTINUOUS
 62
          15
100
AcDbCircle
 10
-5103.417970108329
 20
1725.651957255403
 30
0.0
 40
15.0
100
AcDbArc
 50
135.0
 51
225.0
  0
LINE
  5
49
100
AcDbEntity
  8
WHITE
  6
CONTINUOUS
 62
          15
100
AcDbLine
 10
-5114.024571826128
 20
1736.258558973201
 30
0.0
 11
-5110.489037920195
 21
1739.794092879134
 31
0.0
  0
ARC
  5
4A
100
AcDbEntity
  8
WHITE
  6
CONTINUOUS
 62
          15
100
AcDbCircle
 10
-5099.882436202397
 20
1729.187491161336
 30
0.0
 40
15.0
100
AcDbArc
 50
45.0
 51
135.0
  0
LINE
  5
4B
100
AcDbEntity
  8
WHITE
  6
CONTINUOUS
 62
          15
100
AcDbLine
 10
-5086.213750462329
 20
1712.2353366787
 30
0.0
 11
-5085.740300578666
 21
1707.97428772574
 31
0.0
  0
LINE
  5
4C
100
AcDbEntity
  8
WHITE
  6
GESTRICHELT
 62
          15
100
AcDbLine
 10
-5088.936817260614
 20
1736.742937863263
 30
0.0
 11
-5086.213750462329
 21
1712.2353366787
 31
0.0
  0
LINE
  5
4D
100
AcDbEntity
  8
WHITE
  6
CONTINUOUS
 62
          15
100
AcDbLine
 10
-5089.275834484599
 20
1739.794092879134
 30
0.0
 11
-5088.936817260614
 21
1736.742937863263
 31
0.0
  0
LINE
  5
4E
100
AcDbEntity
  8
WHITE
  6
CONTINUOUS
 62
          15
100
AcDbLine
 10
-5085.740300578666
 20
1707.97428772574
 30
0.0
 11
-5039.77835980154
 21
1690.296618196076
 31
0.0
  0
LINE
  5
4F
100
AcDbEntity
  8
WHITE
  6
CONTINUOUS
 62
          15
100
AcDbLine
 10
-5039.77835980154
 20
1690.296618196076
 30
0.0
 11
-5036.242825895608
 21
1686.761084290143
 31
0.0
  0
ARC
  5
50
100
AcDbEntity
  8
WHITE
  6
CONTINUOUS
 62
          15
100
AcDbCircle
 10
-5046.849427613406
 20
1676.154482572345
 30
0.0
 40
15.0
100
AcDbArc
 50
314.999999999999
 51
45.0
  0
LINE
  5
51
100
AcDbEntity
  8
WHITE
  6
CONTINUOUS
 62
          15
100
AcDbLine
 10
-5036.242825895608
 20
1665.547880854547
 30
0.0
 11
-5039.77835980154
 21
1662.012346948614
 31
0.0
  0
ARC
  5
52
100
AcDbEntity
  8
WHITE
  6
CONTINUOUS
 62
          15
100
AcDbCircle
 10
-5050.384961519339
 20
1672.618948666412
 30
0.0
 40
15.0
100
AcDbArc
 50
224.999999999999
 51
314.999999999999
  0
CIRCLE
  5
53
100
AcDbEntity
  8
WHITE
  6
CONTINUOUS
 62
          15
100
AcDbCircle
 10
-5100.23598959299
 20
1726.005510645997
 30
0.0
 40
6.5
  0
LINE
  5
54
100
AcDbEntity
  8
BLACK
  6
GESTRICHELT
 62
          15
100
AcDbLine
 10
-4705.643464209205
 20
1678.067388189604
 30
0.0
 11
-4703.531973203954
 21
1695.439538480651
 31
0.0
  0
LINE
  5
55
100
AcDbEntity
  8
BLACK
  6
GESTRICHELT
 62
          15
100
AcDbLine
 10
-4703.531973203954
 20
1695.439538480651
 30
0.0
 11
-4707.502750413336
 21
1695.922164996137
 31
0.0
  0
LINE
  5
56
100
AcDbEntity
  8
BLACK
  6
CONTINUOUS
 62
          15
100
AcDbLine
 10
-4706.356512439057
 20
1705.35276086842
 30
0.0
 11
-4735.740263788486
 21
1708.924197083017
 31
0.0
  0
LINE
  5
57
100
AcDbEntity
  8
BLACK
  6
CONTINUOUS
 62
          15
100
AcDbLine
 10
-4735.740263788486
 20
1708.924197083017
 30
0.0
 11
-4735.800592102922
 21
1708.427849931844
 31
0.0
  0
LINE
  5
58
100
AcDbEntity
  8
BLACK
  6
CONTINUOUS
 62
          15
100
AcDbLine
 10
-4735.800592102922
 20
1708.427849931844
 30
0.0
 11
-4880.535421384906
 21
1726.019586421308
 31
0.0
  0
LINE
  5
59
100
AcDbEntity
  8
BLACK
  6
CONTINUOUS
 62
          15
100
AcDbLine
 10
-4880.535421384906
 20
1726.019586421308
 30
0.0
 11
-4880.47509307047
 21
1726.515933572481
 31
0.0
  0
LINE
  5
5A
100
AcDbEntity
  8
BLACK
  6
CONTINUOUS
 62
          15
100
AcDbLine
 10
-4880.47509307047
 20
1726.515933572481
 30
0.0
 11
-4909.8588444199
 21
1730.087369787078
 31
0.0
  0
LINE
  5
5B
100
AcDbEntity
  8
BLACK
  6
CONTINUOUS
 62
          15
100
AcDbLine
 10
-4909.8588444199
 20
1730.087369787078
 30
0.0
 11
-4911.005082394179
 21
1720.656773914795
 31
0.0
  0
LINE
  5
5C
100
AcDbEntity
  8
BLACK
  6
CONTINUOUS
 62
          15
100
AcDbLine
 10
-4911.005082394179
 20
1720.656773914795
 30
0.0
 11
-4921.428372568807
 21
1721.923668517945
 31
0.0
  0
LINE
  5
5D
100
AcDbEntity
  8
BLACK
  6
CONTINUOUS
 62
          15
100
AcDbLine
 10
-4921.428372568807
 20
1721.923668517945
 30
0.0
 11
-4921.488700883243
 21
1721.427321366773
 31
0.0
  0
LINE
  5
5E
100
AcDbEntity
  8
BLACK
  6
CONTINUOUS
 62
          15
100
AcDbLine
 10
-4921.488700883243
 20
1721.427321366773
 30
0.0
 11
-4932.408338209044
 21
1722.754544284359
 31
0.0
  0
LINE
  5
5F
100
AcDbEntity
  8
BLACK
  6
CONTINUOUS
 62
          15
100
AcDbLine
 10
-4932.408338209044
 20
1722.754544284359
 30
0.0
 11
-4936.510663590675
 21
1689.002938004609
 31
0.0
  0
LINE
  5
60
100
AcDbEntity
  8
BLACK
  6
CONTINUOUS
 62
          15
100
AcDbLine
 10
-4936.510663590675
 20
1689.002938004609
 30
0.0
 11
-4925.591026264874
 21
1687.675715087023
 31
0.0
  0
LINE
  5
61
100
AcDbEntity
  8
BLACK
  6
CONTINUOUS
 62
          15
100
AcDbLine
 10
-4925.591026264874
 20
1687.675715087023
 30
0.0
 11
-4925.65135457931
 21
1687.17936793585
 31
0.0
  0
LINE
  5
62
100
AcDbEntity
  8
BLACK
  6
CONTINUOUS
 62
          15
100
AcDbLine
 10
-4925.65135457931
 20
1687.17936793585
 30
0.0
 11
-4915.228064404681
 21
1685.912473332699
 31
0.0
  0
LINE
  5
63
100
AcDbEntity
  8
BLACK
  6
CONTINUOUS
 62
          15
100
AcDbLine
 10
-4915.228064404681
 20
1685.912473332699
 30
0.0
 11
-4916.37430237896
 21
1676.481877460416
 31
0.0
  0
LINE
  5
64
100
AcDbEntity
  8
BLACK
  6
GESTRICHELT
 62
          15
100
AcDbLine
 10
-4906.943706506678
 20
1675.335639486137
 30
0.0
 11
-4886.990551029531
 21
1672.91044124582
 31
0.0
  0
LINE
  5
65
100
AcDbEntity
  8
BLACK
  6
CONTINUOUS
 62
          15
100
AcDbLine
 10
-4916.37430237896
 20
1676.481877460416
 30
0.0
 11
-4906.943706506678
 21
1675.335639486137
 31
0.0
  0
LINE
  5
66
100
AcDbEntity
  8
BLACK
  6
GESTRICHELT
 62
          15
100
AcDbLine
 10
-4886.990551029531
 20
1672.91044124582
 30
0.0
 11
-4886.930222715096
 21
1673.406788396993
 31
0.0
  0
LINE
  5
67
100
AcDbEntity
  8
BLACK
  6
CONTINUOUS
 62
          15
100
AcDbLine
 10
-4879.087937726566
 20
1672.453601028908
 30
0.0
 11
-4742.195393433111
 21
1655.815051907528
 31
0.0
  0
LINE
  5
68
100
AcDbEntity
  8
BLACK
  6
GESTRICHELT
 62
          15
100
AcDbLine
 10
-4886.930222715096
 20
1673.406788396993
 30
0.0
 11
-4879.087937726566
 21
1672.453601028908
 31
0.0
  0
LINE
  5
69
100
AcDbEntity
  8
BLACK
  6
CONTINUOUS
 62
          15
100
AcDbLine
 10
-4742.195393433111
 20
1655.815051907528
 30
0.0
 11
-4742.255721747547
 21
1655.318704756356
 31
0.0
  0
LINE
  5
6A
100
AcDbEntity
  8
BLACK
  6
CONTINUOUS
 62
          15
100
AcDbLine
 10
-4742.255721747547
 20
1655.318704756356
 30
0.0
 11
-4712.871970398118
 21
1651.747268541759
 31
0.0
  0
LINE
  5
6B
100
AcDbEntity
  8
BLACK
  6
GESTRICHELT
 62
          15
100
AcDbLine
 10
-4711.725732423838
 20
1661.177864414042
 30
0.0
 11
-4707.754955214457
 21
1660.695237898556
 31
0.0
  0
LINE
  5
6C
100
AcDbEntity
  8
BLACK
  6
GESTRICHELT
 62
          15
100
AcDbLine
 10
-4707.754955214457
 20
1660.695237898556
 30
0.0
 11
-4705.643464209205
 21
1678.067388189604
 31
0.0
  0
LINE
  5
6D
100
AcDbEntity
  8
BLACK
  6
CONTINUOUS
 62
          15
100
AcDbLine
 10
-4735.800592102922
 20
1708.427849931844
 30
0.0
 11
-4742.195393433111
 21
1655.815051907528
 31
0.0
  0
LINE
  5
6E
100
AcDbEntity
  8
BLACK
  6
GESTRICHELT
 62
          15
100
AcDbLine
 10
-4882.646108149022
 20
1708.654052970138
 30
0.0
 11
-4886.930222715096
 21
1673.406788396993
 31
0.0
  0
LINE
  5
6F
100
AcDbEntity
  8
BLACK
  6
CONTINUOUS
 62
          15
100
AcDbLine
 10
-4880.535421384906
 20
1726.019586421308
 30
0.0
 11
-4882.646108149022
 21
1708.654052970138
 31
0.0
  0
LINE
  5
70
100
AcDbEntity
  8
BLACK
  6
CONTINUOUS
 62
          15
100
AcDbLine
 10
-4911.005082394179
 20
1720.656773914795
 30
0.0
 11
-4915.228064404681
 21
1685.912473332699
 31
0.0
  0
LINE
  5
71
100
AcDbEntity
  8
BLACK
  6
CONTINUOUS
 62
          15
100
AcDbLine
 10
-4921.428372568807
 20
1721.923668517945
 30
0.0
 11
-4925.65135457931
 21
1687.17936793585
 31
0.0
  0
LINE
  5
72
100
AcDbEntity
  8
BLACK
  6
GESTRICHELT
 62
          15
100
AcDbLine
 10
-5045.917193027627
 20
1725.46997819297
 30
0.0
 11
-5064.010011045208
 21
1727.669062466577
 31
0.0
  0
LINE
  5
73
100
AcDbEntity
  8
BLACK
  6
CONTINUOUS
 62
          15
100
AcDbLine
 10
-5040.946545779952
 20
1724.865822876679
 30
0.0
 11
-5045.917193027627
 21
1725.46997819297
 31
0.0
  0
LINE
  5
74
100
AcDbEntity
  8
BLACK
  6
GESTRICHELT
 62
          15
100
AcDbLine
 10
-5047.365072574085
 20
1713.557646564823
 30
0.0
 11
-5065.457890591666
 21
1715.75673083843
 31
0.0
  0
LINE
  5
75
100
AcDbEntity
  8
BLACK
  6
CONTINUOUS
 62
          15
100
AcDbLine
 10
-5042.394425326411
 20
1712.953491248532
 30
0.0
 11
-5047.365072574085
 21
1713.557646564823
 31
0.0
  0
LINE
  5
76
100
AcDbEntity
  8
BLACK
  6
GESTRICHELT
 62
          15
100
AcDbLine
 10
-5064.863727332699
 20
1727.0003939055
 30
0.0
 11
-5064.010011045208
 21
1727.669062466577
 31
0.0
  0
LINE
  5
77
100
AcDbEntity
  8
BLACK
  6
GESTRICHELT
 62
          15
100
AcDbLine
 10
-5066.126570286252
 20
1716.610438405544
 30
0.0
 11
-5065.457890591666
 21
1715.75673083843
 31
0.0
  0
LINE
  5
78
100
AcDbEntity
  8
BLACK
  6
GESTRICHELT
 62
          15
100
AcDbLine
 10
-5064.863727332699
 20
1727.0003939055
 30
0.0
 11
-5066.126570286252
 21
1716.610438405544
 31
0.0
  0
LINE
  5
79
100
AcDbEntity
  8
BLACK
  6
CONTINUOUS
 62
          15
100
AcDbLine
 10
-5046.009711324079
 20
1724.708790128875
 30
0.0
 11
-5041.039064076405
 21
1724.104634812584
 31
0.0
  0
LINE
  5
7A
100
AcDbEntity
  8
BLACK
  6
GESTRICHELT
 62
          15
100
AcDbLine
 10
-5064.863727332699
 20
1727.0003939055
 30
0.0
 11
-5046.009711324079
 21
1724.708790128875
 31
0.0
  0
LINE
  5
7B
100
AcDbEntity
  8
BLACK
  6
CONTINUOUS
 62
          15
100
AcDbLine
 10
-5047.272554277633
 20
1714.318834628919
 30
0.0
 11
-5042.301907029959
 21
1713.714679312628
 31
0.0
  0
LINE
  5
7C
100
AcDbEntity
  8
BLACK
  6
GESTRICHELT
 62
          15
100
AcDbLine
 10
-5066.126570286252
 20
1716.610438405544
 30
0.0
 11
-5047.272554277633
 21
1714.318834628919
 31
0.0
  0
LINE
  5
7D
100
AcDbEntity
  8
BLACK
  6
GESTRICHELT
 62
          15
100
AcDbLine
 10
-5064.010011045208
 20
1727.669062466577
 30
0.0
 11
-5065.457890591666
 21
1715.75673083843
 31
0.0
  0
LINE
  5
7E
100
AcDbEntity
  8
BLACK
  6
CONTINUOUS
 62
          15
100
AcDbLine
 10
-4933.494247868887
 20
1713.820295563249
 30
0.0
 11
-5040.705232522209
 21
1726.85121148137
 31
0.0
  0
LINE
  5
7F
100
AcDbEntity
  8
BLACK
  6
CONTINUOUS
 62
          15
100
AcDbLine
 10
-5040.705232522209
 20
1726.85121148137
 30
0.0
 11
-5042.635738584154
 21
1710.968102643841
 31
0.0
  0
LINE
  5
80
100
AcDbEntity
  8
BLACK
  6
CONTINUOUS
 62
          15
100
AcDbLine
 10
-5042.635738584154
 20
1710.968102643841
 30
0.0
 11
-4935.424753930832
 21
1697.93718672572
 31
0.0
  0
LINE
  5
81
100
AcDbEntity
  8
BLACK
  6
CONTINUOUS
 62
          15
100
AcDbLine
 10
-5041.10778043968
 20
1723.539275553512
 30
0.0
 11
-5035.813414136152
 21
1722.895773935053
 31
0.0
  0
LINE
  5
82
100
AcDbEntity
  8
BLACK
  6
CONTINUOUS
 62
          15
100
AcDbLine
 10
-5042.233190666683
 20
1714.2800385717
 30
0.0
 11
-5036.938824363155
 21
1713.636536953241
 31
0.0
  0
LINE
  5
83
100
AcDbEntity
  8
BLACK
  6
CONTINUOUS
 62
          15
100
AcDbLine
 10
-5035.813414136152
 20
1722.895773935053
 30
0.0
 11
-5036.938824363155
 21
1713.636536953241
 31
0.0
  0
LINE
  5
84
100
AcDbEntity
  8
BLACK
  6
CONTINUOUS
 62
          15
100
AcDbLine
 10
-5041.10778043968
 20
1723.539275553512
 30
0.0
 11
-5036.938824363155
 21
1713.636536953241
 31
0.0
  0
LINE
  5
85
100
AcDbEntity
  8
BLACK
  6
CONTINUOUS
 62
          15
100
AcDbLine
 10
-5035.813414136152
 20
1722.895773935053
 30
0.0
 11
-5042.233190666683
 21
1714.2800385717
 31
0.0
  0
CIRCLE
  5
86
100
AcDbEntity
  8
BLACK
  6
GESTRICHELT
 62
          15
100
AcDbCircle
 10
-4899.942792939821
 20
1695.639265005473
 30
0.0
 40
5.7225
  0
ARC
  5
87
100
AcDbEntity
  8
BLACK
  6
GESTRICHELT
 62
          15
100
AcDbCircle
 10
-4899.942792939821
 20
1695.639265005473
 30
0.0
 40
6.5785
100
AcDbArc
 50
103.07
 51
13.07
  0
CIRCLE
  5
88
100
AcDbEntity
  8
BLACK
  6
CONTINUOUS
 62
          15
100
AcDbCircle
 10
-4722.788021878196
 20
1686.195373323364
 30
0.0
 40
5.7225
  0
ARC
  5
89
100
AcDbEntity
  8
BLACK
  6
CONTINUOUS
 62
          15
100
AcDbCircle
 10
-4722.788021878196
 20
1686.195373323364
 30
0.0
 40
6.57849
100
AcDbArc
 50
103.07
 51
13.07
  0
LINE
  5
8A
100
AcDbEntity
  8
BLACK
  6
GESTRICHELT
 62
          15
100
AcDbLine
 10
-4893.089039103785
 20
1709.554836306719
 30
0.0
 11
-4898.199965628623
 21
1705.551648212141
 31
0.0
  0
LINE
  5
8B
100
AcDbEntity
  8
BLACK
  6
CONTINUOUS
 62
          15
100
AcDbLine
 10
-4890.389134802744
 20
1711.669565348881
 30
0.0
 11
-4893.089039103785
 21
1709.554836306719
 31
0.0
  0
LINE
  5
8C
100
AcDbEntity
  8
BLACK
  6
GESTRICHELT
 62
          15
100
AcDbLine
 10
-4894.914972601261
 20
1709.712337153498
 30
0.0
 11
-4898.970661665342
 21
1706.535717107638
 31
0.0
  0
LINE
  5
8D
100
AcDbEntity
  8
BLACK
  6
CONTINUOUS
 62
          15
100
AcDbLine
 10
-4891.159841698561
 20
1712.65354490189
 30
0.0
 11
-4894.914972601261
 21
1709.712337153498
 31
0.0
  0
ARC
  5
8E
100
AcDbEntity
  8
BLACK
  6
GESTRICHELT
 62
          15
100
AcDbCircle
 10
-4894.679900647176
 20
1709.102621374373
 30
0.0
 40
5.0
100
AcDbArc
 50
168.324946168168
 51
1.815053831834
  0
ARC
  5
8F
100
AcDbEntity
  8
BLACK
  6
CONTINUOUS
 62
          15
100
AcDbCircle
 10
-4894.679900647176
 20
1709.102621374373
 30
0.0
 40
5.0
100
AcDbArc
 50
1.815053831834
 51
168.324946168168
  0
LINE
  5
90
100
AcDbEntity
  8
BLACK
  6
CONTINUOUS
 62
          15
100
AcDbLine
 10
-4723.759855344385
 20
1675.29888502421
 30
0.0
 11
-4731.571072388887
 21
1669.181105492609
 31
0.0
  0
LINE
  5
91
100
AcDbEntity
  8
BLACK
  6
CONTINUOUS
 62
          15
100
AcDbLine
 10
-4724.530749919964
 20
1676.282978051033
 30
0.0
 11
-4732.341977823564
 21
1670.165109176945
 31
0.0
  0
CIRCLE
  5
92
100
AcDbEntity
  8
BLACK
  6
CONTINUOUS
 62
          15
100
AcDbCircle
 10
-4728.050914170841
 20
1672.732016954463
 30
0.0
 40
5.0
  0
LINE
  5
93
100
AcDbEntity
  8
BLACK
  6
CONTINUOUS
 62
          15
100
AcDbLine
 10
-5045.704561236734
 20
1730.450710482092
 30
0.0
 11
-5048.291641711962
 21
1730.765156135727
 31
0.0
  0
LINE
  5
94
100
AcDbEntity
  8
BLACK
  6
CONTINUOUS
 62
          15
100
AcDbLine
 10
-5050.878702333305
 20
1731.079599376229
 30
0.0
 11
-5048.291641711962
 21
1730.765156135727
 31
0.0
  0
LINE
  5
95
100
AcDbEntity
  8
BLACK
  6
CONTINUOUS
 62
          15
100
AcDbLine
 10
-5053.525908770745
 20
1709.299886382767
 30
0.0
 11
-5050.938848149403
 21
1708.985443142265
 31
0.0
  0
LINE
  5
96
100
AcDbEntity
  8
BLACK
  6
CONTINUOUS
 62
          15
100
AcDbLine
 10
-5048.351767674174
 20
1708.67099748863
 30
0.0
 11
-5050.938848149403
 21
1708.985443142265
 31
0.0
  0
LINE
  5
97
100
AcDbEntity
  8
BLACK
  6
CONTINUOUS
 62
          15
100
AcDbLine
 10
-5046.36636405266
 20
1725.005772306784
 30
0.0
 11
-5048.953444527889
 21
1725.320217960418
 31
0.0
  0
LINE
  5
98
100
AcDbEntity
  8
BLACK
  6
CONTINUOUS
 62
          15
100
AcDbLine
 10
-5051.540505149232
 20
1725.63466120092
 30
0.0
 11
-5048.953444527889
 21
1725.320217960418
 31
0.0
  0
LINE
  5
99
100
AcDbEntity
  8
BLACK
  6
CONTINUOUS
 62
          15
100
AcDbLine
 10
-5052.864105954819
 20
1714.744824558075
 30
0.0
 11
-5050.277045333477
 21
1714.430381317573
 31
0.0
  0
LINE
  5
9A
100
AcDbEntity
  8
BLACK
  6
CONTINUOUS
 62
          15
100
AcDbLine
 10
-5047.689964858248
 20
1714.115935663939
 30
0.0
 11
-5050.277045333477
 21
1714.430381317573
 31
0.0
  0
ARC
  5
9B
100
AcDbEntity
  8
BLACK
  6
CONTINUOUS
 62
          15
100
AcDbCircle
 10
-5085.135435379508
 20
1724.192586870627
 30
0.0
 40
38.777600000016
100
AcDbArc
 50
353.929436999998
 51
1.201609999996
  0
ARC
  5
9C
100
AcDbEntity
  8
BLACK
  6
CONTINUOUS
 62
          15
100
AcDbCircle
 10
-5014.095054481874
 20
1715.558012407365
 30
0.0
 40
38.7776
100
AcDbArc
 50
164.937999999996
 51
172.210999999996
  0
ARC
  5
9D
100
AcDbEntity
  8
BLACK
  6
CONTINUOUS
 62
          15
100
AcDbCircle
 10
-5014.095054481873
 20
1715.55801240737
 30
0.0
 40
38.7776
100
AcDbArc
 50
173.929000000003
 51
181.202000000003
  0
ARC
  5
9E
100
AcDbEntity
  8
BLACK
  6
CONTINUOUS
 62
          15
100
AcDbCircle
 10
-5085.135435379508
 20
1724.192586870626
 30
0.0
 40
38.777600000016
100
AcDbArc
 50
344.938390000003
 51
352.210563
  0
LINE
  5
9F
100
AcDbEntity
  8
BLACK
  6
CONTINUOUS
 62
          15
100
AcDbLine
 10
-5046.575281985084
 20
1720.091731141204
 30
0.0
 11
-5046.641132800856
 21
1719.513812378897
 31
0.0
  0
LINE
  5
A0
100
AcDbEntity
  8
BLACK
  6
CONTINUOUS
 62
          15
100
AcDbLine
 10
-5052.514810242649
 20
1720.813648709333
 30
0.0
 11
-5052.58935706051
 21
1720.236786899095
 31
0.0
  0
LINE
  5
A1
100
AcDbEntity
  8
BLACK
  6
CONTINUOUS
 62
          15
100
AcDbLine
 10
-5052.65516816851
 20
1719.658863310523
 30
0.0
 11
-5052.58935706051
 21
1720.236786899095
 31
0.0
  0
LINE
  5
A2
100
AcDbEntity
  8
BLACK
  6
CONTINUOUS
 62
          15
100
AcDbLine
 10
-5046.715639910944
 20
1718.936945742394
 30
0.0
 11
-5046.641132800856
 21
1719.513812378897
 31
0.0
  0
ARC
  5
A3
100
AcDbEntity
  8
BLACK
  6
CONTINUOUS
 62
          15
100
AcDbCircle
 10
-5055.708893207094
 20
1728.903979502863
 30
0.0
 40
10.134500000026
100
AcDbArc
 50
337.351500000022
 51
353.069999999982
  0
ARC
  5
A4
100
AcDbEntity
  8
BLACK
  6
CONTINUOUS
 62
          15
100
AcDbCircle
 10
-5041.536186725544
 20
1727.181363605893
 30
0.0
 40
10.123199999994
100
AcDbArc
 50
173.069999999998
 51
188.789000000007
  0
ARC
  5
A5
100
AcDbEntity
  8
BLACK
  6
CONTINUOUS
 62
          15
100
AcDbCircle
 10
-5043.521586727336
 20
1710.846618568563
 30
0.0
 40
10.134500000018
100
AcDbArc
 50
157.351000000007
 51
173.069999999979
  0
ARC
  5
A6
100
AcDbEntity
  8
BLACK
  6
CONTINUOUS
 62
          15
100
AcDbCircle
 10
-5057.694293208871
 20
1712.569234465534
 30
0.0
 40
10.123199999986
100
AcDbArc
 50
353.069999999985
 51
8.788500000007
  0
ARC
  5
A7
100
AcDbEntity
  8
BLACK
  6
CONTINUOUS
 62
          15
100
AcDbCircle
 10
-5055.708893207056
 20
1728.903979502858
 30
0.0
 40
10.123199999986
100
AcDbArc
 50
353.069999999985
 51
8.788500000007
  0
ARC
  5
A8
100
AcDbEntity
  8
BLACK
  6
CONTINUOUS
 62
          15
100
AcDbCircle
 10
-5041.536186725522
 20
1727.181363605886
 30
0.0
 40
10.134500000018
100
AcDbArc
 50
157.351000000007
 51
173.069999999979
  0
ARC
  5
A9
100
AcDbEntity
  8
BLACK
  6
CONTINUOUS
 62
          15
100
AcDbCircle
 10
-5043.521586727359
 20
1710.846618568568
 30
0.0
 40
10.123199999994
100
AcDbArc
 50
173.069999999998
 51
188.789000000007
  0
ARC
  5
AA
100
AcDbEntity
  8
BLACK
  6
CONTINUOUS
 62
          15
100
AcDbCircle
 10
-5057.69429320891
 20
1712.569234465539
 30
0.0
 40
10.134500000026
100
AcDbArc
 50
337.351500000022
 51
353.069999999982
  0
LINE
  5
AB
100
AcDbEntity
  8
BLACK
  6
CONTINUOUS
 62
          15
100
AcDbLine
 10
-5045.648432799948
 20
1727.681184897559
 30
0.0
 11
-5046.641132800856
 21
1719.513812378897
 31
0.0
  0
LINE
  5
AC
100
AcDbEntity
  8
BLACK
  6
CONTINUOUS
 62
          15
100
AcDbLine
 10
-5051.596657059603
 20
1728.404159417757
 30
0.0
 11
-5052.58935706051
 21
1720.236786899095
 31
0.0
  0
LINE
  5
AD
100
AcDbEntity
  8
BLACK
  6
CONTINUOUS
 62
          15
100
AcDbLine
 10
-5053.582057061418
 20
1712.069414380433
 30
0.0
 11
-5052.58935706051
 21
1720.236786899095
 31
0.0
  0
LINE
  5
AE
100
AcDbEntity
  8
BLACK
  6
CONTINUOUS
 62
          15
100
AcDbLine
 10
-5047.633832801764
 20
1711.346439860235
 30
0.0
 11
-5046.641132800856
 21
1719.513812378897
 31
0.0
  0
LINE
  5
AF
100
AcDbEntity
  8
WHITE
  6
CONTINUOUS
 62
          15
100
AcDbLine
 10
-5053.31329683374
 20
1714.280621085021
 30
0.0
 11
-5053.240902856416
 21
1714.876237666429
 31
0.0
  0
LINE
  5
B0
100
AcDbEntity
  8
WHITE
  6
CONTINUOUS
 62
          15
100
AcDbLine
 10
-5053.240902856416
 20
1714.876237666429
 30
0.0
 11
-5051.937811264605
 21
1725.597336131761
 31
0.0
  0
LINE
  5
B1
100
AcDbEntity
  8
WHITE
  6
CONTINUOUS
 62
          15
100
AcDbLine
 10
-5051.937811264605
 20
1725.597336131761
 30
0.0
 11
-5051.865417287281
 21
1726.192952713168
 31
0.0
  0
LINE
  5
B2
100
AcDbEntity
  8
WHITE
  6
CONTINUOUS
 62
          15
100
AcDbLine
 10
-5051.865417287281
 20
1726.192952713168
 30
0.0
 11
-5051.467250412005
 21
1729.468843910909
 31
0.0
  0
LINE
  5
B3
100
AcDbEntity
  8
WHITE
  6
CONTINUOUS
 62
          15
100
AcDbLine
 10
-5077.861899863262
 20
1711.220214363864
 30
0.0
 11
-5076.567255791359
 21
1711.062857371953
 31
0.0
  0
LINE
  5
B4
100
AcDbEntity
  8
WHITE
  6
CONTINUOUS
 62
          15
100
AcDbLine
 10
-5073.671496698443
 20
1734.887520628246
 30
0.0
 11
-5074.966140770346
 21
1735.044877620157
 31
0.0
  0
LINE
  5
B5
100
AcDbEntity
  8
WHITE
  6
CONTINUOUS
 62
          15
100
AcDbLine
 10
-5076.567255791359
 20
1711.062857371953
 30
0.0
 11
-5072.7991589213
 21
1710.604865556619
 31
0.0
  0
LINE
  5
B6
100
AcDbEntity
  8
WHITE
  6
CONTINUOUS
 62
          15
100
AcDbLine
 10
-5069.903399828384
 20
1734.429528812913
 30
0.0
 11
-5073.671496698443
 21
1734.887520628246
 31
0.0
  0
LINE
  5
B7
100
AcDbEntity
  8
WHITE
  6
CONTINUOUS
 62
          15
100
AcDbLine
 10
-5110.242424625731
 20
1739.332519323195
 30
0.0
 11
-5074.966140770346
 21
1735.044877620157
 31
0.0
  0
LINE
  5
B8
100
AcDbEntity
  8
WHITE
  6
CONTINUOUS
 62
          15
100
AcDbLine
 10
-5113.138183718646
 20
1715.507856066901
 30
0.0
 11
-5077.861899863262
 21
1711.220214363864
 31
0.0
  0
LINE
  5
B9
100
AcDbEntity
  8
WHITE
  6
CONTINUOUS
 62
          15
100
AcDbLine
 10
-5069.227156888242
 20
1732.534088102707
 30
0.0
 11
-5071.68855211722
 21
1712.283124334857
 31
0.0
  0
LINE
  5
BA
100
AcDbEntity
  8
WHITE
  6
CONTINUOUS
 62
          15
100
AcDbLine
 10
-5052.252084318132
 20
1730.470859749004
 30
0.0
 11
-5054.952589595868
 21
1730.799091574543
 31
0.0
  0
LINE
  5
BB
100
AcDbEntity
  8
WHITE
  6
CONTINUOUS
 62
          15
100
AcDbLine
 10
-5053.711463709015
 20
1711.004729887281
 30
0.0
 11
-5053.31329683374
 21
1714.280621085021
 31
0.0
  0
LINE
  5
BC
100
AcDbEntity
  8
WHITE
  6
CONTINUOUS
 62
          15
100
AcDbLine
 10
-5070.795127245109
 20
1712.174533368873
 30
0.0
 11
-5068.968034782837
 21
1711.952460151958
 31
0.0
  0
LINE
  5
BD
100
AcDbEntity
  8
WHITE
  6
CONTINUOUS
 62
          15
100
AcDbLine
 10
-5066.361851599213
 20
1733.394657082623
 30
0.0
 11
-5066.506639553859
 21
1732.203423919808
 31
0.0
  0
LINE
  5
BE
100
AcDbEntity
  8
WHITE
  6
CONTINUOUS
 62
          15
100
AcDbLine
 10
-5066.506639553859
 20
1732.203423919808
 30
0.0
 11
-5068.333732016131
 21
1732.425497136722
 31
0.0
  0
LINE
  5
BF
100
AcDbEntity
  8
WHITE
  6
CONTINUOUS
 62
          15
100
AcDbLine
 10
-5066.506639553859
 20
1732.203423919808
 30
0.0
 11
-5068.968034782837
 21
1711.952460151958
 31
0.0
  0
LINE
  5
C0
100
AcDbEntity
  8
WHITE
  6
CONTINUOUS
 62
          15
100
AcDbLine
 10
-5068.968034782837
 20
1711.952460151958
 30
0.0
 11
-5069.112822737483
 21
1710.761226989144
 31
0.0
  0
LINE
  5
C1
100
AcDbEntity
  8
WHITE
  6
CONTINUOUS
 62
          15
100
AcDbLine
 10
-5057.558772779492
 20
1709.356894643879
 30
0.0
 11
-5057.413984824846
 21
1710.548127806694
 31
0.0
  0
LINE
  5
C2
100
AcDbEntity
  8
WHITE
  6
CONTINUOUS
 62
          15
100
AcDbLine
 10
-5057.413984824846
 20
1710.548127806694
 30
0.0
 11
-5054.71347954711
 21
1710.219895981154
 31
0.0
  0
LINE
  5
C3
100
AcDbEntity
  8
WHITE
  6
CONTINUOUS
 62
          15
100
AcDbLine
 10
-5057.413984824846
 20
1710.548127806694
 30
0.0
 11
-5054.952589595868
 21
1730.799091574543
 31
0.0
  0
LINE
  5
C4
100
AcDbEntity
  8
WHITE
  6
CONTINUOUS
 62
          15
100
AcDbLine
 10
-5054.952589595868
 20
1730.799091574543
 30
0.0
 11
-5054.807801641222
 21
1731.990324737358
 31
0.0
  0
LINE
  5
C5
100
AcDbEntity
  8
WHITE
  6
CONTINUOUS
 62
          15
100
AcDbLine
 10
-5066.361851599213
 20
1733.394657082623
 30
0.0
 11
-5054.807801641222
 21
1731.990324737358
 31
0.0
  0
LINE
  5
C6
100
AcDbEntity
  8
WHITE
  6
CONTINUOUS
 62
          15
100
AcDbLine
 10
-5069.112822737483
 20
1710.761226989144
 30
0.0
 11
-5057.558772779492
 21
1709.356894643879
 31
0.0
  0
ARC
  5
C7
100
AcDbEntity
  8
WHITE
  6
CONTINUOUS
 62
          15
100
AcDbCircle
 10
-5092.064945215212
 20
1725.034831350657
 30
0.0
 40
20.866107311614
100
AcDbArc
 50
317.963694434247
 51
28.176305565752
  0
ARC
  5
C8
100
AcDbEntity
  8
WHITE
  6
CONTINUOUS
 62
          15
100
AcDbCircle
 10
-5082.246738982693
 20
1723.841481431369
 30
0.0
 40
29.660254037848
100
AcDbArc
 50
149.205074583953
 51
196.934925416046
  0
ARC
  5
C9
100
AcDbEntity
  8
WHITE
  6
CONTINUOUS
 62
          15
100
AcDbCircle
 10
-5092.776937523675
 20
1725.121370168818
 30
0.0
 40
22.516660498396
100
AcDbArc
 50
140.865772496028
 51
205.274227503971
  0
ARC
  5
CA
100
AcDbEntity
  8
WHITE
  6
CONTINUOUS
 62
          15
100
AcDbCircle
 10
-5070.011990794368
 20
1733.536103940802
 30
0.0
 40
0.9
100
AcDbArc
 50
353.069999999999
 51
83.07
  0
ARC
  5
CB
100
AcDbEntity
  8
WHITE
  6
CONTINUOUS
 62
          15
100
AcDbCircle
 10
-5068.225141050146
 20
1733.318922008833
 30
0.0
 40
0.9
100
AcDbArc
 50
173.07
 51
263.069999999999
  0
ARC
  5
CC
100
AcDbEntity
  8
WHITE
  6
CONTINUOUS
 62
          15
100
AcDbCircle
 10
-5052.360675284116
 20
1729.577434876893
 30
0.0
 40
0.9
100
AcDbArc
 50
353.069999999999
 51
83.07
  0
ARC
  5
CD
100
AcDbEntity
  8
WHITE
  6
CONTINUOUS
 62
          15
100
AcDbCircle
 10
-5054.604888581126
 20
1711.113320853265
 30
0.0
 40
0.9
100
AcDbArc
 50
263.069999999999
 51
353.069999999999
  0
ARC
  5
CE
100
AcDbEntity
  8
WHITE
  6
CONTINUOUS
 62
          15
100
AcDbCircle
 10
-5070.903718211093
 20
1711.281108496762
 30
0.0
 40
0.9
100
AcDbArc
 50
83.07
 51
173.069999999985
  0
ARC
  5
CF
100
AcDbEntity
  8
WHITE
  6
CONTINUOUS
 62
          15
100
AcDbCircle
 10
-5072.690567955316
 20
1711.49829042873
 30
0.0
 40
0.9
100
AcDbArc
 50
263.069999999999
 51
353.069999999985
  0
LINE
  5
D0
100
AcDbEntity
  8
WHITE
  6
CONTINUOUS
 62
          15
100
AcDbLine
 10
-4872.387785977178
 20
1703.114267385171
 30
0.0
 11
-4868.919200592078
 21
1702.244317453487
 31
0.0
  0
LINE
  5
D1
100
AcDbEntity
  8
WHITE
  6
CONTINUOUS
 62
          15
100
AcDbLine
 10
-4872.514088370403
 20
1705.703335030592
 30
0.0
 11
-4872.7624964113
 21
1703.659574574472
 31
0.0
  0
LINE
  5
D2
100
AcDbEntity
  8
WHITE
  6
CONTINUOUS
 62
          15
100
AcDbLine
 10
-4871.650594853436
 20
1709.179457794716
 30
0.0
 11
-4868.074604189977
 21
1709.193177569906
 31
0.0
  0
LINE
  5
D3
100
AcDbEntity
  8
WHITE
  6
CONTINUOUS
 62
          15
100
AcDbLine
 10
-4872.393431741531
 20
1706.696029332937
 30
0.0
 11
-4872.145023700633
 21
1708.739789789056
 31
0.0
  0
LINE
  5
D4
100
AcDbEntity
  8
WHITE
  6
CONTINUOUS
 62
          15
100
AcDbLine
 10
-4870.93936030782
 20
1705.511935342922
 30
0.0
 11
-4872.514088370403
 21
1705.703335030592
 31
0.0
  0
LINE
  5
D5
100
AcDbEntity
  8
WHITE
  6
CONTINUOUS
 62
          15
100
AcDbLine
 10
-4870.879031993383
 20
1706.008282494093
 30
0.0
 11
-4870.93936030782
 21
1705.511935342922
 31
0.0
  0
LINE
  5
D6
100
AcDbEntity
  8
WHITE
  6
CONTINUOUS
 62
          15
100
AcDbLine
 10
-4870.818703678948
 20
1706.504629645267
 30
0.0
 11
-4870.879031993383
 21
1706.008282494093
 31
0.0
  0
LINE
  5
D7
100
AcDbEntity
  8
WHITE
  6
CONTINUOUS
 62
          15
100
AcDbLine
 10
-4872.393431741531
 20
1706.696029332937
 30
0.0
 11
-4870.818703678948
 21
1706.504629645267
 31
0.0
  0
LINE
  5
D8
100
AcDbEntity
  8
WHITE
  6
CONTINUOUS
 62
          15
100
AcDbLine
 10
-4867.833290932234
 20
1711.178566174598
 30
0.0
 11
-4857.410000757605
 21
1709.911671571447
 31
0.0
  0
LINE
  5
D9
100
AcDbEntity
  8
WHITE
  6
CONTINUOUS
 62
          15
100
AcDbLine
 10
-4867.833290932234
 20
1711.178566174598
 30
0.0
 11
-4868.979528906513
 21
1701.747970302314
 31
0.0
  0
LINE
  5
DA
100
AcDbEntity
  8
WHITE
  6
CONTINUOUS
 62
          15
100
AcDbLine
 10
-4861.850164700077
 20
1673.380521245129
 30
0.0
 11
-4853.412263130139
 21
1672.354939899722
 31
0.0
  0
LINE
  5
DB
100
AcDbEntity
  8
WHITE
  6
CONTINUOUS
 62
          15
100
AcDbLine
 10
-4853.412263130139
 20
1672.354939899722
 30
0.0
 11
-4853.351934815703
 21
1672.851287050894
 31
0.0
  0
LINE
  5
DC
100
AcDbEntity
  8
WHITE
  6
CONTINUOUS
 62
          15
100
AcDbLine
 10
-4853.351934815703
 20
1672.851287050894
 30
0.0
 11
-4847.741401573178
 21
1719.011572109963
 31
0.0
  0
LINE
  5
DD
100
AcDbEntity
  8
WHITE
  6
CONTINUOUS
 62
          15
100
AcDbLine
 10
-4846.748707270833
 20
1718.890915481092
 30
0.0
 11
-4846.809035585268
 21
1718.394568329919
 31
0.0
  0
LINE
  5
DE
100
AcDbEntity
  8
WHITE
  6
CONTINUOUS
 62
          15
100
AcDbLine
 10
-4846.809035585268
 20
1718.394568329919
 30
0.0
 11
-4847.801729887614
 21
1718.51522495879
 31
0.0
  0
LINE
  5
DF
100
AcDbEntity
  8
WHITE
  6
CONTINUOUS
 62
          15
100
AcDbLine
 10
-4846.809035585268
 20
1718.394568329919
 30
0.0
 11
-4852.359240513358
 21
1672.730630422023
 31
0.0
  0
LINE
  5
E0
100
AcDbEntity
  8
WHITE
  6
CONTINUOUS
 62
          15
100
AcDbLine
 10
-4852.359240513358
 20
1672.730630422023
 30
0.0
 11
-4853.351934815703
 21
1672.851287050894
 31
0.0
  0
LINE
  5
E1
100
AcDbEntity
  8
WHITE
  6
CONTINUOUS
 62
          15
100
AcDbLine
 10
-4857.906347908778
 20
1709.971999885883
 30
0.0
 11
-4856.675650294289
 21
1720.097481769807
 31
0.0
  0
LINE
  5
E2
100
AcDbEntity
  8
WHITE
  6
CONTINUOUS
 62
          15
100
AcDbLine
 10
-4847.741401573178
 20
1719.011572109963
 30
0.0
 11
-4856.675650294289
 21
1720.097481769807
 31
0.0
  0
LINE
  5
E3
100
AcDbEntity
  8
WHITE
  6
CONTINUOUS
 62
          15
100
AcDbLine
 10
-4857.906347908778
 20
1709.971999885883
 30
0.0
 11
-4857.410000757605
 21
1709.911671571447
 31
0.0
  0
LINE
  5
E4
100
AcDbEntity
  8
WHITE
  6
CONTINUOUS
 62
          15
100
AcDbLine
 10
-4857.410000757605
 20
1709.911671571447
 30
0.0
 11
-4861.850164700077
 21
1673.380521245129
 31
0.0
  0
LINE
  5
E5
100
AcDbEntity
  8
WHITE
  6
CONTINUOUS
 62
          15
100
AcDbLine
 10
-4770.311245990224
 20
1709.600355057987
 30
0.0
 11
-4846.748707270833
 21
1718.890915481092
 31
0.0
  0
LINE
  5
E6
100
AcDbEntity
  8
WHITE
  6
CONTINUOUS
 62
          15
100
AcDbLine
 10
-4775.982107547185
 20
1662.943722847745
 30
0.0
 11
-4770.311245990224
 21
1709.600355057987
 31
0.0
  0
LINE
  5
E7
100
AcDbEntity
  8
WHITE
  6
CONTINUOUS
 62
          15
100
AcDbLine
 10
-4852.419568827793
 20
1672.23428327085
 30
0.0
 11
-4775.982107547185
 21
1662.943722847745
 31
0.0
  0
LINE
  5
E8
100
AcDbEntity
  8
WHITE
  6
CONTINUOUS
 62
          15
100
AcDbLine
 10
-4852.359240513358
 20
1672.730630422023
 30
0.0
 11
-4852.419568827793
 21
1672.23428327085
 31
0.0
  0
LINE
  5
E9
100
AcDbEntity
  8
WHITE
  6
CONTINUOUS
 62
          15
100
AcDbLine
 10
-4874.924696970744
 20
1690.130419928503
 30
0.0
 11
-4874.291249669169
 21
1695.342065015817
 31
0.0
  0
LINE
  5
EA
100
AcDbEntity
  8
WHITE
  6
CONTINUOUS
 62
          15
100
AcDbLine
 10
-4876.161427416677
 20
1679.955303329461
 30
0.0
 11
-4872.42107192166
 21
1710.728826702174
 31
0.0
  0
LINE
  5
EB
100
AcDbEntity
  8
WHITE
  6
CONTINUOUS
 62
          15
100
AcDbLine
 10
-4871.307720990443
 20
1711.600864375648
 30
0.0
 11
-4867.833290932234
 21
1711.178566174598
 31
0.0
  0
LINE
  5
EC
100
AcDbEntity
  8
WHITE
  6
CONTINUOUS
 62
          15
100
AcDbLine
 10
-4875.289389743202
 20
1678.841952398244
 30
0.0
 11
-4861.391669510364
 21
1677.152759594043
 31
0.0
  0
LINE
  5
ED
100
AcDbEntity
  8
WHITE
  6
CONTINUOUS
 62
           1
100
AcDbLine
 10
-4902.076760298047
 20
1673.938200899904
 30
0.0
 11
-4884.208262855826
 21
1671.766381580217
 31
0.0
  0
LINE
  5
EE
100
AcDbEntity
  8
WHITE
  6
CONTINUOUS
 62
           1
100
AcDbLine
 10
-4884.208262855826
 20
1671.766381580217
 30
0.0
 11
-4884.731485459911
 21
1672.434392138946
 31
0.0
  0
LINE
  5
EF
100
AcDbEntity
  8
WHITE
  6
CONTINUOUS
 62
           1
100
AcDbLine
 10
-4884.731485459911
 20
1672.434392138946
 30
0.0
 11
-4884.063474901181
 21
1672.957614743031
 31
0.0
  0
LINE
  5
F0
100
AcDbEntity
  8
WHITE
  6
CONTINUOUS
 62
           1
100
AcDbLine
 10
-4884.063474901181
 20
1672.957614743031
 30
0.0
 11
-4901.931972343401
 21
1675.129434062718
 31
0.0
  0
LINE
  5
F1
100
AcDbEntity
  8
WHITE
  6
CONTINUOUS
 62
           1
100
AcDbLine
 10
-4901.931972343401
 20
1675.129434062718
 30
0.0
 11
-4901.408749739317
 21
1674.461423503988
 31
0.0
  0
LINE
  5
F2
100
AcDbEntity
  8
WHITE
  6
CONTINUOUS
 62
           1
100
AcDbLine
 10
-4901.408749739317
 20
1674.461423503988
 30
0.0
 11
-4902.076760298047
 21
1673.938200899904
 31
0.0
  0
LINE
  5
F3
100
AcDbEntity
  8
WHITE
  6
CONTINUOUS
 62
           1
100
AcDbLine
 10
-4901.408749739317
 20
1674.461423503988
 30
0.0
 11
-4884.731485459911
 21
1672.434392138946
 31
0.0
  0
LINE
  5
F4
100
AcDbEntity
  8
WHITE
  6
CONTINUOUS
 62
           1
100
AcDbLine
 10
-4901.65006299706
 20
1672.476034899296
 30
0.0
 11
-4902.173285601144
 21
1673.144045458027
 31
0.0
  0
LINE
  5
F5
100
AcDbEntity
  8
WHITE
  6
CONTINUOUS
 62
           1
100
AcDbLine
 10
-4902.173285601144
 20
1673.144045458027
 30
0.0
 11
-4884.304788158924
 21
1670.97222613834
 31
0.0
  0
LINE
  5
F6
100
AcDbEntity
  8
WHITE
  6
CONTINUOUS
 62
           1
100
AcDbLine
 10
-4884.304788158924
 20
1670.97222613834
 30
0.0
 11
-4884.972798717654
 21
1670.449003534255
 31
0.0
  0
LINE
  5
F7
100
AcDbEntity
  8
WHITE
  6
CONTINUOUS
 62
           1
100
AcDbLine
 10
-4884.972798717654
 20
1670.449003534255
 30
0.0
 11
-4884.44957611357
 21
1669.780992975526
 31
0.0
  0
LINE
  5
F8
100
AcDbEntity
  8
WHITE
  6
CONTINUOUS
 62
           1
100
AcDbLine
 10
-4884.44957611357
 20
1669.780992975526
 30
0.0
 11
-4902.31807355579
 21
1671.952812295213
 31
0.0
  0
LINE
  5
F9
100
AcDbEntity
  8
WHITE
  6
CONTINUOUS
 62
           1
100
AcDbLine
 10
-4902.31807355579
 20
1671.952812295213
 30
0.0
 11
-4901.65006299706
 21
1672.476034899296
 31
0.0
  0
LINE
  5
FA
100
AcDbEntity
  8
WHITE
  6
CONTINUOUS
 62
           1
100
AcDbLine
 10
-4884.972798717654
 20
1670.449003534255
 30
0.0
 11
-4901.65006299706
 21
1672.476034899296
 31
0.0
  0
LINE
  5
FB
100
AcDbEntity
  8
WHITE
  6
CONTINUOUS
 62
           1
100
AcDbLine
 10
-4901.891376254803
 20
1670.490646294605
 30
0.0
 11
-4902.414598858887
 21
1671.158656853335
 31
0.0
  0
LINE
  5
FC
100
AcDbEntity
  8
WHITE
  6
CONTINUOUS
 62
           1
100
AcDbLine
 10
-4902.414598858887
 20
1671.158656853335
 30
0.0
 11
-4884.546101416667
 21
1668.986837533648
 31
0.0
  0
LINE
  5
FD
100
AcDbEntity
  8
WHITE
  6
CONTINUOUS
 62
           1
100
AcDbLine
 10
-4884.546101416667
 20
1668.986837533648
 30
0.0
 11
-4885.214111975397
 21
1668.463614929564
 31
0.0
  0
LINE
  5
FE
100
AcDbEntity
  8
WHITE
  6
CONTINUOUS
 62
           1
100
AcDbLine
 10
-4885.214111975397
 20
1668.463614929564
 30
0.0
 11
-4884.690889371312
 21
1667.795604370835
 31
0.0
  0
LINE
  5
FF
100
AcDbEntity
  8
WHITE
  6
CONTINUOUS
 62
           1
100
AcDbLine
 10
-4884.690889371312
 20
1667.795604370835
 30
0.0
 11
-4902.559386813532
 21
1669.967423690522
 31
0.0
  0
LINE
  5
100
100
AcDbEntity
  8
WHITE
  6
CONTINUOUS
 62
           1
100
AcDbLine
 10
-4902.559386813532
 20
1669.967423690522
 30
0.0
 11
-4901.891376254803
 21
1670.490646294605
 31
0.0
  0
LINE
  5
101
100
AcDbEntity
  8
WHITE
  6
CONTINUOUS
 62
           1
100
AcDbLine
 10
-4902.132689512546
 20
1668.505257689914
 30
0.0
 11
-4902.65591211663
 21
1669.173268248645
 31
0.0
  0
LINE
  5
102
100
AcDbEntity
  8
WHITE
  6
CONTINUOUS
 62
           1
100
AcDbLine
 10
-4902.65591211663
 20
1669.173268248645
 30
0.0
 11
-4896.607505854774
 21
1668.438117147367
 31
0.0
  0
LINE
  5
103
100
AcDbEntity
  8
WHITE
  6
CONTINUOUS
 62
           1
100
AcDbLine
 10
-4884.78741467441
 20
1667.001448928957
 30
0.0
 11
-4885.45542523314
 21
1666.478226324873
 31
0.0
  0
LINE
  5
104
100
AcDbEntity
  8
WHITE
  6
CONTINUOUS
 62
           1
100
AcDbLine
 10
-4885.45542523314
 20
1666.478226324873
 30
0.0
 11
-4884.932202629055
 21
1665.810215766144
 31
0.0
  0
LINE
  5
105
100
AcDbEntity
  8
WHITE
  6
CONTINUOUS
 62
           1
100
AcDbLine
 10
-4884.932202629055
 20
1665.810215766144
 30
0.0
 11
-4890.980608890911
 21
1666.545366867421
 31
0.0
  0
LINE
  5
106
100
AcDbEntity
  8
WHITE
  6
CONTINUOUS
 62
           1
100
AcDbLine
 10
-4902.800700071275
 20
1667.982035085831
 30
0.0
 11
-4902.132689512546
 21
1668.505257689914
 31
0.0
  0
LINE
  5
107
100
AcDbEntity
  8
WHITE
  6
CONTINUOUS
 62
           1
100
AcDbLine
 10
-4902.374002770288
 20
1666.519869085224
 30
0.0
 11
-4902.897225374373
 21
1667.187879643953
 31
0.0
  0
LINE
  5
108
100
AcDbEntity
  8
WHITE
  6
CONTINUOUS
 62
           1
100
AcDbLine
 10
-4902.897225374373
 20
1667.187879643953
 30
0.0
 11
-4897.589583581602
 21
1666.542764461505
 31
0.0
  0
LINE
  5
109
100
AcDbEntity
  8
WHITE
  6
CONTINUOUS
 62
           1
100
AcDbLine
 10
-4885.028727932153
 20
1665.016060324266
 30
0.0
 11
-4885.696738490883
 21
1664.492837720183
 31
0.0
  0
LINE
  5
10A
100
AcDbEntity
  8
WHITE
  6
CONTINUOUS
 62
           1
100
AcDbLine
 10
-4902.132689512546
 20
1668.505257689914
 30
0.0
 11
-4896.08428325069
 21
1667.770106588637
 31
0.0
  0
LINE
  5
10B
100
AcDbEntity
  8
WHITE
  6
CONTINUOUS
 62
           1
100
AcDbLine
 10
-4901.891376254803
 20
1670.490646294605
 30
0.0
 11
-4885.214111975397
 21
1668.463614929564
 31
0.0
  0
LINE
  5
10C
100
AcDbEntity
  8
WHITE
  6
CONTINUOUS
 62
           1
100
AcDbLine
 10
-4896.75229380942
 20
1667.246883984554
 30
0.0
 11
-4896.08428325069
 21
1667.770106588637
 31
0.0
  0
LINE
  5
10D
100
AcDbEntity
  8
WHITE
  6
CONTINUOUS
 62
           1
100
AcDbLine
 10
-4896.75229380942
 20
1667.246883984554
 30
0.0
 11
-4902.800700071275
 21
1667.982035085831
 31
0.0
  0
LINE
  5
10E
100
AcDbEntity
  8
WHITE
  6
CONTINUOUS
 62
           1
100
AcDbLine
 10
-4896.08428325069
 20
1667.770106588637
 30
0.0
 11
-4896.607505854774
 21
1668.438117147367
 31
0.0
  0
LINE
  5
10F
100
AcDbEntity
  8
WHITE
  6
CONTINUOUS
 62
           1
100
AcDbLine
 10
-4897.589583581602
 20
1666.542764461505
 30
0.0
 11
-4897.066360977517
 21
1665.874753902775
 31
0.0
  0
LINE
  5
110
100
AcDbEntity
  8
WHITE
  6
CONTINUOUS
 62
           1
100
AcDbLine
 10
-4891.004380283654
 20
1665.137952902631
 30
0.0
 11
-4890.336369724923
 21
1665.661175506715
 31
0.0
  0
LINE
  5
111
100
AcDbEntity
  8
WHITE
  6
CONTINUOUS
 62
           1
100
AcDbLine
 10
-4890.336369724923
 20
1665.661175506715
 30
0.0
 11
-4885.028727932153
 21
1665.016060324266
 31
0.0
  0
LINE
  5
112
100
AcDbEntity
  8
WHITE
  6
CONTINUOUS
 62
           1
100
AcDbLine
 10
-4890.980608890911
 20
1666.545366867421
 30
0.0
 11
-4891.503831494996
 21
1667.21337742615
 31
0.0
  0
LINE
  5
113
100
AcDbEntity
  8
WHITE
  6
CONTINUOUS
 62
           1
100
AcDbLine
 10
-4891.503831494996
 20
1667.21337742615
 30
0.0
 11
-4885.45542523314
 21
1666.478226324873
 31
0.0
  0
LINE
  5
114
100
AcDbEntity
  8
WHITE
  6
CONTINUOUS
 62
           1
100
AcDbLine
 10
-4891.503831494996
 20
1667.21337742615
 30
0.0
 11
-4890.835820936266
 21
1667.736600030235
 31
0.0
  0
LINE
  5
115
100
AcDbEntity
  8
WHITE
  6
CONTINUOUS
 62
           1
100
AcDbLine
 10
-4890.835820936266
 20
1667.736600030235
 30
0.0
 11
-4884.78741467441
 21
1667.001448928957
 31
0.0
  0
LINE
  5
116
100
AcDbEntity
  8
WHITE
  6
CONTINUOUS
 62
           1
100
AcDbLine
 10
-4902.65591211663
 20
1669.173268248645
 30
0.0
 11
-4902.800700071275
 21
1667.982035085831
 31
0.0
  0
LINE
  5
117
100
AcDbEntity
  8
WHITE
  6
CONTINUOUS
 62
           1
100
AcDbLine
 10
-4902.559386813532
 20
1669.967423690522
 30
0.0
 11
-4902.414598858887
 21
1671.158656853335
 31
0.0
  0
LINE
  5
118
100
AcDbEntity
  8
WHITE
  6
CONTINUOUS
 62
           1
100
AcDbLine
 10
-4902.31807355579
 20
1671.952812295213
 30
0.0
 11
-4902.173285601144
 21
1673.144045458027
 31
0.0
  0
LINE
  5
119
100
AcDbEntity
  8
WHITE
  6
CONTINUOUS
 62
           1
100
AcDbLine
 10
-4902.076760298047
 20
1673.938200899904
 30
0.0
 11
-4901.931972343401
 21
1675.129434062718
 31
0.0
  0
LINE
  5
11A
100
AcDbEntity
  8
WHITE
  6
CONTINUOUS
 62
           1
100
AcDbLine
 10
-4902.897225374373
 20
1667.187879643953
 30
0.0
 11
-4902.969619351696
 21
1666.592263062547
 31
0.0
  0
LINE
  5
11B
100
AcDbEntity
  8
WHITE
  6
CONTINUOUS
 62
           1
100
AcDbLine
 10
-4885.101121909475
 20
1664.42044374286
 30
0.0
 11
-4885.028727932153
 21
1665.016060324266
 31
0.0
  0
LINE
  5
11C
100
AcDbEntity
  8
WHITE
  6
CONTINUOUS
 62
           1
100
AcDbLine
 10
-4884.932202629055
 20
1665.810215766144
 30
0.0
 11
-4884.78741467441
 21
1667.001448928957
 31
0.0
  0
LINE
  5
11D
100
AcDbEntity
  8
WHITE
  6
CONTINUOUS
 62
           1
100
AcDbLine
 10
-4884.690889371312
 20
1667.795604370835
 30
0.0
 11
-4884.546101416667
 21
1668.986837533648
 31
0.0
  0
LINE
  5
11E
100
AcDbEntity
  8
WHITE
  6
CONTINUOUS
 62
           1
100
AcDbLine
 10
-4884.44957611357
 20
1669.780992975526
 30
0.0
 11
-4884.304788158924
 21
1670.97222613834
 31
0.0
  0
LINE
  5
11F
100
AcDbEntity
  8
WHITE
  6
CONTINUOUS
 62
           1
100
AcDbLine
 10
-4884.208262855826
 20
1671.766381580217
 30
0.0
 11
-4884.063474901181
 21
1672.957614743031
 31
0.0
  0
LINE
  5
120
100
AcDbEntity
  8
WHITE
  6
CONTINUOUS
 62
           1
100
AcDbLine
 10
-4886.13876891777
 20
1655.883272742688
 30
0.0
 11
-4885.993980963124
 21
1657.074505905502
 31
0.0
  0
LINE
  5
121
100
AcDbEntity
  8
WHITE
  6
CONTINUOUS
 62
           1
100
AcDbLine
 10
-4885.897455660027
 20
1657.868661347379
 30
0.0
 11
-4885.752667705381
 21
1659.059894510193
 31
0.0
  0
LINE
  5
122
100
AcDbEntity
  8
WHITE
  6
CONTINUOUS
 62
           1
100
AcDbLine
 10
-4885.656142402284
 20
1659.85404995207
 30
0.0
 11
-4885.511354447638
 21
1661.045283114884
 31
0.0
  0
LINE
  5
123
100
AcDbEntity
  8
WHITE
  6
CONTINUOUS
 62
           1
100
AcDbLine
 10
-4885.414829144541
 20
1661.839438556761
 30
0.0
 11
-4885.270041189895
 21
1663.030671719575
 31
0.0
  0
LINE
  5
124
100
AcDbEntity
  8
WHITE
  6
CONTINUOUS
 62
           1
100
AcDbLine
 10
-4885.173515886798
 20
1663.824827161453
 30
0.0
 11
-4885.101121909475
 21
1664.42044374286
 31
0.0
  0
LINE
  5
125
100
AcDbEntity
  8
WHITE
  6
CONTINUOUS
 62
           1
100
AcDbLine
 10
-4902.969619351696
 20
1666.592263062547
 30
0.0
 11
-4903.042013329018
 21
1665.99664648114
 31
0.0
  0
LINE
  5
126
100
AcDbEntity
  8
WHITE
  6
CONTINUOUS
 62
           1
100
AcDbLine
 10
-4904.00726635999
 20
1658.055092062375
 30
0.0
 11
-4903.862478405345
 21
1659.246325225189
 31
0.0
  0
LINE
  5
127
100
AcDbEntity
  8
WHITE
  6
CONTINUOUS
 62
           1
100
AcDbLine
 10
-4903.765953102247
 20
1660.040480667066
 30
0.0
 11
-4903.621165147602
 21
1661.23171382988
 31
0.0
  0
LINE
  5
128
100
AcDbEntity
  8
WHITE
  6
CONTINUOUS
 62
           1
100
AcDbLine
 10
-4903.524639844504
 20
1662.025869271757
 30
0.0
 11
-4903.379851889858
 21
1663.217102434571
 31
0.0
  0
LINE
  5
129
100
AcDbEntity
  8
WHITE
  6
CONTINUOUS
 62
           1
100
AcDbLine
 10
-4903.138538632115
 20
1665.202491039262
 30
0.0
 11
-4903.283326586761
 21
1664.011257876448
 31
0.0
  0
LINE
  5
12A
100
AcDbEntity
  8
WHITE
  6
CONTINUOUS
 62
           1
100
AcDbLine
 10
-4885.414829144541
 20
1661.839438556761
 30
0.0
 11
-4891.463235406397
 21
1662.574589658038
 31
0.0
  0
LINE
  5
12B
100
AcDbEntity
  8
WHITE
  6
CONTINUOUS
 62
           1
100
AcDbLine
 10
-4891.463235406397
 20
1662.574589658038
 30
0.0
 11
-4891.986458010482
 21
1663.242600216769
 31
0.0
  0
LINE
  5
12C
100
AcDbEntity
  8
WHITE
  6
CONTINUOUS
 62
           1
100
AcDbLine
 10
-4885.938051748626
 20
1662.507449115492
 30
0.0
 11
-4891.986458010482
 21
1663.242600216769
 31
0.0
  0
LINE
  5
12D
100
AcDbEntity
  8
WHITE
  6
CONTINUOUS
 62
           1
100
AcDbLine
 10
-4891.986458010482
 20
1663.242600216769
 30
0.0
 11
-4891.318447451751
 21
1663.765822820852
 31
0.0
  0
LINE
  5
12E
100
AcDbEntity
  8
WHITE
  6
CONTINUOUS
 62
           1
100
AcDbLine
 10
-4885.173515886798
 20
1663.824827161453
 30
0.0
 11
-4890.481157679569
 21
1664.469942343901
 31
0.0
  0
LINE
  5
12F
100
AcDbEntity
  8
WHITE
  6
CONTINUOUS
 62
           1
100
AcDbLine
 10
-4890.481157679569
 20
1664.469942343901
 30
0.0
 11
-4891.004380283654
 21
1665.137952902631
 31
0.0
  0
LINE
  5
130
100
AcDbEntity
  8
WHITE
  6
CONTINUOUS
 62
           1
100
AcDbLine
 10
-4902.374002770288
 20
1666.519869085224
 30
0.0
 11
-4897.066360977517
 21
1665.874753902775
 31
0.0
  0
LINE
  5
131
100
AcDbEntity
  8
WHITE
  6
CONTINUOUS
 62
           1
100
AcDbLine
 10
-4897.066360977517
 20
1665.874753902775
 30
0.0
 11
-4897.734371536248
 21
1665.351531298691
 31
0.0
  0
LINE
  5
132
100
AcDbEntity
  8
WHITE
  6
CONTINUOUS
 62
           1
100
AcDbLine
 10
-4897.234920324906
 20
1663.276106775171
 30
0.0
 11
-4896.566909766175
 21
1663.799329379256
 31
0.0
  0
LINE
  5
133
100
AcDbEntity
  8
WHITE
  6
CONTINUOUS
 62
           1
100
AcDbLine
 10
-4903.138538632115
 20
1665.202491039262
 30
0.0
 11
-4897.09013237026
 21
1664.467339937985
 31
0.0
  0
LINE
  5
134
100
AcDbEntity
  8
WHITE
  6
CONTINUOUS
 62
           1
100
AcDbLine
 10
-4896.566909766175
 20
1663.799329379256
 30
0.0
 11
-4897.09013237026
 21
1664.467339937985
 31
0.0
  0
LINE
  5
135
100
AcDbEntity
  8
WHITE
  6
CONTINUOUS
 62
           1
100
AcDbLine
 10
-4886.179365006369
 20
1660.5220605108
 30
0.0
 11
-4902.856629285774
 21
1662.549091875841
 31
0.0
  0
LINE
  5
136
100
AcDbEntity
  8
WHITE
  6
CONTINUOUS
 62
           1
100
AcDbLine
 10
-4896.566909766175
 20
1663.799329379256
 30
0.0
 11
-4902.615316028031
 21
1664.534480480533
 31
0.0
  0
LINE
  5
137
100
AcDbEntity
  8
WHITE
  6
CONTINUOUS
 62
           1
100
AcDbLine
 10
-4891.004380283654
 20
1665.137952902631
 30
0.0
 11
-4885.696738490883
 21
1664.492837720183
 31
0.0
  0
LINE
  5
138
100
AcDbEntity
  8
WHITE
  6
CONTINUOUS
 62
           1
100
AcDbLine
 10
-4885.696738490883
 20
1664.492837720183
 30
0.0
 11
-4885.173515886798
 21
1663.824827161453
 31
0.0
  0
LINE
  5
139
100
AcDbEntity
  8
WHITE
  6
CONTINUOUS
 62
           1
100
AcDbLine
 10
-4897.734371536248
 20
1665.351531298691
 30
0.0
 11
-4903.042013329018
 21
1665.99664648114
 31
0.0
  0
LINE
  5
13A
100
AcDbEntity
  8
WHITE
  6
CONTINUOUS
 62
           1
100
AcDbLine
 10
-4903.042013329018
 20
1665.99664648114
 30
0.0
 11
-4902.374002770288
 21
1666.519869085224
 31
0.0
  0
LINE
  5
13B
100
AcDbEntity
  8
WHITE
  6
CONTINUOUS
 62
           1
100
AcDbLine
 10
-4902.615316028031
 20
1664.534480480533
 30
0.0
 11
-4903.138538632115
 21
1665.202491039262
 31
0.0
  0
LINE
  5
13C
100
AcDbEntity
  8
WHITE
  6
CONTINUOUS
 62
           1
100
AcDbLine
 10
-4891.318447451751
 20
1663.765822820852
 30
0.0
 11
-4885.270041189895
 21
1663.030671719575
 31
0.0
  0
LINE
  5
13D
100
AcDbEntity
  8
WHITE
  6
CONTINUOUS
 62
           1
100
AcDbLine
 10
-4885.270041189895
 20
1663.030671719575
 30
0.0
 11
-4885.938051748626
 21
1662.507449115492
 31
0.0
  0
LINE
  5
13E
100
AcDbEntity
  8
WHITE
  6
CONTINUOUS
 62
           1
100
AcDbLine
 10
-4885.938051748626
 20
1662.507449115492
 30
0.0
 11
-4885.414829144541
 21
1661.839438556761
 31
0.0
  0
LINE
  5
13F
100
AcDbEntity
  8
WHITE
  6
CONTINUOUS
 62
           1
100
AcDbLine
 10
-4897.234920324906
 20
1663.276106775171
 30
0.0
 11
-4903.283326586761
 21
1664.011257876448
 31
0.0
  0
LINE
  5
140
100
AcDbEntity
  8
WHITE
  6
CONTINUOUS
 62
           1
100
AcDbLine
 10
-4903.283326586761
 20
1664.011257876448
 30
0.0
 11
-4902.615316028031
 21
1664.534480480533
 31
0.0
  0
LINE
  5
141
100
AcDbEntity
  8
WHITE
  6
CONTINUOUS
 62
           1
100
AcDbLine
 10
-4902.856629285774
 20
1662.549091875841
 30
0.0
 11
-4903.379851889858
 21
1663.217102434571
 31
0.0
  0
LINE
  5
142
100
AcDbEntity
  8
WHITE
  6
CONTINUOUS
 62
           1
100
AcDbLine
 10
-4903.379851889858
 20
1663.217102434571
 30
0.0
 11
-4885.511354447638
 21
1661.045283114884
 31
0.0
  0
LINE
  5
143
100
AcDbEntity
  8
WHITE
  6
CONTINUOUS
 62
           1
100
AcDbLine
 10
-4885.511354447638
 20
1661.045283114884
 30
0.0
 11
-4886.179365006369
 21
1660.5220605108
 31
0.0
  0
LINE
  5
144
100
AcDbEntity
  8
WHITE
  6
CONTINUOUS
 62
           1
100
AcDbLine
 10
-4886.179365006369
 20
1660.5220605108
 30
0.0
 11
-4885.656142402284
 21
1659.85404995207
 31
0.0
  0
LINE
  5
145
100
AcDbEntity
  8
WHITE
  6
CONTINUOUS
 62
           1
100
AcDbLine
 10
-4885.656142402284
 20
1659.85404995207
 30
0.0
 11
-4903.524639844504
 21
1662.025869271757
 31
0.0
  0
LINE
  5
146
100
AcDbEntity
  8
WHITE
  6
CONTINUOUS
 62
           1
100
AcDbLine
 10
-4903.524639844504
 20
1662.025869271757
 30
0.0
 11
-4902.856629285774
 21
1662.549091875841
 31
0.0
  0
LINE
  5
147
100
AcDbEntity
  8
WHITE
  6
CONTINUOUS
 62
           1
100
AcDbLine
 10
-4903.097942543517
 20
1660.563703271151
 30
0.0
 11
-4886.420678264112
 21
1658.536671906109
 31
0.0
  0
LINE
  5
148
100
AcDbEntity
  8
WHITE
  6
CONTINUOUS
 62
           1
100
AcDbLine
 10
-4903.097942543517
 20
1660.563703271151
 30
0.0
 11
-4903.621165147602
 21
1661.23171382988
 31
0.0
  0
LINE
  5
149
100
AcDbEntity
  8
WHITE
  6
CONTINUOUS
 62
           1
100
AcDbLine
 10
-4903.621165147602
 20
1661.23171382988
 30
0.0
 11
-4885.752667705381
 21
1659.059894510193
 31
0.0
  0
LINE
  5
14A
100
AcDbEntity
  8
WHITE
  6
CONTINUOUS
 62
           1
100
AcDbLine
 10
-4885.752667705381
 20
1659.059894510193
 30
0.0
 11
-4886.420678264112
 21
1658.536671906109
 31
0.0
  0
LINE
  5
14B
100
AcDbEntity
  8
WHITE
  6
CONTINUOUS
 62
           1
100
AcDbLine
 10
-4886.420678264112
 20
1658.536671906109
 30
0.0
 11
-4885.897455660027
 21
1657.868661347379
 31
0.0
  0
LINE
  5
14C
100
AcDbEntity
  8
WHITE
  6
CONTINUOUS
 62
           1
100
AcDbLine
 10
-4885.897455660027
 20
1657.868661347379
 30
0.0
 11
-4903.765953102247
 21
1660.040480667066
 31
0.0
  0
LINE
  5
14D
100
AcDbEntity
  8
WHITE
  6
CONTINUOUS
 62
           1
100
AcDbLine
 10
-4903.765953102247
 20
1660.040480667066
 30
0.0
 11
-4903.097942543517
 21
1660.563703271151
 31
0.0
  0
LINE
  5
14E
100
AcDbEntity
  8
WHITE
  6
CONTINUOUS
 62
           1
100
AcDbLine
 10
-4886.661991521855
 20
1656.551283301418
 30
0.0
 11
-4903.33925580126
 21
1658.578314666459
 31
0.0
  0
LINE
  5
14F
100
AcDbEntity
  8
WHITE
  6
CONTINUOUS
 62
           1
100
AcDbLine
 10
-4903.862478405345
 20
1659.246325225189
 30
0.0
 11
-4903.33925580126
 21
1658.578314666459
 31
0.0
  0
LINE
  5
150
100
AcDbEntity
  8
WHITE
  6
CONTINUOUS
 62
           1
100
AcDbLine
 10
-4903.33925580126
 20
1658.578314666459
 30
0.0
 11
-4904.00726635999
 21
1658.055092062375
 31
0.0
  0
LINE
  5
151
100
AcDbEntity
  8
WHITE
  6
CONTINUOUS
 62
           1
100
AcDbLine
 10
-4904.00726635999
 20
1658.055092062375
 30
0.0
 11
-4886.13876891777
 21
1655.883272742688
 31
0.0
  0
LINE
  5
152
100
AcDbEntity
  8
WHITE
  6
CONTINUOUS
 62
           1
100
AcDbLine
 10
-4886.13876891777
 20
1655.883272742688
 30
0.0
 11
-4886.661991521855
 21
1656.551283301418
 31
0.0
  0
LINE
  5
153
100
AcDbEntity
  8
WHITE
  6
CONTINUOUS
 62
           1
100
AcDbLine
 10
-4886.661991521855
 20
1656.551283301418
 30
0.0
 11
-4885.993980963124
 21
1657.074505905502
 31
0.0
  0
LINE
  5
154
100
AcDbEntity
  8
WHITE
  6
CONTINUOUS
 62
           1
100
AcDbLine
 10
-4885.993980963124
 20
1657.074505905502
 30
0.0
 11
-4903.862478405345
 21
1659.246325225189
 31
0.0
  0
LINE
  5
155
100
AcDbEntity
  8
WHITE
  6
CONTINUOUS
 62
          15
100
AcDbLine
 10
-4930.191407142755
 20
1656.37389668371
 30
0.0
 11
-4929.282959142547
 21
1657.582517304089
 31
0.0
  0
LINE
  5
156
100
AcDbEntity
  8
WHITE
  6
CONTINUOUS
 62
          15
100
AcDbLine
 10
-4925.069947711265
 20
1657.070448527735
 30
0.0
 11
-4929.282959142547
 21
1657.582517304089
 31
0.0
  0
LINE
  5
157
100
AcDbEntity
  8
WHITE
  6
CONTINUOUS
 62
          15
100
AcDbLine
 10
-4929.282959142547
 20
1657.582517304089
 30
0.0
 11
-4929.717443383467
 21
1660.27340164886
 31
0.0
  0
LINE
  5
158
100
AcDbEntity
  8
WHITE
  6
CONTINUOUS
 62
          15
100
AcDbLine
 10
-4929.234816867981
 20
1664.244178858242
 30
0.0
 11
-4928.168380948012
 21
1666.752634467005
 31
0.0
  0
LINE
  5
159
100
AcDbEntity
  8
WHITE
  6
CONTINUOUS
 62
          15
100
AcDbLine
 10
-4923.955369516729
 20
1666.24056569065
 30
0.0
 11
-4928.168380948012
 21
1666.752634467005
 31
0.0
  0
LINE
  5
15A
100
AcDbEntity
  8
WHITE
  6
CONTINUOUS
 62
          15
100
AcDbLine
 10
-4928.168380948012
 20
1666.752634467005
 30
0.0
 11
-4928.760853108694
 21
1668.143683823391
 31
0.0
  0
LINE
  5
15B
100
AcDbEntity
  8
WHITE
  6
CONTINUOUS
 62
          15
100
AcDbLine
 10
-4929.840248239815
 20
1652.997458722631
 30
0.0
 11
-4930.432720400498
 21
1654.388508079018
 31
0.0
  0
LINE
  5
15C
100
AcDbEntity
  8
WHITE
  6
CONTINUOUS
 62
          15
100
AcDbLine
 10
-4923.398080419461
 20
1670.82562427211
 30
0.0
 11
-4927.611091850744
 21
1671.337693048463
 31
0.0
  0
LINE
  5
15D
100
AcDbEntity
  8
WHITE
  6
CONTINUOUS
 62
          15
100
AcDbLine
 10
-4928.519539850951
 20
1670.129072428082
 30
0.0
 11
-4927.611091850744
 21
1671.337693048463
 31
0.0
  0
LINE
  5
15E
100
AcDbEntity
  8
WHITE
  6
CONTINUOUS
 62
          15
100
AcDbLine
 10
-4925.627236808532
 20
1652.485389946277
 30
0.0
 11
-4925.46924888877
 21
1653.785224934661
 31
0.0
  0
LINE
  5
15F
100
AcDbEntity
  8
WHITE
  6
CONTINUOUS
 62
          15
100
AcDbLine
 10
-4930.191407142755
 20
1656.37389668371
 30
0.0
 11
-4930.432720400498
 21
1654.388508079018
 31
0.0
  0
LINE
  5
160
100
AcDbEntity
  8
WHITE
  6
CONTINUOUS
 62
          15
100
AcDbLine
 10
-4925.46924888877
 20
1653.785224934661
 30
0.0
 11
-4930.432720400498
 21
1654.388508079018
 31
0.0
  0
LINE
  5
161
100
AcDbEntity
  8
WHITE
  6
CONTINUOUS
 62
          15
100
AcDbLine
 10
-4925.46924888877
 20
1653.785224934661
 30
0.0
 11
-4925.227935631027
 21
1655.770613539352
 31
0.0
  0
LINE
  5
162
100
AcDbEntity
  8
WHITE
  6
CONTINUOUS
 62
          15
100
AcDbLine
 10
-4929.717443383467
 20
1660.27340164886
 30
0.0
 11
-4930.191407142755
 21
1656.37389668371
 31
0.0
  0
LINE
  5
163
100
AcDbEntity
  8
WHITE
  6
CONTINUOUS
 62
          15
100
AcDbLine
 10
-4925.227935631027
 20
1655.770613539352
 30
0.0
 11
-4930.191407142755
 21
1656.37389668371
 31
0.0
  0
LINE
  5
164
100
AcDbEntity
  8
WHITE
  6
CONTINUOUS
 62
          15
100
AcDbLine
 10
-4925.227935631027
 20
1655.770613539352
 30
0.0
 11
-4925.069947711265
 21
1657.070448527735
 31
0.0
  0
LINE
  5
165
100
AcDbEntity
  8
WHITE
  6
CONTINUOUS
 62
          15
100
AcDbLine
 10
-4925.069947711265
 20
1657.070448527735
 30
0.0
 11
-4924.75397187174
 21
1659.670118504502
 31
0.0
  0
LINE
  5
166
100
AcDbEntity
  8
WHITE
  6
CONTINUOUS
 62
          15
100
AcDbLine
 10
-4929.234816867981
 20
1664.244178858242
 30
0.0
 11
-4929.717443383467
 21
1660.27340164886
 31
0.0
  0
LINE
  5
167
100
AcDbEntity
  8
WHITE
  6
CONTINUOUS
 62
          15
100
AcDbLine
 10
-4924.75397187174
 20
1659.670118504502
 30
0.0
 11
-4929.717443383467
 21
1660.27340164886
 31
0.0
  0
LINE
  5
168
100
AcDbEntity
  8
WHITE
  6
CONTINUOUS
 62
          15
100
AcDbLine
 10
-4924.75397187174
 20
1659.670118504502
 30
0.0
 11
-4924.271345356254
 21
1663.640895713885
 31
0.0
  0
LINE
  5
169
100
AcDbEntity
  8
WHITE
  6
CONTINUOUS
 62
          15
100
AcDbLine
 10
-4928.760853108694
 20
1668.143683823391
 30
0.0
 11
-4929.234816867981
 21
1664.244178858242
 31
0.0
  0
LINE
  5
16A
100
AcDbEntity
  8
WHITE
  6
CONTINUOUS
 62
          15
100
AcDbLine
 10
-4924.271345356254
 20
1663.640895713885
 30
0.0
 11
-4929.234816867981
 21
1664.244178858242
 31
0.0
  0
LINE
  5
16B
100
AcDbEntity
  8
WHITE
  6
CONTINUOUS
 62
          15
100
AcDbLine
 10
-4924.271345356254
 20
1663.640895713885
 30
0.0
 11
-4923.955369516729
 21
1666.24056569065
 31
0.0
  0
LINE
  5
16C
100
AcDbEntity
  8
WHITE
  6
CONTINUOUS
 62
          15
100
AcDbLine
 10
-4923.955369516729
 20
1666.24056569065
 30
0.0
 11
-4923.797381596966
 21
1667.540400679033
 31
0.0
  0
LINE
  5
16D
100
AcDbEntity
  8
WHITE
  6
CONTINUOUS
 62
          15
100
AcDbLine
 10
-4928.519539850951
 20
1670.129072428082
 30
0.0
 11
-4928.760853108694
 21
1668.143683823391
 31
0.0
  0
LINE
  5
16E
100
AcDbEntity
  8
WHITE
  6
CONTINUOUS
 62
          15
100
AcDbLine
 10
-4923.797381596966
 20
1667.540400679033
 30
0.0
 11
-4928.760853108694
 21
1668.143683823391
 31
0.0
  0
LINE
  5
16F
100
AcDbEntity
  8
WHITE
  6
CONTINUOUS
 62
          15
100
AcDbLine
 10
-4923.797381596966
 20
1667.540400679033
 30
0.0
 11
-4923.556068339224
 21
1669.525789283724
 31
0.0
  0
LINE
  5
170
100
AcDbEntity
  8
WHITE
  6
CONTINUOUS
 62
          15
100
AcDbLine
 10
-4928.519539850951
 20
1670.129072428082
 30
0.0
 11
-4923.556068339224
 21
1669.525789283724
 31
0.0
  0
LINE
  5
171
100
AcDbEntity
  8
WHITE
  6
CONTINUOUS
 62
          15
100
AcDbLine
 10
-4929.840248239815
 20
1652.997458722631
 30
0.0
 11
-4925.627236808532
 21
1652.485389946277
 31
0.0
  0
LINE
  5
172
100
AcDbEntity
  8
WHITE
  6
CONTINUOUS
 62
          15
100
AcDbLine
 10
-4923.556068339224
 20
1669.525789283724
 30
0.0
 11
-4923.398080419461
 21
1670.82562427211
 31
0.0
  0
LINE
  5
173
100
AcDbEntity
  8
WHITE
  6
CONTINUOUS
 62
          15
100
AcDbLine
 10
-4874.291249669169
 20
1695.342065015817
 30
0.0
 11
-4873.657802367593
 21
1700.553710103131
 31
0.0
  0
LINE
  5
174
100
AcDbEntity
  8
WHITE
  6
CONTINUOUS
 62
          15
100
AcDbLine
 10
-4876.202589323737
 20
1692.048619900916
 30
0.0
 11
-4876.624887524788
 21
1688.574189842705
 31
0.0
  0
LINE
  5
175
100
AcDbEntity
  8
WHITE
  6
CONTINUOUS
 62
          15
100
AcDbLine
 10
-4876.624887524788
 20
1688.574189842705
 30
0.0
 11
-4875.874421893478
 21
1688.482974800024
 31
0.0
  0
LINE
  5
176
100
AcDbEntity
  8
WHITE
  6
CONTINUOUS
 62
          15
100
AcDbLine
 10
-4875.357992921637
 20
1698.997480017335
 30
0.0
 11
-4876.202589323737
 21
1692.048619900916
 31
0.0
  0
LINE
  5
177
100
AcDbEntity
  8
WHITE
  6
CONTINUOUS
 62
          15
100
AcDbLine
 10
-4876.202589323737
 20
1692.048619900916
 30
0.0
 11
-4875.452123692427
 21
1691.957404858234
 31
0.0
  0
LINE
  5
178
100
AcDbEntity
  8
WHITE
  6
CONTINUOUS
 62
          15
100
AcDbLine
 10
-4874.935694720586
 20
1702.471910075543
 30
0.0
 11
-4875.357992921637
 21
1698.997480017335
 31
0.0
  0
LINE
  5
179
100
AcDbEntity
  8
WHITE
  6
CONTINUOUS
 62
          15
100
AcDbLine
 10
-4875.357992921637
 20
1698.997480017335
 30
0.0
 11
-4874.607527290327
 21
1698.906264974653
 31
0.0
  0
LINE
  5
17A
100
AcDbEntity
  8
WHITE
  6
CONTINUOUS
 62
          15
100
AcDbLine
 10
-4874.272083261793
 20
1707.931728738445
 30
0.0
 11
-4874.935694720586
 21
1702.471910075543
 31
0.0
  0
LINE
  5
17B
100
AcDbEntity
  8
WHITE
  6
CONTINUOUS
 62
          15
100
AcDbLine
 10
-4874.935694720586
 20
1702.471910075543
 30
0.0
 11
-4874.185229089277
 21
1702.380695032862
 31
0.0
  0
LINE
  5
17C
100
AcDbEntity
  8
WHITE
  6
CONTINUOUS
 62
          15
100
AcDbLine
 10
-4920.026407434878
 20
1667.154384299844
 30
0.0
 11
-4921.474286981335
 21
1655.242052671696
 31
0.0
  0
LINE
  5
17D
100
AcDbEntity
  8
WHITE
  6
CONTINUOUS
 62
           2
100
AcDbLine
 10
-4921.474286981335
 20
1655.242052671696
 30
0.0
 11
-4925.236598387226
 21
1655.699341295119
 31
0.0
  0
LINE
  5
17E
100
AcDbEntity
  8
WHITE
  6
CONTINUOUS
 62
          15
100
AcDbLine
 10
-4919.905750806006
 20
1668.14707860219
 30
0.0
 11
-4920.026407434878
 21
1667.154384299844
 31
0.0
  0
LINE
  5
17F
100
AcDbEntity
  8
WHITE
  6
CONTINUOUS
 62
           2
100
AcDbLine
 10
-4920.026407434878
 20
1667.154384299844
 30
0.0
 11
-4923.788718840768
 21
1667.611672923267
 31
0.0
  0
LINE
  5
180
100
AcDbEntity
  8
WHITE
  6
CONTINUOUS
 62
          15
100
AcDbLine
 10
-4921.474286981335
 20
1655.242052671696
 30
0.0
 11
-4921.594943610207
 21
1654.249358369351
 31
0.0
  0
LINE
  5
181
100
AcDbEntity
  8
WHITE
  6
CONTINUOUS
 62
          15
100
AcDbLine
 10
-4925.357255016097
 20
1654.706646992774
 30
0.0
 11
-4921.594943610207
 21
1654.249358369351
 31
0.0
  0
LINE
  5
182
100
AcDbEntity
  8
WHITE
  6
CONTINUOUS
 62
          15
100
AcDbLine
 10
-4919.84542249157
 20
1668.643425753362
 30
0.0
 11
-4919.905750806006
 21
1668.14707860219
 31
0.0
  0
LINE
  5
183
100
AcDbEntity
  8
WHITE
  6
CONTINUOUS
 62
          15
100
AcDbLine
 10
-4923.668062211897
 20
1668.604367225612
 30
0.0
 11
-4919.905750806006
 21
1668.14707860219
 31
0.0
  0
LINE
  5
184
100
AcDbEntity
  8
WHITE
  6
CONTINUOUS
 62
          15
100
AcDbLine
 10
-4883.376212969903
 20
1649.604078157798
 30
0.0
 11
-4902.273040836585
 21
1651.900885484456
 31
0.0
  0
LINE
  5
185
100
AcDbEntity
  8
WHITE
  6
CONTINUOUS
 62
          15
100
AcDbLine
 10
-4902.273040836585
 20
1651.900885484456
 30
0.0
 11
-4909.923925239804
 21
1650.816090218201
 31
0.0
  0
LINE
  5
186
100
AcDbEntity
  8
WHITE
  6
CONTINUOUS
 62
          15
100
AcDbLine
 10
-4877.891782127938
 20
1678.150899668077
 30
0.0
 11
-4878.388129279111
 21
1678.211227982513
 31
0.0
  0
LINE
  5
187
100
AcDbEntity
  8
WHITE
  6
CONTINUOUS
 62
          15
100
AcDbLine
 10
-4881.706186573077
 20
1650.91213466801
 30
0.0
 11
-4878.388129279111
 21
1678.211227982513
 31
0.0
  0
LINE
  5
188
100
AcDbEntity
  8
WHITE
  6
CONTINUOUS
 62
          15
100
AcDbLine
 10
-4908.193570528542
 20
1652.620493879585
 30
0.0
 11
-4902.273040836585
 21
1651.900885484456
 31
0.0
  0
LINE
  5
189
100
AcDbEntity
  8
WHITE
  6
CONTINUOUS
 62
          15
100
AcDbLine
 10
-4878.388129279111
 20
1678.211227982513
 30
0.0
 11
-4906.183569744787
 21
1681.589613590915
 31
0.0
  0
LINE
  5
18A
100
AcDbEntity
  8
WHITE
  6
CONTINUOUS
 62
          15
100
AcDbLine
 10
-4909.501627038753
 20
1654.290520276412
 30
0.0
 11
-4906.183569744787
 21
1681.589613590915
 31
0.0
  0
LINE
  5
18B
100
AcDbEntity
  8
WHITE
  6
CONTINUOUS
 62
          15
100
AcDbLine
 10
-4920.347215414432
 20
1652.082984821352
 30
0.0
 11
-4909.923925239804
 21
1650.816090218201
 31
0.0
  0
LINE
  5
18C
100
AcDbEntity
  8
WHITE
  6
CONTINUOUS
 62
          15
100
AcDbLine
 10
-4921.594943610207
 20
1654.249358369351
 30
0.0
 11
-4921.655271924643
 21
1653.753011218179
 31
0.0
  0
LINE
  5
18D
100
AcDbEntity
  8
WHITE
  6
CONTINUOUS
 62
          15
100
AcDbLine
 10
-4918.175396094744
 20
1669.951482263573
 30
0.0
 11
-4907.752105920116
 21
1668.684587660423
 31
0.0
  0
LINE
  5
18E
100
AcDbEntity
  8
WHITE
  6
CONTINUOUS
 62
          15
100
AcDbLine
 10
-4877.771125499066
 20
1679.143593970423
 30
0.0
 11
-4877.891782127938
 21
1678.150899668077
 31
0.0
  0
LINE
  5
18F
100
AcDbEntity
  8
WHITE
  6
CONTINUOUS
 62
          15
100
AcDbLine
 10
-4906.183569744787
 20
1681.589613590915
 30
0.0
 11
-4906.67991689596
 21
1681.649941905351
 31
0.0
  0
LINE
  5
190
100
AcDbEntity
  8
WHITE
  6
CONTINUOUS
 62
          15
100
AcDbLine
 10
-4906.67991689596
 20
1681.649941905351
 30
0.0
 11
-4906.559260267089
 21
1682.642636207696
 31
0.0
  0
LINE
  5
191
100
AcDbEntity
  8
WHITE
  6
CONTINUOUS
 62
          15
100
AcDbLine
 10
-4877.771125499066
 20
1679.143593970423
 30
0.0
 11
-4906.559260267089
 21
1682.642636207696
 31
0.0
  0
LINE
  5
192
100
AcDbEntity
  8
WHITE
  6
CONTINUOUS
 62
           7
100
AcDbLine
 10
-4903.415440781439
 20
1708.508199668206
 30
0.0
 11
-4903.482516230865
 21
1707.956340917508
 31
0.0
  0
LINE
  5
193
100
AcDbEntity
  8
WHITE
  6
CONTINUOUS
 62
          15
100
AcDbLine
 10
-4901.258174983584
 20
1710.259487281302
 30
0.0
 11
-4874.272083261793
 21
1707.931728738445
 31
0.0
  0
LINE
  5
194
100
AcDbEntity
  8
WHITE
  6
CONTINUOUS
 62
           7
100
AcDbLine
 10
-4909.833538974615
 20
1697.143639584892
 30
0.0
 11
-4909.77321066018
 21
1697.639986736064
 31
0.0
  0
LINE
  5
195
100
AcDbEntity
  8
WHITE
  6
CONTINUOUS
 62
           1
100
AcDbLine
 10
-4907.303038856913
 20
1697.339750699843
 30
0.0
 11
-4909.77321066018
 21
1697.639986736064
 31
0.0
  0
LINE
  5
196
100
AcDbEntity
  8
WHITE
  6
CONTINUOUS
 62
           7
100
AcDbLine
 10
-4909.77321066018
 20
1697.639986736064
 30
0.0
 11
-4909.290584144694
 21
1701.610763945446
 31
0.0
  0
LINE
  5
197
100
AcDbEntity
  8
WHITE
  6
CONTINUOUS
 62
           1
100
AcDbLine
 10
-4906.820412341427
 20
1701.310527909225
 30
0.0
 11
-4909.290584144694
 21
1701.610763945446
 31
0.0
  0
LINE
  5
198
100
AcDbEntity
  8
WHITE
  6
CONTINUOUS
 62
           7
100
AcDbLine
 10
-4909.893867289051
 20
1696.647292433718
 30
0.0
 11
-4909.833538974615
 21
1697.143639584892
 31
0.0
  0
LINE
  5
199
100
AcDbEntity
  8
WHITE
  6
CONTINUOUS
 62
           1
100
AcDbLine
 10
-4907.363367171349
 20
1696.843403548671
 30
0.0
 11
-4909.833538974615
 21
1697.143639584892
 31
0.0
  0
LINE
  5
19A
100
AcDbEntity
  8
WHITE
  6
CONTINUOUS
 62
           7
100
AcDbLine
 10
-4909.290584144694
 20
1701.610763945446
 30
0.0
 11
-4909.230255830257
 21
1702.10711109662
 31
0.0
  0
LINE
  5
19B
100
AcDbEntity
  8
WHITE
  6
CONTINUOUS
 62
           1
100
AcDbLine
 10
-4906.760084026991
 20
1701.806875060398
 30
0.0
 11
-4909.230255830257
 21
1702.10711109662
 31
0.0
  0
LINE
  5
19C
100
AcDbEntity
  8
WHITE
  6
CONTINUOUS
 62
           7
100
AcDbLine
 10
-4908.177233213476
 20
1702.48280161892
 30
0.0
 11
-4908.901172986705
 21
1696.526635804847
 31
0.0
  0
LINE
  5
19D
100
AcDbEntity
  8
WHITE
  6
CONTINUOUS
 62
           2
100
AcDbLine
 10
-4908.901172986705
 20
1696.526635804847
 30
0.0
 11
-4909.893867289051
 21
1696.647292433718
 31
0.0
  0
LINE
  5
19E
100
AcDbEntity
  8
WHITE
  6
CONTINUOUS
 62
           7
100
AcDbLine
 10
-4908.056576584605
 20
1703.475495921266
 30
0.0
 11
-4908.177233213476
 21
1702.48280161892
 31
0.0
  0
LINE
  5
19F
100
AcDbEntity
  8
WHITE
  6
CONTINUOUS
 62
           2
100
AcDbLine
 10
-4908.177233213476
 20
1702.48280161892
 30
0.0
 11
-4909.169927515822
 21
1702.603458247791
 31
0.0
  0
LINE
  5
1A0
100
AcDbEntity
  8
WHITE
  6
CONTINUOUS
 62
           7
100
AcDbLine
 10
-4908.901172986705
 20
1696.526635804847
 30
0.0
 11
-4909.021829615576
 21
1695.533941502501
 31
0.0
  0
LINE
  5
1A1
100
AcDbEntity
  8
WHITE
  6
CONTINUOUS
 62
           7
100
AcDbLine
 10
-4909.021829615576
 20
1695.533941502501
 30
0.0
 11
-4909.893867289051
 21
1696.647292433718
 31
0.0
  0
LINE
  5
1A2
100
AcDbEntity
  8
WHITE
  6
CONTINUOUS
 62
           7
100
AcDbLine
 10
-4909.230255830257
 20
1702.10711109662
 30
0.0
 11
-4909.169927515822
 21
1702.603458247791
 31
0.0
  0
LINE
  5
1A3
100
AcDbEntity
  8
WHITE
  6
CONTINUOUS
 62
           7
100
AcDbLine
 10
-4907.453293440247
 20
1708.438967432994
 30
0.0
 11
-4908.056576584605
 21
1703.475495921266
 31
0.0
  0
LINE
  5
1A4
100
AcDbEntity
  8
WHITE
  6
CONTINUOUS
 62
           7
100
AcDbLine
 10
-4909.169927515822
 20
1702.603458247791
 30
0.0
 11
-4908.056576584605
 21
1703.475495921266
 31
0.0
  0
LINE
  5
1A5
100
AcDbEntity
  8
WHITE
  6
CONTINUOUS
 62
          15
100
AcDbLine
 10
-4876.624887524788
 20
1688.574189842705
 30
0.0
 11
-4877.771125499066
 21
1679.143593970423
 31
0.0
  0
LINE
  5
1A6
100
AcDbEntity
  8
WHITE
  6
CONTINUOUS
 62
          15
100
AcDbLine
 10
-4906.559260267089
 20
1682.642636207696
 30
0.0
 11
-4905.654335550552
 21
1690.087843475287
 31
0.0
  0
LINE
  5
1A7
100
AcDbEntity
  8
WHITE
  6
CONTINUOUS
 62
           7
100
AcDbLine
 10
-4906.767686481769
 20
1689.215805801813
 30
0.0
 11
-4904.354553904339
 21
1709.069691848725
 31
0.0
  0
LINE
  5
1A8
100
AcDbEntity
  8
WHITE
  6
CONTINUOUS
 62
           7
100
AcDbLine
 10
-4908.75307508646
 20
1689.457119059556
 30
0.0
 11
-4906.33994250903
 21
1709.311005106468
 31
0.0
  0
LINE
  5
1A9
100
AcDbEntity
  8
WHITE
  6
CONTINUOUS
 62
           7
100
AcDbLine
 10
-4908.75307508646
 20
1689.457119059556
 30
0.0
 11
-4909.625112759934
 21
1690.570469990773
 31
0.0
  0
LINE
  5
1AA
100
AcDbEntity
  8
WHITE
  6
CONTINUOUS
 62
           7
100
AcDbLine
 10
-4905.654335550552
 20
1690.087843475287
 30
0.0
 11
-4906.767686481769
 21
1689.215805801813
 31
0.0
  0
LINE
  5
1AB
100
AcDbEntity
  8
WHITE
  6
CONTINUOUS
 62
           7
100
AcDbLine
 10
-4904.354553904339
 20
1709.069691848725
 30
0.0
 11
-4903.482516230865
 21
1707.956340917508
 31
0.0
  0
LINE
  5
1AC
100
AcDbEntity
  8
WHITE
  6
CONTINUOUS
 62
           7
100
AcDbLine
 10
-4906.33994250903
 20
1709.311005106468
 30
0.0
 11
-4907.453293440247
 21
1708.438967432994
 31
0.0
  0
LINE
  5
1AD
100
AcDbEntity
  8
WHITE
  6
CONTINUOUS
 62
           7
100
AcDbLine
 10
-4909.021829615576
 20
1695.533941502501
 30
0.0
 11
-4909.625112759934
 21
1690.570469990773
 31
0.0
  0
LINE
  5
1AE
100
AcDbEntity
  8
WHITE
  6
CONTINUOUS
 62
           7
100
AcDbLine
 10
-4908.75307508646
 20
1689.457119059556
 30
0.0
 11
-4906.767686481769
 21
1689.215805801813
 31
0.0
  0
LINE
  5
1AF
100
AcDbEntity
  8
WHITE
  6
CONTINUOUS
 62
          15
100
AcDbLine
 10
-4905.654335550552
 20
1690.087843475287
 30
0.0
 11
-4903.482516230865
 21
1707.956340917508
 31
0.0
  0
LINE
  5
1B0
100
AcDbEntity
  8
WHITE
  6
CONTINUOUS
 62
           7
100
AcDbLine
 10
-4904.354553904339
 20
1709.069691848725
 30
0.0
 11
-4906.33994250903
 21
1709.311005106468
 31
0.0
  0
LINE
  5
1B1
100
AcDbEntity
  8
WHITE
  6
CONTINUOUS
 62
          15
100
AcDbLine
 10
-4857.906347908778
 20
1709.971999885883
 30
0.0
 11
-4857.410000757605
 21
1709.911671571447
 31
0.0
  0
LINE
  5
1B2
100
AcDbEntity
  8
WHITE
  6
CONTINUOUS
 62
          15
100
AcDbLine
 10
-4873.446653267068
 20
1702.290925132236
 30
0.0
 11
-4868.979528906513
 21
1701.747970302314
 31
0.0
  0
LINE
  5
1B3
100
AcDbEntity
  8
WHITE
  6
CONTINUOUS
 62
           7
100
AcDbLine
 10
-4885.8035993823
 20
1687.769042776786
 30
0.0
 11
-4894.063918406109
 21
1688.7730399232
 31
0.0
  0
LINE
  5
1B4
100
AcDbEntity
  8
WHITE
  6
CONTINUOUS
 62
           7
100
AcDbLine
 10
-4894.063918406109
 20
1688.7730399232
 30
0.0
 11
-4893.235823724701
 21
1695.586133242031
 31
0.0
  0
LINE
  5
1B5
100
AcDbEntity
  8
WHITE
  6
CONTINUOUS
 62
           7
100
AcDbLine
 10
-4893.235823724701
 20
1695.586133242031
 30
0.0
 11
-4884.975504700891
 21
1694.582136095618
 31
0.0
  0
LINE
  5
1B6
100
AcDbEntity
  8
WHITE
  6
CONTINUOUS
 62
           7
100
AcDbLine
 10
-4884.975504700891
 20
1694.582136095618
 30
0.0
 11
-4885.8035993823
 21
1687.769042776786
 31
0.0
  0
ARC
  5
1B7
100
AcDbEntity
  8
WHITE
  6
CONTINUOUS
 62
          15
100
AcDbCircle
 10
-4829.302508029663
 20
1713.244666103195
 30
0.0
 40
2.25
100
AcDbArc
 50
173.07
 51
353.069999999999
  0
ARC
  5
1B8
100
AcDbEntity
  8
WHITE
  6
CONTINUOUS
 62
          15
100
AcDbCircle
 10
-4829.302508029663
 20
1713.244666103195
 30
0.0
 40
2.25
100
AcDbArc
 50
353.069999999999
 51
173.07
  0
ARC
  5
1B9
100
AcDbEntity
  8
WHITE
  6
CONTINUOUS
 62
          15
100
AcDbCircle
 10
-4882.832795503155
 20
1696.380243761525
 30
0.0
 40
8.604407030244
100
AcDbArc
 50
353.069999999999
 51
17.07198532828
  0
ARC
  5
1BA
100
AcDbEntity
  8
WHITE
  6
CONTINUOUS
 62
          15
100
AcDbCircle
 10
-4877.337049362569
 20
1690.423628327665
 30
0.0
 40
2.430106011614
100
AcDbArc
 50
353.069999999999
 51
39.135478142734
  0
ARC
  5
1BB
100
AcDbEntity
  8
WHITE
  6
CONTINUOUS
 62
          15
100
AcDbCircle
 10
-4876.070154759418
 20
1700.846918502293
 30
0.0
 40
2.430106011614
100
AcDbArc
 50
353.069999999999
 51
39.135478142734
  0
ARC
  5
1BC
100
AcDbEntity
  8
WHITE
  6
CONTINUOUS
 62
          15
100
AcDbCircle
 10
-4877.337049362569
 20
1690.423628327665
 30
0.0
 40
2.430106011614
100
AcDbArc
 50
307.004521857251
 51
353.069999999999
  0
ARC
  5
1BD
100
AcDbEntity
  8
WHITE
  6
CONTINUOUS
 62
          15
100
AcDbCircle
 10
-4876.070154759418
 20
1700.846918502293
 30
0.0
 40
2.430106011613
100
AcDbArc
 50
307.004521857281
 51
353.069999999999
  0
ARC
  5
1BE
100
AcDbEntity
  8
WHITE
  6
CONTINUOUS
 62
          15
100
AcDbCircle
 10
-4882.832795503155
 20
1696.380243761525
 30
0.0
 40
8.604407030244
100
AcDbArc
 50
329.068014671731
 51
353.069999999999
  0
CIRCLE
  5
1BF
100
AcDbEntity
  8
WHITE
  6
CONTINUOUS
 62
          15
100
AcDbCircle
 10
-4803.35524981181
 20
1669.796538514356
 30
0.0
 40
2.25
  0
CIRCLE
  5
1C0
100
AcDbEntity
  8
WHITE
  6
CONTINUOUS
 62
          15
100
AcDbCircle
 10
-4824.201830161067
 20
1672.330327720657
 30
0.0
 40
2.25
  0
CIRCLE
  5
1C1
100
AcDbEntity
  8
WHITE
  6
CONTINUOUS
 62
          15
100
AcDbCircle
 10
-4788.602041633494
 20
1708.297744319464
 30
0.0
 40
2.25
  0
ARC
  5
1C2
100
AcDbEntity
  8
WHITE
  6
CONTINUOUS
 62
          15
100
AcDbCircle
 10
-4871.64867654946
 20
1708.67946147462
 30
0.0
 40
0.5
100
AcDbArc
 50
90.219821982564
 51
173.07
  0
ARC
  5
1C3
100
AcDbEntity
  8
WHITE
  6
CONTINUOUS
 62
          15
100
AcDbCircle
 10
-4872.266149260127
 20
1703.599246260036
 30
0.0
 40
0.5
100
AcDbArc
 50
173.07
 51
255.92017801742
  0
ARC
  5
1C4
100
AcDbEntity
  8
WHITE
  6
CONTINUOUS
 62
          15
100
AcDbCircle
 10
-4871.428377619314
 20
1710.608170073303
 30
0.0
 40
1.0
100
AcDbArc
 50
83.07
 51
173.07
  0
ARC
  5
1C5
100
AcDbEntity
  8
WHITE
  6
CONTINUOUS
 62
          15
100
AcDbCircle
 10
-4875.168733114331
 20
1679.83464670059
 30
0.0
 40
1.0
100
AcDbArc
 50
173.07
 51
263.07
  0
ARC
  5
1C6
100
AcDbEntity
  8
WHITE
  6
CONTINUOUS
 62
          15
100
AcDbCircle
 10
-4883.195228026595
 20
1651.093119611317
 30
0.0
 40
1.500000000001
100
AcDbArc
 50
263.07
 51
353.069999999999
  0
ARC
  5
1C7
100
AcDbEntity
  8
WHITE
  6
CONTINUOUS
 62
          15
100
AcDbCircle
 10
-4908.012585585235
 20
1654.109535333104
 30
0.0
 40
1.5
100
AcDbArc
 50
173.07
 51
263.07
  0
ARC
  5
1C8
100
AcDbEntity
  8
WHITE
  6
CONTINUOUS
 62
          15
100
AcDbCircle
 10
-4918.356381038052
 20
1668.462440810055
 30
0.0
 40
1.5
100
AcDbArc
 50
83.07
 51
173.07
  0
ARC
  5
1C9
100
AcDbEntity
  8
WHITE
  6
CONTINUOUS
 62
          15
100
AcDbCircle
 10
-4920.166230471124
 20
1653.572026274871
 30
0.0
 40
1.5
100
AcDbArc
 50
173.07
 51
263.07
  0
ARC
  5
1CA
100
AcDbEntity
  8
WHITE
  6
CONTINUOUS
 62
          15
100
AcDbCircle
 10
-4901.430052176748
 20
1708.266886410463
 30
0.0
 40
2.0
100
AcDbArc
 50
85.07
 51
173.07
  0
TEXT
  5
1CB
100
AcDbEntity
  8
WHITE
  6
CONTINUOUS
 62
           7
100
AcDbText
 10
-4892.555715649387
 20
1690.181571365303
 30
0.0
 40
4.0
  1
14
 50
-6.93
 41
0.955
  7
TXT
100
AcDbText
  0
ENDSEC
  0
SECTION
  2
OBJECTS
  0
DICTIONARY
  5
19
100
AcDbDictionary
  3
ACAD_GROUP
350
1A
  3
ACAD_MLINESTYLE
350
1B
  0
DICTIONARY
  5
1A
102
{ACAD_REACTORS
330
19
102
}
100
AcDbDictionary
  0
DICTIONARY
  5
1B
102
{ACAD_REACTORS
330
19
102
}
100
AcDbDictionary
  3
STANDARD
350
1C
  0
MLINESTYLE
  5
1C
102
{ACAD_REACTORS
330
1B
102
}
100
AcDbMlineStyle
  2
STANDARD
 70
           0
  3

 62
           0
 51
90.0
 52
90.0
 71
           2
 49
0.5
 62
         256
  6
BYLAYER
 49
-0.5
 62
         256
  6
BYLAYER
  0
ENDSEC
  0
EOF
