  0
SECTION
  2
HEADER
  9
$ACADVER
  1
AC1012
  9
$DWGCODEPAGE
  3
dos850
  9
$INSBASE
 10
0.0
 20
0.0
 30
0.0
  9
$EXTMIN
 10
-5132.531408128745
 20
1249.542848022328
 30
0.0
  9
$EXTMAX
 10
-4641.999470128745
 20
1437.042848022328
 30
0.0
  9
$LIMMIN
 10
-5132.531408128745
 20
1249.542848022328
  9
$LIMMAX
 10
-4641.999470128745
 20
1437.042848022328
  9
$ORTHOMODE
 70
           0
  9
$REGENMODE
 70
           1
  9
$FILLMODE
 70
           1
  9
$QTEXTMODE
 70
           0
  9
$MIRRTEXT
 70
           1
  9
$DRAGMODE
 70
           2
  9
$LTSCALE
 40
5.0
  9
$OSMODE
 70
           0
  9
$ATTMODE
 70
           1
  9
$TEXTSIZE
 40
0.2
  9
$TRACEWID
 40
0.05
  9
$TEXTSTYLE
  7
TXT
  9
$CLAYER
  8
0
  9
$CELTYPE
  6
CONTINUOUS
  9
$CECOLOR
 62
         256
  9
$CELTSCALE
 40
1.0
  9
$DELOBJ
 70
           1
  9
$DISPSILH
 70
           0
  9
$DIMSCALE
 40
1.0
  9
$DIMASZ
 40
3.5
  9
$DIMEXO
 40
0.0625
  9
$DIMDLI
 40
0.38
  9
$DIMRND
 40
0.0
  9
$DIMDLE
 40
0.0
  9
$DIMEXE
 40
0.18
  9
$DIMTP
 40
0.0
  9
$DIMTM
 40
0.0
  9
$DIMTXT
 40
3.5
  9
$DIMCEN
 40
0.09
  9
$DIMTSZ
 40
0.0
  9
$DIMTOL
 70
           0
  9
$DIMLIM
 70
           0
  9
$DIMTIH
 70
           1
  9
$DIMTOH
 70
           1
  9
$DIMSE1
 70
           0
  9
$DIMSE2
 70
           0
  9
$DIMTAD
 70
           0
  9
$DIMZIN
 70
           0
  9
$DIMBLK
  1

  9
$DIMASO
 70
           1
  9
$DIMSHO
 70
           1
  9
$DIMPOST
  1

  9
$DIMAPOST
  1

  9
$DIMALT
 70
           0
  9
$DIMALTD
 70
           2
  9
$DIMALTF
 40
25.4
  9
$DIMLFAC
 40
1.0
  9
$DIMTOFL
 70
           0
  9
$DIMTVP
 40
0.0
  9
$DIMTIX
 70
           0
  9
$DIMSOXD
 70
           0
  9
$DIMSAH
 70
           0
  9
$DIMBLK1
  1

  9
$DIMBLK2
  1

  9
$DIMSTYLE
  2
STANDARD
  9
$DIMCLRD
 70
           0
  9
$DIMCLRE
 70
           0
  9
$DIMCLRT
 70
           0
  9
$DIMTFAC
 40
1.0
  9
$DIMGAP
 40
0.09
  9
$DIMJUST
 70
           0
  9
$DIMSD1
 70
           0
  9
$DIMSD2
 70
           0
  9
$DIMTOLJ
 70
           1
  9
$DIMTZIN
 70
           0
  9
$DIMALTZ
 70
           0
  9
$DIMALTTZ
 70
           0
  9
$DIMFIT
 70
           3
  9
$DIMUPT
 70
           0
  9
$DIMUNIT
 70
           2
  9
$DIMDEC
 70
           4
  9
$DIMTDEC
 70
           4
  9
$DIMALTU
 70
           2
  9
$DIMALTTD
 70
           2
  9
$DIMTXSTY
  7
TXT
  9
$DIMAUNIT
 70
           0
  9
$LUNITS
 70
           2
  9
$LUPREC
 70
           2
  9
$SKETCHINC
 40
0.1
  9
$FILLETRAD
 40
0.0
  9
$AUNITS
 70
           0
  9
$AUPREC
 70
           2
  9
$MENU
  1
acad
  9
$ELEVATION
 40
0.0
  9
$PELEVATION
 40
0.0
  9
$THICKNESS
 40
0.0
  9
$LIMCHECK
 70
           0
  9
$BLIPMODE
 70
           1
  9
$CHAMFERA
 40
0.0
  9
$CHAMFERB
 40
0.0
  9
$CHAMFERC
 40
0.0
  9
$CHAMFERD
 40
0.0
  9
$SKPOLY
 70
           0
  9
$TDCREATE
 40
0.000000000
  9
$TDUPDATE
 40
0.000000000
  9
$TDINDWG
 40
0.0000000000
  9
$TDUSRTIMER
 40
0.0000000000
  9
$USRTIMER
 70
           1
  9
$ANGBASE
 50
0.0
  9
$ANGDIR
 70
           0
  9
$PDMODE
 70
           2
  9
$PDSIZE
 40
0.5
  9
$PLINEWID
 40
0.0
  9
$COORDS
 70
           0
  9
$SPLFRAME
 70
           0
  9
$SPLINETYPE
 70
           6
  9
$SPLINESEGS
 70
           8
  9
$ATTDIA
 70
           0
  9
$ATTREQ
 70
           1
  9
$HANDLING
 70
           1
  9
$HANDSEED
  5
21E
  9
$SURFTAB1
 70
           6
  9
$SURFTAB2
 70
           6
  9
$SURFTYPE
 70
           6
  9
$SURFU
 70
           6
  9
$SURFV
 70
           6
  9
$UCSNAME
  2

  9
$UCSORG
 10
0.0
 20
0.0
 30
0.0
  9
$UCSXDIR
 10
1.0
 20
0.0
 30
0.0
  9
$UCSYDIR
 10
0.0
 20
1.0
 30
0.0
  9
$PUCSNAME
  2

  9
$PUCSORG
 10
0.0
 20
0.0
 30
0.0
  9
$PUCSXDIR
 10
1.0
 20
0.0
 30
0.0
  9
$PUCSYDIR
 10
0.0
 20
1.0
 30
0.0
  9
$USERI1
 70
           0
  9
$USERI2
 70
           0
  9
$USERI3
 70
           0
  9
$USERI4
 70
           0
  9
$USERI5
 70
           0
  9
$USERR1
 40
0.0
  9
$USERR2
 40
0.0
  9
$USERR3
 40
0.0
  9
$USERR4
 40
0.0
  9
$USERR5
 40
0.0
  9
$WORLDVIEW
 70
           1
  9
$SHADEDGE
 70
           3
  9
$SHADEDIF
 70
          70
  9
$TILEMODE
 70
           1
  9
$MAXACTVP
 70
          16
  9
$PINSBASE
 10
0.0
 20
0.0
 30
0.0
  9
$PLIMCHECK
 70
           0
  9
$PEXTMIN
 10
1.000000000000E+20
 20
1.000000000000E+20
 30
1.000000000000E+20
  9
$PEXTMAX
 10
-1.000000000000E+20
 20
-1.000000000000E+20
 30
-1.000000000000E+20
  9
$PLIMMIN
 10
0.0
 20
0.0
  9
$PLIMMAX
 10
12.0
 20
9.0
  9
$UNITMODE
 70
           0
  9
$VISRETAIN
 70
           0
  9
$PLINEGEN
 70
           1
  9
$PSLTSCALE
 70
           0
  9
$TREEDEPTH
 70
        3020
  9
$PICKSTYLE
 70
           1
  9
$CMLSTYLE
  2
STANDARD
  9
$CMLJUST
 70
           0
  9
$CMLSCALE
 40
1.0
  9
$SAVEIMAGES
 70
           0
  0
ENDSEC
  0
SECTION
  2
CLASSES
  0
CLASS
  1
LWPOLYLINE
  2
AcDbPolyline
  3
"AutoCAD"
 90
        0
280
           0
281
           1
  0
CLASS
  1
IMAGE
  2
AcDbRasterImage
  3
ISM
 90
      127
280
           0
281
           1
  0
CLASS
  1
OLE2FRAME
  2
AcDbOle2Frame
  3
""
 90
        0
280
           0
281
           1
  0
CLASS
  1
HATCH
  2
AcDbHatch
  3
"ACAD_SEDONA"
 90
        0
280
           0
281
           1
  0
CLASS
  1
DICTIONARYVAR
  2
AcDbDictionaryVar
  3
"AutoCAD"
 90
        0
280
           0
281
           0
  0
CLASS
  1
RASTERVARIABLES
  2
AcDbRasterVariables
  3
ISM
 90
        0
280
           0
281
           0
  0
CLASS
  1
IMAGEDEF
  2
AcDbRasterImageDef
  3
ISM
 90
        0
280
           0
281
           0
  0
CLASS
  1
IMAGEDEF_REACTOR
  2
AcDbRasterImageDefReactor
  3
ISM
 90
        1
280
           0
281
           0
  0
CLASS
  1
IDBUFFER
  2
AcDbIdBuffer
  3
"Acad"
 90
        0
280
           0
281
           0
  0
CLASS
  1
SPATIAL_FILTER
  2
AcDbSpatialFilter
  3
"Acad"
 90
        0
280
           0
281
           0
  0
CLASS
  1
XRECORD
  2
AcDbXrecord
  3
"<Built In>"
 90
        0
280
           0
281
           0
  0
ENDSEC
  0
SECTION
  2
TABLES
  0
TABLE
  2
VPORT
  5
7
100
AcDbSymbolTable
 70
           1
  0
VPORT
  5
15
100
AcDbSymbolTableRecord
100
AcDbViewportTableRecord
  2
*ACTIVE
 70
           0
 10
0.0
 20
0.0
 11
1.0
 21
1.0
 12
6.591288
 22
4.579184
 13
0.0
 23
0.0
 14
1.0
 24
1.0
 15
0.0
 25
0.0
 16
0.0
 26
0.0
 36
1.0
 17
0.0
 27
0.0
 37
0.0
 40
9.158369
 41
0.688564
 42
50.0
 43
0.0
 44
0.0
 50
0.0
 51
0.0
 71
           0
 72
         100
 73
           1
 74
           1
 75
           0
 76
           0
 77
           0
 78
           0
  0
ENDTAB
  0
TABLE
  2
LTYPE
  5
4
100
AcDbSymbolTable
 70
           5
  0
LTYPE
  5
11
100
AcDbSymbolTableRecord
100
AcDbLinetypeTableRecord
  2
BYBLOCK
 70
           0
  3

 72
          65
 73
           0
 40
0.0
  0
LTYPE
  5
12
100
AcDbSymbolTableRecord
100
AcDbLinetypeTableRecord
  2
BYLAYER
 70
           0
  3

 72
          65
 73
           0
 40
0.0
  0
LTYPE
  5
13
100
AcDbSymbolTableRecord
100
AcDbLinetypeTableRecord
  2
CONTINUOUS
 70
           0
  3
Solid line
 72
          65
 73
           0
 40
0.0
  0
LTYPE
  5
1D
100
AcDbSymbolTableRecord
100
AcDbLinetypeTableRecord
  2
GESTRICHELT
 70
           0
  3

 72
          65
 73
           2
 40
0.75
 49
0.5
 74
           0
 49
-0.25
 74
           0
  0
LTYPE
  5
1E
100
AcDbSymbolTableRecord
100
AcDbLinetypeTableRecord
  2
STRICHPUNKT
 70
           0
  3

 72
          65
 73
           4
 40
1.0
 49
0.5
 74
           0
 49
-0.25
 74
           0
 49
0.0
 74
           0
 49
-0.25
 74
           0
  0
ENDTAB
  0
TABLE
  2
LAYER
  5
2
100
AcDbSymbolTable
 70
           4
  0
LAYER
  5
14
100
AcDbSymbolTableRecord
100
AcDbLayerTableRecord
  2
0
 70
           0
 62
           7
  6
CONTINUOUS
  0
LAYER
  5
20
100
AcDbSymbolTableRecord
100
AcDbLayerTableRecord
  2
BLACK
 70
           0
 62
           7
  6
CONTINUOUS
  0
LAYER
  5
21
100
AcDbSymbolTableRecord
100
AcDbLayerTableRecord
  2
WHITE
 70
           0
 62
           7
  6
CONTINUOUS
  0
LAYER
  5
22
100
AcDbSymbolTableRecord
100
AcDbLayerTableRecord
  2
YELLOW
 70
           0
 62
           7
  6
CONTINUOUS
  0
ENDTAB
  0
TABLE
  2
STYLE
  5
3
100
AcDbSymbolTable
 70
           2
  0
STYLE
  5
17
100
AcDbSymbolTableRecord
100
AcDbTextStyleTableRecord
  2
TXT
 70
           0
 40
3.5
 41
1.0
 50
0.0
 71
           0
 42
3.5
  3
TXT
  4

  0
STYLE
  5
1F
100
AcDbSymbolTableRecord
100
AcDbTextStyleTableRecord
  2
GOTHICG
 70
           0
 40
3.5
 41
1.0
 50
0.0
 71
           0
 42
3.5
  3
GOTHICG
  4

  0
ENDTAB
  0
TABLE
  2
VIEW
  5
5
100
AcDbSymbolTable
 70
           0
  0
ENDTAB
  0
TABLE
  2
UCS
  5
6
100
AcDbSymbolTable
 70
           0
  0
ENDTAB
  0
TABLE
  2
APPID
  5
8
100
AcDbSymbolTable
 70
           2
  0
APPID
  5
16
100
AcDbSymbolTableRecord
100
AcDbRegAppTableRecord
  2
ACAD
 70
           0
  0
APPID
  5
23
100
AcDbSymbolTableRecord
100
AcDbRegAppTableRecord
  2
MegaCADPntStyle
 70
           0
  0
ENDTAB
  0
TABLE
  2
DIMSTYLE
  5
9
100
AcDbSymbolTable
 70
           1
  0
DIMSTYLE
105
18
100
AcDbSymbolTableRecord
100
AcDbDimStyleTableRecord
  2
STANDARD
 70
           0
  3

  4

  5

  6

  7

 40
1.0
 41
0.18
 42
0.0625
 43
0.38
 44
0.18
 45
0.0
 46
0.0
 47
0.0
 48
0.0
140
0.18
141
0.09
142
0.0
143
25.4
144
1.0
145
0.0
146
1.0
147
0.09
 71
           0
 72
           0
 73
           1
 74
           1
 75
           0
 76
           0
 77
           0
 78
           0
170
           0
171
           2
172
           0
173
           0
174
           0
175
           0
176
           0
177
           0
178
           0
270
           2
271
           4
272
           4
273
           2
274
           2
340
17
275
           0
280
           0
281
           0
282
           0
283
           1
284
           0
285
           0
286
           0
287
           0
288
           0
  0
ENDTAB
  0
TABLE
  2
BLOCK_RECORD
  5
1
100
AcDbSymbolTable
 70
           3
  0
BLOCK_RECORD
  5
A
100
AcDbSymbolTableRecord
100
AcDbBlockTableRecord
  2
*MODEL_SPACE
  0
BLOCK_RECORD
  5
B
100
AcDbSymbolTableRecord
100
AcDbBlockTableRecord
  2
*PAPER_SPACE
  0
BLOCK_RECORD
  5
24
100
AcDbSymbolTableRecord
100
AcDbBlockTableRecord
  2
ELIPPSE
  0
BLOCK_RECORD
  5
25
100
AcDbSymbolTableRecord
100
AcDbBlockTableRecord
  2
01081201_SNCB-____TOP__1
  0
BLOCK_RECORD
  5
26
100
AcDbSymbolTableRecord
100
AcDbBlockTableRecord
  2
MAK2
  0
ENDTAB
  0
ENDSEC
  0
SECTION
  2
BLOCKS
  0
BLOCK
  5
D
100
AcDbEntity
  8
0
100
AcDbBlockBegin
  2
*MODEL_SPACE
 70
           0
 10
0.0
 20
0.0
 30
0.0
  3
*MODEL_SPACE
  1

  0
ENDBLK
  5
E
100
AcDbEntity
  8
0
100
AcDbBlockEnd
  0
BLOCK
  5
F
100
AcDbEntity
 67
           1
  8
0
100
AcDbBlockBegin
  2
*PAPER_SPACE
 70
           0
 10
0.0
 20
0.0
 30
0.0
  3
*PAPER_SPACE
  1

  0
ENDBLK
  5
10
100
AcDbEntity
 67
           1
  8
0
100
AcDbBlockEnd
  0
BLOCK
  5
1CC
100
AcDbEntity
  8
0
100
AcDbBlockBegin
  2
ELIPPSE
 70
          64
 10
0.0
 20
0.0
 30
0.0
  3
ELIPPSE
  1

  0
CIRCLE
  5
1CD
100
AcDbEntity
  8
0
  6
BYBLOCK
 62
           0
100
AcDbCircle
 10
0.0
 20
0.0
 30
0.0
 40
1.0
  0
ENDBLK
  5
1CE
100
AcDbEntity
  8
0
  6
BYBLOCK
 62
           0
100
AcDbBlockEnd
  0
BLOCK
  5
1CF
100
AcDbEntity
  8
0
100
AcDbBlockBegin
  2
01081201_SNCB-____TOP__1
 70
          64
 10
0.0
 20
0.0
 30
0.0
  3
01081201_SNCB-____TOP__1
  1

  0
LINE
  5
1D0
100
AcDbEntity
  8
BLACK
  6
CONTINUOUS
 62
          15
100
AcDbLine
 10
1258.600515180217
 20
-267.768116173917
 30
0.0
 11
1257.548157960907
 21
-267.786485137506
 31
0.0
  0
LINE
  5
1D1
100
AcDbEntity
  8
BLACK
  6
CONTINUOUS
 62
          15
100
AcDbLine
 10
1259.583062773781
 20
-266.76826847876
 30
0.0
 11
1259.583062773781
 21
-275.754670443263
 31
0.0
  0
LINE
  5
1D2
100
AcDbEntity
  8
BLACK
  6
CONTINUOUS
 62
          15
100
AcDbLine
 10
1259.583062773781
 20
-239.873303524415
 30
0.0
 11
1259.583062773781
 21
-240.056979763094
 31
0.0
  0
LINE
  5
1D3
100
AcDbEntity
  8
BLACK
  6
CONTINUOUS
 62
          15
100
AcDbLine
 10
1257.548157960906
 20
-238.855086865668
 30
0.0
 11
1258.600515180217
 21
-238.873455829258
 31
0.0
  0
LINE
  5
1D4
100
AcDbEntity
  8
WHITE
  6
CONTINUOUS
 62
          15
100
AcDbLine
 10
1259.88306277378
 20
-240.771122605949
 30
0.0
 11
1259.88306277378
 21
-265.870449397227
 31
0.0
  0
LINE
  5
1D5
100
AcDbEntity
  8
WHITE
  6
CONTINUOUS
 62
          15
100
AcDbLine
 10
1275.792491651027
 20
-265.318958343465
 30
0.0
 11
1260.565610367343
 21
-265.584744544926
 31
0.0
  0
LINE
  5
1D6
100
AcDbEntity
  8
WHITE
  6
CONTINUOUS
 62
          15
100
AcDbLine
 10
1275.792491651027
 20
-241.32261365971
 30
0.0
 11
1260.565610367343
 21
-241.056827458249
 31
0.0
  0
LINE
  5
1D7
100
AcDbEntity
  8
BLACK
  6
CONTINUOUS
 62
          15
100
AcDbLine
 10
1259.583062773781
 20
-266.584592240081
 30
0.0
 11
1259.583062773781
 21
-266.76826847876
 31
0.0
  0
LINE
  5
1D8
100
AcDbEntity
  8
WHITE
  6
CONTINUOUS
 62
          15
100
AcDbLine
 10
1255.583062773781
 20
-227.850152157526
 30
0.0
 11
1256.687761263887
 21
-227.888729078857
 31
0.0
  0
LINE
  5
1D9
100
AcDbEntity
  8
BLACK
  6
CONTINUOUS
 62
          15
100
AcDbLine
 10
1259.58306277378
 20
-230.886901559913
 30
0.0
 11
1259.583062773781
 21
-239.873303524415
 31
0.0
  0
LINE
  5
1DA
100
AcDbEntity
  8
WHITE
  6
CONTINUOUS
 62
          15
100
AcDbLine
 10
1256.687761263886
 20
-278.75284292432
 30
0.0
 11
1255.58306277378
 21
-278.791419845651
 31
0.0
  0
LINE
  5
1DB
100
AcDbEntity
  8
BLACK
  6
CONTINUOUS
 62
          15
100
AcDbLine
 10
1253.652861767185
 20
-221.532748053097
 30
0.0
 11
1248.58306277378
 21
-221.355706771079
 31
0.0
  0
LINE
  5
1DC
100
AcDbEntity
  8
BLACK
  6
CONTINUOUS
 62
          15
100
AcDbLine
 10
1253.652861767184
 20
-285.108823950077
 30
0.0
 11
1248.58306277378
 21
-285.285865232095
 31
0.0
  0
LINE
  5
1DD
100
AcDbEntity
  8
WHITE
  6
CONTINUOUS
 62
          15
100
AcDbLine
 10
1255.583062773781
 20
-269.786180527818
 30
0.0
 11
1255.58306277378
 21
-278.791419845651
 31
0.0
  0
LINE
  5
1DE
100
AcDbEntity
  8
WHITE
  6
CONTINUOUS
 62
          15
100
AcDbLine
 10
1255.583062773781
 20
-227.850152157526
 30
0.0
 11
1255.583062773781
 21
-236.855391475356
 31
0.0
  0
LINE
  5
1DF
100
AcDbEntity
  8
WHITE
  6
CONTINUOUS
 62
          15
100
AcDbLine
 10
1255.583062773779
 20
-223.531529707135
 30
0.0
 11
1255.583062773781
 21
-227.850152157526
 31
0.0
  0
LINE
  5
1E0
100
AcDbEntity
  8
WHITE
  6
CONTINUOUS
 62
          15
100
AcDbLine
 10
1255.58306277378
 20
-278.791419845651
 30
0.0
 11
1255.583062773781
 21
-283.110042296039
 31
0.0
  0
LINE
  5
1E1
100
AcDbEntity
  8
WHITE
  6
CONTINUOUS
 62
          15
100
AcDbLine
 10
1248.58306277378
 20
-221.320336260377
 30
0.0
 11
1248.58306277378
 21
-285.320336260378
 31
0.0
  0
ARC
  5
1E2
100
AcDbEntity
  8
WHITE
  6
CONTINUOUS
 62
          15
100
AcDbCircle
 10
1275.58306277378
 20
-253.320786001587
 30
0.0
 40
12.0
100
AcDbArc
 50
271.0
 51
89.000000000001
  0
ARC
  5
1E3
100
AcDbEntity
  8
BLACK
  6
CONTINUOUS
 62
          15
100
AcDbCircle
 10
1260.583062773781
 20
-266.584592240081
 30
0.0
 40
0.999999999999
100
AcDbArc
 50
91.000000000009
 51
134.427004000836
  0
ARC
  5
1E4
100
AcDbEntity
  8
BLACK
  6
CONTINUOUS
 62
          15
100
AcDbCircle
 10
1260.583062773781
 20
-266.584592240081
 30
0.0
 40
1.0
100
AcDbArc
 50
134.42700400083
 51
180.0
  0
ARC
  5
1E5
100
AcDbEntity
  8
BLACK
  6
CONTINUOUS
 62
          15
100
AcDbCircle
 10
1258.583062773781
 20
-266.76826847876
 30
0.0
 40
1.0
100
AcDbArc
 50
270.999999999927
 51
0.0
  0
ARC
  5
1E6
100
AcDbEntity
  8
BLACK
  6
CONTINUOUS
 62
          15
100
AcDbCircle
 10
1257.583062773781
 20
-269.786180527818
 30
0.0
 40
1.999999999999
100
AcDbArc
 50
90.999999999919
 51
180.0
  0
ARC
  5
1E7
100
AcDbEntity
  8
BLACK
  6
CONTINUOUS
 62
          15
100
AcDbCircle
 10
1260.583062773781
 20
-240.056979763093
 30
0.0
 40
1.0
100
AcDbArc
 50
180.0
 51
225.572995999247
  0
ARC
  5
1E8
100
AcDbEntity
  8
BLACK
  6
CONTINUOUS
 62
          15
100
AcDbCircle
 10
1260.583062773781
 20
-240.056979763093
 30
0.0
 40
1.000000000001
100
AcDbArc
 50
225.572995999246
 51
268.999999999992
  0
ARC
  5
1E9
100
AcDbEntity
  8
BLACK
  6
CONTINUOUS
 62
          15
100
AcDbCircle
 10
1257.583062773781
 20
-236.855391475356
 30
0.0
 40
2.0
100
AcDbArc
 50
180.0
 51
269.000000000016
  0
ARC
  5
1EA
100
AcDbEntity
  8
BLACK
  6
CONTINUOUS
 62
          15
100
AcDbCircle
 10
1258.583062773781
 20
-239.873303524415
 30
0.0
 40
1.0
100
AcDbArc
 50
0.0
 51
89.000000000073
  0
ARC
  5
1EB
100
AcDbEntity
  8
BLACK
  6
CONTINUOUS
 62
          15
100
AcDbCircle
 10
1253.58306277378
 20
-283.110042296039
 30
0.0
 40
2.0
100
AcDbArc
 50
271.999999999993
 51
0.0
  0
ARC
  5
1EC
100
AcDbEntity
  8
BLACK
  6
CONTINUOUS
 62
          15
100
AcDbCircle
 10
1256.583062773781
 20
-275.754670443263
 30
0.0
 40
3.0
100
AcDbArc
 50
271.999999999993
 51
0.0
  0
ARC
  5
1ED
100
AcDbEntity
  8
BLACK
  6
CONTINUOUS
 62
          15
100
AcDbCircle
 10
1256.58306277378
 20
-230.886901559913
 30
0.0
 40
3.0
100
AcDbArc
 50
0.0
 51
87.99999999999
  0
ARC
  5
1EE
100
AcDbEntity
  8
BLACK
  6
CONTINUOUS
 62
          15
100
AcDbCircle
 10
1253.583062773779
 20
-223.531529707135
 30
0.0
 40
2.0
100
AcDbArc
 50
0.0
 51
88.000000000006
  0
ENDBLK
  5
1EF
100
AcDbEntity
  8
0
  6
BYBLOCK
 62
           0
100
AcDbBlockEnd
  0
BLOCK
  5
1F0
100
AcDbEntity
  8
0
100
AcDbBlockBegin
  2
MAK2
 70
          64
 10
0.0
 20
0.0
 30
0.0
  3
MAK2
  1

  0
LINE
  5
1F1
100
AcDbEntity
  8
WHITE
  6
CONTINUOUS
 62
           2
100
AcDbLine
 10
-15.50693229743
 20
611.597948837689
 30
0.0
 11
-15.596491646588
 21
611.687508186849
 31
0.0
  0
LINE
  5
1F2
100
AcDbEntity
  8
WHITE
  6
CONTINUOUS
 62
           2
100
AcDbLine
 10
-14.44627212565
 20
611.597948837689
 30
0.0
 11
-15.596491646588
 21
612.748168358629
 31
0.0
  0
LINE
  5
1F3
100
AcDbEntity
  8
WHITE
  6
CONTINUOUS
 62
           2
100
AcDbLine
 10
-13.596491646588
 20
611.808828530409
 30
0.0
 11
-15.596491646588
 21
613.808828530409
 31
0.0
  0
LINE
  5
1F4
100
AcDbEntity
  8
WHITE
  6
CONTINUOUS
 62
           2
100
AcDbLine
 10
-13.596491646588
 20
612.869488702189
 30
0.0
 11
-15.596491646588
 21
614.869488702188
 31
0.0
  0
LINE
  5
1F5
100
AcDbEntity
  8
WHITE
  6
CONTINUOUS
 62
           2
100
AcDbLine
 10
-13.596491646588
 20
613.930148873969
 30
0.0
 11
-15.596491646588
 21
615.930148873968
 31
0.0
  0
LINE
  5
1F6
100
AcDbEntity
  8
WHITE
  6
CONTINUOUS
 62
           2
100
AcDbLine
 10
-13.596491646588
 20
614.990809045748
 30
0.0
 11
-15.596491646587
 21
616.990809045748
 31
0.0
  0
LINE
  5
1F7
100
AcDbEntity
  8
WHITE
  6
CONTINUOUS
 62
           2
100
AcDbLine
 10
-13.596491646588
 20
616.051469217528
 30
0.0
 11
-15.596491646587
 21
618.051469217528
 31
0.0
  0
LINE
  5
1F8
100
AcDbEntity
  8
WHITE
  6
CONTINUOUS
 62
           2
100
AcDbLine
 10
-13.596491646588
 20
617.112129389307
 30
0.0
 11
-15.596491646587
 21
619.112129389308
 31
0.0
  0
LINE
  5
1F9
100
AcDbEntity
  8
WHITE
  6
CONTINUOUS
 62
           2
100
AcDbLine
 10
-13.596491646588
 20
618.172789561087
 30
0.0
 11
-15.596491646587
 21
620.172789561087
 31
0.0
  0
LINE
  5
1FA
100
AcDbEntity
  8
WHITE
  6
CONTINUOUS
 62
           2
100
AcDbLine
 10
-13.596491646588
 20
619.233449732867
 30
0.0
 11
-15.596491646588
 21
621.233449732867
 31
0.0
  0
LINE
  5
1FB
100
AcDbEntity
  8
WHITE
  6
CONTINUOUS
 62
           2
100
AcDbLine
 10
-13.596491646589
 20
620.294109904647
 30
0.0
 11
-15.596491646588
 21
622.294109904647
 31
0.0
  0
LINE
  5
1FC
100
AcDbEntity
  8
WHITE
  6
CONTINUOUS
 62
           2
100
AcDbLine
 10
-13.596491646589
 20
621.354770076427
 30
0.0
 11
-15.596491646588
 21
623.354770076426
 31
0.0
  0
LINE
  5
1FD
100
AcDbEntity
  8
WHITE
  6
CONTINUOUS
 62
           2
100
AcDbLine
 10
-13.596491646589
 20
622.415430248206
 30
0.0
 11
-15.596491646588
 21
624.415430248207
 31
0.0
  0
LINE
  5
1FE
100
AcDbEntity
  8
WHITE
  6
CONTINUOUS
 62
           2
100
AcDbLine
 10
-13.596491646589
 20
623.476090419986
 30
0.0
 11
-15.596491646588
 21
625.476090419986
 31
0.0
  0
LINE
  5
1FF
100
AcDbEntity
  8
WHITE
  6
CONTINUOUS
 62
           2
100
AcDbLine
 10
-13.596491646589
 20
624.536750591766
 30
0.0
 11
-15.596491646588
 21
626.536750591766
 31
0.0
  0
LINE
  5
200
100
AcDbEntity
  8
WHITE
  6
CONTINUOUS
 62
           2
100
AcDbLine
 10
-13.596491646589
 20
625.597410763546
 30
0.0
 11
-15.596491646588
 21
627.597410763546
 31
0.0
  0
LINE
  5
201
100
AcDbEntity
  8
WHITE
  6
CONTINUOUS
 62
           2
100
AcDbLine
 10
-13.596491646588
 20
626.658070935325
 30
0.0
 11
-15.596491646588
 21
628.658070935326
 31
0.0
  0
LINE
  5
202
100
AcDbEntity
  8
WHITE
  6
CONTINUOUS
 62
           2
100
AcDbLine
 10
-13.596491646587
 20
627.718731107105
 30
0.0
 11
-15.596491646588
 21
629.718731107105
 31
0.0
  0
LINE
  5
203
100
AcDbEntity
  8
WHITE
  6
CONTINUOUS
 62
           2
100
AcDbLine
 10
-13.596491646587
 20
628.779391278885
 30
0.0
 11
-15.596491646588
 21
630.779391278885
 31
0.0
  0
LINE
  5
204
100
AcDbEntity
  8
WHITE
  6
CONTINUOUS
 62
           2
100
AcDbLine
 10
-13.596491646587
 20
629.840051450665
 30
0.0
 11
-15.354389033613
 21
631.597948837689
 31
0.0
  0
LINE
  5
205
100
AcDbEntity
  8
WHITE
  6
CONTINUOUS
 62
           2
100
AcDbLine
 10
-13.596491646587
 20
630.900711622445
 30
0.0
 11
-14.293728861832
 21
631.597948837689
 31
0.0
  0
LINE
  5
206
100
AcDbEntity
  8
WHITE
  6
CONTINUOUS
 62
           2
100
AcDbLine
 10
-15.596491646588
 20
631.406213139102
 30
0.0
 11
-15.404755948001
 21
631.597948837689
 31
0.0
  0
LINE
  5
207
100
AcDbEntity
  8
WHITE
  6
CONTINUOUS
 62
           2
100
AcDbLine
 10
-15.596491646588
 20
630.345552967322
 30
0.0
 11
-14.344095776221
 21
631.597948837689
 31
0.0
  0
LINE
  5
208
100
AcDbEntity
  8
WHITE
  6
CONTINUOUS
 62
           2
100
AcDbLine
 10
-15.596491646588
 20
629.284892795542
 30
0.0
 11
-13.596491646588
 21
631.284892795542
 31
0.0
  0
LINE
  5
209
100
AcDbEntity
  8
WHITE
  6
CONTINUOUS
 62
           2
100
AcDbLine
 10
-15.596491646588
 20
628.224232623762
 30
0.0
 11
-13.596491646588
 21
630.224232623762
 31
0.0
  0
LINE
  5
20A
100
AcDbEntity
  8
WHITE
  6
CONTINUOUS
 62
           2
100
AcDbLine
 10
-15.596491646588
 20
627.163572451982
 30
0.0
 11
-13.596491646588
 21
629.163572451982
 31
0.0
  0
LINE
  5
20B
100
AcDbEntity
  8
WHITE
  6
CONTINUOUS
 62
           2
100
AcDbLine
 10
-15.596491646588
 20
626.102912280202
 30
0.0
 11
-13.596491646588
 21
628.102912280203
 31
0.0
  0
LINE
  5
20C
100
AcDbEntity
  8
WHITE
  6
CONTINUOUS
 62
           2
100
AcDbLine
 10
-15.596491646588
 20
625.042252108423
 30
0.0
 11
-13.596491646588
 21
627.042252108423
 31
0.0
  0
LINE
  5
20D
100
AcDbEntity
  8
WHITE
  6
CONTINUOUS
 62
           2
100
AcDbLine
 10
-15.596491646587
 20
623.981591936643
 30
0.0
 11
-13.596491646588
 21
625.981591936643
 31
0.0
  0
LINE
  5
20E
100
AcDbEntity
  8
WHITE
  6
CONTINUOUS
 62
           2
100
AcDbLine
 10
-15.596491646587
 20
622.920931764863
 30
0.0
 11
-13.596491646587
 21
624.920931764863
 31
0.0
  0
LINE
  5
20F
100
AcDbEntity
  8
WHITE
  6
CONTINUOUS
 62
           2
100
AcDbLine
 10
-15.596491646587
 20
621.860271593084
 30
0.0
 11
-13.596491646588
 21
623.860271593083
 31
0.0
  0
LINE
  5
210
100
AcDbEntity
  8
WHITE
  6
CONTINUOUS
 62
           2
100
AcDbLine
 10
-15.596491646587
 20
620.799611421304
 30
0.0
 11
-13.596491646588
 21
622.799611421304
 31
0.0
  0
LINE
  5
211
100
AcDbEntity
  8
WHITE
  6
CONTINUOUS
 62
           2
100
AcDbLine
 10
-15.596491646588
 20
619.738951249524
 30
0.0
 11
-13.596491646588
 21
621.738951249524
 31
0.0
  0
LINE
  5
212
100
AcDbEntity
  8
WHITE
  6
CONTINUOUS
 62
           2
100
AcDbLine
 10
-15.596491646588
 20
618.678291077744
 30
0.0
 11
-13.596491646588
 21
620.678291077744
 31
0.0
  0
LINE
  5
213
100
AcDbEntity
  8
WHITE
  6
CONTINUOUS
 62
           2
100
AcDbLine
 10
-15.596491646588
 20
617.617630905964
 30
0.0
 11
-13.596491646588
 21
619.617630905964
 31
0.0
  0
LINE
  5
214
100
AcDbEntity
  8
WHITE
  6
CONTINUOUS
 62
           2
100
AcDbLine
 10
-15.596491646588
 20
616.556970734185
 30
0.0
 11
-13.596491646588
 21
618.556970734185
 31
0.0
  0
LINE
  5
215
100
AcDbEntity
  8
WHITE
  6
CONTINUOUS
 62
           2
100
AcDbLine
 10
-15.596491646588
 20
615.496310562405
 30
0.0
 11
-13.596491646588
 21
617.496310562405
 31
0.0
  0
LINE
  5
216
100
AcDbEntity
  8
WHITE
  6
CONTINUOUS
 62
           2
100
AcDbLine
 10
-15.596491646589
 20
614.435650390625
 30
0.0
 11
-13.596491646588
 21
616.435650390625
 31
0.0
  0
LINE
  5
217
100
AcDbEntity
  8
WHITE
  6
CONTINUOUS
 62
           2
100
AcDbLine
 10
-15.596491646589
 20
613.374990218845
 30
0.0
 11
-13.596491646588
 21
615.374990218845
 31
0.0
  0
LINE
  5
218
100
AcDbEntity
  8
WHITE
  6
CONTINUOUS
 62
           2
100
AcDbLine
 10
-15.596491646589
 20
612.314330047065
 30
0.0
 11
-13.596491646588
 21
614.314330047065
 31
0.0
  0
LINE
  5
219
100
AcDbEntity
  8
WHITE
  6
CONTINUOUS
 62
           2
100
AcDbLine
 10
-15.252212684185
 20
611.597948837689
 30
0.0
 11
-13.596491646588
 21
613.253669875286
 31
0.0
  0
LINE
  5
21A
100
AcDbEntity
  8
WHITE
  6
CONTINUOUS
 62
           2
100
AcDbLine
 10
-14.191552512406
 20
611.597948837688
 30
0.0
 11
-13.596491646588
 21
612.193009703506
 31
0.0
  0
ENDBLK
  5
21B
100
AcDbEntity
  8
0
  6
BYBLOCK
 62
           0
100
AcDbBlockEnd
  0
ENDSEC
  0
SECTION
  2
ENTITIES
  0
INSERT
  5
27
100
AcDbEntity
  8
0
  6
CONTINUOUS
 62
           7
100
AcDbBlockReference
  2
01081201_SNCB-____TOP__1
 10
-5724.620675631683
 20
1685.330242850207
 30
0.0
 41
0.84375
 42
0.84375
 43
0.84375
 50
353.069999999999
  0
INSERT
  5
28
100
AcDbEntity
  8
0
  6
CONTINUOUS
 62
           7
100
AcDbBlockReference
  2
MAK2
 10
-4962.06387342379
 20
747.937418658419
 30
0.0
 50
353.069999999999
  0
LINE
  5
29
100
AcDbEntity
  8
0
  6
CONTINUOUS
 62
          15
100
AcDbLine
 10
-5125.531408128745
 20
1437.042848022328
 30
0.0
 11
-4964.531408128745
 21
1437.042848022328
 31
0.0
  0
LINE
  5
2A
100
AcDbEntity
  8
0
  6
CONTINUOUS
 62
          15
100
AcDbLine
 10
-4964.531408128745
 20
1303.292848022328
 30
0.0
 11
-4964.531408128745
 21
1249.542848022328
 31
0.0
  0
LINE
  5
2B
100
AcDbEntity
  8
0
  6
GESTRICHELT
 62
          15
100
AcDbLine
 10
-4964.531408128745
 20
1385.692336522772
 30
0.0
 11
-4964.531408128745
 21
1303.292848022328
 31
0.0
  0
LINE
  5
2C
100
AcDbEntity
  8
0
  6
CONTINUOUS
 62
          15
100
AcDbLine
 10
-4964.531408128745
 20
1437.042848022328
 30
0.0
 11
-4964.531408128745
 21
1385.692336522772
 31
0.0
  0
LINE
  5
2D
100
AcDbEntity
  8
0
  6
CONTINUOUS
 62
          15
100
AcDbLine
 10
-4964.531408128745
 20
1249.542848022328
 30
0.0
 11
-5125.531408128745
 21
1249.542848022328
 31
0.0
  0
LINE
  5
2E
100
AcDbEntity
  8
0
  6
CONTINUOUS
 62
          15
100
AcDbLine
 10
-5125.531408128745
 20
1368.292848022328
 30
0.0
 11
-5125.531408128745
 21
1437.042848022328
 31
0.0
  0
LINE
  5
2F
100
AcDbEntity
  8
0
  6
GESTRICHELT
 62
          15
100
AcDbLine
 10
-5125.531408128745
 20
1318.292848022328
 30
0.0
 11
-5125.531408128745
 21
1368.292848022328
 31
0.0
  0
LINE
  5
30
100
AcDbEntity
  8
0
  6
CONTINUOUS
 62
          15
100
AcDbLine
 10
-5125.531408128745
 20
1249.542848022328
 30
0.0
 11
-5125.531408128745
 21
1318.292848022328
 31
0.0
  0
LINE
  5
31
100
AcDbEntity
  8
0
  6
STRICHPUNKT
 62
          15
100
AcDbLine
 10
-5045.031408128745
 20
1437.042848022328
 30
0.0
 11
-5045.031408128745
 21
1249.542848022328
 31
0.0
  0
LINE
  5
32
100
AcDbEntity
  8
0
  6
GESTRICHELT
 62
          15
100
AcDbLine
 10
-5125.531408128745
 20
1343.292848022328
 30
0.0
 11
-4964.531408128745
 21
1343.292848022328
 31
0.0
  0
CIRCLE
  5
33
100
AcDbEntity
  8
0
  6
CONTINUOUS
 62
          15
100
AcDbCircle
 10
-5045.031408128745
 20
1343.292848022328
 30
0.0
 40
7.25
  0
LINE
  5
34
100
AcDbEntity
  8
0
  6
GESTRICHELT
 62
          15
100
AcDbLine
 10
-4957.531408128745
 20
1368.292848022328
 30
0.0
 11
-4957.531408128745
 21
1318.292848022328
 31
0.0
  0
LINE
  5
35
100
AcDbEntity
  8
0
  6
CONTINUOUS
 62
          15
100
AcDbLine
 10
-5132.531408128745
 20
1318.292848022328
 30
0.0
 11
-5132.531408128745
 21
1368.292848022328
 31
0.0
  0
LINE
  5
36
100
AcDbEntity
  8
0
  6
GESTRICHELT
 62
          15
100
AcDbLine
 10
-5082.846749128746
 20
1318.292848022328
 30
0.0
 11
-4957.531408128745
 21
1318.292848022328
 31
0.0
  0
LINE
  5
37
100
AcDbEntity
  8
0
  6
CONTINUOUS
 62
          15
100
AcDbLine
 10
-5132.531408128745
 20
1318.292848022328
 30
0.0
 11
-5082.846749128746
 21
1318.292848022328
 31
0.0
  0
LINE
  5
38
100
AcDbEntity
  8
0
  6
GESTRICHELT
 62
          15
100
AcDbLine
 10
-5094.780145470275
 20
1368.292848022328
 30
0.0
 11
-4957.531408128745
 21
1368.292848022328
 31
0.0
  0
LINE
  5
39
100
AcDbEntity
  8
0
  6
CONTINUOUS
 62
          15
100
AcDbLine
 10
-5132.531408128745
 20
1368.292848022328
 30
0.0
 11
-5094.780145470275
 21
1368.292848022328
 31
0.0
  0
TEXT
  5
3A
100
AcDbEntity
  8
0
  6
CONTINUOUS
 62
          15
100
AcDbText
 10
-5098.739306940565
 20
1270.758375677613
 30
0.0
 40
3.5
  1
160-730
 41
0.900000010218
  7
GOTHICG
100
AcDbText
  0
CIRCLE
  5
3B
100
AcDbEntity
  8
0
  6
GESTRICHELT
 62
          15
100
AcDbCircle
 10
-5045.031408128745
 20
1343.292848022328
 30
0.0
 40
12.5
  0
LINE
  5
3C
100
AcDbEntity
  8
WHITE
  6
CONTINUOUS
 62
          15
100
AcDbLine
 10
-4641.999470128745
 20
1383.292848022328
 30
0.0
 11
-4641.999470128745
 21
1303.292848022328
 31
0.0
  0
LINE
  5
3D
100
AcDbEntity
  8
WHITE
  6
GESTRICHELT
 62
          15
100
AcDbLine
 10
-5082.846749128746
 20
1356.359451680799
 30
0.0
 11
-5082.846749128746
 21
1383.292848022328
 31
0.0
  0
LINE
  5
3E
100
AcDbEntity
  8
WHITE
  6
CONTINUOUS
 62
          15
100
AcDbLine
 10
-5082.846749128746
 20
1303.292848022328
 30
0.0
 11
-5082.846749128746
 21
1356.359451680799
 31
0.0
  0
ARC
  5
3F
100
AcDbEntity
  8
WHITE
  6
GESTRICHELT
 62
          15
100
AcDbCircle
 10
-5045.031408128745
 20
1343.292848022328
 30
0.0
 40
22.5
100
AcDbArc
 50
109.064916387405
 51
186.057558731021
  0
ARC
  5
40
100
AcDbEntity
  8
WHITE
  6
CONTINUOUS
 62
          15
100
AcDbCircle
 10
-5045.031408128745
 20
1343.292848022328
 30
0.0
 40
22.5
100
AcDbArc
 50
186.057558731021
 51
109.064916387405
  0
LINE
  5
41
100
AcDbEntity
  8
YELLOW
  6
CONTINUOUS
 62
          15
100
AcDbLine
 10
-5082.846749128746
 20
1303.292848022328
 30
0.0
 11
-4641.999470128745
 21
1303.292848022328
 31
0.0
  0
LINE
  5
42
100
AcDbEntity
  8
YELLOW
  6
CONTINUOUS
 62
          15
100
AcDbLine
 10
-4791.46210594251
 20
1383.292848022328
 30
0.0
 11
-4641.999470128745
 21
1383.292848022328
 31
0.0
  0
LINE
  5
43
100
AcDbEntity
  8
YELLOW
  6
GESTRICHELT
 62
          15
100
AcDbLine
 10
-4928.253512554024
 20
1383.292848022328
 30
0.0
 11
-4791.46210594251
 21
1383.292848022328
 31
0.0
  0
LINE
  5
44
100
AcDbEntity
  8
YELLOW
  6
CONTINUOUS
 62
          15
100
AcDbLine
 10
-4944.789777807957
 20
1383.292848022328
 30
0.0
 11
-4928.253512554024
 21
1383.292848022328
 31
0.0
  0
LINE
  5
45
100
AcDbEntity
  8
YELLOW
  6
GESTRICHELT
 62
          15
100
AcDbLine
 10
-5082.846749128746
 20
1383.292848022328
 30
0.0
 11
-4944.789777807957
 21
1383.292848022328
 31
0.0
  0
CIRCLE
  5
46
100
AcDbEntity
  8
0
  6
CONTINUOUS
 62
          15
100
AcDbCircle
 10
-4681.999470128745
 20
1343.292848022328
 30
0.0
 40
6.25
  0
LINE
  5
47
100
AcDbEntity
  8
WHITE
  6
CONTINUOUS
 62
          15
100
AcDbLine
 10
-5055.991563237137
 20
1329.50426578919
 30
0.0
 11
-5109.024571826128
 21
1382.537274378181
 31
0.0
  0
ARC
  5
48
100
AcDbEntity
  8
WHITE
  6
CONTINUOUS
 62
          15
100
AcDbCircle
 10
-5098.417970108329
 20
1393.143876095979
 30
0.0
 40
15.0
100
AcDbArc
 50
135.0
 51
225.0
  0
LINE
  5
49
100
AcDbEntity
  8
WHITE
  6
CONTINUOUS
 62
          15
100
AcDbLine
 10
-5109.024571826128
 20
1403.750477813777
 30
0.0
 11
-5105.489037920195
 21
1407.28601171971
 31
0.0
  0
ARC
  5
4A
100
AcDbEntity
  8
WHITE
  6
CONTINUOUS
 62
          15
100
AcDbCircle
 10
-5094.882436202397
 20
1396.679410001912
 30
0.0
 40
15.0
100
AcDbArc
 50
45.0
 51
135.0
  0
LINE
  5
4B
100
AcDbEntity
  8
WHITE
  6
CONTINUOUS
 62
          15
100
AcDbLine
 10
-5081.213750462329
 20
1379.727255519276
 30
0.0
 11
-5080.740300578666
 21
1375.466206566316
 31
0.0
  0
LINE
  5
4C
100
AcDbEntity
  8
WHITE
  6
GESTRICHELT
 62
          15
100
AcDbLine
 10
-5083.936817260614
 20
1404.234856703839
 30
0.0
 11
-5081.213750462329
 21
1379.727255519276
 31
0.0
  0
LINE
  5
4D
100
AcDbEntity
  8
WHITE
  6
CONTINUOUS
 62
          15
100
AcDbLine
 10
-5084.275834484599
 20
1407.28601171971
 30
0.0
 11
-5083.936817260614
 21
1404.234856703839
 31
0.0
  0
LINE
  5
4E
100
AcDbEntity
  8
WHITE
  6
CONTINUOUS
 62
          15
100
AcDbLine
 10
-5080.740300578666
 20
1375.466206566316
 30
0.0
 11
-5034.77835980154
 21
1357.788537036652
 31
0.0
  0
LINE
  5
4F
100
AcDbEntity
  8
WHITE
  6
CONTINUOUS
 62
          15
100
AcDbLine
 10
-5034.77835980154
 20
1357.788537036652
 30
0.0
 11
-5031.242825895608
 21
1354.253003130719
 31
0.0
  0
ARC
  5
50
100
AcDbEntity
  8
WHITE
  6
CONTINUOUS
 62
          15
100
AcDbCircle
 10
-5041.849427613406
 20
1343.646401412921
 30
0.0
 40
15.0
100
AcDbArc
 50
314.999999999999
 51
45.0
  0
LINE
  5
51
100
AcDbEntity
  8
WHITE
  6
CONTINUOUS
 62
          15
100
AcDbLine
 10
-5031.242825895608
 20
1333.039799695123
 30
0.0
 11
-5034.77835980154
 21
1329.50426578919
 31
0.0
  0
ARC
  5
52
100
AcDbEntity
  8
WHITE
  6
CONTINUOUS
 62
          15
100
AcDbCircle
 10
-5045.384961519339
 20
1340.110867506988
 30
0.0
 40
15.0
100
AcDbArc
 50
224.999999999999
 51
314.999999999999
  0
CIRCLE
  5
53
100
AcDbEntity
  8
WHITE
  6
CONTINUOUS
 62
          15
100
AcDbCircle
 10
-5095.23598959299
 20
1393.497429486573
 30
0.0
 40
6.5
  0
LINE
  5
54
100
AcDbEntity
  8
BLACK
  6
GESTRICHELT
 62
          15
100
AcDbLine
 10
-4700.643464209205
 20
1345.55930703018
 30
0.0
 11
-4698.531973203954
 21
1362.931457321227
 31
0.0
  0
LINE
  5
55
100
AcDbEntity
  8
BLACK
  6
GESTRICHELT
 62
          15
100
AcDbLine
 10
-4698.531973203954
 20
1362.931457321227
 30
0.0
 11
-4702.502750413336
 21
1363.414083836713
 31
0.0
  0
LINE
  5
56
100
AcDbEntity
  8
BLACK
  6
CONTINUOUS
 62
          15
100
AcDbLine
 10
-4701.356512439057
 20
1372.844679708996
 30
0.0
 11
-4730.740263788486
 21
1376.416115923593
 31
0.0
  0
LINE
  5
57
100
AcDbEntity
  8
BLACK
  6
CONTINUOUS
 62
          15
100
AcDbLine
 10
-4730.740263788486
 20
1376.416115923593
 30
0.0
 11
-4730.800592102922
 21
1375.91976877242
 31
0.0
  0
LINE
  5
58
100
AcDbEntity
  8
BLACK
  6
CONTINUOUS
 62
          15
100
AcDbLine
 10
-4730.800592102922
 20
1375.91976877242
 30
0.0
 11
-4875.535421384906
 21
1393.511505261884
 31
0.0
  0
LINE
  5
59
100
AcDbEntity
  8
BLACK
  6
CONTINUOUS
 62
          15
100
AcDbLine
 10
-4875.535421384906
 20
1393.511505261884
 30
0.0
 11
-4875.47509307047
 21
1394.007852413057
 31
0.0
  0
LINE
  5
5A
100
AcDbEntity
  8
BLACK
  6
CONTINUOUS
 62
          15
100
AcDbLine
 10
-4875.47509307047
 20
1394.007852413057
 30
0.0
 11
-4904.8588444199
 21
1397.579288627654
 31
0.0
  0
LINE
  5
5B
100
AcDbEntity
  8
BLACK
  6
CONTINUOUS
 62
          15
100
AcDbLine
 10
-4904.8588444199
 20
1397.579288627654
 30
0.0
 11
-4906.005082394179
 21
1388.148692755371
 31
0.0
  0
LINE
  5
5C
100
AcDbEntity
  8
BLACK
  6
CONTINUOUS
 62
          15
100
AcDbLine
 10
-4906.005082394179
 20
1388.148692755371
 30
0.0
 11
-4916.428372568807
 21
1389.415587358521
 31
0.0
  0
LINE
  5
5D
100
AcDbEntity
  8
BLACK
  6
CONTINUOUS
 62
          15
100
AcDbLine
 10
-4916.428372568807
 20
1389.415587358521
 30
0.0
 11
-4916.488700883243
 21
1388.919240207349
 31
0.0
  0
LINE
  5
5E
100
AcDbEntity
  8
BLACK
  6
CONTINUOUS
 62
          15
100
AcDbLine
 10
-4916.488700883243
 20
1388.919240207349
 30
0.0
 11
-4927.408338209044
 21
1390.246463124935
 31
0.0
  0
LINE
  5
5F
100
AcDbEntity
  8
BLACK
  6
CONTINUOUS
 62
          15
100
AcDbLine
 10
-4927.408338209044
 20
1390.246463124935
 30
0.0
 11
-4931.510663590675
 21
1356.494856845186
 31
0.0
  0
LINE
  5
60
100
AcDbEntity
  8
BLACK
  6
CONTINUOUS
 62
          15
100
AcDbLine
 10
-4931.510663590675
 20
1356.494856845186
 30
0.0
 11
-4920.591026264874
 21
1355.167633927599
 31
0.0
  0
LINE
  5
61
100
AcDbEntity
  8
BLACK
  6
CONTINUOUS
 62
          15
100
AcDbLine
 10
-4920.591026264874
 20
1355.167633927599
 30
0.0
 11
-4920.65135457931
 21
1354.671286776426
 31
0.0
  0
LINE
  5
62
100
AcDbEntity
  8
BLACK
  6
CONTINUOUS
 62
          15
100
AcDbLine
 10
-4920.65135457931
 20
1354.671286776426
 30
0.0
 11
-4910.228064404681
 21
1353.404392173276
 31
0.0
  0
LINE
  5
63
100
AcDbEntity
  8
BLACK
  6
CONTINUOUS
 62
          15
100
AcDbLine
 10
-4910.228064404681
 20
1353.404392173276
 30
0.0
 11
-4911.37430237896
 21
1343.973796300993
 31
0.0
  0
LINE
  5
64
100
AcDbEntity
  8
BLACK
  6
GESTRICHELT
 62
          15
100
AcDbLine
 10
-4901.943706506678
 20
1342.827558326713
 30
0.0
 11
-4881.990551029531
 21
1340.402360086396
 31
0.0
  0
LINE
  5
65
100
AcDbEntity
  8
BLACK
  6
CONTINUOUS
 62
          15
100
AcDbLine
 10
-4911.37430237896
 20
1343.973796300993
 30
0.0
 11
-4901.943706506678
 21
1342.827558326713
 31
0.0
  0
LINE
  5
66
100
AcDbEntity
  8
BLACK
  6
GESTRICHELT
 62
          15
100
AcDbLine
 10
-4881.990551029531
 20
1340.402360086396
 30
0.0
 11
-4881.930222715096
 21
1340.898707237569
 31
0.0
  0
LINE
  5
67
100
AcDbEntity
  8
BLACK
  6
CONTINUOUS
 62
          15
100
AcDbLine
 10
-4874.087937726566
 20
1339.945519869484
 30
0.0
 11
-4737.195393433111
 21
1323.306970748105
 31
0.0
  0
LINE
  5
68
100
AcDbEntity
  8
BLACK
  6
GESTRICHELT
 62
          15
100
AcDbLine
 10
-4881.930222715096
 20
1340.898707237569
 30
0.0
 11
-4874.087937726566
 21
1339.945519869484
 31
0.0
  0
LINE
  5
69
100
AcDbEntity
  8
BLACK
  6
CONTINUOUS
 62
          15
100
AcDbLine
 10
-4737.195393433111
 20
1323.306970748105
 30
0.0
 11
-4737.255721747547
 21
1322.810623596932
 31
0.0
  0
LINE
  5
6A
100
AcDbEntity
  8
BLACK
  6
CONTINUOUS
 62
          15
100
AcDbLine
 10
-4737.255721747547
 20
1322.810623596932
 30
0.0
 11
-4707.871970398118
 21
1319.239187382335
 31
0.0
  0
LINE
  5
6B
100
AcDbEntity
  8
BLACK
  6
GESTRICHELT
 62
          15
100
AcDbLine
 10
-4706.725732423838
 20
1328.669783254618
 30
0.0
 11
-4702.754955214457
 21
1328.187156739132
 31
0.0
  0
LINE
  5
6C
100
AcDbEntity
  8
BLACK
  6
GESTRICHELT
 62
          15
100
AcDbLine
 10
-4702.754955214457
 20
1328.187156739132
 30
0.0
 11
-4700.643464209205
 21
1345.55930703018
 31
0.0
  0
LINE
  5
6D
100
AcDbEntity
  8
BLACK
  6
CONTINUOUS
 62
          15
100
AcDbLine
 10
-4730.800592102922
 20
1375.91976877242
 30
0.0
 11
-4737.195393433111
 21
1323.306970748105
 31
0.0
  0
LINE
  5
6E
100
AcDbEntity
  8
BLACK
  6
GESTRICHELT
 62
          15
100
AcDbLine
 10
-4877.646108149022
 20
1376.145971810714
 30
0.0
 11
-4881.930222715096
 21
1340.898707237569
 31
0.0
  0
LINE
  5
6F
100
AcDbEntity
  8
BLACK
  6
CONTINUOUS
 62
          15
100
AcDbLine
 10
-4875.535421384906
 20
1393.511505261884
 30
0.0
 11
-4877.646108149022
 21
1376.145971810714
 31
0.0
  0
LINE
  5
70
100
AcDbEntity
  8
BLACK
  6
CONTINUOUS
 62
          15
100
AcDbLine
 10
-4906.005082394179
 20
1388.148692755371
 30
0.0
 11
-4910.228064404681
 21
1353.404392173276
 31
0.0
  0
LINE
  5
71
100
AcDbEntity
  8
BLACK
  6
CONTINUOUS
 62
          15
100
AcDbLine
 10
-4916.428372568807
 20
1389.415587358521
 30
0.0
 11
-4920.65135457931
 21
1354.671286776426
 31
0.0
  0
LINE
  5
72
100
AcDbEntity
  8
BLACK
  6
GESTRICHELT
 62
          15
100
AcDbLine
 10
-5040.917193027627
 20
1392.961897033546
 30
0.0
 11
-5059.010011045208
 21
1395.160981307153
 31
0.0
  0
LINE
  5
73
100
AcDbEntity
  8
BLACK
  6
CONTINUOUS
 62
          15
100
AcDbLine
 10
-5035.946545779952
 20
1392.357741717256
 30
0.0
 11
-5040.917193027627
 21
1392.961897033546
 31
0.0
  0
LINE
  5
74
100
AcDbEntity
  8
BLACK
  6
GESTRICHELT
 62
          15
100
AcDbLine
 10
-5042.365072574085
 20
1381.049565405399
 30
0.0
 11
-5060.457890591666
 21
1383.248649679006
 31
0.0
  0
LINE
  5
75
100
AcDbEntity
  8
BLACK
  6
CONTINUOUS
 62
          15
100
AcDbLine
 10
-5037.394425326411
 20
1380.445410089109
 30
0.0
 11
-5042.365072574085
 21
1381.049565405399
 31
0.0
  0
LINE
  5
76
100
AcDbEntity
  8
BLACK
  6
GESTRICHELT
 62
          15
100
AcDbLine
 10
-5059.863727332699
 20
1394.492312746076
 30
0.0
 11
-5059.010011045208
 21
1395.160981307153
 31
0.0
  0
LINE
  5
77
100
AcDbEntity
  8
BLACK
  6
GESTRICHELT
 62
          15
100
AcDbLine
 10
-5061.126570286252
 20
1384.10235724612
 30
0.0
 11
-5060.457890591666
 21
1383.248649679006
 31
0.0
  0
LINE
  5
78
100
AcDbEntity
  8
BLACK
  6
GESTRICHELT
 62
          15
100
AcDbLine
 10
-5059.863727332699
 20
1394.492312746076
 30
0.0
 11
-5061.126570286252
 21
1384.10235724612
 31
0.0
  0
LINE
  5
79
100
AcDbEntity
  8
BLACK
  6
CONTINUOUS
 62
          15
100
AcDbLine
 10
-5041.009711324079
 20
1392.200708969451
 30
0.0
 11
-5036.039064076405
 21
1391.59655365316
 31
0.0
  0
LINE
  5
7A
100
AcDbEntity
  8
BLACK
  6
GESTRICHELT
 62
          15
100
AcDbLine
 10
-5059.863727332699
 20
1394.492312746076
 30
0.0
 11
-5041.009711324079
 21
1392.200708969451
 31
0.0
  0
LINE
  5
7B
100
AcDbEntity
  8
BLACK
  6
CONTINUOUS
 62
          15
100
AcDbLine
 10
-5042.272554277633
 20
1381.810753469495
 30
0.0
 11
-5037.301907029959
 21
1381.206598153204
 31
0.0
  0
LINE
  5
7C
100
AcDbEntity
  8
BLACK
  6
GESTRICHELT
 62
          15
100
AcDbLine
 10
-5061.126570286252
 20
1384.10235724612
 30
0.0
 11
-5042.272554277633
 21
1381.810753469495
 31
0.0
  0
LINE
  5
7D
100
AcDbEntity
  8
BLACK
  6
GESTRICHELT
 62
          15
100
AcDbLine
 10
-5059.010011045208
 20
1395.160981307153
 30
0.0
 11
-5060.457890591666
 21
1383.248649679006
 31
0.0
  0
LINE
  5
7E
100
AcDbEntity
  8
BLACK
  6
CONTINUOUS
 62
          15
100
AcDbLine
 10
-4928.494247868887
 20
1381.312214403825
 30
0.0
 11
-5035.705232522209
 21
1394.343130321946
 31
0.0
  0
LINE
  5
7F
100
AcDbEntity
  8
BLACK
  6
CONTINUOUS
 62
          15
100
AcDbLine
 10
-5035.705232522209
 20
1394.343130321946
 30
0.0
 11
-5037.635738584154
 21
1378.460021484417
 31
0.0
  0
LINE
  5
80
100
AcDbEntity
  8
BLACK
  6
CONTINUOUS
 62
          15
100
AcDbLine
 10
-5037.635738584154
 20
1378.460021484417
 30
0.0
 11
-4930.424753930832
 21
1365.429105566296
 31
0.0
  0
LINE
  5
81
100
AcDbEntity
  8
BLACK
  6
CONTINUOUS
 62
          15
100
AcDbLine
 10
-5036.10778043968
 20
1391.031194394088
 30
0.0
 11
-5030.813414136152
 21
1390.387692775629
 31
0.0
  0
LINE
  5
82
100
AcDbEntity
  8
BLACK
  6
CONTINUOUS
 62
          15
100
AcDbLine
 10
-5037.233190666683
 20
1381.771957412276
 30
0.0
 11
-5031.938824363155
 21
1381.128455793817
 31
0.0
  0
LINE
  5
83
100
AcDbEntity
  8
BLACK
  6
CONTINUOUS
 62
          15
100
AcDbLine
 10
-5030.813414136152
 20
1390.387692775629
 30
0.0
 11
-5031.938824363155
 21
1381.128455793817
 31
0.0
  0
LINE
  5
84
100
AcDbEntity
  8
BLACK
  6
CONTINUOUS
 62
          15
100
AcDbLine
 10
-5036.10778043968
 20
1391.031194394088
 30
0.0
 11
-5031.938824363155
 21
1381.128455793817
 31
0.0
  0
LINE
  5
85
100
AcDbEntity
  8
BLACK
  6
CONTINUOUS
 62
          15
100
AcDbLine
 10
-5030.813414136152
 20
1390.387692775629
 30
0.0
 11
-5037.233190666683
 21
1381.771957412276
 31
0.0
  0
CIRCLE
  5
86
100
AcDbEntity
  8
BLACK
  6
GESTRICHELT
 62
          15
100
AcDbCircle
 10
-4894.942792939821
 20
1363.131183846049
 30
0.0
 40
5.7225
  0
ARC
  5
87
100
AcDbEntity
  8
BLACK
  6
GESTRICHELT
 62
          15
100
AcDbCircle
 10
-4894.942792939821
 20
1363.131183846049
 30
0.0
 40
6.5785
100
AcDbArc
 50
103.07
 51
13.07
  0
CIRCLE
  5
88
100
AcDbEntity
  8
BLACK
  6
CONTINUOUS
 62
          15
100
AcDbCircle
 10
-4717.788021878196
 20
1353.68729216394
 30
0.0
 40
5.7225
  0
ARC
  5
89
100
AcDbEntity
  8
BLACK
  6
CONTINUOUS
 62
          15
100
AcDbCircle
 10
-4717.788021878196
 20
1353.68729216394
 30
0.0
 40
6.57849
100
AcDbArc
 50
103.07
 51
13.07
  0
LINE
  5
8A
100
AcDbEntity
  8
BLACK
  6
GESTRICHELT
 62
          15
100
AcDbLine
 10
-4888.089039103785
 20
1377.046755147295
 30
0.0
 11
-4893.199965628623
 21
1373.043567052717
 31
0.0
  0
LINE
  5
8B
100
AcDbEntity
  8
BLACK
  6
CONTINUOUS
 62
          15
100
AcDbLine
 10
-4885.389134802744
 20
1379.161484189457
 30
0.0
 11
-4888.089039103785
 21
1377.046755147295
 31
0.0
  0
LINE
  5
8C
100
AcDbEntity
  8
BLACK
  6
GESTRICHELT
 62
          15
100
AcDbLine
 10
-4889.914972601261
 20
1377.204255994074
 30
0.0
 11
-4893.970661665342
 21
1374.027635948214
 31
0.0
  0
LINE
  5
8D
100
AcDbEntity
  8
BLACK
  6
CONTINUOUS
 62
          15
100
AcDbLine
 10
-4886.159841698561
 20
1380.145463742466
 30
0.0
 11
-4889.914972601261
 21
1377.204255994074
 31
0.0
  0
ARC
  5
8E
100
AcDbEntity
  8
BLACK
  6
GESTRICHELT
 62
          15
100
AcDbCircle
 10
-4889.679900647176
 20
1376.594540214949
 30
0.0
 40
5.0
100
AcDbArc
 50
168.324946168168
 51
1.815053831834
  0
ARC
  5
8F
100
AcDbEntity
  8
BLACK
  6
CONTINUOUS
 62
          15
100
AcDbCircle
 10
-4889.679900647176
 20
1376.594540214949
 30
0.0
 40
5.0
100
AcDbArc
 50
1.815053831834
 51
168.324946168168
  0
LINE
  5
90
100
AcDbEntity
  8
BLACK
  6
CONTINUOUS
 62
          15
100
AcDbLine
 10
-4718.759855344385
 20
1342.790803864787
 30
0.0
 11
-4726.571072388887
 21
1336.673024333185
 31
0.0
  0
LINE
  5
91
100
AcDbEntity
  8
BLACK
  6
CONTINUOUS
 62
          15
100
AcDbLine
 10
-4719.530749919964
 20
1343.774896891609
 30
0.0
 11
-4727.341977823564
 21
1337.657028017521
 31
0.0
  0
CIRCLE
  5
92
100
AcDbEntity
  8
BLACK
  6
CONTINUOUS
 62
          15
100
AcDbCircle
 10
-4723.050914170841
 20
1340.223935795039
 30
0.0
 40
5.0
  0
LINE
  5
93
100
AcDbEntity
  8
BLACK
  6
CONTINUOUS
 62
          15
100
AcDbLine
 10
-5040.704561236734
 20
1397.942629322668
 30
0.0
 11
-5043.291641711962
 21
1398.257074976303
 31
0.0
  0
LINE
  5
94
100
AcDbEntity
  8
BLACK
  6
CONTINUOUS
 62
          15
100
AcDbLine
 10
-5045.878702333305
 20
1398.571518216805
 30
0.0
 11
-5043.291641711962
 21
1398.257074976303
 31
0.0
  0
LINE
  5
95
100
AcDbEntity
  8
BLACK
  6
CONTINUOUS
 62
          15
100
AcDbLine
 10
-5048.525908770745
 20
1376.791805223343
 30
0.0
 11
-5045.938848149403
 21
1376.477361982841
 31
0.0
  0
LINE
  5
96
100
AcDbEntity
  8
BLACK
  6
CONTINUOUS
 62
          15
100
AcDbLine
 10
-5043.351767674174
 20
1376.162916329206
 30
0.0
 11
-5045.938848149403
 21
1376.477361982841
 31
0.0
  0
LINE
  5
97
100
AcDbEntity
  8
BLACK
  6
CONTINUOUS
 62
          15
100
AcDbLine
 10
-5041.36636405266
 20
1392.49769114736
 30
0.0
 11
-5043.953444527889
 21
1392.812136800994
 31
0.0
  0
LINE
  5
98
100
AcDbEntity
  8
BLACK
  6
CONTINUOUS
 62
          15
100
AcDbLine
 10
-5046.540505149232
 20
1393.126580041496
 30
0.0
 11
-5043.953444527889
 21
1392.812136800994
 31
0.0
  0
LINE
  5
99
100
AcDbEntity
  8
BLACK
  6
CONTINUOUS
 62
          15
100
AcDbLine
 10
-5047.864105954819
 20
1382.236743398652
 30
0.0
 11
-5045.277045333477
 21
1381.92230015815
 31
0.0
  0
LINE
  5
9A
100
AcDbEntity
  8
BLACK
  6
CONTINUOUS
 62
          15
100
AcDbLine
 10
-5042.689964858248
 20
1381.607854504515
 30
0.0
 11
-5045.277045333477
 21
1381.92230015815
 31
0.0
  0
ARC
  5
9B
100
AcDbEntity
  8
BLACK
  6
CONTINUOUS
 62
          15
100
AcDbCircle
 10
-5080.135435379508
 20
1391.684505711203
 30
0.0
 40
38.777600000016
100
AcDbArc
 50
353.929436999998
 51
1.201609999996
  0
ARC
  5
9C
100
AcDbEntity
  8
BLACK
  6
CONTINUOUS
 62
          15
100
AcDbCircle
 10
-5009.095054481874
 20
1383.049931247941
 30
0.0
 40
38.7776
100
AcDbArc
 50
164.937999999996
 51
172.210999999996
  0
ARC
  5
9D
100
AcDbEntity
  8
BLACK
  6
CONTINUOUS
 62
          15
100
AcDbCircle
 10
-5009.095054481873
 20
1383.049931247946
 30
0.0
 40
38.7776
100
AcDbArc
 50
173.929000000003
 51
181.202000000003
  0
ARC
  5
9E
100
AcDbEntity
  8
BLACK
  6
CONTINUOUS
 62
          15
100
AcDbCircle
 10
-5080.135435379508
 20
1391.684505711202
 30
0.0
 40
38.777600000016
100
AcDbArc
 50
344.938390000003
 51
352.210563
  0
LINE
  5
9F
100
AcDbEntity
  8
BLACK
  6
CONTINUOUS
 62
          15
100
AcDbLine
 10
-5041.575281985084
 20
1387.58364998178
 30
0.0
 11
-5041.641132800856
 21
1387.005731219473
 31
0.0
  0
LINE
  5
A0
100
AcDbEntity
  8
BLACK
  6
CONTINUOUS
 62
          15
100
AcDbLine
 10
-5047.514810242649
 20
1388.305567549909
 30
0.0
 11
-5047.58935706051
 21
1387.728705739671
 31
0.0
  0
LINE
  5
A1
100
AcDbEntity
  8
BLACK
  6
CONTINUOUS
 62
          15
100
AcDbLine
 10
-5047.65516816851
 20
1387.150782151099
 30
0.0
 11
-5047.58935706051
 21
1387.728705739671
 31
0.0
  0
LINE
  5
A2
100
AcDbEntity
  8
BLACK
  6
CONTINUOUS
 62
          15
100
AcDbLine
 10
-5041.715639910944
 20
1386.42886458297
 30
0.0
 11
-5041.641132800856
 21
1387.005731219473
 31
0.0
  0
ARC
  5
A3
100
AcDbEntity
  8
BLACK
  6
CONTINUOUS
 62
          15
100
AcDbCircle
 10
-5050.708893207094
 20
1396.395898343439
 30
0.0
 40
10.134500000026
100
AcDbArc
 50
337.351500000022
 51
353.069999999982
  0
ARC
  5
A4
100
AcDbEntity
  8
BLACK
  6
CONTINUOUS
 62
          15
100
AcDbCircle
 10
-5036.536186725544
 20
1394.673282446469
 30
0.0
 40
10.123199999994
100
AcDbArc
 50
173.069999999998
 51
188.789000000007
  0
ARC
  5
A5
100
AcDbEntity
  8
BLACK
  6
CONTINUOUS
 62
          15
100
AcDbCircle
 10
-5038.521586727336
 20
1378.338537409139
 30
0.0
 40
10.134500000018
100
AcDbArc
 50
157.351000000007
 51
173.069999999979
  0
ARC
  5
A6
100
AcDbEntity
  8
BLACK
  6
CONTINUOUS
 62
          15
100
AcDbCircle
 10
-5052.694293208871
 20
1380.06115330611
 30
0.0
 40
10.123199999986
100
AcDbArc
 50
353.069999999985
 51
8.788500000007
  0
ARC
  5
A7
100
AcDbEntity
  8
BLACK
  6
CONTINUOUS
 62
          15
100
AcDbCircle
 10
-5050.708893207056
 20
1396.395898343434
 30
0.0
 40
10.123199999986
100
AcDbArc
 50
353.069999999985
 51
8.788500000007
  0
ARC
  5
A8
100
AcDbEntity
  8
BLACK
  6
CONTINUOUS
 62
          15
100
AcDbCircle
 10
-5036.536186725522
 20
1394.673282446463
 30
0.0
 40
10.134500000018
100
AcDbArc
 50
157.351000000007
 51
173.069999999979
  0
ARC
  5
A9
100
AcDbEntity
  8
BLACK
  6
CONTINUOUS
 62
          15
100
AcDbCircle
 10
-5038.521586727359
 20
1378.338537409145
 30
0.0
 40
10.123199999994
100
AcDbArc
 50
173.069999999998
 51
188.789000000007
  0
ARC
  5
AA
100
AcDbEntity
  8
BLACK
  6
CONTINUOUS
 62
          15
100
AcDbCircle
 10
-5052.69429320891
 20
1380.061153306115
 30
0.0
 40
10.134500000026
100
AcDbArc
 50
337.351500000022
 51
353.069999999982
  0
LINE
  5
AB
100
AcDbEntity
  8
BLACK
  6
CONTINUOUS
 62
          15
100
AcDbLine
 10
-5040.648432799948
 20
1395.173103738135
 30
0.0
 11
-5041.641132800856
 21
1387.005731219473
 31
0.0
  0
LINE
  5
AC
100
AcDbEntity
  8
BLACK
  6
CONTINUOUS
 62
          15
100
AcDbLine
 10
-5046.596657059603
 20
1395.896078258333
 30
0.0
 11
-5047.58935706051
 21
1387.728705739671
 31
0.0
  0
LINE
  5
AD
100
AcDbEntity
  8
BLACK
  6
CONTINUOUS
 62
          15
100
AcDbLine
 10
-5048.582057061418
 20
1379.561333221009
 30
0.0
 11
-5047.58935706051
 21
1387.728705739671
 31
0.0
  0
LINE
  5
AE
100
AcDbEntity
  8
BLACK
  6
CONTINUOUS
 62
          15
100
AcDbLine
 10
-5042.633832801764
 20
1378.838358700811
 30
0.0
 11
-5041.641132800856
 21
1387.005731219473
 31
0.0
  0
LINE
  5
AF
100
AcDbEntity
  8
WHITE
  6
CONTINUOUS
 62
          15
100
AcDbLine
 10
-5048.31329683374
 20
1381.772539925597
 30
0.0
 11
-5048.240902856416
 21
1382.368156507005
 31
0.0
  0
LINE
  5
B0
100
AcDbEntity
  8
WHITE
  6
CONTINUOUS
 62
          15
100
AcDbLine
 10
-5048.240902856416
 20
1382.368156507005
 30
0.0
 11
-5046.937811264605
 21
1393.089254972337
 31
0.0
  0
LINE
  5
B1
100
AcDbEntity
  8
WHITE
  6
CONTINUOUS
 62
          15
100
AcDbLine
 10
-5046.937811264605
 20
1393.089254972337
 30
0.0
 11
-5046.865417287281
 21
1393.684871553744
 31
0.0
  0
LINE
  5
B2
100
AcDbEntity
  8
WHITE
  6
CONTINUOUS
 62
          15
100
AcDbLine
 10
-5046.865417287281
 20
1393.684871553744
 30
0.0
 11
-5046.467250412005
 21
1396.960762751485
 31
0.0
  0
LINE
  5
B3
100
AcDbEntity
  8
WHITE
  6
CONTINUOUS
 62
          15
100
AcDbLine
 10
-5072.861899863262
 20
1378.71213320444
 30
0.0
 11
-5071.567255791359
 21
1378.554776212529
 31
0.0
  0
LINE
  5
B4
100
AcDbEntity
  8
WHITE
  6
CONTINUOUS
 62
          15
100
AcDbLine
 10
-5068.671496698443
 20
1402.379439468823
 30
0.0
 11
-5069.966140770346
 21
1402.536796460734
 31
0.0
  0
LINE
  5
B5
100
AcDbEntity
  8
WHITE
  6
CONTINUOUS
 62
          15
100
AcDbLine
 10
-5071.567255791359
 20
1378.554776212529
 30
0.0
 11
-5067.7991589213
 21
1378.096784397195
 31
0.0
  0
LINE
  5
B6
100
AcDbEntity
  8
WHITE
  6
CONTINUOUS
 62
          15
100
AcDbLine
 10
-5064.903399828384
 20
1401.921447653489
 30
0.0
 11
-5068.671496698443
 21
1402.379439468823
 31
0.0
  0
LINE
  5
B7
100
AcDbEntity
  8
WHITE
  6
CONTINUOUS
 62
          15
100
AcDbLine
 10
-5105.242424625731
 20
1406.824438163771
 30
0.0
 11
-5069.966140770346
 21
1402.536796460734
 31
0.0
  0
LINE
  5
B8
100
AcDbEntity
  8
WHITE
  6
CONTINUOUS
 62
          15
100
AcDbLine
 10
-5108.138183718646
 20
1382.999774907477
 30
0.0
 11
-5072.861899863262
 21
1378.71213320444
 31
0.0
  0
LINE
  5
B9
100
AcDbEntity
  8
WHITE
  6
CONTINUOUS
 62
          15
100
AcDbLine
 10
-5064.227156888242
 20
1400.026006943283
 30
0.0
 11
-5066.68855211722
 21
1379.775043175433
 31
0.0
  0
LINE
  5
BA
100
AcDbEntity
  8
WHITE
  6
CONTINUOUS
 62
          15
100
AcDbLine
 10
-5047.252084318132
 20
1397.96277858958
 30
0.0
 11
-5049.952589595868
 21
1398.291010415119
 31
0.0
  0
LINE
  5
BB
100
AcDbEntity
  8
WHITE
  6
CONTINUOUS
 62
          15
100
AcDbLine
 10
-5048.711463709015
 20
1378.496648727857
 30
0.0
 11
-5048.31329683374
 21
1381.772539925597
 31
0.0
  0
LINE
  5
BC
100
AcDbEntity
  8
WHITE
  6
CONTINUOUS
 62
          15
100
AcDbLine
 10
-5065.795127245109
 20
1379.666452209449
 30
0.0
 11
-5063.968034782837
 21
1379.444378992534
 31
0.0
  0
LINE
  5
BD
100
AcDbEntity
  8
WHITE
  6
CONTINUOUS
 62
          15
100
AcDbLine
 10
-5061.361851599213
 20
1400.886575923199
 30
0.0
 11
-5061.506639553859
 21
1399.695342760384
 31
0.0
  0
LINE
  5
BE
100
AcDbEntity
  8
WHITE
  6
CONTINUOUS
 62
          15
100
AcDbLine
 10
-5061.506639553859
 20
1399.695342760384
 30
0.0
 11
-5063.333732016131
 21
1399.917415977298
 31
0.0
  0
LINE
  5
BF
100
AcDbEntity
  8
WHITE
  6
CONTINUOUS
 62
          15
100
AcDbLine
 10
-5061.506639553859
 20
1399.695342760384
 30
0.0
 11
-5063.968034782837
 21
1379.444378992534
 31
0.0
  0
LINE
  5
C0
100
AcDbEntity
  8
WHITE
  6
CONTINUOUS
 62
          15
100
AcDbLine
 10
-5063.968034782837
 20
1379.444378992534
 30
0.0
 11
-5064.112822737483
 21
1378.25314582972
 31
0.0
  0
LINE
  5
C1
100
AcDbEntity
  8
WHITE
  6
CONTINUOUS
 62
          15
100
AcDbLine
 10
-5052.558772779492
 20
1376.848813484455
 30
0.0
 11
-5052.413984824846
 21
1378.04004664727
 31
0.0
  0
LINE
  5
C2
100
AcDbEntity
  8
WHITE
  6
CONTINUOUS
 62
          15
100
AcDbLine
 10
-5052.413984824846
 20
1378.04004664727
 30
0.0
 11
-5049.71347954711
 21
1377.711814821731
 31
0.0
  0
LINE
  5
C3
100
AcDbEntity
  8
WHITE
  6
CONTINUOUS
 62
          15
100
AcDbLine
 10
-5052.413984824846
 20
1378.04004664727
 30
0.0
 11
-5049.952589595868
 21
1398.291010415119
 31
0.0
  0
LINE
  5
C4
100
AcDbEntity
  8
WHITE
  6
CONTINUOUS
 62
          15
100
AcDbLine
 10
-5049.952589595868
 20
1398.291010415119
 30
0.0
 11
-5049.807801641222
 21
1399.482243577934
 31
0.0
  0
LINE
  5
C5
100
AcDbEntity
  8
WHITE
  6
CONTINUOUS
 62
          15
100
AcDbLine
 10
-5061.361851599213
 20
1400.886575923199
 30
0.0
 11
-5049.807801641222
 21
1399.482243577934
 31
0.0
  0
LINE
  5
C6
100
AcDbEntity
  8
WHITE
  6
CONTINUOUS
 62
          15
100
AcDbLine
 10
-5064.112822737483
 20
1378.25314582972
 30
0.0
 11
-5052.558772779492
 21
1376.848813484455
 31
0.0
  0
ARC
  5
C7
100
AcDbEntity
  8
WHITE
  6
CONTINUOUS
 62
          15
100
AcDbCircle
 10
-5087.064945215212
 20
1392.526750191233
 30
0.0
 40
20.866107311614
100
AcDbArc
 50
317.963694434247
 51
28.176305565752
  0
ARC
  5
C8
100
AcDbEntity
  8
WHITE
  6
CONTINUOUS
 62
          15
100
AcDbCircle
 10
-5077.246738982693
 20
1391.333400271945
 30
0.0
 40
29.660254037848
100
AcDbArc
 50
149.205074583953
 51
196.934925416046
  0
ARC
  5
C9
100
AcDbEntity
  8
WHITE
  6
CONTINUOUS
 62
          15
100
AcDbCircle
 10
-5087.776937523675
 20
1392.613289009395
 30
0.0
 40
22.516660498396
100
AcDbArc
 50
140.865772496028
 51
205.274227503971
  0
ARC
  5
CA
100
AcDbEntity
  8
WHITE
  6
CONTINUOUS
 62
          15
100
AcDbCircle
 10
-5065.011990794368
 20
1401.028022781378
 30
0.0
 40
0.9
100
AcDbArc
 50
353.069999999999
 51
83.07
  0
ARC
  5
CB
100
AcDbEntity
  8
WHITE
  6
CONTINUOUS
 62
          15
100
AcDbCircle
 10
-5063.225141050146
 20
1400.81084084941
 30
0.0
 40
0.9
100
AcDbArc
 50
173.07
 51
263.069999999999
  0
ARC
  5
CC
100
AcDbEntity
  8
WHITE
  6
CONTINUOUS
 62
          15
100
AcDbCircle
 10
-5047.360675284116
 20
1397.069353717469
 30
0.0
 40
0.9
100
AcDbArc
 50
353.069999999999
 51
83.07
  0
ARC
  5
CD
100
AcDbEntity
  8
WHITE
  6
CONTINUOUS
 62
          15
100
AcDbCircle
 10
-5049.604888581126
 20
1378.605239693841
 30
0.0
 40
0.9
100
AcDbArc
 50
263.069999999999
 51
353.069999999999
  0
ARC
  5
CE
100
AcDbEntity
  8
WHITE
  6
CONTINUOUS
 62
          15
100
AcDbCircle
 10
-5065.903718211093
 20
1378.773027337338
 30
0.0
 40
0.9
100
AcDbArc
 50
83.07
 51
173.069999999985
  0
ARC
  5
CF
100
AcDbEntity
  8
WHITE
  6
CONTINUOUS
 62
          15
100
AcDbCircle
 10
-5067.690567955316
 20
1378.990209269306
 30
0.0
 40
0.9
100
AcDbArc
 50
263.069999999999
 51
353.069999999985
  0
LINE
  5
D0
100
AcDbEntity
  8
WHITE
  6
CONTINUOUS
 62
          15
100
AcDbLine
 10
-4867.387785977178
 20
1370.606186225748
 30
0.0
 11
-4863.919200592078
 21
1369.736236294063
 31
0.0
  0
LINE
  5
D1
100
AcDbEntity
  8
WHITE
  6
CONTINUOUS
 62
          15
100
AcDbLine
 10
-4867.514088370403
 20
1373.195253871168
 30
0.0
 11
-4867.7624964113
 21
1371.151493415048
 31
0.0
  0
LINE
  5
D2
100
AcDbEntity
  8
WHITE
  6
CONTINUOUS
 62
          15
100
AcDbLine
 10
-4866.650594853436
 20
1376.671376635292
 30
0.0
 11
-4863.074604189977
 21
1376.685096410482
 31
0.0
  0
LINE
  5
D3
100
AcDbEntity
  8
WHITE
  6
CONTINUOUS
 62
          15
100
AcDbLine
 10
-4867.393431741531
 20
1374.187948173513
 30
0.0
 11
-4867.145023700633
 21
1376.231708629632
 31
0.0
  0
LINE
  5
D4
100
AcDbEntity
  8
WHITE
  6
CONTINUOUS
 62
          15
100
AcDbLine
 10
-4865.93936030782
 20
1373.003854183498
 30
0.0
 11
-4867.514088370403
 21
1373.195253871168
 31
0.0
  0
LINE
  5
D5
100
AcDbEntity
  8
WHITE
  6
CONTINUOUS
 62
          15
100
AcDbLine
 10
-4865.879031993383
 20
1373.500201334669
 30
0.0
 11
-4865.93936030782
 21
1373.003854183498
 31
0.0
  0
LINE
  5
D6
100
AcDbEntity
  8
WHITE
  6
CONTINUOUS
 62
          15
100
AcDbLine
 10
-4865.818703678948
 20
1373.996548485843
 30
0.0
 11
-4865.879031993383
 21
1373.500201334669
 31
0.0
  0
LINE
  5
D7
100
AcDbEntity
  8
WHITE
  6
CONTINUOUS
 62
          15
100
AcDbLine
 10
-4867.393431741531
 20
1374.187948173513
 30
0.0
 11
-4865.818703678948
 21
1373.996548485843
 31
0.0
  0
LINE
  5
D8
100
AcDbEntity
  8
WHITE
  6
CONTINUOUS
 62
          15
100
AcDbLine
 10
-4862.833290932234
 20
1378.670485015174
 30
0.0
 11
-4852.410000757605
 21
1377.403590412023
 31
0.0
  0
LINE
  5
D9
100
AcDbEntity
  8
WHITE
  6
CONTINUOUS
 62
          15
100
AcDbLine
 10
-4862.833290932234
 20
1378.670485015174
 30
0.0
 11
-4863.979528906513
 21
1369.23988914289
 31
0.0
  0
LINE
  5
DA
100
AcDbEntity
  8
WHITE
  6
CONTINUOUS
 62
          15
100
AcDbLine
 10
-4856.850164700077
 20
1340.872440085705
 30
0.0
 11
-4848.412263130139
 21
1339.846858740298
 31
0.0
  0
LINE
  5
DB
100
AcDbEntity
  8
WHITE
  6
CONTINUOUS
 62
          15
100
AcDbLine
 10
-4848.412263130139
 20
1339.846858740298
 30
0.0
 11
-4848.351934815703
 21
1340.343205891471
 31
0.0
  0
LINE
  5
DC
100
AcDbEntity
  8
WHITE
  6
CONTINUOUS
 62
          15
100
AcDbLine
 10
-4848.351934815703
 20
1340.343205891471
 30
0.0
 11
-4842.741401573178
 21
1386.503490950539
 31
0.0
  0
LINE
  5
DD
100
AcDbEntity
  8
WHITE
  6
CONTINUOUS
 62
          15
100
AcDbLine
 10
-4841.748707270833
 20
1386.382834321668
 30
0.0
 11
-4841.809035585268
 21
1385.886487170496
 31
0.0
  0
LINE
  5
DE
100
AcDbEntity
  8
WHITE
  6
CONTINUOUS
 62
          15
100
AcDbLine
 10
-4841.809035585268
 20
1385.886487170496
 30
0.0
 11
-4842.801729887614
 21
1386.007143799367
 31
0.0
  0
LINE
  5
DF
100
AcDbEntity
  8
WHITE
  6
CONTINUOUS
 62
          15
100
AcDbLine
 10
-4841.809035585268
 20
1385.886487170496
 30
0.0
 11
-4847.359240513358
 21
1340.222549262599
 31
0.0
  0
LINE
  5
E0
100
AcDbEntity
  8
WHITE
  6
CONTINUOUS
 62
          15
100
AcDbLine
 10
-4847.359240513358
 20
1340.222549262599
 30
0.0
 11
-4848.351934815703
 21
1340.343205891471
 31
0.0
  0
LINE
  5
E1
100
AcDbEntity
  8
WHITE
  6
CONTINUOUS
 62
          15
100
AcDbLine
 10
-4852.906347908778
 20
1377.463918726459
 30
0.0
 11
-4851.675650294289
 21
1387.589400610383
 31
0.0
  0
LINE
  5
E2
100
AcDbEntity
  8
WHITE
  6
CONTINUOUS
 62
          15
100
AcDbLine
 10
-4842.741401573178
 20
1386.503490950539
 30
0.0
 11
-4851.675650294289
 21
1387.589400610383
 31
0.0
  0
LINE
  5
E3
100
AcDbEntity
  8
WHITE
  6
CONTINUOUS
 62
          15
100
AcDbLine
 10
-4852.906347908778
 20
1377.463918726459
 30
0.0
 11
-4852.410000757605
 21
1377.403590412023
 31
0.0
  0
LINE
  5
E4
100
AcDbEntity
  8
WHITE
  6
CONTINUOUS
 62
          15
100
AcDbLine
 10
-4852.410000757605
 20
1377.403590412023
 30
0.0
 11
-4856.850164700077
 21
1340.872440085705
 31
0.0
  0
LINE
  5
E5
100
AcDbEntity
  8
WHITE
  6
CONTINUOUS
 62
          15
100
AcDbLine
 10
-4765.311245990224
 20
1377.092273898563
 30
0.0
 11
-4841.748707270833
 21
1386.382834321668
 31
0.0
  0
LINE
  5
E6
100
AcDbEntity
  8
WHITE
  6
CONTINUOUS
 62
          15
100
AcDbLine
 10
-4770.982107547185
 20
1330.435641688321
 30
0.0
 11
-4765.311245990224
 21
1377.092273898563
 31
0.0
  0
LINE
  5
E7
100
AcDbEntity
  8
WHITE
  6
CONTINUOUS
 62
          15
100
AcDbLine
 10
-4847.419568827793
 20
1339.726202111426
 30
0.0
 11
-4770.982107547185
 21
1330.435641688321
 31
0.0
  0
LINE
  5
E8
100
AcDbEntity
  8
WHITE
  6
CONTINUOUS
 62
          15
100
AcDbLine
 10
-4847.359240513358
 20
1340.222549262599
 30
0.0
 11
-4847.419568827793
 21
1339.726202111426
 31
0.0
  0
LINE
  5
E9
100
AcDbEntity
  8
WHITE
  6
CONTINUOUS
 62
          15
100
AcDbLine
 10
-4869.924696970744
 20
1357.622338769079
 30
0.0
 11
-4869.291249669169
 21
1362.833983856393
 31
0.0
  0
LINE
  5
EA
100
AcDbEntity
  8
WHITE
  6
CONTINUOUS
 62
          15
100
AcDbLine
 10
-4871.161427416677
 20
1347.447222170037
 30
0.0
 11
-4867.42107192166
 21
1378.22074554275
 31
0.0
  0
LINE
  5
EB
100
AcDbEntity
  8
WHITE
  6
CONTINUOUS
 62
          15
100
AcDbLine
 10
-4866.307720990443
 20
1379.092783216224
 30
0.0
 11
-4862.833290932234
 21
1378.670485015174
 31
0.0
  0
LINE
  5
EC
100
AcDbEntity
  8
WHITE
  6
CONTINUOUS
 62
          15
100
AcDbLine
 10
-4870.289389743202
 20
1346.33387123882
 30
0.0
 11
-4856.391669510364
 21
1344.644678434619
 31
0.0
  0
LINE
  5
ED
100
AcDbEntity
  8
WHITE
  6
CONTINUOUS
 62
           1
100
AcDbLine
 10
-4897.076760298047
 20
1341.43011974048
 30
0.0
 11
-4879.208262855826
 21
1339.258300420793
 31
0.0
  0
LINE
  5
EE
100
AcDbEntity
  8
WHITE
  6
CONTINUOUS
 62
           1
100
AcDbLine
 10
-4879.208262855826
 20
1339.258300420793
 30
0.0
 11
-4879.731485459911
 21
1339.926310979522
 31
0.0
  0
LINE
  5
EF
100
AcDbEntity
  8
WHITE
  6
CONTINUOUS
 62
           1
100
AcDbLine
 10
-4879.731485459911
 20
1339.926310979522
 30
0.0
 11
-4879.063474901181
 21
1340.449533583607
 31
0.0
  0
LINE
  5
F0
100
AcDbEntity
  8
WHITE
  6
CONTINUOUS
 62
           1
100
AcDbLine
 10
-4879.063474901181
 20
1340.449533583607
 30
0.0
 11
-4896.931972343401
 21
1342.621352903294
 31
0.0
  0
LINE
  5
F1
100
AcDbEntity
  8
WHITE
  6
CONTINUOUS
 62
           1
100
AcDbLine
 10
-4896.931972343401
 20
1342.621352903294
 30
0.0
 11
-4896.408749739317
 21
1341.953342344564
 31
0.0
  0
LINE
  5
F2
100
AcDbEntity
  8
WHITE
  6
CONTINUOUS
 62
           1
100
AcDbLine
 10
-4896.408749739317
 20
1341.953342344564
 30
0.0
 11
-4897.076760298047
 21
1341.43011974048
 31
0.0
  0
LINE
  5
F3
100
AcDbEntity
  8
WHITE
  6
CONTINUOUS
 62
           1
100
AcDbLine
 10
-4896.408749739317
 20
1341.953342344564
 30
0.0
 11
-4879.731485459911
 21
1339.926310979522
 31
0.0
  0
LINE
  5
F4
100
AcDbEntity
  8
WHITE
  6
CONTINUOUS
 62
           1
100
AcDbLine
 10
-4896.65006299706
 20
1339.967953739872
 30
0.0
 11
-4897.173285601144
 21
1340.635964298603
 31
0.0
  0
LINE
  5
F5
100
AcDbEntity
  8
WHITE
  6
CONTINUOUS
 62
           1
100
AcDbLine
 10
-4897.173285601144
 20
1340.635964298603
 30
0.0
 11
-4879.304788158924
 21
1338.464144978916
 31
0.0
  0
LINE
  5
F6
100
AcDbEntity
  8
WHITE
  6
CONTINUOUS
 62
           1
100
AcDbLine
 10
-4879.304788158924
 20
1338.464144978916
 30
0.0
 11
-4879.972798717654
 21
1337.940922374831
 31
0.0
  0
LINE
  5
F7
100
AcDbEntity
  8
WHITE
  6
CONTINUOUS
 62
           1
100
AcDbLine
 10
-4879.972798717654
 20
1337.940922374831
 30
0.0
 11
-4879.44957611357
 21
1337.272911816102
 31
0.0
  0
LINE
  5
F8
100
AcDbEntity
  8
WHITE
  6
CONTINUOUS
 62
           1
100
AcDbLine
 10
-4879.44957611357
 20
1337.272911816102
 30
0.0
 11
-4897.31807355579
 21
1339.444731135789
 31
0.0
  0
LINE
  5
F9
100
AcDbEntity
  8
WHITE
  6
CONTINUOUS
 62
           1
100
AcDbLine
 10
-4897.31807355579
 20
1339.444731135789
 30
0.0
 11
-4896.65006299706
 21
1339.967953739872
 31
0.0
  0
LINE
  5
FA
100
AcDbEntity
  8
WHITE
  6
CONTINUOUS
 62
           1
100
AcDbLine
 10
-4879.972798717654
 20
1337.940922374831
 30
0.0
 11
-4896.65006299706
 21
1339.967953739872
 31
0.0
  0
LINE
  5
FB
100
AcDbEntity
  8
WHITE
  6
CONTINUOUS
 62
           1
100
AcDbLine
 10
-4896.891376254803
 20
1337.982565135181
 30
0.0
 11
-4897.414598858887
 21
1338.650575693911
 31
0.0
  0
LINE
  5
FC
100
AcDbEntity
  8
WHITE
  6
CONTINUOUS
 62
           1
100
AcDbLine
 10
-4897.414598858887
 20
1338.650575693911
 30
0.0
 11
-4879.546101416667
 21
1336.478756374224
 31
0.0
  0
LINE
  5
FD
100
AcDbEntity
  8
WHITE
  6
CONTINUOUS
 62
           1
100
AcDbLine
 10
-4879.546101416667
 20
1336.478756374224
 30
0.0
 11
-4880.214111975397
 21
1335.95553377014
 31
0.0
  0
LINE
  5
FE
100
AcDbEntity
  8
WHITE
  6
CONTINUOUS
 62
           1
100
AcDbLine
 10
-4880.214111975397
 20
1335.95553377014
 30
0.0
 11
-4879.690889371312
 21
1335.287523211411
 31
0.0
  0
LINE
  5
FF
100
AcDbEntity
  8
WHITE
  6
CONTINUOUS
 62
           1
100
AcDbLine
 10
-4879.690889371312
 20
1335.287523211411
 30
0.0
 11
-4897.559386813532
 21
1337.459342531098
 31
0.0
  0
LINE
  5
100
100
AcDbEntity
  8
WHITE
  6
CONTINUOUS
 62
           1
100
AcDbLine
 10
-4897.559386813532
 20
1337.459342531098
 30
0.0
 11
-4896.891376254803
 21
1337.982565135181
 31
0.0
  0
LINE
  5
101
100
AcDbEntity
  8
WHITE
  6
CONTINUOUS
 62
           1
100
AcDbLine
 10
-4897.132689512546
 20
1335.99717653049
 30
0.0
 11
-4897.65591211663
 21
1336.665187089221
 31
0.0
  0
LINE
  5
102
100
AcDbEntity
  8
WHITE
  6
CONTINUOUS
 62
           1
100
AcDbLine
 10
-4897.65591211663
 20
1336.665187089221
 30
0.0
 11
-4891.607505854774
 21
1335.930035987944
 31
0.0
  0
LINE
  5
103
100
AcDbEntity
  8
WHITE
  6
CONTINUOUS
 62
           1
100
AcDbLine
 10
-4879.78741467441
 20
1334.493367769534
 30
0.0
 11
-4880.45542523314
 21
1333.970145165449
 31
0.0
  0
LINE
  5
104
100
AcDbEntity
  8
WHITE
  6
CONTINUOUS
 62
           1
100
AcDbLine
 10
-4880.45542523314
 20
1333.970145165449
 30
0.0
 11
-4879.932202629055
 21
1333.30213460672
 31
0.0
  0
LINE
  5
105
100
AcDbEntity
  8
WHITE
  6
CONTINUOUS
 62
           1
100
AcDbLine
 10
-4879.932202629055
 20
1333.30213460672
 30
0.0
 11
-4885.980608890911
 21
1334.037285707997
 31
0.0
  0
LINE
  5
106
100
AcDbEntity
  8
WHITE
  6
CONTINUOUS
 62
           1
100
AcDbLine
 10
-4897.800700071275
 20
1335.473953926407
 30
0.0
 11
-4897.132689512546
 21
1335.99717653049
 31
0.0
  0
LINE
  5
107
100
AcDbEntity
  8
WHITE
  6
CONTINUOUS
 62
           1
100
AcDbLine
 10
-4897.374002770288
 20
1334.0117879258
 30
0.0
 11
-4897.897225374373
 21
1334.679798484529
 31
0.0
  0
LINE
  5
108
100
AcDbEntity
  8
WHITE
  6
CONTINUOUS
 62
           1
100
AcDbLine
 10
-4897.897225374373
 20
1334.679798484529
 30
0.0
 11
-4892.589583581602
 21
1334.034683302081
 31
0.0
  0
LINE
  5
109
100
AcDbEntity
  8
WHITE
  6
CONTINUOUS
 62
           1
100
AcDbLine
 10
-4880.028727932153
 20
1332.507979164842
 30
0.0
 11
-4880.696738490883
 21
1331.984756560759
 31
0.0
  0
LINE
  5
10A
100
AcDbEntity
  8
WHITE
  6
CONTINUOUS
 62
           1
100
AcDbLine
 10
-4897.132689512546
 20
1335.99717653049
 30
0.0
 11
-4891.08428325069
 21
1335.262025429213
 31
0.0
  0
LINE
  5
10B
100
AcDbEntity
  8
WHITE
  6
CONTINUOUS
 62
           1
100
AcDbLine
 10
-4896.891376254803
 20
1337.982565135181
 30
0.0
 11
-4880.214111975397
 21
1335.95553377014
 31
0.0
  0
LINE
  5
10C
100
AcDbEntity
  8
WHITE
  6
CONTINUOUS
 62
           1
100
AcDbLine
 10
-4891.75229380942
 20
1334.73880282513
 30
0.0
 11
-4891.08428325069
 21
1335.262025429213
 31
0.0
  0
LINE
  5
10D
100
AcDbEntity
  8
WHITE
  6
CONTINUOUS
 62
           1
100
AcDbLine
 10
-4891.75229380942
 20
1334.73880282513
 30
0.0
 11
-4897.800700071275
 21
1335.473953926407
 31
0.0
  0
LINE
  5
10E
100
AcDbEntity
  8
WHITE
  6
CONTINUOUS
 62
           1
100
AcDbLine
 10
-4891.08428325069
 20
1335.262025429213
 30
0.0
 11
-4891.607505854774
 21
1335.930035987944
 31
0.0
  0
LINE
  5
10F
100
AcDbEntity
  8
WHITE
  6
CONTINUOUS
 62
           1
100
AcDbLine
 10
-4892.589583581602
 20
1334.034683302081
 30
0.0
 11
-4892.066360977517
 21
1333.366672743352
 31
0.0
  0
LINE
  5
110
100
AcDbEntity
  8
WHITE
  6
CONTINUOUS
 62
           1
100
AcDbLine
 10
-4886.004380283654
 20
1332.629871743207
 30
0.0
 11
-4885.336369724923
 21
1333.153094347291
 31
0.0
  0
LINE
  5
111
100
AcDbEntity
  8
WHITE
  6
CONTINUOUS
 62
           1
100
AcDbLine
 10
-4885.336369724923
 20
1333.153094347291
 30
0.0
 11
-4880.028727932153
 21
1332.507979164842
 31
0.0
  0
LINE
  5
112
100
AcDbEntity
  8
WHITE
  6
CONTINUOUS
 62
           1
100
AcDbLine
 10
-4885.980608890911
 20
1334.037285707997
 30
0.0
 11
-4886.503831494996
 21
1334.705296266726
 31
0.0
  0
LINE
  5
113
100
AcDbEntity
  8
WHITE
  6
CONTINUOUS
 62
           1
100
AcDbLine
 10
-4886.503831494996
 20
1334.705296266726
 30
0.0
 11
-4880.45542523314
 21
1333.970145165449
 31
0.0
  0
LINE
  5
114
100
AcDbEntity
  8
WHITE
  6
CONTINUOUS
 62
           1
100
AcDbLine
 10
-4886.503831494996
 20
1334.705296266726
 30
0.0
 11
-4885.835820936266
 21
1335.228518870811
 31
0.0
  0
LINE
  5
115
100
AcDbEntity
  8
WHITE
  6
CONTINUOUS
 62
           1
100
AcDbLine
 10
-4885.835820936266
 20
1335.228518870811
 30
0.0
 11
-4879.78741467441
 21
1334.493367769534
 31
0.0
  0
LINE
  5
116
100
AcDbEntity
  8
WHITE
  6
CONTINUOUS
 62
           1
100
AcDbLine
 10
-4897.65591211663
 20
1336.665187089221
 30
0.0
 11
-4897.800700071275
 21
1335.473953926407
 31
0.0
  0
LINE
  5
117
100
AcDbEntity
  8
WHITE
  6
CONTINUOUS
 62
           1
100
AcDbLine
 10
-4897.559386813532
 20
1337.459342531098
 30
0.0
 11
-4897.414598858887
 21
1338.650575693911
 31
0.0
  0
LINE
  5
118
100
AcDbEntity
  8
WHITE
  6
CONTINUOUS
 62
           1
100
AcDbLine
 10
-4897.31807355579
 20
1339.444731135789
 30
0.0
 11
-4897.173285601144
 21
1340.635964298603
 31
0.0
  0
LINE
  5
119
100
AcDbEntity
  8
WHITE
  6
CONTINUOUS
 62
           1
100
AcDbLine
 10
-4897.076760298047
 20
1341.43011974048
 30
0.0
 11
-4896.931972343401
 21
1342.621352903294
 31
0.0
  0
LINE
  5
11A
100
AcDbEntity
  8
WHITE
  6
CONTINUOUS
 62
           1
100
AcDbLine
 10
-4897.897225374373
 20
1334.679798484529
 30
0.0
 11
-4897.969619351696
 21
1334.084181903123
 31
0.0
  0
LINE
  5
11B
100
AcDbEntity
  8
WHITE
  6
CONTINUOUS
 62
           1
100
AcDbLine
 10
-4880.101121909475
 20
1331.912362583436
 30
0.0
 11
-4880.028727932153
 21
1332.507979164842
 31
0.0
  0
LINE
  5
11C
100
AcDbEntity
  8
WHITE
  6
CONTINUOUS
 62
           1
100
AcDbLine
 10
-4879.932202629055
 20
1333.30213460672
 30
0.0
 11
-4879.78741467441
 21
1334.493367769534
 31
0.0
  0
LINE
  5
11D
100
AcDbEntity
  8
WHITE
  6
CONTINUOUS
 62
           1
100
AcDbLine
 10
-4879.690889371312
 20
1335.287523211411
 30
0.0
 11
-4879.546101416667
 21
1336.478756374224
 31
0.0
  0
LINE
  5
11E
100
AcDbEntity
  8
WHITE
  6
CONTINUOUS
 62
           1
100
AcDbLine
 10
-4879.44957611357
 20
1337.272911816102
 30
0.0
 11
-4879.304788158924
 21
1338.464144978916
 31
0.0
  0
LINE
  5
11F
100
AcDbEntity
  8
WHITE
  6
CONTINUOUS
 62
           1
100
AcDbLine
 10
-4879.208262855826
 20
1339.258300420793
 30
0.0
 11
-4879.063474901181
 21
1340.449533583607
 31
0.0
  0
LINE
  5
120
100
AcDbEntity
  8
WHITE
  6
CONTINUOUS
 62
           1
100
AcDbLine
 10
-4881.13876891777
 20
1323.375191583264
 30
0.0
 11
-4880.993980963124
 21
1324.566424746078
 31
0.0
  0
LINE
  5
121
100
AcDbEntity
  8
WHITE
  6
CONTINUOUS
 62
           1
100
AcDbLine
 10
-4880.897455660027
 20
1325.360580187955
 30
0.0
 11
-4880.752667705381
 21
1326.551813350769
 31
0.0
  0
LINE
  5
122
100
AcDbEntity
  8
WHITE
  6
CONTINUOUS
 62
           1
100
AcDbLine
 10
-4880.656142402284
 20
1327.345968792646
 30
0.0
 11
-4880.511354447638
 21
1328.53720195546
 31
0.0
  0
LINE
  5
123
100
AcDbEntity
  8
WHITE
  6
CONTINUOUS
 62
           1
100
AcDbLine
 10
-4880.414829144541
 20
1329.331357397337
 30
0.0
 11
-4880.270041189895
 21
1330.522590560151
 31
0.0
  0
LINE
  5
124
100
AcDbEntity
  8
WHITE
  6
CONTINUOUS
 62
           1
100
AcDbLine
 10
-4880.173515886798
 20
1331.316746002029
 30
0.0
 11
-4880.101121909475
 21
1331.912362583436
 31
0.0
  0
LINE
  5
125
100
AcDbEntity
  8
WHITE
  6
CONTINUOUS
 62
           1
100
AcDbLine
 10
-4897.969619351696
 20
1334.084181903123
 30
0.0
 11
-4898.042013329018
 21
1333.488565321716
 31
0.0
  0
LINE
  5
126
100
AcDbEntity
  8
WHITE
  6
CONTINUOUS
 62
           1
100
AcDbLine
 10
-4899.00726635999
 20
1325.547010902951
 30
0.0
 11
-4898.862478405345
 21
1326.738244065765
 31
0.0
  0
LINE
  5
127
100
AcDbEntity
  8
WHITE
  6
CONTINUOUS
 62
           1
100
AcDbLine
 10
-4898.765953102247
 20
1327.532399507642
 30
0.0
 11
-4898.621165147602
 21
1328.723632670456
 31
0.0
  0
LINE
  5
128
100
AcDbEntity
  8
WHITE
  6
CONTINUOUS
 62
           1
100
AcDbLine
 10
-4898.524639844504
 20
1329.517788112333
 30
0.0
 11
-4898.379851889858
 21
1330.709021275147
 31
0.0
  0
LINE
  5
129
100
AcDbEntity
  8
WHITE
  6
CONTINUOUS
 62
           1
100
AcDbLine
 10
-4898.138538632115
 20
1332.694409879838
 30
0.0
 11
-4898.283326586761
 21
1331.503176717024
 31
0.0
  0
LINE
  5
12A
100
AcDbEntity
  8
WHITE
  6
CONTINUOUS
 62
           1
100
AcDbLine
 10
-4880.414829144541
 20
1329.331357397337
 30
0.0
 11
-4886.463235406397
 21
1330.066508498614
 31
0.0
  0
LINE
  5
12B
100
AcDbEntity
  8
WHITE
  6
CONTINUOUS
 62
           1
100
AcDbLine
 10
-4886.463235406397
 20
1330.066508498614
 30
0.0
 11
-4886.986458010482
 21
1330.734519057345
 31
0.0
  0
LINE
  5
12C
100
AcDbEntity
  8
WHITE
  6
CONTINUOUS
 62
           1
100
AcDbLine
 10
-4880.938051748626
 20
1329.999367956068
 30
0.0
 11
-4886.986458010482
 21
1330.734519057345
 31
0.0
  0
LINE
  5
12D
100
AcDbEntity
  8
WHITE
  6
CONTINUOUS
 62
           1
100
AcDbLine
 10
-4886.986458010482
 20
1330.734519057345
 30
0.0
 11
-4886.318447451751
 21
1331.257741661428
 31
0.0
  0
LINE
  5
12E
100
AcDbEntity
  8
WHITE
  6
CONTINUOUS
 62
           1
100
AcDbLine
 10
-4880.173515886798
 20
1331.316746002029
 30
0.0
 11
-4885.481157679569
 21
1331.961861184477
 31
0.0
  0
LINE
  5
12F
100
AcDbEntity
  8
WHITE
  6
CONTINUOUS
 62
           1
100
AcDbLine
 10
-4885.481157679569
 20
1331.961861184477
 30
0.0
 11
-4886.004380283654
 21
1332.629871743207
 31
0.0
  0
LINE
  5
130
100
AcDbEntity
  8
WHITE
  6
CONTINUOUS
 62
           1
100
AcDbLine
 10
-4897.374002770288
 20
1334.0117879258
 30
0.0
 11
-4892.066360977517
 21
1333.366672743352
 31
0.0
  0
LINE
  5
131
100
AcDbEntity
  8
WHITE
  6
CONTINUOUS
 62
           1
100
AcDbLine
 10
-4892.066360977517
 20
1333.366672743352
 30
0.0
 11
-4892.734371536248
 21
1332.843450139267
 31
0.0
  0
LINE
  5
132
100
AcDbEntity
  8
WHITE
  6
CONTINUOUS
 62
           1
100
AcDbLine
 10
-4892.234920324906
 20
1330.768025615747
 30
0.0
 11
-4891.566909766175
 21
1331.291248219832
 31
0.0
  0
LINE
  5
133
100
AcDbEntity
  8
WHITE
  6
CONTINUOUS
 62
           1
100
AcDbLine
 10
-4898.138538632115
 20
1332.694409879838
 30
0.0
 11
-4892.09013237026
 21
1331.959258778561
 31
0.0
  0
LINE
  5
134
100
AcDbEntity
  8
WHITE
  6
CONTINUOUS
 62
           1
100
AcDbLine
 10
-4891.566909766175
 20
1331.291248219832
 30
0.0
 11
-4892.09013237026
 21
1331.959258778561
 31
0.0
  0
LINE
  5
135
100
AcDbEntity
  8
WHITE
  6
CONTINUOUS
 62
           1
100
AcDbLine
 10
-4881.179365006369
 20
1328.013979351376
 30
0.0
 11
-4897.856629285774
 21
1330.041010716418
 31
0.0
  0
LINE
  5
136
100
AcDbEntity
  8
WHITE
  6
CONTINUOUS
 62
           1
100
AcDbLine
 10
-4891.566909766175
 20
1331.291248219832
 30
0.0
 11
-4897.615316028031
 21
1332.026399321109
 31
0.0
  0
LINE
  5
137
100
AcDbEntity
  8
WHITE
  6
CONTINUOUS
 62
           1
100
AcDbLine
 10
-4886.004380283654
 20
1332.629871743207
 30
0.0
 11
-4880.696738490883
 21
1331.984756560759
 31
0.0
  0
LINE
  5
138
100
AcDbEntity
  8
WHITE
  6
CONTINUOUS
 62
           1
100
AcDbLine
 10
-4880.696738490883
 20
1331.984756560759
 30
0.0
 11
-4880.173515886798
 21
1331.316746002029
 31
0.0
  0
LINE
  5
139
100
AcDbEntity
  8
WHITE
  6
CONTINUOUS
 62
           1
100
AcDbLine
 10
-4892.734371536248
 20
1332.843450139267
 30
0.0
 11
-4898.042013329018
 21
1333.488565321716
 31
0.0
  0
LINE
  5
13A
100
AcDbEntity
  8
WHITE
  6
CONTINUOUS
 62
           1
100
AcDbLine
 10
-4898.042013329018
 20
1333.488565321716
 30
0.0
 11
-4897.374002770288
 21
1334.0117879258
 31
0.0
  0
LINE
  5
13B
100
AcDbEntity
  8
WHITE
  6
CONTINUOUS
 62
           1
100
AcDbLine
 10
-4897.615316028031
 20
1332.026399321109
 30
0.0
 11
-4898.138538632115
 21
1332.694409879838
 31
0.0
  0
LINE
  5
13C
100
AcDbEntity
  8
WHITE
  6
CONTINUOUS
 62
           1
100
AcDbLine
 10
-4886.318447451751
 20
1331.257741661428
 30
0.0
 11
-4880.270041189895
 21
1330.522590560151
 31
0.0
  0
LINE
  5
13D
100
AcDbEntity
  8
WHITE
  6
CONTINUOUS
 62
           1
100
AcDbLine
 10
-4880.270041189895
 20
1330.522590560151
 30
0.0
 11
-4880.938051748626
 21
1329.999367956068
 31
0.0
  0
LINE
  5
13E
100
AcDbEntity
  8
WHITE
  6
CONTINUOUS
 62
           1
100
AcDbLine
 10
-4880.938051748626
 20
1329.999367956068
 30
0.0
 11
-4880.414829144541
 21
1329.331357397337
 31
0.0
  0
LINE
  5
13F
100
AcDbEntity
  8
WHITE
  6
CONTINUOUS
 62
           1
100
AcDbLine
 10
-4892.234920324906
 20
1330.768025615747
 30
0.0
 11
-4898.283326586761
 21
1331.503176717024
 31
0.0
  0
LINE
  5
140
100
AcDbEntity
  8
WHITE
  6
CONTINUOUS
 62
           1
100
AcDbLine
 10
-4898.283326586761
 20
1331.503176717024
 30
0.0
 11
-4897.615316028031
 21
1332.026399321109
 31
0.0
  0
LINE
  5
141
100
AcDbEntity
  8
WHITE
  6
CONTINUOUS
 62
           1
100
AcDbLine
 10
-4897.856629285774
 20
1330.041010716418
 30
0.0
 11
-4898.379851889858
 21
1330.709021275147
 31
0.0
  0
LINE
  5
142
100
AcDbEntity
  8
WHITE
  6
CONTINUOUS
 62
           1
100
AcDbLine
 10
-4898.379851889858
 20
1330.709021275147
 30
0.0
 11
-4880.511354447638
 21
1328.53720195546
 31
0.0
  0
LINE
  5
143
100
AcDbEntity
  8
WHITE
  6
CONTINUOUS
 62
           1
100
AcDbLine
 10
-4880.511354447638
 20
1328.53720195546
 30
0.0
 11
-4881.179365006369
 21
1328.013979351376
 31
0.0
  0
LINE
  5
144
100
AcDbEntity
  8
WHITE
  6
CONTINUOUS
 62
           1
100
AcDbLine
 10
-4881.179365006369
 20
1328.013979351376
 30
0.0
 11
-4880.656142402284
 21
1327.345968792646
 31
0.0
  0
LINE
  5
145
100
AcDbEntity
  8
WHITE
  6
CONTINUOUS
 62
           1
100
AcDbLine
 10
-4880.656142402284
 20
1327.345968792646
 30
0.0
 11
-4898.524639844504
 21
1329.517788112333
 31
0.0
  0
LINE
  5
146
100
AcDbEntity
  8
WHITE
  6
CONTINUOUS
 62
           1
100
AcDbLine
 10
-4898.524639844504
 20
1329.517788112333
 30
0.0
 11
-4897.856629285774
 21
1330.041010716418
 31
0.0
  0
LINE
  5
147
100
AcDbEntity
  8
WHITE
  6
CONTINUOUS
 62
           1
100
AcDbLine
 10
-4898.097942543517
 20
1328.055622111727
 30
0.0
 11
-4881.420678264112
 21
1326.028590746686
 31
0.0
  0
LINE
  5
148
100
AcDbEntity
  8
WHITE
  6
CONTINUOUS
 62
           1
100
AcDbLine
 10
-4898.097942543517
 20
1328.055622111727
 30
0.0
 11
-4898.621165147602
 21
1328.723632670456
 31
0.0
  0
LINE
  5
149
100
AcDbEntity
  8
WHITE
  6
CONTINUOUS
 62
           1
100
AcDbLine
 10
-4898.621165147602
 20
1328.723632670456
 30
0.0
 11
-4880.752667705381
 21
1326.551813350769
 31
0.0
  0
LINE
  5
14A
100
AcDbEntity
  8
WHITE
  6
CONTINUOUS
 62
           1
100
AcDbLine
 10
-4880.752667705381
 20
1326.551813350769
 30
0.0
 11
-4881.420678264112
 21
1326.028590746686
 31
0.0
  0
LINE
  5
14B
100
AcDbEntity
  8
WHITE
  6
CONTINUOUS
 62
           1
100
AcDbLine
 10
-4881.420678264112
 20
1326.028590746686
 30
0.0
 11
-4880.897455660027
 21
1325.360580187955
 31
0.0
  0
LINE
  5
14C
100
AcDbEntity
  8
WHITE
  6
CONTINUOUS
 62
           1
100
AcDbLine
 10
-4880.897455660027
 20
1325.360580187955
 30
0.0
 11
-4898.765953102247
 21
1327.532399507642
 31
0.0
  0
LINE
  5
14D
100
AcDbEntity
  8
WHITE
  6
CONTINUOUS
 62
           1
100
AcDbLine
 10
-4898.765953102247
 20
1327.532399507642
 30
0.0
 11
-4898.097942543517
 21
1328.055622111727
 31
0.0
  0
LINE
  5
14E
100
AcDbEntity
  8
WHITE
  6
CONTINUOUS
 62
           1
100
AcDbLine
 10
-4881.661991521855
 20
1324.043202141994
 30
0.0
 11
-4898.33925580126
 21
1326.070233507036
 31
0.0
  0
LINE
  5
14F
100
AcDbEntity
  8
WHITE
  6
CONTINUOUS
 62
           1
100
AcDbLine
 10
-4898.862478405345
 20
1326.738244065765
 30
0.0
 11
-4898.33925580126
 21
1326.070233507036
 31
0.0
  0
LINE
  5
150
100
AcDbEntity
  8
WHITE
  6
CONTINUOUS
 62
           1
100
AcDbLine
 10
-4898.33925580126
 20
1326.070233507036
 30
0.0
 11
-4899.00726635999
 21
1325.547010902951
 31
0.0
  0
LINE
  5
151
100
AcDbEntity
  8
WHITE
  6
CONTINUOUS
 62
           1
100
AcDbLine
 10
-4899.00726635999
 20
1325.547010902951
 30
0.0
 11
-4881.13876891777
 21
1323.375191583264
 31
0.0
  0
LINE
  5
152
100
AcDbEntity
  8
WHITE
  6
CONTINUOUS
 62
           1
100
AcDbLine
 10
-4881.13876891777
 20
1323.375191583264
 30
0.0
 11
-4881.661991521855
 21
1324.043202141994
 31
0.0
  0
LINE
  5
153
100
AcDbEntity
  8
WHITE
  6
CONTINUOUS
 62
           1
100
AcDbLine
 10
-4881.661991521855
 20
1324.043202141994
 30
0.0
 11
-4880.993980963124
 21
1324.566424746078
 31
0.0
  0
LINE
  5
154
100
AcDbEntity
  8
WHITE
  6
CONTINUOUS
 62
           1
100
AcDbLine
 10
-4880.993980963124
 20
1324.566424746078
 30
0.0
 11
-4898.862478405345
 21
1326.738244065765
 31
0.0
  0
LINE
  5
155
100
AcDbEntity
  8
WHITE
  6
CONTINUOUS
 62
          15
100
AcDbLine
 10
-4925.191407142755
 20
1323.865815524286
 30
0.0
 11
-4924.282959142547
 21
1325.074436144665
 31
0.0
  0
LINE
  5
156
100
AcDbEntity
  8
WHITE
  6
CONTINUOUS
 62
          15
100
AcDbLine
 10
-4920.069947711265
 20
1324.562367368311
 30
0.0
 11
-4924.282959142547
 21
1325.074436144665
 31
0.0
  0
LINE
  5
157
100
AcDbEntity
  8
WHITE
  6
CONTINUOUS
 62
          15
100
AcDbLine
 10
-4924.282959142547
 20
1325.074436144665
 30
0.0
 11
-4924.717443383467
 21
1327.765320489436
 31
0.0
  0
LINE
  5
158
100
AcDbEntity
  8
WHITE
  6
CONTINUOUS
 62
          15
100
AcDbLine
 10
-4924.234816867981
 20
1331.736097698818
 30
0.0
 11
-4923.168380948012
 21
1334.244553307581
 31
0.0
  0
LINE
  5
159
100
AcDbEntity
  8
WHITE
  6
CONTINUOUS
 62
          15
100
AcDbLine
 10
-4918.955369516729
 20
1333.732484531226
 30
0.0
 11
-4923.168380948012
 21
1334.244553307581
 31
0.0
  0
LINE
  5
15A
100
AcDbEntity
  8
WHITE
  6
CONTINUOUS
 62
          15
100
AcDbLine
 10
-4923.168380948012
 20
1334.244553307581
 30
0.0
 11
-4923.760853108694
 21
1335.635602663967
 31
0.0
  0
LINE
  5
15B
100
AcDbEntity
  8
WHITE
  6
CONTINUOUS
 62
          15
100
AcDbLine
 10
-4924.840248239815
 20
1320.489377563207
 30
0.0
 11
-4925.432720400498
 21
1321.880426919594
 31
0.0
  0
LINE
  5
15C
100
AcDbEntity
  8
WHITE
  6
CONTINUOUS
 62
          15
100
AcDbLine
 10
-4918.398080419461
 20
1338.317543112686
 30
0.0
 11
-4922.611091850744
 21
1338.829611889039
 31
0.0
  0
LINE
  5
15D
100
AcDbEntity
  8
WHITE
  6
CONTINUOUS
 62
          15
100
AcDbLine
 10
-4923.519539850951
 20
1337.620991268658
 30
0.0
 11
-4922.611091850744
 21
1338.829611889039
 31
0.0
  0
LINE
  5
15E
100
AcDbEntity
  8
WHITE
  6
CONTINUOUS
 62
          15
100
AcDbLine
 10
-4920.627236808532
 20
1319.977308786853
 30
0.0
 11
-4920.46924888877
 21
1321.277143775237
 31
0.0
  0
LINE
  5
15F
100
AcDbEntity
  8
WHITE
  6
CONTINUOUS
 62
          15
100
AcDbLine
 10
-4925.191407142755
 20
1323.865815524286
 30
0.0
 11
-4925.432720400498
 21
1321.880426919594
 31
0.0
  0
LINE
  5
160
100
AcDbEntity
  8
WHITE
  6
CONTINUOUS
 62
          15
100
AcDbLine
 10
-4920.46924888877
 20
1321.277143775237
 30
0.0
 11
-4925.432720400498
 21
1321.880426919594
 31
0.0
  0
LINE
  5
161
100
AcDbEntity
  8
WHITE
  6
CONTINUOUS
 62
          15
100
AcDbLine
 10
-4920.46924888877
 20
1321.277143775237
 30
0.0
 11
-4920.227935631027
 21
1323.262532379928
 31
0.0
  0
LINE
  5
162
100
AcDbEntity
  8
WHITE
  6
CONTINUOUS
 62
          15
100
AcDbLine
 10
-4924.717443383467
 20
1327.765320489436
 30
0.0
 11
-4925.191407142755
 21
1323.865815524286
 31
0.0
  0
LINE
  5
163
100
AcDbEntity
  8
WHITE
  6
CONTINUOUS
 62
          15
100
AcDbLine
 10
-4920.227935631027
 20
1323.262532379928
 30
0.0
 11
-4925.191407142755
 21
1323.865815524286
 31
0.0
  0
LINE
  5
164
100
AcDbEntity
  8
WHITE
  6
CONTINUOUS
 62
          15
100
AcDbLine
 10
-4920.227935631027
 20
1323.262532379928
 30
0.0
 11
-4920.069947711265
 21
1324.562367368311
 31
0.0
  0
LINE
  5
165
100
AcDbEntity
  8
WHITE
  6
CONTINUOUS
 62
          15
100
AcDbLine
 10
-4920.069947711265
 20
1324.562367368311
 30
0.0
 11
-4919.75397187174
 21
1327.162037345078
 31
0.0
  0
LINE
  5
166
100
AcDbEntity
  8
WHITE
  6
CONTINUOUS
 62
          15
100
AcDbLine
 10
-4924.234816867981
 20
1331.736097698818
 30
0.0
 11
-4924.717443383467
 21
1327.765320489436
 31
0.0
  0
LINE
  5
167
100
AcDbEntity
  8
WHITE
  6
CONTINUOUS
 62
          15
100
AcDbLine
 10
-4919.75397187174
 20
1327.162037345078
 30
0.0
 11
-4924.717443383467
 21
1327.765320489436
 31
0.0
  0
LINE
  5
168
100
AcDbEntity
  8
WHITE
  6
CONTINUOUS
 62
          15
100
AcDbLine
 10
-4919.75397187174
 20
1327.162037345078
 30
0.0
 11
-4919.271345356254
 21
1331.132814554461
 31
0.0
  0
LINE
  5
169
100
AcDbEntity
  8
WHITE
  6
CONTINUOUS
 62
          15
100
AcDbLine
 10
-4923.760853108694
 20
1335.635602663967
 30
0.0
 11
-4924.234816867981
 21
1331.736097698818
 31
0.0
  0
LINE
  5
16A
100
AcDbEntity
  8
WHITE
  6
CONTINUOUS
 62
          15
100
AcDbLine
 10
-4919.271345356254
 20
1331.132814554461
 30
0.0
 11
-4924.234816867981
 21
1331.736097698818
 31
0.0
  0
LINE
  5
16B
100
AcDbEntity
  8
WHITE
  6
CONTINUOUS
 62
          15
100
AcDbLine
 10
-4919.271345356254
 20
1331.132814554461
 30
0.0
 11
-4918.955369516729
 21
1333.732484531226
 31
0.0
  0
LINE
  5
16C
100
AcDbEntity
  8
WHITE
  6
CONTINUOUS
 62
          15
100
AcDbLine
 10
-4918.955369516729
 20
1333.732484531226
 30
0.0
 11
-4918.797381596966
 21
1335.032319519609
 31
0.0
  0
LINE
  5
16D
100
AcDbEntity
  8
WHITE
  6
CONTINUOUS
 62
          15
100
AcDbLine
 10
-4923.519539850951
 20
1337.620991268658
 30
0.0
 11
-4923.760853108694
 21
1335.635602663967
 31
0.0
  0
LINE
  5
16E
100
AcDbEntity
  8
WHITE
  6
CONTINUOUS
 62
          15
100
AcDbLine
 10
-4918.797381596966
 20
1335.032319519609
 30
0.0
 11
-4923.760853108694
 21
1335.635602663967
 31
0.0
  0
LINE
  5
16F
100
AcDbEntity
  8
WHITE
  6
CONTINUOUS
 62
          15
100
AcDbLine
 10
-4918.797381596966
 20
1335.032319519609
 30
0.0
 11
-4918.556068339224
 21
1337.017708124301
 31
0.0
  0
LINE
  5
170
100
AcDbEntity
  8
WHITE
  6
CONTINUOUS
 62
          15
100
AcDbLine
 10
-4923.519539850951
 20
1337.620991268658
 30
0.0
 11
-4918.556068339224
 21
1337.017708124301
 31
0.0
  0
LINE
  5
171
100
AcDbEntity
  8
WHITE
  6
CONTINUOUS
 62
          15
100
AcDbLine
 10
-4924.840248239815
 20
1320.489377563207
 30
0.0
 11
-4920.627236808532
 21
1319.977308786853
 31
0.0
  0
LINE
  5
172
100
AcDbEntity
  8
WHITE
  6
CONTINUOUS
 62
          15
100
AcDbLine
 10
-4918.556068339224
 20
1337.017708124301
 30
0.0
 11
-4918.398080419461
 21
1338.317543112686
 31
0.0
  0
LINE
  5
173
100
AcDbEntity
  8
WHITE
  6
CONTINUOUS
 62
          15
100
AcDbLine
 10
-4869.291249669169
 20
1362.833983856393
 30
0.0
 11
-4868.657802367593
 21
1368.045628943707
 31
0.0
  0
LINE
  5
174
100
AcDbEntity
  8
WHITE
  6
CONTINUOUS
 62
          15
100
AcDbLine
 10
-4871.202589323737
 20
1359.540538741492
 30
0.0
 11
-4871.624887524788
 21
1356.066108683281
 31
0.0
  0
LINE
  5
175
100
AcDbEntity
  8
WHITE
  6
CONTINUOUS
 62
          15
100
AcDbLine
 10
-4871.624887524788
 20
1356.066108683281
 30
0.0
 11
-4870.874421893478
 21
1355.9748936406
 31
0.0
  0
LINE
  5
176
100
AcDbEntity
  8
WHITE
  6
CONTINUOUS
 62
          15
100
AcDbLine
 10
-4870.357992921637
 20
1366.489398857911
 30
0.0
 11
-4871.202589323737
 21
1359.540538741492
 31
0.0
  0
LINE
  5
177
100
AcDbEntity
  8
WHITE
  6
CONTINUOUS
 62
          15
100
AcDbLine
 10
-4871.202589323737
 20
1359.540538741492
 30
0.0
 11
-4870.452123692427
 21
1359.449323698811
 31
0.0
  0
LINE
  5
178
100
AcDbEntity
  8
WHITE
  6
CONTINUOUS
 62
          15
100
AcDbLine
 10
-4869.935694720586
 20
1369.963828916119
 30
0.0
 11
-4870.357992921637
 21
1366.489398857911
 31
0.0
  0
LINE
  5
179
100
AcDbEntity
  8
WHITE
  6
CONTINUOUS
 62
          15
100
AcDbLine
 10
-4870.357992921637
 20
1366.489398857911
 30
0.0
 11
-4869.607527290327
 21
1366.39818381523
 31
0.0
  0
LINE
  5
17A
100
AcDbEntity
  8
WHITE
  6
CONTINUOUS
 62
          15
100
AcDbLine
 10
-4869.272083261793
 20
1375.423647579021
 30
0.0
 11
-4869.935694720586
 21
1369.963828916119
 31
0.0
  0
LINE
  5
17B
100
AcDbEntity
  8
WHITE
  6
CONTINUOUS
 62
          15
100
AcDbLine
 10
-4869.935694720586
 20
1369.963828916119
 30
0.0
 11
-4869.185229089277
 21
1369.872613873438
 31
0.0
  0
LINE
  5
17C
100
AcDbEntity
  8
WHITE
  6
CONTINUOUS
 62
          15
100
AcDbLine
 10
-4915.026407434878
 20
1334.64630314042
 30
0.0
 11
-4916.474286981335
 21
1322.733971512272
 31
0.0
  0
LINE
  5
17D
100
AcDbEntity
  8
WHITE
  6
CONTINUOUS
 62
           2
100
AcDbLine
 10
-4916.474286981335
 20
1322.733971512272
 30
0.0
 11
-4920.236598387226
 21
1323.191260135695
 31
0.0
  0
LINE
  5
17E
100
AcDbEntity
  8
WHITE
  6
CONTINUOUS
 62
          15
100
AcDbLine
 10
-4914.905750806006
 20
1335.638997442766
 30
0.0
 11
-4915.026407434878
 21
1334.64630314042
 31
0.0
  0
LINE
  5
17F
100
AcDbEntity
  8
WHITE
  6
CONTINUOUS
 62
           2
100
AcDbLine
 10
-4915.026407434878
 20
1334.64630314042
 30
0.0
 11
-4918.788718840768
 21
1335.103591763843
 31
0.0
  0
LINE
  5
180
100
AcDbEntity
  8
WHITE
  6
CONTINUOUS
 62
          15
100
AcDbLine
 10
-4916.474286981335
 20
1322.733971512272
 30
0.0
 11
-4916.594943610207
 21
1321.741277209927
 31
0.0
  0
LINE
  5
181
100
AcDbEntity
  8
WHITE
  6
CONTINUOUS
 62
          15
100
AcDbLine
 10
-4920.357255016097
 20
1322.19856583335
 30
0.0
 11
-4916.594943610207
 21
1321.741277209927
 31
0.0
  0
LINE
  5
182
100
AcDbEntity
  8
WHITE
  6
CONTINUOUS
 62
          15
100
AcDbLine
 10
-4914.84542249157
 20
1336.135344593939
 30
0.0
 11
-4914.905750806006
 21
1335.638997442766
 31
0.0
  0
LINE
  5
183
100
AcDbEntity
  8
WHITE
  6
CONTINUOUS
 62
          15
100
AcDbLine
 10
-4918.668062211897
 20
1336.096286066188
 30
0.0
 11
-4914.905750806006
 21
1335.638997442766
 31
0.0
  0
LINE
  5
184
100
AcDbEntity
  8
WHITE
  6
CONTINUOUS
 62
          15
100
AcDbLine
 10
-4878.376212969903
 20
1317.095996998374
 30
0.0
 11
-4897.273040836585
 21
1319.392804325032
 31
0.0
  0
LINE
  5
185
100
AcDbEntity
  8
WHITE
  6
CONTINUOUS
 62
          15
100
AcDbLine
 10
-4897.273040836585
 20
1319.392804325032
 30
0.0
 11
-4904.923925239804
 21
1318.308009058777
 31
0.0
  0
LINE
  5
186
100
AcDbEntity
  8
WHITE
  6
CONTINUOUS
 62
          15
100
AcDbLine
 10
-4872.891782127938
 20
1345.642818508653
 30
0.0
 11
-4873.388129279111
 21
1345.703146823089
 31
0.0
  0
LINE
  5
187
100
AcDbEntity
  8
WHITE
  6
CONTINUOUS
 62
          15
100
AcDbLine
 10
-4876.706186573077
 20
1318.404053508586
 30
0.0
 11
-4873.388129279111
 21
1345.703146823089
 31
0.0
  0
LINE
  5
188
100
AcDbEntity
  8
WHITE
  6
CONTINUOUS
 62
          15
100
AcDbLine
 10
-4903.193570528542
 20
1320.112412720162
 30
0.0
 11
-4897.273040836585
 21
1319.392804325032
 31
0.0
  0
LINE
  5
189
100
AcDbEntity
  8
WHITE
  6
CONTINUOUS
 62
          15
100
AcDbLine
 10
-4873.388129279111
 20
1345.703146823089
 30
0.0
 11
-4901.183569744787
 21
1349.081532431491
 31
0.0
  0
LINE
  5
18A
100
AcDbEntity
  8
WHITE
  6
CONTINUOUS
 62
          15
100
AcDbLine
 10
-4904.501627038753
 20
1321.782439116988
 30
0.0
 11
-4901.183569744787
 21
1349.081532431491
 31
0.0
  0
LINE
  5
18B
100
AcDbEntity
  8
WHITE
  6
CONTINUOUS
 62
          15
100
AcDbLine
 10
-4915.347215414432
 20
1319.574903661928
 30
0.0
 11
-4904.923925239804
 21
1318.308009058777
 31
0.0
  0
LINE
  5
18C
100
AcDbEntity
  8
WHITE
  6
CONTINUOUS
 62
          15
100
AcDbLine
 10
-4916.594943610207
 20
1321.741277209927
 30
0.0
 11
-4916.655271924643
 21
1321.244930058755
 31
0.0
  0
LINE
  5
18D
100
AcDbEntity
  8
WHITE
  6
CONTINUOUS
 62
          15
100
AcDbLine
 10
-4913.175396094744
 20
1337.443401104149
 30
0.0
 11
-4902.752105920116
 21
1336.176506500999
 31
0.0
  0
LINE
  5
18E
100
AcDbEntity
  8
WHITE
  6
CONTINUOUS
 62
          15
100
AcDbLine
 10
-4872.771125499066
 20
1346.635512810999
 30
0.0
 11
-4872.891782127938
 21
1345.642818508653
 31
0.0
  0
LINE
  5
18F
100
AcDbEntity
  8
WHITE
  6
CONTINUOUS
 62
          15
100
AcDbLine
 10
-4901.183569744787
 20
1349.081532431491
 30
0.0
 11
-4901.67991689596
 21
1349.141860745927
 31
0.0
  0
LINE
  5
190
100
AcDbEntity
  8
WHITE
  6
CONTINUOUS
 62
          15
100
AcDbLine
 10
-4901.67991689596
 20
1349.141860745927
 30
0.0
 11
-4901.559260267089
 21
1350.134555048272
 31
0.0
  0
LINE
  5
191
100
AcDbEntity
  8
WHITE
  6
CONTINUOUS
 62
          15
100
AcDbLine
 10
-4872.771125499066
 20
1346.635512810999
 30
0.0
 11
-4901.559260267089
 21
1350.134555048272
 31
0.0
  0
LINE
  5
192
100
AcDbEntity
  8
WHITE
  6
CONTINUOUS
 62
           7
100
AcDbLine
 10
-4898.415440781439
 20
1376.000118508782
 30
0.0
 11
-4898.482516230865
 21
1375.448259758084
 31
0.0
  0
LINE
  5
193
100
AcDbEntity
  8
WHITE
  6
CONTINUOUS
 62
          15
100
AcDbLine
 10
-4896.258174983584
 20
1377.751406121879
 30
0.0
 11
-4869.272083261793
 21
1375.423647579021
 31
0.0
  0
LINE
  5
194
100
AcDbEntity
  8
WHITE
  6
CONTINUOUS
 62
           7
100
AcDbLine
 10
-4904.833538974615
 20
1364.635558425468
 30
0.0
 11
-4904.77321066018
 21
1365.13190557664
 31
0.0
  0
LINE
  5
195
100
AcDbEntity
  8
WHITE
  6
CONTINUOUS
 62
           1
100
AcDbLine
 10
-4902.303038856913
 20
1364.831669540419
 30
0.0
 11
-4904.77321066018
 21
1365.13190557664
 31
0.0
  0
LINE
  5
196
100
AcDbEntity
  8
WHITE
  6
CONTINUOUS
 62
           7
100
AcDbLine
 10
-4904.77321066018
 20
1365.13190557664
 30
0.0
 11
-4904.290584144694
 21
1369.102682786022
 31
0.0
  0
LINE
  5
197
100
AcDbEntity
  8
WHITE
  6
CONTINUOUS
 62
           1
100
AcDbLine
 10
-4901.820412341427
 20
1368.802446749801
 30
0.0
 11
-4904.290584144694
 21
1369.102682786022
 31
0.0
  0
LINE
  5
198
100
AcDbEntity
  8
WHITE
  6
CONTINUOUS
 62
           7
100
AcDbLine
 10
-4904.893867289051
 20
1364.139211274294
 30
0.0
 11
-4904.833538974615
 21
1364.635558425468
 31
0.0
  0
LINE
  5
199
100
AcDbEntity
  8
WHITE
  6
CONTINUOUS
 62
           1
100
AcDbLine
 10
-4902.363367171349
 20
1364.335322389247
 30
0.0
 11
-4904.833538974615
 21
1364.635558425468
 31
0.0
  0
LINE
  5
19A
100
AcDbEntity
  8
WHITE
  6
CONTINUOUS
 62
           7
100
AcDbLine
 10
-4904.290584144694
 20
1369.102682786022
 30
0.0
 11
-4904.230255830257
 21
1369.599029937196
 31
0.0
  0
LINE
  5
19B
100
AcDbEntity
  8
WHITE
  6
CONTINUOUS
 62
           1
100
AcDbLine
 10
-4901.760084026991
 20
1369.298793900975
 30
0.0
 11
-4904.230255830257
 21
1369.599029937196
 31
0.0
  0
LINE
  5
19C
100
AcDbEntity
  8
WHITE
  6
CONTINUOUS
 62
           7
100
AcDbLine
 10
-4903.177233213476
 20
1369.974720459496
 30
0.0
 11
-4903.901172986705
 21
1364.018554645423
 31
0.0
  0
LINE
  5
19D
100
AcDbEntity
  8
WHITE
  6
CONTINUOUS
 62
           2
100
AcDbLine
 10
-4903.901172986705
 20
1364.018554645423
 30
0.0
 11
-4904.893867289051
 21
1364.139211274294
 31
0.0
  0
LINE
  5
19E
100
AcDbEntity
  8
WHITE
  6
CONTINUOUS
 62
           7
100
AcDbLine
 10
-4903.056576584605
 20
1370.967414761842
 30
0.0
 11
-4903.177233213476
 21
1369.974720459496
 31
0.0
  0
LINE
  5
19F
100
AcDbEntity
  8
WHITE
  6
CONTINUOUS
 62
           2
100
AcDbLine
 10
-4903.177233213476
 20
1369.974720459496
 30
0.0
 11
-4904.169927515822
 21
1370.095377088368
 31
0.0
  0
LINE
  5
1A0
100
AcDbEntity
  8
WHITE
  6
CONTINUOUS
 62
           7
100
AcDbLine
 10
-4903.901172986705
 20
1364.018554645423
 30
0.0
 11
-4904.021829615576
 21
1363.025860343078
 31
0.0
  0
LINE
  5
1A1
100
AcDbEntity
  8
WHITE
  6
CONTINUOUS
 62
           7
100
AcDbLine
 10
-4904.021829615576
 20
1363.025860343078
 30
0.0
 11
-4904.893867289051
 21
1364.139211274294
 31
0.0
  0
LINE
  5
1A2
100
AcDbEntity
  8
WHITE
  6
CONTINUOUS
 62
           7
100
AcDbLine
 10
-4904.230255830257
 20
1369.599029937196
 30
0.0
 11
-4904.169927515822
 21
1370.095377088368
 31
0.0
  0
LINE
  5
1A3
100
AcDbEntity
  8
WHITE
  6
CONTINUOUS
 62
           7
100
AcDbLine
 10
-4902.453293440247
 20
1375.93088627357
 30
0.0
 11
-4903.056576584605
 21
1370.967414761842
 31
0.0
  0
LINE
  5
1A4
100
AcDbEntity
  8
WHITE
  6
CONTINUOUS
 62
           7
100
AcDbLine
 10
-4904.169927515822
 20
1370.095377088368
 30
0.0
 11
-4903.056576584605
 21
1370.967414761842
 31
0.0
  0
LINE
  5
1A5
100
AcDbEntity
  8
WHITE
  6
CONTINUOUS
 62
          15
100
AcDbLine
 10
-4871.624887524788
 20
1356.066108683281
 30
0.0
 11
-4872.771125499066
 21
1346.635512810999
 31
0.0
  0
LINE
  5
1A6
100
AcDbEntity
  8
WHITE
  6
CONTINUOUS
 62
          15
100
AcDbLine
 10
-4901.559260267089
 20
1350.134555048272
 30
0.0
 11
-4900.654335550552
 21
1357.579762315863
 31
0.0
  0
LINE
  5
1A7
100
AcDbEntity
  8
WHITE
  6
CONTINUOUS
 62
           7
100
AcDbLine
 10
-4901.767686481769
 20
1356.707724642389
 30
0.0
 11
-4899.354553904339
 21
1376.561610689301
 31
0.0
  0
LINE
  5
1A8
100
AcDbEntity
  8
WHITE
  6
CONTINUOUS
 62
           7
100
AcDbLine
 10
-4903.75307508646
 20
1356.949037900132
 30
0.0
 11
-4901.33994250903
 21
1376.802923947044
 31
0.0
  0
LINE
  5
1A9
100
AcDbEntity
  8
WHITE
  6
CONTINUOUS
 62
           7
100
AcDbLine
 10
-4903.75307508646
 20
1356.949037900132
 30
0.0
 11
-4904.625112759934
 21
1358.062388831349
 31
0.0
  0
LINE
  5
1AA
100
AcDbEntity
  8
WHITE
  6
CONTINUOUS
 62
           7
100
AcDbLine
 10
-4900.654335550552
 20
1357.579762315863
 30
0.0
 11
-4901.767686481769
 21
1356.707724642389
 31
0.0
  0
LINE
  5
1AB
100
AcDbEntity
  8
WHITE
  6
CONTINUOUS
 62
           7
100
AcDbLine
 10
-4899.354553904339
 20
1376.561610689301
 30
0.0
 11
-4898.482516230865
 21
1375.448259758084
 31
0.0
  0
LINE
  5
1AC
100
AcDbEntity
  8
WHITE
  6
CONTINUOUS
 62
           7
100
AcDbLine
 10
-4901.33994250903
 20
1376.802923947044
 30
0.0
 11
-4902.453293440247
 21
1375.93088627357
 31
0.0
  0
LINE
  5
1AD
100
AcDbEntity
  8
WHITE
  6
CONTINUOUS
 62
           7
100
AcDbLine
 10
-4904.021829615576
 20
1363.025860343078
 30
0.0
 11
-4904.625112759934
 21
1358.062388831349
 31
0.0
  0
LINE
  5
1AE
100
AcDbEntity
  8
WHITE
  6
CONTINUOUS
 62
           7
100
AcDbLine
 10
-4903.75307508646
 20
1356.949037900132
 30
0.0
 11
-4901.767686481769
 21
1356.707724642389
 31
0.0
  0
LINE
  5
1AF
100
AcDbEntity
  8
WHITE
  6
CONTINUOUS
 62
          15
100
AcDbLine
 10
-4900.654335550552
 20
1357.579762315863
 30
0.0
 11
-4898.482516230865
 21
1375.448259758084
 31
0.0
  0
LINE
  5
1B0
100
AcDbEntity
  8
WHITE
  6
CONTINUOUS
 62
           7
100
AcDbLine
 10
-4899.354553904339
 20
1376.561610689301
 30
0.0
 11
-4901.33994250903
 21
1376.802923947044
 31
0.0
  0
LINE
  5
1B1
100
AcDbEntity
  8
WHITE
  6
CONTINUOUS
 62
          15
100
AcDbLine
 10
-4852.906347908778
 20
1377.463918726459
 30
0.0
 11
-4852.410000757605
 21
1377.403590412023
 31
0.0
  0
LINE
  5
1B2
100
AcDbEntity
  8
WHITE
  6
CONTINUOUS
 62
          15
100
AcDbLine
 10
-4868.446653267068
 20
1369.782843972812
 30
0.0
 11
-4863.979528906513
 21
1369.23988914289
 31
0.0
  0
LINE
  5
1B3
100
AcDbEntity
  8
WHITE
  6
CONTINUOUS
 62
           7
100
AcDbLine
 10
-4880.8035993823
 20
1355.260961617362
 30
0.0
 11
-4889.063918406109
 21
1356.264958763776
 31
0.0
  0
LINE
  5
1B4
100
AcDbEntity
  8
WHITE
  6
CONTINUOUS
 62
           7
100
AcDbLine
 10
-4889.063918406109
 20
1356.264958763776
 30
0.0
 11
-4888.235823724701
 21
1363.078052082607
 31
0.0
  0
LINE
  5
1B5
100
AcDbEntity
  8
WHITE
  6
CONTINUOUS
 62
           7
100
AcDbLine
 10
-4888.235823724701
 20
1363.078052082607
 30
0.0
 11
-4879.975504700891
 21
1362.074054936194
 31
0.0
  0
LINE
  5
1B6
100
AcDbEntity
  8
WHITE
  6
CONTINUOUS
 62
           7
100
AcDbLine
 10
-4879.975504700891
 20
1362.074054936194
 30
0.0
 11
-4880.8035993823
 21
1355.260961617362
 31
0.0
  0
ARC
  5
1B7
100
AcDbEntity
  8
WHITE
  6
CONTINUOUS
 62
          15
100
AcDbCircle
 10
-4824.302508029663
 20
1380.736584943772
 30
0.0
 40
2.25
100
AcDbArc
 50
173.07
 51
353.069999999999
  0
ARC
  5
1B8
100
AcDbEntity
  8
WHITE
  6
CONTINUOUS
 62
          15
100
AcDbCircle
 10
-4824.302508029663
 20
1380.736584943772
 30
0.0
 40
2.25
100
AcDbArc
 50
353.069999999999
 51
173.07
  0
ARC
  5
1B9
100
AcDbEntity
  8
WHITE
  6
CONTINUOUS
 62
          15
100
AcDbCircle
 10
-4877.832795503155
 20
1363.872162602101
 30
0.0
 40
8.604407030244
100
AcDbArc
 50
353.069999999999
 51
17.07198532828
  0
ARC
  5
1BA
100
AcDbEntity
  8
WHITE
  6
CONTINUOUS
 62
          15
100
AcDbCircle
 10
-4872.337049362569
 20
1357.915547168241
 30
0.0
 40
2.430106011614
100
AcDbArc
 50
353.069999999999
 51
39.135478142734
  0
ARC
  5
1BB
100
AcDbEntity
  8
WHITE
  6
CONTINUOUS
 62
          15
100
AcDbCircle
 10
-4871.070154759418
 20
1368.338837342869
 30
0.0
 40
2.430106011614
100
AcDbArc
 50
353.069999999999
 51
39.135478142734
  0
ARC
  5
1BC
100
AcDbEntity
  8
WHITE
  6
CONTINUOUS
 62
          15
100
AcDbCircle
 10
-4872.337049362569
 20
1357.915547168241
 30
0.0
 40
2.430106011614
100
AcDbArc
 50
307.004521857251
 51
353.069999999999
  0
ARC
  5
1BD
100
AcDbEntity
  8
WHITE
  6
CONTINUOUS
 62
          15
100
AcDbCircle
 10
-4871.070154759418
 20
1368.338837342869
 30
0.0
 40
2.430106011613
100
AcDbArc
 50
307.004521857281
 51
353.069999999999
  0
ARC
  5
1BE
100
AcDbEntity
  8
WHITE
  6
CONTINUOUS
 62
          15
100
AcDbCircle
 10
-4877.832795503155
 20
1363.872162602101
 30
0.0
 40
8.604407030244
100
AcDbArc
 50
329.068014671731
 51
353.069999999999
  0
CIRCLE
  5
1BF
100
AcDbEntity
  8
WHITE
  6
CONTINUOUS
 62
          15
100
AcDbCircle
 10
-4798.35524981181
 20
1337.288457354932
 30
0.0
 40
2.25
  0
CIRCLE
  5
1C0
100
AcDbEntity
  8
WHITE
  6
CONTINUOUS
 62
          15
100
AcDbCircle
 10
-4819.201830161067
 20
1339.822246561233
 30
0.0
 40
2.25
  0
CIRCLE
  5
1C1
100
AcDbEntity
  8
WHITE
  6
CONTINUOUS
 62
          15
100
AcDbCircle
 10
-4783.602041633494
 20
1375.78966316004
 30
0.0
 40
2.25
  0
ARC
  5
1C2
100
AcDbEntity
  8
WHITE
  6
CONTINUOUS
 62
          15
100
AcDbCircle
 10
-4866.64867654946
 20
1376.171380315196
 30
0.0
 40
0.5
100
AcDbArc
 50
90.219821982564
 51
173.07
  0
ARC
  5
1C3
100
AcDbEntity
  8
WHITE
  6
CONTINUOUS
 62
          15
100
AcDbCircle
 10
-4867.266149260127
 20
1371.091165100612
 30
0.0
 40
0.5
100
AcDbArc
 50
173.07
 51
255.92017801742
  0
ARC
  5
1C4
100
AcDbEntity
  8
WHITE
  6
CONTINUOUS
 62
          15
100
AcDbCircle
 10
-4866.428377619314
 20
1378.100088913879
 30
0.0
 40
1.0
100
AcDbArc
 50
83.07
 51
173.07
  0
ARC
  5
1C5
100
AcDbEntity
  8
WHITE
  6
CONTINUOUS
 62
          15
100
AcDbCircle
 10
-4870.168733114331
 20
1347.326565541166
 30
0.0
 40
1.0
100
AcDbArc
 50
173.07
 51
263.07
  0
ARC
  5
1C6
100
AcDbEntity
  8
WHITE
  6
CONTINUOUS
 62
          15
100
AcDbCircle
 10
-4878.195228026595
 20
1318.585038451893
 30
0.0
 40
1.500000000001
100
AcDbArc
 50
263.07
 51
353.069999999999
  0
ARC
  5
1C7
100
AcDbEntity
  8
WHITE
  6
CONTINUOUS
 62
          15
100
AcDbCircle
 10
-4903.012585585235
 20
1321.60145417368
 30
0.0
 40
1.5
100
AcDbArc
 50
173.07
 51
263.07
  0
ARC
  5
1C8
100
AcDbEntity
  8
WHITE
  6
CONTINUOUS
 62
          15
100
AcDbCircle
 10
-4913.356381038052
 20
1335.954359650631
 30
0.0
 40
1.5
100
AcDbArc
 50
83.07
 51
173.07
  0
ARC
  5
1C9
100
AcDbEntity
  8
WHITE
  6
CONTINUOUS
 62
          15
100
AcDbCircle
 10
-4915.166230471124
 20
1321.063945115448
 30
0.0
 40
1.5
100
AcDbArc
 50
173.07
 51
263.07
  0
ARC
  5
1CA
100
AcDbEntity
  8
WHITE
  6
CONTINUOUS
 62
          15
100
AcDbCircle
 10
-4896.430052176748
 20
1375.758805251039
 30
0.0
 40
2.0
100
AcDbArc
 50
85.07
 51
173.07
  0
TEXT
  5
1CB
100
AcDbEntity
  8
WHITE
  6
CONTINUOUS
 62
           7
100
AcDbText
 10
-4887.555715649387
 20
1357.673490205879
 30
0.0
 40
4.0
  1
14
 50
-6.93
 41
0.955
  7
TXT
100
AcDbText
  0
ENDSEC
  0
SECTION
  2
OBJECTS
  0
DICTIONARY
  5
19
100
AcDbDictionary
  3
ACAD_GROUP
350
1A
  3
ACAD_MLINESTYLE
350
1B
  0
DICTIONARY
  5
1A
102
{ACAD_REACTORS
330
19
102
}
100
AcDbDictionary
  0
DICTIONARY
  5
1B
102
{ACAD_REACTORS
330
19
102
}
100
AcDbDictionary
  3
STANDARD
350
1C
  0
MLINESTYLE
  5
1C
102
{ACAD_REACTORS
330
1B
102
}
100
AcDbMlineStyle
  2
STANDARD
 70
           0
  3

 62
           0
 51
90.0
 52
90.0
 71
           2
 49
0.5
 62
         256
  6
BYLAYER
 49
-0.5
 62
         256
  6
BYLAYER
  0
ENDSEC
  0
EOF
