  0
SECTION
  2
HEADER
  9
$ACADVER
  1
AC1012
  9
$DWGCODEPAGE
  3
dos850
  9
$INSBASE
 10
0.0
 20
0.0
 30
0.0
  9
$EXTMIN
 10
-5102.843186596654
 20
-1354.578384689917
 30
0.0
  9
$EXTMAX
 10
-4508.933030596654
 20
-979.578384689917
 30
0.0
  9
$LIMMIN
 10
-5102.843186596654
 20
-1354.578384689917
  9
$LIMMAX
 10
-4508.933030596654
 20
-979.578384689917
  9
$ORTHOMODE
 70
           0
  9
$REGENMODE
 70
           1
  9
$FILLMODE
 70
           1
  9
$QTEXTMODE
 70
           0
  9
$MIRRTEXT
 70
           1
  9
$DRAGMODE
 70
           2
  9
$LTSCALE
 40
5.0
  9
$OSMODE
 70
           0
  9
$ATTMODE
 70
           1
  9
$TEXTSIZE
 40
0.2
  9
$TRACEWID
 40
0.05
  9
$TEXTSTYLE
  7
TXT
  9
$CLAYER
  8
0
  9
$CELTYPE
  6
CONTINUOUS
  9
$CECOLOR
 62
         256
  9
$CELTSCALE
 40
1.0
  9
$DELOBJ
 70
           1
  9
$DISPSILH
 70
           0
  9
$DIMSCALE
 40
1.0
  9
$DIMASZ
 40
3.5
  9
$DIMEXO
 40
0.0625
  9
$DIMDLI
 40
0.38
  9
$DIMRND
 40
0.0
  9
$DIMDLE
 40
0.0
  9
$DIMEXE
 40
0.18
  9
$DIMTP
 40
0.0
  9
$DIMTM
 40
0.0
  9
$DIMTXT
 40
3.5
  9
$DIMCEN
 40
0.09
  9
$DIMTSZ
 40
0.0
  9
$DIMTOL
 70
           0
  9
$DIMLIM
 70
           0
  9
$DIMTIH
 70
           1
  9
$DIMTOH
 70
           1
  9
$DIMSE1
 70
           0
  9
$DIMSE2
 70
           0
  9
$DIMTAD
 70
           0
  9
$DIMZIN
 70
           0
  9
$DIMBLK
  1

  9
$DIMASO
 70
           1
  9
$DIMSHO
 70
           1
  9
$DIMPOST
  1

  9
$DIMAPOST
  1

  9
$DIMALT
 70
           0
  9
$DIMALTD
 70
           2
  9
$DIMALTF
 40
25.4
  9
$DIMLFAC
 40
1.0
  9
$DIMTOFL
 70
           0
  9
$DIMTVP
 40
0.0
  9
$DIMTIX
 70
           0
  9
$DIMSOXD
 70
           0
  9
$DIMSAH
 70
           0
  9
$DIMBLK1
  1

  9
$DIMBLK2
  1

  9
$DIMSTYLE
  2
STANDARD
  9
$DIMCLRD
 70
           0
  9
$DIMCLRE
 70
           0
  9
$DIMCLRT
 70
           0
  9
$DIMTFAC
 40
1.0
  9
$DIMGAP
 40
0.09
  9
$DIMJUST
 70
           0
  9
$DIMSD1
 70
           0
  9
$DIMSD2
 70
           0
  9
$DIMTOLJ
 70
           1
  9
$DIMTZIN
 70
           0
  9
$DIMALTZ
 70
           0
  9
$DIMALTTZ
 70
           0
  9
$DIMFIT
 70
           3
  9
$DIMUPT
 70
           0
  9
$DIMUNIT
 70
           2
  9
$DIMDEC
 70
           4
  9
$DIMTDEC
 70
           4
  9
$DIMALTU
 70
           2
  9
$DIMALTTD
 70
           2
  9
$DIMTXSTY
  7
TXT
  9
$DIMAUNIT
 70
           0
  9
$LUNITS
 70
           2
  9
$LUPREC
 70
           2
  9
$SKETCHINC
 40
0.1
  9
$FILLETRAD
 40
0.0
  9
$AUNITS
 70
           0
  9
$AUPREC
 70
           2
  9
$MENU
  1
acad
  9
$ELEVATION
 40
0.0
  9
$PELEVATION
 40
0.0
  9
$THICKNESS
 40
0.0
  9
$LIMCHECK
 70
           0
  9
$BLIPMODE
 70
           1
  9
$CHAMFERA
 40
0.0
  9
$CHAMFERB
 40
0.0
  9
$CHAMFERC
 40
0.0
  9
$CHAMFERD
 40
0.0
  9
$SKPOLY
 70
           0
  9
$TDCREATE
 40
0.000000000
  9
$TDUPDATE
 40
0.000000000
  9
$TDINDWG
 40
0.0000000000
  9
$TDUSRTIMER
 40
0.0000000000
  9
$USRTIMER
 70
           1
  9
$ANGBASE
 50
0.0
  9
$ANGDIR
 70
           0
  9
$PDMODE
 70
           2
  9
$PDSIZE
 40
0.5
  9
$PLINEWID
 40
0.0
  9
$COORDS
 70
           0
  9
$SPLFRAME
 70
           0
  9
$SPLINETYPE
 70
           6
  9
$SPLINESEGS
 70
           8
  9
$ATTDIA
 70
           0
  9
$ATTREQ
 70
           1
  9
$HANDLING
 70
           1
  9
$HANDSEED
  5
21C
  9
$SURFTAB1
 70
           6
  9
$SURFTAB2
 70
           6
  9
$SURFTYPE
 70
           6
  9
$SURFU
 70
           6
  9
$SURFV
 70
           6
  9
$UCSNAME
  2

  9
$UCSORG
 10
0.0
 20
0.0
 30
0.0
  9
$UCSXDIR
 10
1.0
 20
0.0
 30
0.0
  9
$UCSYDIR
 10
0.0
 20
1.0
 30
0.0
  9
$PUCSNAME
  2

  9
$PUCSORG
 10
0.0
 20
0.0
 30
0.0
  9
$PUCSXDIR
 10
1.0
 20
0.0
 30
0.0
  9
$PUCSYDIR
 10
0.0
 20
1.0
 30
0.0
  9
$USERI1
 70
           0
  9
$USERI2
 70
           0
  9
$USERI3
 70
           0
  9
$USERI4
 70
           0
  9
$USERI5
 70
           0
  9
$USERR1
 40
0.0
  9
$USERR2
 40
0.0
  9
$USERR3
 40
0.0
  9
$USERR4
 40
0.0
  9
$USERR5
 40
0.0
  9
$WORLDVIEW
 70
           1
  9
$SHADEDGE
 70
           3
  9
$SHADEDIF
 70
          70
  9
$TILEMODE
 70
           1
  9
$MAXACTVP
 70
          16
  9
$PINSBASE
 10
0.0
 20
0.0
 30
0.0
  9
$PLIMCHECK
 70
           0
  9
$PEXTMIN
 10
1.000000000000E+20
 20
1.000000000000E+20
 30
1.000000000000E+20
  9
$PEXTMAX
 10
-1.000000000000E+20
 20
-1.000000000000E+20
 30
-1.000000000000E+20
  9
$PLIMMIN
 10
0.0
 20
0.0
  9
$PLIMMAX
 10
12.0
 20
9.0
  9
$UNITMODE
 70
           0
  9
$VISRETAIN
 70
           0
  9
$PLINEGEN
 70
           1
  9
$PSLTSCALE
 70
           0
  9
$TREEDEPTH
 70
        3020
  9
$PICKSTYLE
 70
           1
  9
$CMLSTYLE
  2
STANDARD
  9
$CMLJUST
 70
           0
  9
$CMLSCALE
 40
1.0
  9
$SAVEIMAGES
 70
           0
  0
ENDSEC
  0
SECTION
  2
CLASSES
  0
CLASS
  1
LWPOLYLINE
  2
AcDbPolyline
  3
"AutoCAD"
 90
        0
280
           0
281
           1
  0
CLASS
  1
IMAGE
  2
AcDbRasterImage
  3
ISM
 90
      127
280
           0
281
           1
  0
CLASS
  1
OLE2FRAME
  2
AcDbOle2Frame
  3
""
 90
        0
280
           0
281
           1
  0
CLASS
  1
HATCH
  2
AcDbHatch
  3
"ACAD_SEDONA"
 90
        0
280
           0
281
           1
  0
CLASS
  1
DICTIONARYVAR
  2
AcDbDictionaryVar
  3
"AutoCAD"
 90
        0
280
           0
281
           0
  0
CLASS
  1
RASTERVARIABLES
  2
AcDbRasterVariables
  3
ISM
 90
        0
280
           0
281
           0
  0
CLASS
  1
IMAGEDEF
  2
AcDbRasterImageDef
  3
ISM
 90
        0
280
           0
281
           0
  0
CLASS
  1
IMAGEDEF_REACTOR
  2
AcDbRasterImageDefReactor
  3
ISM
 90
        1
280
           0
281
           0
  0
CLASS
  1
IDBUFFER
  2
AcDbIdBuffer
  3
"Acad"
 90
        0
280
           0
281
           0
  0
CLASS
  1
SPATIAL_FILTER
  2
AcDbSpatialFilter
  3
"Acad"
 90
        0
280
           0
281
           0
  0
CLASS
  1
XRECORD
  2
AcDbXrecord
  3
"<Built In>"
 90
        0
280
           0
281
           0
  0
ENDSEC
  0
SECTION
  2
TABLES
  0
TABLE
  2
VPORT
  5
7
100
AcDbSymbolTable
 70
           1
  0
VPORT
  5
15
100
AcDbSymbolTableRecord
100
AcDbViewportTableRecord
  2
*ACTIVE
 70
           0
 10
0.0
 20
0.0
 11
1.0
 21
1.0
 12
6.591288
 22
4.579184
 13
0.0
 23
0.0
 14
1.0
 24
1.0
 15
0.0
 25
0.0
 16
0.0
 26
0.0
 36
1.0
 17
0.0
 27
0.0
 37
0.0
 40
9.158369
 41
0.688564
 42
50.0
 43
0.0
 44
0.0
 50
0.0
 51
0.0
 71
           0
 72
         100
 73
           1
 74
           1
 75
           0
 76
           0
 77
           0
 78
           0
  0
ENDTAB
  0
TABLE
  2
LTYPE
  5
4
100
AcDbSymbolTable
 70
           5
  0
LTYPE
  5
11
100
AcDbSymbolTableRecord
100
AcDbLinetypeTableRecord
  2
BYBLOCK
 70
           0
  3

 72
          65
 73
           0
 40
0.0
  0
LTYPE
  5
12
100
AcDbSymbolTableRecord
100
AcDbLinetypeTableRecord
  2
BYLAYER
 70
           0
  3

 72
          65
 73
           0
 40
0.0
  0
LTYPE
  5
13
100
AcDbSymbolTableRecord
100
AcDbLinetypeTableRecord
  2
CONTINUOUS
 70
           0
  3
Solid line
 72
          65
 73
           0
 40
0.0
  0
LTYPE
  5
1D
100
AcDbSymbolTableRecord
100
AcDbLinetypeTableRecord
  2
GESTRICHELT
 70
           0
  3

 72
          65
 73
           2
 40
0.75
 49
0.5
 74
           0
 49
-0.25
 74
           0
  0
LTYPE
  5
1E
100
AcDbSymbolTableRecord
100
AcDbLinetypeTableRecord
  2
STRICHPUNKT
 70
           0
  3

 72
          65
 73
           4
 40
1.0
 49
0.5
 74
           0
 49
-0.25
 74
           0
 49
0.0
 74
           0
 49
-0.25
 74
           0
  0
ENDTAB
  0
TABLE
  2
LAYER
  5
2
100
AcDbSymbolTable
 70
           3
  0
LAYER
  5
14
100
AcDbSymbolTableRecord
100
AcDbLayerTableRecord
  2
0
 70
           0
 62
           7
  6
CONTINUOUS
  0
LAYER
  5
20
100
AcDbSymbolTableRecord
100
AcDbLayerTableRecord
  2
BLACK
 70
           0
 62
           7
  6
CONTINUOUS
  0
LAYER
  5
21
100
AcDbSymbolTableRecord
100
AcDbLayerTableRecord
  2
WHITE
 70
           0
 62
           7
  6
CONTINUOUS
  0
ENDTAB
  0
TABLE
  2
STYLE
  5
3
100
AcDbSymbolTable
 70
           2
  0
STYLE
  5
17
100
AcDbSymbolTableRecord
100
AcDbTextStyleTableRecord
  2
TXT
 70
           0
 40
3.5
 41
1.0
 50
0.0
 71
           0
 42
3.5
  3
TXT
  4

  0
STYLE
  5
1F
100
AcDbSymbolTableRecord
100
AcDbTextStyleTableRecord
  2
GOTHICG
 70
           0
 40
3.5
 41
1.0
 50
0.0
 71
           0
 42
3.5
  3
GOTHICG
  4

  0
ENDTAB
  0
TABLE
  2
VIEW
  5
5
100
AcDbSymbolTable
 70
           0
  0
ENDTAB
  0
TABLE
  2
UCS
  5
6
100
AcDbSymbolTable
 70
           0
  0
ENDTAB
  0
TABLE
  2
APPID
  5
8
100
AcDbSymbolTable
 70
           2
  0
APPID
  5
16
100
AcDbSymbolTableRecord
100
AcDbRegAppTableRecord
  2
ACAD
 70
           0
  0
APPID
  5
22
100
AcDbSymbolTableRecord
100
AcDbRegAppTableRecord
  2
MegaCADPntStyle
 70
           0
  0
ENDTAB
  0
TABLE
  2
DIMSTYLE
  5
9
100
AcDbSymbolTable
 70
           1
  0
DIMSTYLE
105
18
100
AcDbSymbolTableRecord
100
AcDbDimStyleTableRecord
  2
STANDARD
 70
           0
  3

  4

  5

  6

  7

 40
1.0
 41
0.18
 42
0.0625
 43
0.38
 44
0.18
 45
0.0
 46
0.0
 47
0.0
 48
0.0
140
0.18
141
0.09
142
0.0
143
25.4
144
1.0
145
0.0
146
1.0
147
0.09
 71
           0
 72
           0
 73
           1
 74
           1
 75
           0
 76
           0
 77
           0
 78
           0
170
           0
171
           2
172
           0
173
           0
174
           0
175
           0
176
           0
177
           0
178
           0
270
           2
271
           4
272
           4
273
           2
274
           2
340
17
275
           0
280
           0
281
           0
282
           0
283
           1
284
           0
285
           0
286
           0
287
           0
288
           0
  0
ENDTAB
  0
TABLE
  2
BLOCK_RECORD
  5
1
100
AcDbSymbolTable
 70
           2
  0
BLOCK_RECORD
  5
A
100
AcDbSymbolTableRecord
100
AcDbBlockTableRecord
  2
*MODEL_SPACE
  0
BLOCK_RECORD
  5
B
100
AcDbSymbolTableRecord
100
AcDbBlockTableRecord
  2
*PAPER_SPACE
  0
BLOCK_RECORD
  5
23
100
AcDbSymbolTableRecord
100
AcDbBlockTableRecord
  2
ELIPPSE
  0
BLOCK_RECORD
  5
24
100
AcDbSymbolTableRecord
100
AcDbBlockTableRecord
  2
MAK1
  0
ENDTAB
  0
ENDSEC
  0
SECTION
  2
BLOCKS
  0
BLOCK
  5
D
100
AcDbEntity
  8
0
100
AcDbBlockBegin
  2
*MODEL_SPACE
 70
           0
 10
0.0
 20
0.0
 30
0.0
  3
*MODEL_SPACE
  1

  0
ENDBLK
  5
E
100
AcDbEntity
  8
0
100
AcDbBlockEnd
  0
BLOCK
  5
F
100
AcDbEntity
 67
           1
  8
0
100
AcDbBlockBegin
  2
*PAPER_SPACE
 70
           0
 10
0.0
 20
0.0
 30
0.0
  3
*PAPER_SPACE
  1

  0
ENDBLK
  5
10
100
AcDbEntity
 67
           1
  8
0
100
AcDbBlockEnd
  0
BLOCK
  5
1EB
100
AcDbEntity
  8
0
100
AcDbBlockBegin
  2
ELIPPSE
 70
          64
 10
0.0
 20
0.0
 30
0.0
  3
ELIPPSE
  1

  0
CIRCLE
  5
1EC
100
AcDbEntity
  8
0
  6
BYBLOCK
 62
           0
100
AcDbCircle
 10
0.0
 20
0.0
 30
0.0
 40
1.0
  0
ENDBLK
  5
1ED
100
AcDbEntity
  8
0
  6
BYBLOCK
 62
           0
100
AcDbBlockEnd
  0
BLOCK
  5
1EE
100
AcDbEntity
  8
0
100
AcDbBlockBegin
  2
MAK1
 70
          64
 10
0.0
 20
0.0
 30
0.0
  3
MAK1
  1

  0
LINE
  5
1EF
100
AcDbEntity
  8
WHITE
  6
CONTINUOUS
 62
           2
100
AcDbLine
 10
-15.506932297428
 20
611.597948837689
 30
0.0
 11
-15.596491646587
 21
611.687508186849
 31
0.0
  0
LINE
  5
1F0
100
AcDbEntity
  8
WHITE
  6
CONTINUOUS
 62
           2
100
AcDbLine
 10
-14.446272125649
 20
611.597948837689
 30
0.0
 11
-15.596491646588
 21
612.748168358628
 31
0.0
  0
LINE
  5
1F1
100
AcDbEntity
  8
WHITE
  6
CONTINUOUS
 62
           2
100
AcDbLine
 10
-13.596491646587
 20
611.808828530409
 30
0.0
 11
-15.596491646587
 21
613.808828530408
 31
0.0
  0
LINE
  5
1F2
100
AcDbEntity
  8
WHITE
  6
CONTINUOUS
 62
           2
100
AcDbLine
 10
-13.596491646589
 20
612.869488702188
 30
0.0
 11
-15.596491646588
 21
614.869488702188
 31
0.0
  0
LINE
  5
1F3
100
AcDbEntity
  8
WHITE
  6
CONTINUOUS
 62
           2
100
AcDbLine
 10
-13.596491646588
 20
613.930148873968
 30
0.0
 11
-15.596491646588
 21
615.930148873968
 31
0.0
  0
LINE
  5
1F4
100
AcDbEntity
  8
WHITE
  6
CONTINUOUS
 62
           2
100
AcDbLine
 10
-13.596491646588
 20
614.990809045748
 30
0.0
 11
-15.596491646588
 21
616.990809045747
 31
0.0
  0
LINE
  5
1F5
100
AcDbEntity
  8
WHITE
  6
CONTINUOUS
 62
           2
100
AcDbLine
 10
-13.596491646587
 20
616.051469217527
 30
0.0
 11
-15.596491646587
 21
618.051469217527
 31
0.0
  0
LINE
  5
1F6
100
AcDbEntity
  8
WHITE
  6
CONTINUOUS
 62
           2
100
AcDbLine
 10
-13.596491646588
 20
617.112129389307
 30
0.0
 11
-15.596491646587
 21
619.112129389307
 31
0.0
  0
LINE
  5
1F7
100
AcDbEntity
  8
WHITE
  6
CONTINUOUS
 62
           2
100
AcDbLine
 10
-13.596491646588
 20
618.172789561087
 30
0.0
 11
-15.596491646588
 21
620.172789561087
 31
0.0
  0
LINE
  5
1F8
100
AcDbEntity
  8
WHITE
  6
CONTINUOUS
 62
           2
100
AcDbLine
 10
-13.596491646587
 20
619.233449732867
 30
0.0
 11
-15.596491646588
 21
621.233449732867
 31
0.0
  0
LINE
  5
1F9
100
AcDbEntity
  8
WHITE
  6
CONTINUOUS
 62
           2
100
AcDbLine
 10
-13.596491646589
 20
620.294109904647
 30
0.0
 11
-15.596491646588
 21
622.294109904647
 31
0.0
  0
LINE
  5
1FA
100
AcDbEntity
  8
WHITE
  6
CONTINUOUS
 62
           2
100
AcDbLine
 10
-13.596491646588
 20
621.354770076426
 30
0.0
 11
-15.596491646587
 21
623.354770076426
 31
0.0
  0
LINE
  5
1FB
100
AcDbEntity
  8
WHITE
  6
CONTINUOUS
 62
           2
100
AcDbLine
 10
-13.596491646587
 20
622.415430248206
 30
0.0
 11
-15.596491646588
 21
624.415430248206
 31
0.0
  0
LINE
  5
1FC
100
AcDbEntity
  8
WHITE
  6
CONTINUOUS
 62
           2
100
AcDbLine
 10
-13.596491646587
 20
623.476090419986
 30
0.0
 11
-15.596491646587
 21
625.476090419986
 31
0.0
  0
LINE
  5
1FD
100
AcDbEntity
  8
WHITE
  6
CONTINUOUS
 62
           2
100
AcDbLine
 10
-13.596491646588
 20
624.536750591766
 30
0.0
 11
-15.596491646588
 21
626.536750591766
 31
0.0
  0
LINE
  5
1FE
100
AcDbEntity
  8
WHITE
  6
CONTINUOUS
 62
           2
100
AcDbLine
 10
-13.596491646588
 20
625.597410763546
 30
0.0
 11
-15.596491646588
 21
627.597410763545
 31
0.0
  0
LINE
  5
1FF
100
AcDbEntity
  8
WHITE
  6
CONTINUOUS
 62
           2
100
AcDbLine
 10
-13.596491646587
 20
626.658070935325
 30
0.0
 11
-15.596491646588
 21
628.658070935325
 31
0.0
  0
LINE
  5
200
100
AcDbEntity
  8
WHITE
  6
CONTINUOUS
 62
           2
100
AcDbLine
 10
-13.596491646589
 20
627.718731107105
 30
0.0
 11
-15.596491646588
 21
629.718731107105
 31
0.0
  0
LINE
  5
201
100
AcDbEntity
  8
WHITE
  6
CONTINUOUS
 62
           2
100
AcDbLine
 10
-13.596491646588
 20
628.779391278885
 30
0.0
 11
-15.596491646587
 21
630.779391278885
 31
0.0
  0
LINE
  5
202
100
AcDbEntity
  8
WHITE
  6
CONTINUOUS
 62
           2
100
AcDbLine
 10
-13.596491646587
 20
629.840051450665
 30
0.0
 11
-15.354389033612
 21
631.597948837688
 31
0.0
  0
LINE
  5
203
100
AcDbEntity
  8
WHITE
  6
CONTINUOUS
 62
           2
100
AcDbLine
 10
-13.596491646588
 20
630.900711622444
 30
0.0
 11
-14.293728861831
 21
631.597948837689
 31
0.0
  0
LINE
  5
204
100
AcDbEntity
  8
WHITE
  6
CONTINUOUS
 62
           2
100
AcDbLine
 10
-15.596491646588
 20
631.406213139101
 30
0.0
 11
-15.404755948001
 21
631.597948837689
 31
0.0
  0
LINE
  5
205
100
AcDbEntity
  8
WHITE
  6
CONTINUOUS
 62
           2
100
AcDbLine
 10
-15.596491646588
 20
630.345552967321
 30
0.0
 11
-14.34409577622
 21
631.597948837689
 31
0.0
  0
LINE
  5
206
100
AcDbEntity
  8
WHITE
  6
CONTINUOUS
 62
           2
100
AcDbLine
 10
-15.596491646588
 20
629.284892795542
 30
0.0
 11
-13.596491646588
 21
631.284892795542
 31
0.0
  0
LINE
  5
207
100
AcDbEntity
  8
WHITE
  6
CONTINUOUS
 62
           2
100
AcDbLine
 10
-15.596491646587
 20
628.224232623762
 30
0.0
 11
-13.596491646587
 21
630.224232623762
 31
0.0
  0
LINE
  5
208
100
AcDbEntity
  8
WHITE
  6
CONTINUOUS
 62
           2
100
AcDbLine
 10
-15.596491646587
 20
627.163572451982
 30
0.0
 11
-13.596491646588
 21
629.163572451982
 31
0.0
  0
LINE
  5
209
100
AcDbEntity
  8
WHITE
  6
CONTINUOUS
 62
           2
100
AcDbLine
 10
-15.596491646588
 20
626.102912280202
 30
0.0
 11
-13.596491646587
 21
628.102912280202
 31
0.0
  0
LINE
  5
20A
100
AcDbEntity
  8
WHITE
  6
CONTINUOUS
 62
           2
100
AcDbLine
 10
-15.596491646587
 20
625.042252108423
 30
0.0
 11
-13.596491646589
 21
627.042252108422
 31
0.0
  0
LINE
  5
20B
100
AcDbEntity
  8
WHITE
  6
CONTINUOUS
 62
           2
100
AcDbLine
 10
-15.596491646588
 20
623.981591936643
 30
0.0
 11
-13.596491646588
 21
625.981591936642
 31
0.0
  0
LINE
  5
20C
100
AcDbEntity
  8
WHITE
  6
CONTINUOUS
 62
           2
100
AcDbLine
 10
-15.596491646588
 20
622.920931764863
 30
0.0
 11
-13.596491646588
 21
624.920931764863
 31
0.0
  0
LINE
  5
20D
100
AcDbEntity
  8
WHITE
  6
CONTINUOUS
 62
           2
100
AcDbLine
 10
-15.596491646588
 20
621.860271593083
 30
0.0
 11
-13.596491646588
 21
623.860271593083
 31
0.0
  0
LINE
  5
20E
100
AcDbEntity
  8
WHITE
  6
CONTINUOUS
 62
           2
100
AcDbLine
 10
-15.596491646587
 20
620.799611421303
 30
0.0
 11
-13.596491646587
 21
622.799611421303
 31
0.0
  0
LINE
  5
20F
100
AcDbEntity
  8
WHITE
  6
CONTINUOUS
 62
           2
100
AcDbLine
 10
-15.596491646587
 20
619.738951249524
 30
0.0
 11
-13.596491646588
 21
621.738951249524
 31
0.0
  0
LINE
  5
210
100
AcDbEntity
  8
WHITE
  6
CONTINUOUS
 62
           2
100
AcDbLine
 10
-15.596491646588
 20
618.678291077744
 30
0.0
 11
-13.596491646588
 21
620.678291077744
 31
0.0
  0
LINE
  5
211
100
AcDbEntity
  8
WHITE
  6
CONTINUOUS
 62
           2
100
AcDbLine
 10
-15.596491646587
 20
617.617630905964
 30
0.0
 11
-13.596491646588
 21
619.617630905964
 31
0.0
  0
LINE
  5
212
100
AcDbEntity
  8
WHITE
  6
CONTINUOUS
 62
           2
100
AcDbLine
 10
-15.596491646588
 20
616.556970734184
 30
0.0
 11
-13.596491646588
 21
618.556970734184
 31
0.0
  0
LINE
  5
213
100
AcDbEntity
  8
WHITE
  6
CONTINUOUS
 62
           2
100
AcDbLine
 10
-15.596491646588
 20
615.496310562404
 30
0.0
 11
-13.596491646588
 21
617.496310562405
 31
0.0
  0
LINE
  5
214
100
AcDbEntity
  8
WHITE
  6
CONTINUOUS
 62
           2
100
AcDbLine
 10
-15.596491646587
 20
614.435650390625
 30
0.0
 11
-13.596491646588
 21
616.435650390624
 31
0.0
  0
LINE
  5
215
100
AcDbEntity
  8
WHITE
  6
CONTINUOUS
 62
           2
100
AcDbLine
 10
-15.596491646587
 20
613.374990218845
 30
0.0
 11
-13.596491646587
 21
615.374990218845
 31
0.0
  0
LINE
  5
216
100
AcDbEntity
  8
WHITE
  6
CONTINUOUS
 62
           2
100
AcDbLine
 10
-15.596491646587
 20
612.314330047065
 30
0.0
 11
-13.596491646588
 21
614.314330047065
 31
0.0
  0
LINE
  5
217
100
AcDbEntity
  8
WHITE
  6
CONTINUOUS
 62
           2
100
AcDbLine
 10
-15.252212684184
 20
611.597948837689
 30
0.0
 11
-13.596491646588
 21
613.253669875285
 31
0.0
  0
LINE
  5
218
100
AcDbEntity
  8
WHITE
  6
CONTINUOUS
 62
           2
100
AcDbLine
 10
-14.191552512404
 20
611.597948837689
 30
0.0
 11
-13.596491646588
 21
612.193009703505
 31
0.0
  0
ENDBLK
  5
219
100
AcDbEntity
  8
0
  6
BYBLOCK
 62
           0
100
AcDbBlockEnd
  0
ENDSEC
  0
SECTION
  2
ENTITIES
  0
INSERT
  5
25
100
AcDbEntity
  8
0
  6
CONTINUOUS
 62
           7
100
AcDbBlockReference
  2
MAK1
 10
-4828.275890913861
 20
-1764.459311040201
 30
0.0
 50
353.589999999999
  0
LINE
  5
26
100
AcDbEntity
  8
0
  6
CONTINUOUS
 62
          15
100
AcDbLine
 10
-5095.843186596654
 20
-979.578384689917
 30
0.0
 11
-4794.843186596654
 21
-979.578384689917
 31
0.0
  0
LINE
  5
27
100
AcDbEntity
  8
0
  6
CONTINUOUS
 62
          15
100
AcDbLine
 10
-4794.843186596654
 20
-1207.078445689917
 30
0.0
 11
-4794.843186596654
 21
-1354.578384689917
 31
0.0
  0
LINE
  5
28
100
AcDbEntity
  8
0
  6
GESTRICHELT
 62
          15
100
AcDbLine
 10
-4794.843186596654
 20
-1120.367294667208
 30
0.0
 11
-4794.843186596654
 21
-1207.078445689917
 31
0.0
  0
LINE
  5
29
100
AcDbEntity
  8
0
  6
CONTINUOUS
 62
          15
100
AcDbLine
 10
-4794.843186596654
 20
-979.578384689917
 30
0.0
 11
-4794.843186596654
 21
-1120.367294667208
 31
0.0
  0
LINE
  5
2A
100
AcDbEntity
  8
0
  6
CONTINUOUS
 62
          15
100
AcDbLine
 10
-4794.843186596654
 20
-1354.578384689917
 30
0.0
 11
-5095.843186596654
 21
-1354.578384689917
 31
0.0
  0
LINE
  5
2B
100
AcDbEntity
  8
0
  6
CONTINUOUS
 62
          15
100
AcDbLine
 10
-5095.843186596654
 20
-1142.078384689917
 30
0.0
 11
-5095.843186596654
 21
-979.578384689917
 31
0.0
  0
LINE
  5
2C
100
AcDbEntity
  8
0
  6
GESTRICHELT
 62
          15
100
AcDbLine
 10
-5095.843186596654
 20
-1192.078384689917
 30
0.0
 11
-5095.843186596654
 21
-1142.078384689917
 31
0.0
  0
LINE
  5
2D
100
AcDbEntity
  8
0
  6
CONTINUOUS
 62
          15
100
AcDbLine
 10
-5095.843186596654
 20
-1354.578384689917
 30
0.0
 11
-5095.843186596654
 21
-1192.078384689917
 31
0.0
  0
LINE
  5
2E
100
AcDbEntity
  8
0
  6
STRICHPUNKT
 62
          15
100
AcDbLine
 10
-4945.343186596654
 20
-979.578384689917
 30
0.0
 11
-4945.343186596654
 21
-1354.578384689917
 31
0.0
  0
LINE
  5
2F
100
AcDbEntity
  8
0
  6
GESTRICHELT
 62
          15
100
AcDbLine
 10
-5095.843186596654
 20
-1167.078384689917
 30
0.0
 11
-4794.843186596654
 21
-1167.078384689917
 31
0.0
  0
CIRCLE
  5
30
100
AcDbEntity
  8
0
  6
CONTINUOUS
 62
          15
100
AcDbCircle
 10
-4945.343186596654
 20
-1167.078384689917
 30
0.0
 40
10.25
  0
LINE
  5
31
100
AcDbEntity
  8
0
  6
GESTRICHELT
 62
          15
100
AcDbLine
 10
-4787.843186596654
 20
-1142.078384689917
 30
0.0
 11
-4787.843186596654
 21
-1192.078384689917
 31
0.0
  0
LINE
  5
32
100
AcDbEntity
  8
0
  6
CONTINUOUS
 62
          15
100
AcDbLine
 10
-5102.843186596654
 20
-1192.078384689917
 30
0.0
 11
-5102.843186596654
 21
-1142.078384689917
 31
0.0
  0
LINE
  5
33
100
AcDbEntity
  8
0
  6
GESTRICHELT
 62
          15
100
AcDbLine
 10
-5005.343186596654
 20
-1192.078384689917
 30
0.0
 11
-4787.843186596654
 21
-1192.078384689917
 31
0.0
  0
LINE
  5
34
100
AcDbEntity
  8
0
  6
CONTINUOUS
 62
          15
100
AcDbLine
 10
-5102.843186596654
 20
-1192.078384689917
 30
0.0
 11
-5005.343186596654
 21
-1192.078384689917
 31
0.0
  0
LINE
  5
35
100
AcDbEntity
  8
0
  6
GESTRICHELT
 62
          15
100
AcDbLine
 10
-5005.343186596654
 20
-1142.078384689917
 30
0.0
 11
-4787.843186596654
 21
-1142.078384689917
 31
0.0
  0
LINE
  5
36
100
AcDbEntity
  8
0
  6
CONTINUOUS
 62
          15
100
AcDbLine
 10
-5102.843186596654
 20
-1142.078384689917
 30
0.0
 11
-5005.343186596654
 21
-1142.078384689917
 31
0.0
  0
TEXT
  5
37
100
AcDbEntity
  8
0
  6
CONTINUOUS
 62
          15
100
AcDbText
 10
-5045.159493402125
 20
-1304.281793158312
 30
0.0
 40
3.5
  1
300-730
 41
0.900000010218
  7
GOTHICG
100
AcDbText
  0
CIRCLE
  5
38
100
AcDbEntity
  8
0
  6
GESTRICHELT
 62
          15
100
AcDbCircle
 10
-4945.343186596654
 20
-1167.078384689917
 30
0.0
 40
17.5
  0
ARC
  5
39
100
AcDbEntity
  8
0
  6
GESTRICHELT
 62
          15
100
AcDbCircle
 10
-4945.343186596654
 20
-1167.078384689917
 30
0.0
 40
22.5
100
AcDbArc
 50
109.064916387402
 51
186.057558731017
  0
ARC
  5
3A
100
AcDbEntity
  8
0
  6
CONTINUOUS
 62
          15
100
AcDbCircle
 10
-4945.343186596654
 20
-1167.078384689917
 30
0.0
 40
22.5
100
AcDbArc
 50
186.057558731017
 51
109.064916387402
  0
CIRCLE
  5
3B
100
AcDbEntity
  8
0
  6
CONTINUOUS
 62
          15
100
AcDbCircle
 10
-4548.933030596654
 20
-1167.078384689917
 30
0.0
 40
6.25
  0
LINE
  5
3C
100
AcDbEntity
  8
0
  6
GESTRICHELT
 62
          15
100
AcDbLine
 10
-4815.72116463846
 20
-1127.078382304647
 30
0.0
 11
-5005.343186596654
 21
-1127.078460037692
 31
0.0
  0
LINE
  5
3D
100
AcDbEntity
  8
0
  6
CONTINUOUS
 62
          15
100
AcDbLine
 10
-4807.081161102469
 20
-1127.078378762792
 30
0.0
 11
-4815.72116463846
 21
-1127.078382304647
 31
0.0
  0
LINE
  5
3E
100
AcDbEntity
  8
0
  6
GESTRICHELT
 62
          15
100
AcDbLine
 10
-4623.142662004369
 20
-1127.078303359633
 30
0.0
 11
-4807.081161102469
 21
-1127.078378762792
 31
0.0
  0
LINE
  5
3F
100
AcDbEntity
  8
0
  6
CONTINUOUS
 62
          15
100
AcDbLine
 10
-4508.933030596654
 20
-1127.078256540902
 30
0.0
 11
-4623.142662004369
 21
-1127.078303359633
 31
0.0
  0
LINE
  5
40
100
AcDbEntity
  8
0
  6
CONTINUOUS
 62
          15
100
AcDbLine
 10
-5005.343186596654
 20
-1207.078445689917
 30
0.0
 11
-4508.933030596654
 21
-1207.078445689917
 31
0.0
  0
LINE
  5
41
100
AcDbEntity
  8
0
  6
CONTINUOUS
 62
          15
100
AcDbLine
 10
-4508.933030596654
 20
-1207.078445689917
 30
0.0
 11
-4508.933030596654
 21
-1127.078256540902
 31
0.0
  0
LINE
  5
42
100
AcDbEntity
  8
0
  6
CONTINUOUS
 62
          15
100
AcDbLine
 10
-5005.343186596654
 20
-1131.827122031446
 30
0.0
 11
-5005.343186596654
 21
-1207.078445689917
 31
0.0
  0
LINE
  5
43
100
AcDbEntity
  8
0
  6
GESTRICHELT
 62
          15
100
AcDbLine
 10
-5005.343186596654
 20
-1127.078460037692
 30
0.0
 11
-5005.343186596654
 21
-1131.827122031446
 31
0.0
  0
LINE
  5
44
100
AcDbEntity
  8
WHITE
  6
GESTRICHELT
 62
          15
100
AcDbLine
 10
-4984.587612952508
 20
-1103.085220992535
 30
0.0
 11
-4980.188575094632
 21
-1107.479055958714
 31
0.0
  0
LINE
  5
45
100
AcDbEntity
  8
WHITE
  6
CONTINUOUS
 62
          15
100
AcDbLine
 10
-4981.044639231443
 20
-1134.668728271944
 30
0.0
 11
-4981.052079046574
 21
-1134.90502614593
 31
0.0
  0
LINE
  5
46
100
AcDbEntity
  8
WHITE
  6
GESTRICHELT
 62
          15
100
AcDbLine
 10
-4980.188575094632
 20
-1107.479055958714
 30
0.0
 11
-4981.044639231443
 21
-1134.668728271944
 31
0.0
  0
LINE
  5
47
100
AcDbEntity
  8
WHITE
  6
CONTINUOUS
 62
          15
100
AcDbLine
 10
-4981.052079046574
 20
-1134.90502614593
 30
0.0
 11
-4935.090138269449
 21
-1152.582695675593
 31
0.0
  0
LINE
  5
48
100
AcDbEntity
  8
WHITE
  6
CONTINUOUS
 62
          15
100
AcDbLine
 10
-4935.090138269449
 20
-1152.582695675593
 30
0.0
 11
-4931.554604363517
 21
-1156.118229581526
 31
0.0
  0
ARC
  5
49
100
AcDbEntity
  8
WHITE
  6
CONTINUOUS
 62
          15
100
AcDbCircle
 10
-4942.161206081315
 20
-1166.724831299324
 30
0.0
 40
15.0
100
AcDbArc
 50
314.999999999999
 51
45.0
  0
LINE
  5
4A
100
AcDbEntity
  8
WHITE
  6
CONTINUOUS
 62
          15
100
AcDbLine
 10
-4931.554604363517
 20
-1177.331433017122
 30
0.0
 11
-4935.090138269448
 21
-1180.866966923055
 31
0.0
  0
ARC
  5
4B
100
AcDbEntity
  8
WHITE
  6
CONTINUOUS
 62
          15
100
AcDbCircle
 10
-4945.696739987247
 20
-1170.260365205257
 30
0.0
 40
15.0
100
AcDbArc
 50
224.999999999999
 51
314.999999999999
  0
LINE
  5
4C
100
AcDbEntity
  8
WHITE
  6
GESTRICHELT
 62
          15
100
AcDbLine
 10
-5005.21724455525
 20
-1131.953064072852
 30
0.0
 11
-5009.336350294037
 21
-1127.833958334064
 31
0.0
  0
LINE
  5
4D
100
AcDbEntity
  8
WHITE
  6
CONTINUOUS
 62
          15
100
AcDbLine
 10
-4956.303341705046
 20
-1180.866966923055
 30
0.0
 11
-5005.21724455525
 21
-1131.953064072852
 31
0.0
  0
ARC
  5
4E
100
AcDbEntity
  8
WHITE
  6
GESTRICHELT
 62
          15
100
AcDbCircle
 10
-4998.729748576239
 20
-1117.227356616266
 30
0.0
 40
15.0
100
AcDbArc
 50
135.0
 51
225.0
  0
LINE
  5
4F
100
AcDbEntity
  8
WHITE
  6
GESTRICHELT
 62
          15
100
AcDbLine
 10
-5009.336350294037
 20
-1106.620754898467
 30
0.0
 11
-5005.800816388104
 21
-1103.085220992535
 31
0.0
  0
ARC
  5
50
100
AcDbEntity
  8
WHITE
  6
GESTRICHELT
 62
          15
100
AcDbCircle
 10
-4995.194214670306
 20
-1113.691822710333
 30
0.0
 40
15.0
100
AcDbArc
 50
115.494701449336
 51
135.0
  0
ARC
  5
51
100
AcDbEntity
  8
WHITE
  6
CONTINUOUS
 62
          15
100
AcDbCircle
 10
-4995.194214670306
 20
-1113.691822710333
 30
0.0
 40
15.0
100
AcDbArc
 50
51.685298550662
 51
115.494701449336
  0
ARC
  5
52
100
AcDbEntity
  8
WHITE
  6
GESTRICHELT
 62
          15
100
AcDbCircle
 10
-4995.194214670306
 20
-1113.691822710333
 30
0.0
 40
15.0
100
AcDbArc
 50
45.0
 51
51.685298550662
  0
CIRCLE
  5
53
100
AcDbEntity
  8
WHITE
  6
CONTINUOUS
 62
          15
100
AcDbCircle
 10
-4995.547768060898
 20
-1116.873803225672
 30
0.0
 40
8.25
  0
LINE
  5
54
100
AcDbEntity
  8
BLACK
  6
GESTRICHELT
 62
          15
100
AcDbLine
 10
-4571.793143561919
 20
-1164.545312508659
 30
0.0
 11
-4569.560296047328
 21
-1144.67034352814
 31
0.0
  0
LINE
  5
55
100
AcDbEntity
  8
BLACK
  6
GESTRICHELT
 62
          15
100
AcDbLine
 10
-4569.560296047328
 20
-1144.67034352814
 30
0.0
 11
-4573.535289843432
 21
-1144.223774025222
 31
0.0
  0
LINE
  5
56
100
AcDbEntity
  8
BLACK
  6
CONTINUOUS
 62
          15
100
AcDbLine
 10
-4572.195581334677
 20
-1132.29879263691
 30
0.0
 11
-4601.610535425843
 21
-1128.994178315315
 31
0.0
  0
LINE
  5
57
100
AcDbEntity
  8
BLACK
  6
CONTINUOUS
 62
          15
100
AcDbLine
 10
-4601.610535425843
 20
-1128.994178315315
 30
0.0
 11
-4601.666356613709
 21
-1129.491052539828
 31
0.0
  0
LINE
  5
58
100
AcDbEntity
  8
BLACK
  6
CONTINUOUS
 62
          15
100
AcDbLine
 10
-4601.666356613709
 20
-1129.491052539828
 30
0.0
 11
-4747.548628930717
 21
-1113.101951782726
 31
0.0
  0
LINE
  5
59
100
AcDbEntity
  8
BLACK
  6
CONTINUOUS
 62
          15
100
AcDbLine
 10
-4747.548628930717
 20
-1113.101951782726
 30
0.0
 11
-4747.492807742852
 21
-1112.605077558213
 31
0.0
  0
LINE
  5
5A
100
AcDbEntity
  8
BLACK
  6
CONTINUOUS
 62
          15
100
AcDbLine
 10
-4747.492807742852
 20
-1112.605077558213
 30
0.0
 11
-4776.90776183402
 21
-1109.300463236618
 31
0.0
  0
LINE
  5
5B
100
AcDbEntity
  8
BLACK
  6
CONTINUOUS
 62
          15
100
AcDbLine
 10
-4776.90776183402
 20
-1109.300463236618
 30
0.0
 11
-4778.247470342774
 21
-1121.225444624929
 31
0.0
  0
LINE
  5
5C
100
AcDbEntity
  8
BLACK
  6
CONTINUOUS
 62
          15
100
AcDbLine
 10
-4778.247470342774
 20
-1121.225444624929
 30
0.0
 11
-4789.675577506573
 21
-1119.941557304039
 31
0.0
  0
LINE
  5
5D
100
AcDbEntity
  8
BLACK
  6
CONTINUOUS
 62
          15
100
AcDbLine
 10
-4789.675577506573
 20
-1119.941557304039
 30
0.0
 11
-4789.787219882303
 21
-1120.935305753065
 31
0.0
  0
LINE
  5
5E
100
AcDbEntity
  8
BLACK
  6
CONTINUOUS
 62
          15
100
AcDbLine
 10
-4789.787219882303
 20
-1120.935305753065
 30
0.0
 11
-4806.184069291231
 21
-1119.093206553526
 31
0.0
  0
LINE
  5
5F
100
AcDbEntity
  8
BLACK
  6
CONTINUOUS
 62
          15
100
AcDbLine
 10
-4806.184069291231
 20
-1119.093206553526
 30
0.0
 11
-4810.426479568954
 21
-1156.855647616512
 31
0.0
  0
LINE
  5
60
100
AcDbEntity
  8
BLACK
  6
CONTINUOUS
 62
          15
100
AcDbLine
 10
-4810.426479568954
 20
-1156.855647616512
 30
0.0
 11
-4794.029630160027
 21
-1158.69774681605
 31
0.0
  0
LINE
  5
61
100
AcDbEntity
  8
BLACK
  6
CONTINUOUS
 62
          15
100
AcDbLine
 10
-4794.029630160027
 20
-1158.69774681605
 30
0.0
 11
-4794.141272535757
 21
-1159.691495265076
 31
0.0
  0
LINE
  5
62
100
AcDbEntity
  8
BLACK
  6
CONTINUOUS
 62
          15
100
AcDbLine
 10
-4794.141272535757
 20
-1159.691495265076
 30
0.0
 11
-4782.713165371958
 21
-1160.975382585966
 31
0.0
  0
LINE
  5
63
100
AcDbEntity
  8
BLACK
  6
CONTINUOUS
 62
          15
100
AcDbLine
 10
-4782.713165371958
 20
-1160.975382585966
 30
0.0
 11
-4784.052873880713
 21
-1172.900363974278
 31
0.0
  0
LINE
  5
64
100
AcDbEntity
  8
BLACK
  6
GESTRICHELT
 62
          15
100
AcDbLine
 10
-4774.115389390454
 20
-1174.016787731573
 30
0.0
 11
-4754.637919789545
 21
-1176.204978295873
 31
0.0
  0
LINE
  5
65
100
AcDbEntity
  8
BLACK
  6
CONTINUOUS
 62
          15
100
AcDbLine
 10
-4784.052873880713
 20
-1172.900363974278
 30
0.0
 11
-4774.115389390454
 21
-1174.016787731573
 31
0.0
  0
LINE
  5
66
100
AcDbEntity
  8
BLACK
  6
GESTRICHELT
 62
          15
100
AcDbLine
 10
-4754.637919789545
 20
-1176.204978295873
 30
0.0
 11
-4754.582098601681
 21
-1175.70810407136
 31
0.0
  0
LINE
  5
67
100
AcDbEntity
  8
BLACK
  6
CONTINUOUS
 62
          15
100
AcDbLine
 10
-4746.234611629863
 20
-1176.645900027488
 30
0.0
 11
-4608.699826284672
 21
-1192.097204828462
 31
0.0
  0
LINE
  5
68
100
AcDbEntity
  8
BLACK
  6
GESTRICHELT
 62
          15
100
AcDbLine
 10
-4754.582098601681
 20
-1175.70810407136
 30
0.0
 11
-4746.234611629863
 21
-1176.645900027488
 31
0.0
  0
LINE
  5
69
100
AcDbEntity
  8
BLACK
  6
CONTINUOUS
 62
          15
100
AcDbLine
 10
-4608.699826284672
 20
-1192.097204828462
 30
0.0
 11
-4608.755647472537
 21
-1192.594079052975
 31
0.0
  0
LINE
  5
6A
100
AcDbEntity
  8
BLACK
  6
CONTINUOUS
 62
          15
100
AcDbLine
 10
-4608.755647472537
 20
-1192.594079052975
 30
0.0
 11
-4579.340693381369
 21
-1195.89869337457
 31
0.0
  0
LINE
  5
6B
100
AcDbEntity
  8
BLACK
  6
GESTRICHELT
 62
          15
100
AcDbLine
 10
-4578.000984872615
 20
-1183.973711986259
 30
0.0
 11
-4574.025991076511
 21
-1184.420281489177
 31
0.0
  0
LINE
  5
6C
100
AcDbEntity
  8
BLACK
  6
GESTRICHELT
 62
          15
100
AcDbLine
 10
-4574.025991076511
 20
-1184.420281489177
 30
0.0
 11
-4571.793143561919
 21
-1164.545312508659
 31
0.0
  0
LINE
  5
6D
100
AcDbEntity
  8
BLACK
  6
CONTINUOUS
 62
          15
100
AcDbLine
 10
-4601.666356613709
 20
-1129.491052539828
 30
0.0
 11
-4608.699826284672
 21
-1192.097204828462
 31
0.0
  0
LINE
  5
6E
100
AcDbEntity
  8
BLACK
  6
GESTRICHELT
 62
          15
100
AcDbLine
 10
-4750.061787547162
 20
-1135.47201924974
 30
0.0
 11
-4754.582098601681
 21
-1175.70810407136
 31
0.0
  0
LINE
  5
6F
100
AcDbEntity
  8
BLACK
  6
CONTINUOUS
 62
          15
100
AcDbLine
 10
-4747.548628930717
 20
-1113.101951782726
 30
0.0
 11
-4750.061787547162
 21
-1135.47201924974
 31
0.0
  0
LINE
  5
70
100
AcDbEntity
  8
BLACK
  6
CONTINUOUS
 62
          15
100
AcDbLine
 10
-4778.247470342774
 20
-1121.225444624929
 30
0.0
 11
-4782.713165371958
 21
-1160.975382585966
 31
0.0
  0
LINE
  5
71
100
AcDbEntity
  8
BLACK
  6
CONTINUOUS
 62
          15
100
AcDbLine
 10
-4789.675577506573
 20
-1119.941557304039
 30
0.0
 11
-4794.141272535757
 21
-1159.691495265076
 31
0.0
  0
LINE
  5
72
100
AcDbEntity
  8
BLACK
  6
GESTRICHELT
 62
          15
100
AcDbLine
 10
-4923.128477723472
 20
-1117.024321225775
 30
0.0
 11
-4947.520629877577
 21
-1114.283992102937
 31
0.0
  0
LINE
  5
73
100
AcDbEntity
  8
BLACK
  6
CONTINUOUS
 62
          15
100
AcDbLine
 10
-4916.635027456697
 20
-1117.753825976374
 30
0.0
 11
-4923.128477723472
 21
-1117.024321225775
 31
0.0
  0
LINE
  5
74
100
AcDbEntity
  8
BLACK
  6
GESTRICHELT
 62
          15
100
AcDbLine
 10
-4924.914755735145
 20
-1132.92429641019
 30
0.0
 11
-4949.306907889251
 21
-1130.183967287351
 31
0.0
  0
LINE
  5
75
100
AcDbEntity
  8
BLACK
  6
CONTINUOUS
 62
          15
100
AcDbLine
 10
-4918.42130546837
 20
-1133.653801160789
 30
0.0
 11
-4924.914755735145
 21
-1132.92429641019
 31
0.0
  0
LINE
  5
76
100
AcDbEntity
  8
BLACK
  6
GESTRICHELT
 62
          15
100
AcDbLine
 10
-4948.537704441131
 20
-1115.095657650914
 30
0.0
 11
-4947.520629877577
 21
-1114.283992102937
 31
0.0
  0
LINE
  5
77
100
AcDbEntity
  8
BLACK
  6
GESTRICHELT
 62
          15
100
AcDbLine
 10
-4950.118529221596
 20
-1129.166857439556
 30
0.0
 11
-4949.306907889251
 21
-1130.183967287351
 31
0.0
  0
LINE
  5
78
100
AcDbEntity
  8
BLACK
  6
GESTRICHELT
 62
          15
100
AcDbLine
 10
-4948.537704441131
 20
-1115.095657650914
 30
0.0
 11
-4950.118529221596
 21
-1129.166857439556
 31
0.0
  0
LINE
  5
79
100
AcDbEntity
  8
BLACK
  6
CONTINUOUS
 62
          15
100
AcDbLine
 10
-4923.231204339076
 20
-1117.938708923662
 30
0.0
 11
-4916.737754072301
 21
-1118.668213674261
 31
0.0
  0
LINE
  5
7A
100
AcDbEntity
  8
BLACK
  6
GESTRICHELT
 62
          15
100
AcDbLine
 10
-4948.537704441131
 20
-1115.095657650914
 30
0.0
 11
-4923.231204339076
 21
-1117.938708923662
 31
0.0
  0
LINE
  5
7B
100
AcDbEntity
  8
BLACK
  6
CONTINUOUS
 62
          15
100
AcDbLine
 10
-4924.812029119541
 20
-1132.009908712304
 30
0.0
 11
-4918.318578852766
 21
-1132.739413462902
 31
0.0
  0
LINE
  5
7C
100
AcDbEntity
  8
BLACK
  6
GESTRICHELT
 62
          15
100
AcDbLine
 10
-4950.118529221596
 20
-1129.166857439556
 30
0.0
 11
-4924.812029119541
 21
-1132.009908712304
 31
0.0
  0
LINE
  5
7D
100
AcDbEntity
  8
BLACK
  6
GESTRICHELT
 62
          15
100
AcDbLine
 10
-4947.520629877577
 20
-1114.283992102937
 30
0.0
 11
-4949.306907889251
 21
-1130.183967287351
 31
0.0
  0
LINE
  5
7E
100
AcDbEntity
  8
BLACK
  6
CONTINUOUS
 62
          15
100
AcDbLine
 10
-4807.188850672797
 20
-1128.03694259476
 30
0.0
 11
-4916.411742705237
 21
-1115.766329078322
 31
0.0
  0
LINE
  5
7F
100
AcDbEntity
  8
BLACK
  6
CONTINUOUS
 62
          15
100
AcDbLine
 10
-4916.411742705237
 20
-1115.766329078322
 30
0.0
 11
-4918.644590219829
 21
-1135.641298058841
 31
0.0
  0
LINE
  5
80
100
AcDbEntity
  8
BLACK
  6
CONTINUOUS
 62
          15
100
AcDbLine
 10
-4918.644590219829
 20
-1135.641298058841
 30
0.0
 11
-4809.421698187389
 21
-1147.911911575279
 31
0.0
  0
LINE
  5
81
100
AcDbEntity
  8
BLACK
  6
CONTINUOUS
 62
          15
100
AcDbLine
 10
-4916.940053406393
 20
-1120.468915676349
 30
0.0
 11
-4910.315060433726
 21
-1121.213198553355
 31
0.0
  0
LINE
  5
82
100
AcDbEntity
  8
BLACK
  6
CONTINUOUS
 62
          15
100
AcDbLine
 10
-4918.116279518673
 20
-1130.938711460814
 30
0.0
 11
-4911.491286546005
 21
-1131.682994337819
 31
0.0
  0
LINE
  5
83
100
AcDbEntity
  8
BLACK
  6
CONTINUOUS
 62
          15
100
AcDbLine
 10
-4910.315060433726
 20
-1121.213198553355
 30
0.0
 11
-4911.491286546005
 21
-1131.682994337819
 31
0.0
  0
LINE
  5
84
100
AcDbEntity
  8
BLACK
  6
CONTINUOUS
 62
          15
100
AcDbLine
 10
-4916.940053406393
 20
-1120.468915676349
 30
0.0
 11
-4911.491286546005
 21
-1131.682994337819
 31
0.0
  0
LINE
  5
85
100
AcDbEntity
  8
BLACK
  6
CONTINUOUS
 62
          15
100
AcDbLine
 10
-4910.315060433726
 20
-1121.213198553355
 30
0.0
 11
-4918.116279518673
 21
-1130.938711460814
 31
0.0
  0
CIRCLE
  5
86
100
AcDbEntity
  8
BLACK
  6
GESTRICHELT
 62
          15
100
AcDbCircle
 10
-4767.516799764704
 20
-1151.110268682382
 30
0.0
 40
5.7225
  0
ARC
  5
87
100
AcDbEntity
  8
BLACK
  6
GESTRICHELT
 62
          15
100
AcDbCircle
 10
-4767.516799764704
 20
-1151.110268682382
 30
0.0
 40
6.5785
100
AcDbArc
 50
103.59
 51
13.59
  0
CIRCLE
  5
88
100
AcDbEntity
  8
BLACK
  6
CONTINUOUS
 62
          15
100
AcDbCircle
 10
-4588.731655450685
 20
-1154.088887928806
 30
0.0
 40
5.7225
  0
ARC
  5
89
100
AcDbEntity
  8
BLACK
  6
CONTINUOUS
 62
          15
100
AcDbCircle
 10
-4588.731655450685
 20
-1154.088887928806
 30
0.0
 40
6.57849
100
AcDbArc
 50
103.59
 51
13.59
  0
LINE
  5
8A
100
AcDbEntity
  8
BLACK
  6
GESTRICHELT
 62
          15
100
AcDbLine
 10
-4761.278039716522
 20
-1134.607006458769
 30
0.0
 11
-4764.523792569171
 21
-1137.197126398067
 31
0.0
  0
LINE
  5
8B
100
AcDbEntity
  8
BLACK
  6
CONTINUOUS
 62
          15
100
AcDbLine
 10
-4755.217839949226
 20
-1129.770949936292
 30
0.0
 11
-4761.278039716522
 21
-1134.607006458769
 31
0.0
  0
LINE
  5
8C
100
AcDbEntity
  8
BLACK
  6
GESTRICHELT
 62
          15
100
AcDbLine
 10
-4763.470989877498
 20
-1134.437883126788
 30
0.0
 11
-4765.459448063235
 21
-1136.024688037672
 31
0.0
  0
LINE
  5
8D
100
AcDbEntity
  8
BLACK
  6
CONTINUOUS
 62
          15
100
AcDbLine
 10
-4756.153489861172
 20
-1128.598461888473
 30
0.0
 11
-4763.470989877498
 21
-1134.437883126788
 31
0.0
  0
ARC
  5
8E
100
AcDbEntity
  8
BLACK
  6
CONTINUOUS
 62
          15
100
AcDbCircle
 10
-4760.338641773384
 20
-1132.897799112013
 30
0.0
 40
6.0
100
AcDbArc
 50
338.368688099555
 51
192.811311900445
  0
ARC
  5
8F
100
AcDbEntity
  8
BLACK
  6
GESTRICHELT
 62
          15
100
AcDbCircle
 10
-4760.338641773384
 20
-1132.897799112013
 30
0.0
 40
6.0
100
AcDbArc
 50
192.811311900445
 51
338.368688099555
  0
LINE
  5
90
100
AcDbEntity
  8
BLACK
  6
CONTINUOUS
 62
          15
100
AcDbLine
 10
-4590.788709027619
 20
-1169.174502066229
 30
0.0
 11
-4600.094965354218
 21
-1176.600694722714
 31
0.0
  0
LINE
  5
91
100
AcDbEntity
  8
BLACK
  6
CONTINUOUS
 62
          15
100
AcDbLine
 10
-4591.724662646218
 20
-1168.00203021312
 30
0.0
 11
-4601.030913390699
 21
-1175.428173182183
 31
0.0
  0
CIRCLE
  5
92
100
AcDbEntity
  8
BLACK
  6
CONTINUOUS
 62
          15
100
AcDbCircle
 10
-4595.909813442006
 20
-1172.301357499175
 30
0.0
 40
6.0
  0
LINE
  5
93
100
AcDbEntity
  8
BLACK
  6
CONTINUOUS
 62
          15
100
AcDbLine
 10
-4922.963932393599
 20
-1111.149162603711
 30
0.0
 11
-4926.444536336313
 21
-1110.758135182718
 31
0.0
  0
LINE
  5
94
100
AcDbEntity
  8
BLACK
  6
CONTINUOUS
 62
          15
100
AcDbLine
 10
-4929.925140279026
 20
-1110.367107761725
 30
0.0
 11
-4926.444536336313
 21
-1110.758135182718
 31
0.0
  0
LINE
  5
95
100
AcDbEntity
  8
BLACK
  6
CONTINUOUS
 62
          15
100
AcDbLine
 10
-4933.019152423045
 20
-1137.907454778651
 30
0.0
 11
-4929.538548480332
 21
-1138.298482199643
 31
0.0
  0
LINE
  5
96
100
AcDbEntity
  8
BLACK
  6
CONTINUOUS
 62
          15
100
AcDbLine
 10
-4926.057944537619
 20
-1138.689509620636
 30
0.0
 11
-4929.538548480332
 21
-1138.298482199643
 31
0.0
  0
LINE
  5
97
100
AcDbEntity
  8
BLACK
  6
CONTINUOUS
 62
          15
100
AcDbLine
 10
-4923.73743431318
 20
-1118.034239420458
 30
0.0
 11
-4927.218038255895
 21
-1117.643211999465
 31
0.0
  0
LINE
  5
98
100
AcDbEntity
  8
BLACK
  6
CONTINUOUS
 62
          15
100
AcDbLine
 10
-4930.698642198608
 20
-1117.252184578472
 30
0.0
 11
-4927.218038255895
 21
-1117.643211999465
 31
0.0
  0
LINE
  5
99
100
AcDbEntity
  8
BLACK
  6
CONTINUOUS
 62
          15
100
AcDbLine
 10
-4932.245650503464
 20
-1131.022377961903
 30
0.0
 11
-4928.765046560751
 21
-1131.413405382896
 31
0.0
  0
LINE
  5
9A
100
AcDbEntity
  8
BLACK
  6
CONTINUOUS
 62
          15
100
AcDbLine
 10
-4925.284442618037
 20
-1131.804432803889
 30
0.0
 11
-4928.765046560751
 21
-1131.413405382896
 31
0.0
  0
ARC
  5
9B
100
AcDbEntity
  8
BLACK
  6
CONTINUOUS
 62
          15
100
AcDbCircle
 10
-4972.697602009218
 20
-1119.50581964152
 30
0.0
 40
48.982200000031
100
AcDbArc
 50
354.449437000001
 51
1.721609999997
  0
ARC
  5
9C
100
AcDbEntity
  8
BLACK
  6
CONTINUOUS
 62
          15
100
AcDbCircle
 10
-4883.285482807466
 20
-1129.550797740835
 30
0.0
 40
48.982199999991
100
AcDbArc
 50
165.458000000003
 51
172.731000000004
  0
ARC
  5
9D
100
AcDbEntity
  8
BLACK
  6
CONTINUOUS
 62
          15
100
AcDbCircle
 10
-4883.285482807467
 20
-1129.550797740842
 30
0.0
 40
48.982199999991
100
AcDbArc
 50
174.448999999995
 51
181.721999999996
  0
ARC
  5
9E
100
AcDbEntity
  8
BLACK
  6
CONTINUOUS
 62
          15
100
AcDbCircle
 10
-4972.697602009217
 20
-1119.505819641516
 30
0.0
 40
48.982200000031
100
AcDbArc
 50
345.458390000002
 51
352.730562999997
  0
LINE
  5
9F
100
AcDbEntity
  8
BLACK
  6
CONTINUOUS
 62
          15
100
AcDbLine
 10
-4923.945058022476
 20
-1124.243581836926
 30
0.0
 11
-4924.021616729309
 21
-1124.974308817983
 31
0.0
  0
LINE
  5
A0
100
AcDbEntity
  8
BLACK
  6
CONTINUOUS
 62
          15
100
AcDbLine
 10
-4931.873978147563
 20
-1123.352809649455
 30
0.0
 11
-4931.961468087337
 21
-1124.082308564379
 31
0.0
  0
LINE
  5
A1
100
AcDbEntity
  8
BLACK
  6
CONTINUOUS
 62
          15
100
AcDbLine
 10
-4932.038026794169
 20
-1124.813035545435
 30
0.0
 11
-4931.961468087337
 21
-1124.082308564379
 31
0.0
  0
LINE
  5
A2
100
AcDbEntity
  8
BLACK
  6
CONTINUOUS
 62
          15
100
AcDbLine
 10
-4924.109106669081
 20
-1125.703807732906
 30
0.0
 11
-4924.021616729309
 21
-1124.974308817983
 31
0.0
  0
ARC
  5
A3
100
AcDbEntity
  8
BLACK
  6
CONTINUOUS
 62
          15
100
AcDbCircle
 10
-4935.58273357064
 20
-1113.217499977976
 30
0.0
 40
12.801499999978
100
AcDbArc
 50
337.871499999983
 51
353.59000000001
  0
ARC
  5
A4
100
AcDbEntity
  8
BLACK
  6
CONTINUOUS
 62
          15
100
AcDbCircle
 10
-4918.079802388029
 20
-1115.183861607391
 30
0.0
 40
12.787200000002
100
AcDbArc
 50
173.59
 51
189.308999999996
  0
ARC
  5
A5
100
AcDbEntity
  8
BLACK
  6
CONTINUOUS
 62
          15
100
AcDbCircle
 10
-4920.400311496032
 20
-1135.83912187009
 30
0.0
 40
12.801500000013
100
AcDbArc
 50
157.871000000002
 51
173.589999999986
  0
ARC
  5
A6
100
AcDbEntity
  8
BLACK
  6
CONTINUOUS
 62
          15
100
AcDbCircle
 10
-4937.903242678707
 20
-1133.872760240666
 30
0.0
 40
12.78720000003
100
AcDbArc
 50
353.590000000019
 51
9.308499999982
  0
ARC
  5
A7
100
AcDbEntity
  8
BLACK
  6
CONTINUOUS
 62
          15
100
AcDbCircle
 10
-4935.582733570693
 20
-1113.217499977972
 30
0.0
 40
12.78720000003
100
AcDbArc
 50
353.590000000019
 51
9.308499999982
  0
ARC
  5
A8
100
AcDbEntity
  8
BLACK
  6
CONTINUOUS
 62
          15
100
AcDbCircle
 10
-4918.079802388018
 20
-1115.183861607396
 30
0.0
 40
12.801500000013
100
AcDbArc
 50
157.871000000002
 51
173.589999999986
  0
ARC
  5
A9
100
AcDbEntity
  8
BLACK
  6
CONTINUOUS
 62
          15
100
AcDbCircle
 10
-4920.400311496042
 20
-1135.839121870085
 30
0.0
 40
12.787200000002
100
AcDbArc
 50
173.59
 51
189.308999999996
  0
ARC
  5
AA
100
AcDbEntity
  8
BLACK
  6
CONTINUOUS
 62
          15
100
AcDbCircle
 10
-4937.903242678654
 20
-1133.87276024067
 30
0.0
 40
12.801499999978
100
AcDbArc
 50
337.871499999983
 51
353.59000000001
  0
LINE
  5
AB
100
AcDbEntity
  8
BLACK
  6
CONTINUOUS
 62
          15
100
AcDbLine
 10
-4922.861362175301
 20
-1114.646678686636
 30
0.0
 11
-4924.021616729309
 21
-1124.974308817983
 31
0.0
  0
LINE
  5
AC
100
AcDbEntity
  8
BLACK
  6
CONTINUOUS
 62
          15
100
AcDbLine
 10
-4930.801213533329
 20
-1113.754678433031
 30
0.0
 11
-4931.961468087337
 21
-1124.082308564379
 31
0.0
  0
LINE
  5
AD
100
AcDbEntity
  8
BLACK
  6
CONTINUOUS
 62
          15
100
AcDbLine
 10
-4933.121722641343
 20
-1134.409938695725
 30
0.0
 11
-4931.961468087337
 21
-1124.082308564379
 31
0.0
  0
LINE
  5
AE
100
AcDbEntity
  8
BLACK
  6
CONTINUOUS
 62
          15
100
AcDbLine
 10
-4925.181871283316
 20
-1135.30193894933
 30
0.0
 11
-4924.021616729309
 21
-1124.974308817983
 31
0.0
  0
LINE
  5
AF
100
AcDbEntity
  8
0
  6
CONTINUOUS
 62
          15
100
AcDbLine
 10
-4572.191632486831
 20
-1132.263643246759
 30
0.0
 11
-4579.336744533524
 21
-1195.863543984419
 31
0.0
  0
LINE
  5
B0
100
AcDbEntity
  8
0
  6
CONTINUOUS
 62
          15
100
AcDbLine
 10
-4571.651601650863
 20
-1190.156940053571
 30
0.0
 11
-4572.133742921104
 21
-1194.448564415573
 31
0.0
  0
LINE
  5
B1
100
AcDbEntity
  8
0
  6
CONTINUOUS
 62
          15
100
AcDbLine
 10
-4565.482256233244
 20
-1135.242509935078
 30
0.0
 11
-4565.964397503484
 21
-1139.534134297082
 31
0.0
  0
LINE
  5
B2
100
AcDbEntity
  8
0
  6
CONTINUOUS
 62
          15
100
AcDbLine
 10
-4565.964397503484
 20
-1139.534134297082
 30
0.0
 11
-4566.96976381494
 21
-1148.483076902283
 31
0.0
  0
LINE
  5
B3
100
AcDbEntity
  8
0
  6
CONTINUOUS
 62
          15
100
AcDbLine
 10
-4570.646235339407
 20
-1181.207997448368
 30
0.0
 11
-4571.651601650863
 21
-1190.156940053571
 31
0.0
  0
LINE
  5
B4
100
AcDbEntity
  8
WHITE
  6
CONTINUOUS
 62
          15
100
AcDbLine
 10
-4574.275025910138
 20
-1196.219358358203
 30
0.0
 11
-4579.332896106032
 21
-1195.829288453527
 31
0.0
  0
LINE
  5
B5
100
AcDbEntity
  8
WHITE
  6
CONTINUOUS
 62
          15
100
AcDbLine
 10
-4567.177241757435
 20
-1133.040731540424
 30
0.0
 11
-4572.195581334677
 21
-1132.29879263691
 31
0.0
  0
LINE
  5
B6
100
AcDbEntity
  8
0
  6
CONTINUOUS
 62
          15
100
AcDbLine
 10
-4570.549502420532
 20
-1190.241935461731
 30
0.0
 11
-4571.651601650863
 21
-1190.156940053571
 31
0.0
  0
LINE
  5
B7
100
AcDbEntity
  8
WHITE
  6
CONTINUOUS
 62
          15
100
AcDbLine
 10
-4562.328433625158
 20
-1142.998468808703
 30
0.0
 11
-4563.331696889736
 21
-1151.92869182325
 31
0.0
  0
LINE
  5
B8
100
AcDbEntity
  8
0
  6
CONTINUOUS
 62
          15
100
AcDbLine
 10
-4565.964397503484
 20
-1139.534134297082
 30
0.0
 11
-4564.870911911443
 21
-1139.695801216723
 31
0.0
  0
LINE
  5
B9
100
AcDbEntity
  8
WHITE
  6
CONTINUOUS
 62
          15
100
AcDbLine
 10
-4566.313808620752
 20
-1178.472993555928
 30
0.0
 11
-4566.334314672404
 21
-1178.655521533238
 31
0.0
  0
LINE
  5
BA
100
AcDbEntity
  8
0
  6
CONTINUOUS
 62
          15
100
AcDbLine
 10
-4547.38540651005
 20
-1155.178600671433
 30
0.0
 11
-4562.487423166245
 21
-1153.214510844496
 31
0.0
  0
LINE
  5
BB
100
AcDbEntity
  8
0
  6
CONTINUOUS
 62
          15
100
AcDbLine
 10
-4550.064415439369
 20
-1179.024930983205
 30
0.0
 11
-4565.2257781015
 21
-1177.589090407217
 31
0.0
  0
LINE
  5
BC
100
AcDbEntity
  8
0
  6
CONTINUOUS
 62
          15
100
AcDbLine
 10
-4563.133807010267
 20
-1152.85439085575
 30
0.0
 11
-4565.935955482457
 21
-1177.796807926178
 31
0.0
  0
LINE
  5
BD
100
AcDbEntity
  8
WHITE
  6
CONTINUOUS
 62
          15
100
AcDbLine
 10
-4565.240204264655
 20
-1150.689658990156
 30
0.0
 11
-4564.196476664879
 21
-1150.825400779313
 31
0.0
  0
LINE
  5
BE
100
AcDbEntity
  8
WHITE
  6
CONTINUOUS
 62
          15
100
AcDbLine
 10
-4563.331696889736
 20
-1151.92869182325
 30
0.0
 11
-4563.352202941387
 21
-1152.111219800561
 31
0.0
  0
LINE
  5
BF
100
AcDbEntity
  8
WHITE
  6
CONTINUOUS
 62
          15
100
AcDbLine
 10
-4566.334314672404
 20
-1178.655521533238
 30
0.0
 11
-4567.337577936982
 21
-1187.585744547786
 31
0.0
  0
LINE
  5
C0
100
AcDbEntity
  8
WHITE
  6
CONTINUOUS
 62
          15
100
AcDbLine
 10
-4567.422345191655
 20
-1179.539424681949
 30
0.0
 11
-4568.4701743009
 21
-1179.440191150947
 31
0.0
  0
ARC
  5
C1
100
AcDbEntity
  8
0
  6
CONTINUOUS
 62
          15
100
AcDbCircle
 10
-4548.933030596654
 20
-1167.078384689917
 30
0.0
 40
12.0
100
AcDbArc
 50
264.589999999997
 51
82.590000000002
  0
ARC
  5
C2
100
AcDbEntity
  8
WHITE
  6
CONTINUOUS
 62
          15
100
AcDbCircle
 10
-4567.469753131296
 20
-1135.019225183619
 30
0.0
 40
2.0
100
AcDbArc
 50
353.589999999999
 51
81.590000000022
  0
ARC
  5
C3
100
AcDbEntity
  8
WHITE
  6
CONTINUOUS
 62
          15
100
AcDbCircle
 10
-4565.309678972237
 20
-1142.663541681515
 30
0.0
 40
3.0
100
AcDbArc
 50
353.589999999999
 51
81.589999999985
  0
ARC
  5
C4
100
AcDbEntity
  8
WHITE
  6
CONTINUOUS
 62
          15
100
AcDbCircle
 10
-4570.318823284059
 20
-1187.250817420598
 30
0.0
 40
3.0
100
AcDbArc
 50
265.589999999994
 51
353.589999999999
  0
ARC
  5
C5
100
AcDbEntity
  8
WHITE
  6
CONTINUOUS
 62
          15
100
AcDbCircle
 10
-4574.121239819155
 20
-1194.225279664114
 30
0.0
 40
2.0
100
AcDbArc
 50
265.589999999977
 51
353.589999999999
  0
ARC
  5
C6
100
AcDbEntity
  8
WHITE
  6
CONTINUOUS
 62
          15
100
AcDbCircle
 10
-4564.325445338762
 20
-1151.817049447521
 30
0.0
 40
1.0
100
AcDbArc
 50
353.589999999999
 51
82.59000000007
  0
ARC
  5
C7
100
AcDbEntity
  8
WHITE
  6
CONTINUOUS
 62
          15
100
AcDbCircle
 10
-4564.982266916888
 20
-1148.706361653742
 30
0.0
 40
2.0
100
AcDbArc
 50
173.59
 51
262.59000000002
  0
ARC
  5
C8
100
AcDbEntity
  8
WHITE
  6
CONTINUOUS
 62
          15
100
AcDbCircle
 10
-4562.358454492362
 20
-1152.22286217629
 30
0.0
 40
1.000000000001
100
AcDbArc
 50
219.162995999259
 51
262.590000000031
  0
ARC
  5
C9
100
AcDbEntity
  8
WHITE
  6
CONTINUOUS
 62
          15
100
AcDbCircle
 10
-4562.358454492362
 20
-1152.22286217629
 30
0.0
 40
1.0
100
AcDbArc
 50
173.59
 51
219.162995999262
  0
ARC
  5
CA
100
AcDbEntity
  8
WHITE
  6
CONTINUOUS
 62
          15
100
AcDbCircle
 10
-4568.658738441354
 20
-1181.431282199827
 30
0.0
 40
1.999999999999
100
AcDbArc
 50
84.589999999927
 51
173.59
  0
ARC
  5
CB
100
AcDbEntity
  8
WHITE
  6
CONTINUOUS
 62
          15
100
AcDbCircle
 10
-4567.328063121429
 20
-1178.543879157508
 30
0.0
 40
1.0
100
AcDbArc
 50
264.58999999993
 51
353.589999999999
  0
ARC
  5
CC
100
AcDbEntity
  8
WHITE
  6
CONTINUOUS
 62
          15
100
AcDbCircle
 10
-4565.320060171726
 20
-1178.584635931658
 30
0.0
 40
1.0
100
AcDbArc
 50
128.017004000809
 51
173.59
  0
ARC
  5
CD
100
AcDbEntity
  8
WHITE
  6
CONTINUOUS
 62
          15
100
AcDbCircle
 10
-4565.320060171726
 20
-1178.584635931658
 30
0.0
 40
1.0
100
AcDbArc
 50
84.589999999969
 51
128.017004000808
  0
LINE
  5
CE
100
AcDbEntity
  8
WHITE
  6
CONTINUOUS
 62
          15
100
AcDbLine
 10
-4932.854607093173
 20
-1132.032296156586
 30
0.0
 11
-4932.76529319259
 21
-1131.237297397365
 31
0.0
  0
LINE
  5
CF
100
AcDbEntity
  8
WHITE
  6
CONTINUOUS
 62
          15
100
AcDbLine
 10
-4932.76529319259
 20
-1131.237297397365
 30
0.0
 11
-4931.157642982083
 21
-1116.927319731392
 31
0.0
  0
LINE
  5
D0
100
AcDbEntity
  8
WHITE
  6
CONTINUOUS
 62
          15
100
AcDbLine
 10
-4931.157642982083
 20
-1116.927319731392
 30
0.0
 11
-4931.0683290815
 21
-1116.132320972171
 31
0.0
  0
LINE
  5
D1
100
AcDbEntity
  8
WHITE
  6
CONTINUOUS
 62
          15
100
AcDbLine
 10
-4931.0683290815
 20
-1116.132320972171
 30
0.0
 11
-4930.577102628289
 21
-1111.759827796457
 31
0.0
  0
LINE
  5
D2
100
AcDbEntity
  8
WHITE
  6
CONTINUOUS
 62
          15
100
AcDbLine
 10
-4965.547696467839
 20
-1136.409727725447
 30
0.0
 11
-4963.819671320582
 21
-1136.603862199769
 31
0.0
  0
LINE
  5
D3
100
AcDbEntity
  8
WHITE
  6
CONTINUOUS
 62
          15
100
AcDbLine
 10
-4960.247115297236
 20
-1104.80391183094
 30
0.0
 11
-4961.975140444492
 21
-1104.609777356617
 31
0.0
  0
LINE
  5
D4
100
AcDbEntity
  8
WHITE
  6
CONTINUOUS
 62
          15
100
AcDbLine
 10
-4963.819671320582
 20
-1136.603862199769
 30
0.0
 11
-4958.790207014463
 21
-1137.168895880408
 31
0.0
  0
LINE
  5
D5
100
AcDbEntity
  8
WHITE
  6
CONTINUOUS
 62
          15
100
AcDbLine
 10
-4955.217650991117
 20
-1105.368945511578
 30
0.0
 11
-4960.247115297236
 21
-1104.80391183094
 31
0.0
  0
LINE
  5
D6
100
AcDbEntity
  8
WHITE
  6
CONTINUOUS
 62
          15
100
AcDbLine
 10
-5009.060132317427
 20
-1099.320027864123
 30
0.0
 11
-4961.975140444492
 21
-1104.609777356617
 31
0.0
  0
LINE
  5
D7
100
AcDbEntity
  8
WHITE
  6
CONTINUOUS
 62
          15
100
AcDbLine
 10
-5012.632688340773
 20
-1131.119978232953
 30
0.0
 11
-4965.547696467839
 21
-1136.409727725447
 31
0.0
  0
LINE
  5
D8
100
AcDbEntity
  8
WHITE
  6
CONTINUOUS
 62
          15
100
AcDbLine
 10
-4954.293094554037
 20
-1107.887912640116
 30
0.0
 11
-4957.329767173881
 21
-1134.917870453621
 31
0.0
  0
LINE
  5
D9
100
AcDbEntity
  8
WHITE
  6
CONTINUOUS
 62
          15
100
AcDbLine
 10
-4931.635629916244
 20
-1110.43335880675
 30
0.0
 11
-4935.240127191985
 21
-1110.028412625884
 31
0.0
  0
LINE
  5
DA
100
AcDbEntity
  8
WHITE
  6
CONTINUOUS
 62
          15
100
AcDbLine
 10
-4933.345833546383
 20
-1136.4047893323
 30
0.0
 11
-4932.854607093173
 21
-1132.032296156586
 31
0.0
  0
LINE
  5
DB
100
AcDbEntity
  8
WHITE
  6
CONTINUOUS
 62
          15
100
AcDbLine
 10
-4956.13726903505
 20
-1135.051841304497
 30
0.0
 11
-4953.698558821416
 21
-1135.325817482505
 31
0.0
  0
LINE
  5
DC
100
AcDbEntity
  8
WHITE
  6
CONTINUOUS
 62
          15
100
AcDbLine
 10
-4950.483258400403
 20
-1106.705862150559
 30
0.0
 11
-4950.661886201571
 21
-1108.295859669
 31
0.0
  0
LINE
  5
DD
100
AcDbEntity
  8
WHITE
  6
CONTINUOUS
 62
          15
100
AcDbLine
 10
-4950.661886201571
 20
-1108.295859669
 30
0.0
 11
-4953.100596415206
 21
-1108.021883490991
 31
0.0
  0
LINE
  5
DE
100
AcDbEntity
  8
WHITE
  6
CONTINUOUS
 62
          15
100
AcDbLine
 10
-4950.661886201571
 20
-1108.295859669
 30
0.0
 11
-4953.698558821416
 21
-1135.325817482505
 31
0.0
  0
LINE
  5
DF
100
AcDbEntity
  8
WHITE
  6
CONTINUOUS
 62
          15
100
AcDbLine
 10
-4953.698558821416
 20
-1135.325817482505
 30
0.0
 11
-4953.877186622583
 21
-1136.915815000947
 31
0.0
  0
LINE
  5
E0
100
AcDbEntity
  8
WHITE
  6
CONTINUOUS
 62
          15
100
AcDbLine
 10
-4938.455427612998
 20
-1138.648367957831
 30
0.0
 11
-4938.276799811831
 21
-1137.05837043939
 31
0.0
  0
LINE
  5
E1
100
AcDbEntity
  8
WHITE
  6
CONTINUOUS
 62
          15
100
AcDbLine
 10
-4938.276799811831
 20
-1137.05837043939
 30
0.0
 11
-4934.67230253609
 21
-1137.463316620256
 31
0.0
  0
LINE
  5
E2
100
AcDbEntity
  8
WHITE
  6
CONTINUOUS
 62
          15
100
AcDbLine
 10
-4938.276799811831
 20
-1137.05837043939
 30
0.0
 11
-4935.240127191985
 21
-1110.028412625884
 31
0.0
  0
LINE
  5
E3
100
AcDbEntity
  8
WHITE
  6
CONTINUOUS
 62
          15
100
AcDbLine
 10
-4935.240127191985
 20
-1110.028412625884
 30
0.0
 11
-4935.061499390818
 21
-1108.438415107443
 31
0.0
  0
LINE
  5
E4
100
AcDbEntity
  8
WHITE
  6
CONTINUOUS
 62
          15
100
AcDbLine
 10
-4950.483258400403
 20
-1106.705862150559
 30
0.0
 11
-4935.061499390818
 21
-1108.438415107443
 31
0.0
  0
LINE
  5
E5
100
AcDbEntity
  8
WHITE
  6
CONTINUOUS
 62
          15
100
AcDbLine
 10
-4953.877186622583
 20
-1136.915815000947
 30
0.0
 11
-4938.455427612998
 21
-1138.648367957831
 31
0.0
  0
ARC
  5
E6
100
AcDbEntity
  8
WHITE
  6
CONTINUOUS
 62
          15
100
AcDbCircle
 10
-4984.65147804029
 20
-1118.162864972664
 30
0.0
 40
27.821476415486
100
AcDbArc
 50
318.483694434248
 51
28.696305565753
  0
ARC
  5
E7
100
AcDbEntity
  8
WHITE
  6
CONTINUOUS
 62
          15
100
AcDbCircle
 10
-4971.546635065335
 20
-1119.635124682575
 30
0.0
 40
39.547005383793
100
AcDbArc
 50
149.72507458395
 51
197.45492541605
  0
ARC
  5
E8
100
AcDbEntity
  8
WHITE
  6
CONTINUOUS
 62
          15
100
AcDbCircle
 10
-4985.601809208816
 20
-1118.056100298477
 30
0.0
 40
30.022213997861
100
AcDbArc
 50
141.385772496028
 51
205.794227503972
  0
ARC
  5
E9
100
AcDbEntity
  8
WHITE
  6
CONTINUOUS
 62
          15
100
AcDbCircle
 10
-4955.351621841992
 20
-1106.561443650409
 30
0.0
 40
1.2
100
AcDbArc
 50
353.589999999999
 51
83.59
  0
ARC
  5
EA
100
AcDbEntity
  8
WHITE
  6
CONTINUOUS
 62
          15
100
AcDbCircle
 10
-4952.96662556433
 20
-1106.82938535216
 30
0.0
 40
1.2
100
AcDbArc
 50
173.59
 51
263.589999999999
  0
ARC
  5
EB
100
AcDbEntity
  8
WHITE
  6
CONTINUOUS
 62
          15
100
AcDbCircle
 10
-4931.76960076712
 20
-1111.625856945582
 30
0.0
 40
1.2
100
AcDbArc
 50
353.589999999999
 51
83.59
  0
ARC
  5
EC
100
AcDbEntity
  8
WHITE
  6
CONTINUOUS
 62
          15
100
AcDbCircle
 10
-4934.538331685213
 20
-1136.270818481425
 30
0.0
 40
1.2
100
AcDbArc
 50
263.589999999999
 51
353.589999999999
  0
ARC
  5
ED
100
AcDbEntity
  8
WHITE
  6
CONTINUOUS
 62
          15
100
AcDbCircle
 10
-4956.271239885926
 20
-1136.244339443328
 30
0.0
 40
1.2
100
AcDbArc
 50
83.59
 51
173.59
  0
ARC
  5
EE
100
AcDbEntity
  8
WHITE
  6
CONTINUOUS
 62
          15
100
AcDbCircle
 10
-4958.656236163588
 20
-1135.976397741577
 30
0.0
 40
1.2
100
AcDbArc
 50
263.589999999999
 51
353.589999999999
  0
LINE
  5
EF
100
AcDbEntity
  8
WHITE
  6
CONTINUOUS
 62
          15
100
AcDbLine
 10
-4739.254787501724
 20
-1140.956946341157
 30
0.0
 11
-4735.778449660075
 21
-1141.795380994602
 31
0.0
  0
LINE
  5
F0
100
AcDbEntity
  8
WHITE
  6
CONTINUOUS
 62
          15
100
AcDbLine
 10
-4739.404582003317
 20
-1138.369131592304
 30
0.0
 11
-4739.634431486894
 21
-1140.415062327123
 31
0.0
  0
LINE
  5
F1
100
AcDbEntity
  8
WHITE
  6
CONTINUOUS
 62
          15
100
AcDbLine
 10
-4738.572671904833
 20
-1134.885315277807
 30
0.0
 11
-4734.996953029968
 21
-1134.83914185142
 31
0.0
  0
LINE
  5
F2
100
AcDbEntity
  8
WHITE
  6
CONTINUOUS
 62
          15
100
AcDbLine
 10
-4739.292939627589
 20
-1137.375383143278
 30
0.0
 11
-4739.063090144012
 21
-1135.329452408458
 31
0.0
  0
LINE
  5
F3
100
AcDbEntity
  8
WHITE
  6
CONTINUOUS
 62
          15
100
AcDbLine
 10
-4737.828181729708
 20
-1138.54623181502
 30
0.0
 11
-4739.404582003317
 21
-1138.369131592304
 31
0.0
  0
LINE
  5
F4
100
AcDbEntity
  8
WHITE
  6
CONTINUOUS
 62
          15
100
AcDbLine
 10
-4737.772360541843
 20
-1138.049357590508
 30
0.0
 11
-4737.828181729708
 21
-1138.54623181502
 31
0.0
  0
LINE
  5
F5
100
AcDbEntity
  8
WHITE
  6
CONTINUOUS
 62
          15
100
AcDbLine
 10
-4737.716539353978
 20
-1137.552483365994
 30
0.0
 11
-4737.772360541843
 21
-1138.049357590508
 31
0.0
  0
LINE
  5
F6
100
AcDbEntity
  8
WHITE
  6
CONTINUOUS
 62
          15
100
AcDbLine
 10
-4739.292939627589
 20
-1137.375383143278
 30
0.0
 11
-4737.716539353978
 21
-1137.552483365994
 31
0.0
  0
LINE
  5
F7
100
AcDbEntity
  8
WHITE
  6
CONTINUOUS
 62
          15
100
AcDbLine
 10
-4734.773668278509
 20
-1132.851644953368
 30
0.0
 11
-4724.339309563737
 21
-1134.023889898528
 31
0.0
  0
LINE
  5
F8
100
AcDbEntity
  8
WHITE
  6
CONTINUOUS
 62
          15
100
AcDbLine
 10
-4734.773668278509
 20
-1132.851644953368
 30
0.0
 11
-4735.83427084794
 21
-1142.292255219115
 31
0.0
  0
LINE
  5
F9
100
AcDbEntity
  8
WHITE
  6
CONTINUOUS
 62
          15
100
AcDbLine
 10
-4728.447748990585
 20
-1170.593832822684
 30
0.0
 11
-4720.000887173865
 21
-1171.542793016385
 31
0.0
  0
LINE
  5
FA
100
AcDbEntity
  8
WHITE
  6
CONTINUOUS
 62
          15
100
AcDbLine
 10
-4720.000887173865
 20
-1171.542793016385
 30
0.0
 11
-4719.945065986
 21
-1171.045918791872
 31
0.0
  0
LINE
  5
FB
100
AcDbEntity
  8
WHITE
  6
CONTINUOUS
 62
          15
100
AcDbLine
 10
-4719.945065986
 20
-1171.045918791872
 30
0.0
 11
-4714.753695514574
 21
-1124.836615912166
 31
0.0
  0
LINE
  5
FC
100
AcDbEntity
  8
WHITE
  6
CONTINUOUS
 62
          15
100
AcDbLine
 10
-4713.759947065549
 20
-1124.948258287896
 30
0.0
 11
-4713.815768253413
 21
-1125.445132512409
 31
0.0
  0
LINE
  5
FD
100
AcDbEntity
  8
WHITE
  6
CONTINUOUS
 62
          15
100
AcDbLine
 10
-4713.815768253413
 20
-1125.445132512409
 30
0.0
 11
-4714.809516702439
 21
-1125.333490136679
 31
0.0
  0
LINE
  5
FE
100
AcDbEntity
  8
WHITE
  6
CONTINUOUS
 62
          15
100
AcDbLine
 10
-4713.815768253413
 20
-1125.445132512409
 30
0.0
 11
-4718.951317536974
 21
-1171.157561167602
 31
0.0
  0
LINE
  5
FF
100
AcDbEntity
  8
WHITE
  6
CONTINUOUS
 62
          15
100
AcDbLine
 10
-4718.951317536974
 20
-1171.157561167602
 30
0.0
 11
-4719.945065986
 21
-1171.045918791872
 31
0.0
  0
LINE
  5
100
100
AcDbEntity
  8
WHITE
  6
CONTINUOUS
 62
          15
100
AcDbLine
 10
-4724.836183788249
 20
-1133.968068710664
 30
0.0
 11
-4723.697431555807
 21
-1123.8318345306
 31
0.0
  0
LINE
  5
101
100
AcDbEntity
  8
WHITE
  6
CONTINUOUS
 62
          15
100
AcDbLine
 10
-4714.753695514574
 20
-1124.836615912166
 30
0.0
 11
-4723.697431555807
 21
-1123.8318345306
 31
0.0
  0
LINE
  5
102
100
AcDbEntity
  8
WHITE
  6
CONTINUOUS
 62
          15
100
AcDbLine
 10
-4637.241316490552
 20
-1133.544721219073
 30
0.0
 11
-4713.759947065549
 21
-1124.948258287896
 31
0.0
  0
LINE
  5
103
100
AcDbEntity
  8
WHITE
  6
CONTINUOUS
 62
          15
100
AcDbLine
 10
-4724.836183788249
 20
-1133.968068710664
 30
0.0
 11
-4724.339309563737
 21
-1134.023889898528
 31
0.0
  0
LINE
  5
104
100
AcDbEntity
  8
WHITE
  6
CONTINUOUS
 62
          15
100
AcDbLine
 10
-4724.339309563737
 20
-1134.023889898528
 30
0.0
 11
-4728.447748990585
 21
-1170.593832822684
 31
0.0
  0
LINE
  5
105
100
AcDbEntity
  8
WHITE
  6
CONTINUOUS
 62
          15
100
AcDbLine
 10
-4642.488508149841
 20
-1180.250898323292
 30
0.0
 11
-4637.241316490552
 21
-1133.544721219073
 31
0.0
  0
LINE
  5
106
100
AcDbEntity
  8
WHITE
  6
CONTINUOUS
 62
          15
100
AcDbLine
 10
-4719.007138724839
 20
-1171.654435392115
 30
0.0
 11
-4642.488508149841
 21
-1180.250898323292
 31
0.0
  0
LINE
  5
107
100
AcDbEntity
  8
WHITE
  6
CONTINUOUS
 62
          15
100
AcDbLine
 10
-4718.951317536974
 20
-1171.157561167602
 30
0.0
 11
-4719.007138724839
 21
-1171.654435392115
 31
0.0
  0
LINE
  5
108
100
AcDbEntity
  8
WHITE
  6
CONTINUOUS
 62
          15
100
AcDbLine
 10
-4741.673757971244
 20
-1153.963283028899
 30
0.0
 11
-4741.087635498664
 21
-1148.746103671513
 31
0.0
  0
LINE
  5
109
100
AcDbEntity
  8
WHITE
  6
CONTINUOUS
 62
          15
100
AcDbLine
 10
-4742.818092322472
 20
-1164.149204631415
 30
0.0
 11
-4739.357178674855
 21
-1133.343002711611
 31
0.0
  0
LINE
  5
10A
100
AcDbEntity
  8
WHITE
  6
CONTINUOUS
 62
          15
100
AcDbLine
 10
-4738.2517878501
 20
-1132.460896638314
 30
0.0
 11
-4734.773668278509
 21
-1132.851644953368
 31
0.0
  0
LINE
  5
10B
100
AcDbEntity
  8
WHITE
  6
CONTINUOUS
 62
          15
100
AcDbLine
 10
-4741.935986249176
 20
-1165.25459545617
 30
0.0
 11
-4728.023507962813
 21
-1166.817588716384
 31
0.0
  0
LINE
  5
10C
100
AcDbEntity
  8
WHITE
  6
CONTINUOUS
 62
           1
100
AcDbLine
 10
-4768.67774916726
 20
-1170.401256124311
 30
0.0
 11
-4750.790277084792
 21
-1172.410818887444
 31
0.0
  0
LINE
  5
10D
100
AcDbEntity
  8
WHITE
  6
CONTINUOUS
 62
           1
100
AcDbLine
 10
-4750.790277084792
 20
-1172.410818887444
 30
0.0
 11
-4751.31954072877
 21
-1171.747584392591
 31
0.0
  0
LINE
  5
10E
100
AcDbEntity
  8
WHITE
  6
CONTINUOUS
 62
           1
100
AcDbLine
 10
-4751.31954072877
 20
-1171.747584392591
 30
0.0
 11
-4750.656306233917
 21
-1171.218320748614
 31
0.0
  0
LINE
  5
10F
100
AcDbEntity
  8
WHITE
  6
CONTINUOUS
 62
           1
100
AcDbLine
 10
-4750.656306233917
 20
-1171.218320748614
 30
0.0
 11
-4768.543778316384
 21
-1169.208757985481
 31
0.0
  0
LINE
  5
110
100
AcDbEntity
  8
WHITE
  6
CONTINUOUS
 62
           1
100
AcDbLine
 10
-4768.543778316384
 20
-1169.208757985481
 30
0.0
 11
-4768.014514672406
 21
-1169.871992480334
 31
0.0
  0
LINE
  5
111
100
AcDbEntity
  8
WHITE
  6
CONTINUOUS
 62
           1
100
AcDbLine
 10
-4768.014514672406
 20
-1169.871992480334
 30
0.0
 11
-4768.67774916726
 21
-1170.401256124311
 31
0.0
  0
LINE
  5
112
100
AcDbEntity
  8
WHITE
  6
CONTINUOUS
 62
           1
100
AcDbLine
 10
-4768.014514672406
 20
-1169.871992480334
 30
0.0
 11
-4751.31954072877
 21
-1171.747584392591
 31
0.0
  0
LINE
  5
113
100
AcDbEntity
  8
WHITE
  6
CONTINUOUS
 62
           1
100
AcDbLine
 10
-4768.237799423865
 20
-1171.859489378386
 30
0.0
 11
-4768.767063067844
 21
-1171.196254883533
 31
0.0
  0
LINE
  5
114
100
AcDbEntity
  8
WHITE
  6
CONTINUOUS
 62
           1
100
AcDbLine
 10
-4768.767063067844
 20
-1171.196254883533
 30
0.0
 11
-4750.879590985376
 21
-1173.205817646666
 31
0.0
  0
LINE
  5
115
100
AcDbEntity
  8
WHITE
  6
CONTINUOUS
 62
           1
100
AcDbLine
 10
-4750.879590985376
 20
-1173.205817646666
 30
0.0
 11
-4751.542825480229
 21
-1173.735081290643
 31
0.0
  0
LINE
  5
116
100
AcDbEntity
  8
WHITE
  6
CONTINUOUS
 62
           1
100
AcDbLine
 10
-4751.542825480229
 20
-1173.735081290643
 30
0.0
 11
-4751.013561836252
 21
-1174.398315785495
 31
0.0
  0
LINE
  5
117
100
AcDbEntity
  8
WHITE
  6
CONTINUOUS
 62
           1
100
AcDbLine
 10
-4751.013561836252
 20
-1174.398315785495
 30
0.0
 11
-4768.901033918719
 21
-1172.388753022363
 31
0.0
  0
LINE
  5
118
100
AcDbEntity
  8
WHITE
  6
CONTINUOUS
 62
           1
100
AcDbLine
 10
-4768.901033918719
 20
-1172.388753022363
 30
0.0
 11
-4768.237799423865
 21
-1171.859489378386
 31
0.0
  0
LINE
  5
119
100
AcDbEntity
  8
WHITE
  6
CONTINUOUS
 62
           1
100
AcDbLine
 10
-4751.542825480229
 20
-1173.735081290643
 30
0.0
 11
-4768.237799423865
 21
-1171.859489378386
 31
0.0
  0
LINE
  5
11A
100
AcDbEntity
  8
WHITE
  6
CONTINUOUS
 62
           1
100
AcDbLine
 10
-4768.461084175324
 20
-1173.846986276438
 30
0.0
 11
-4768.990347819303
 21
-1173.183751781585
 31
0.0
  0
LINE
  5
11B
100
AcDbEntity
  8
WHITE
  6
CONTINUOUS
 62
           1
100
AcDbLine
 10
-4768.990347819303
 20
-1173.183751781585
 30
0.0
 11
-4751.102875736836
 21
-1175.193314544717
 31
0.0
  0
LINE
  5
11C
100
AcDbEntity
  8
WHITE
  6
CONTINUOUS
 62
           1
100
AcDbLine
 10
-4751.102875736836
 20
-1175.193314544717
 30
0.0
 11
-4751.766110231689
 21
-1175.722578188695
 31
0.0
  0
LINE
  5
11D
100
AcDbEntity
  8
WHITE
  6
CONTINUOUS
 62
           1
100
AcDbLine
 10
-4751.766110231689
 20
-1175.722578188695
 30
0.0
 11
-4751.236846587712
 21
-1176.385812683547
 31
0.0
  0
LINE
  5
11E
100
AcDbEntity
  8
WHITE
  6
CONTINUOUS
 62
           1
100
AcDbLine
 10
-4751.236846587712
 20
-1176.385812683547
 30
0.0
 11
-4769.124318670178
 21
-1174.376249920415
 31
0.0
  0
LINE
  5
11F
100
AcDbEntity
  8
WHITE
  6
CONTINUOUS
 62
           1
100
AcDbLine
 10
-4769.124318670178
 20
-1174.376249920415
 30
0.0
 11
-4768.461084175324
 21
-1173.846986276438
 31
0.0
  0
LINE
  5
120
100
AcDbEntity
  8
WHITE
  6
CONTINUOUS
 62
           1
100
AcDbLine
 10
-4768.684368926784
 20
-1175.83448317449
 30
0.0
 11
-4769.213632570762
 21
-1175.171248679637
 31
0.0
  0
LINE
  5
121
100
AcDbEntity
  8
WHITE
  6
CONTINUOUS
 62
           1
100
AcDbLine
 10
-4769.213632570762
 20
-1175.171248679637
 30
0.0
 11
-4763.158803478264
 21
-1175.851476664079
 31
0.0
  0
LINE
  5
122
100
AcDbEntity
  8
WHITE
  6
CONTINUOUS
 62
           1
100
AcDbLine
 10
-4751.326160488295
 20
-1177.180811442769
 30
0.0
 11
-4751.989394983148
 21
-1177.710075086747
 31
0.0
  0
LINE
  5
123
100
AcDbEntity
  8
WHITE
  6
CONTINUOUS
 62
           1
100
AcDbLine
 10
-4751.989394983148
 20
-1177.710075086747
 30
0.0
 11
-4751.46013133917
 21
-1178.373309581599
 31
0.0
  0
LINE
  5
124
100
AcDbEntity
  8
WHITE
  6
CONTINUOUS
 62
           1
100
AcDbLine
 10
-4751.46013133917
 20
-1178.373309581599
 30
0.0
 11
-4757.514960431667
 21
-1177.693081597158
 31
0.0
  0
LINE
  5
125
100
AcDbEntity
  8
WHITE
  6
CONTINUOUS
 62
           1
100
AcDbLine
 10
-4769.347603421636
 20
-1176.363746818467
 30
0.0
 11
-4768.684368926784
 21
-1175.83448317449
 31
0.0
  0
LINE
  5
126
100
AcDbEntity
  8
WHITE
  6
CONTINUOUS
 62
           1
100
AcDbLine
 10
-4768.907653678243
 20
-1177.821980072541
 30
0.0
 11
-4769.43691732222
 21
-1177.158745577689
 31
0.0
  0
LINE
  5
127
100
AcDbEntity
  8
WHITE
  6
CONTINUOUS
 62
           1
100
AcDbLine
 10
-4769.43691732222
 20
-1177.158745577689
 30
0.0
 11
-4764.123639320031
 21
-1177.75566422411
 31
0.0
  0
LINE
  5
128
100
AcDbEntity
  8
WHITE
  6
CONTINUOUS
 62
           1
100
AcDbLine
 10
-4751.549445239754
 20
-1179.168308340821
 30
0.0
 11
-4752.212679734606
 21
-1179.697571984798
 31
0.0
  0
LINE
  5
129
100
AcDbEntity
  8
WHITE
  6
CONTINUOUS
 62
           1
100
AcDbLine
 10
-4768.684368926784
 20
-1175.83448317449
 30
0.0
 11
-4762.629539834286
 21
-1176.514711158932
 31
0.0
  0
LINE
  5
12A
100
AcDbEntity
  8
WHITE
  6
CONTINUOUS
 62
           1
100
AcDbLine
 10
-4768.461084175324
 20
-1173.846986276438
 30
0.0
 11
-4751.766110231689
 21
-1175.722578188695
 31
0.0
  0
LINE
  5
12B
100
AcDbEntity
  8
WHITE
  6
CONTINUOUS
 62
           1
100
AcDbLine
 10
-4763.292774329138
 20
-1177.043974802909
 30
0.0
 11
-4762.629539834286
 21
-1176.514711158932
 31
0.0
  0
LINE
  5
12C
100
AcDbEntity
  8
WHITE
  6
CONTINUOUS
 62
           1
100
AcDbLine
 10
-4763.292774329138
 20
-1177.043974802909
 30
0.0
 11
-4769.347603421636
 21
-1176.363746818467
 31
0.0
  0
LINE
  5
12D
100
AcDbEntity
  8
WHITE
  6
CONTINUOUS
 62
           1
100
AcDbLine
 10
-4762.629539834286
 20
-1176.514711158932
 30
0.0
 11
-4763.158803478264
 21
-1175.851476664079
 31
0.0
  0
LINE
  5
12E
100
AcDbEntity
  8
WHITE
  6
CONTINUOUS
 62
           1
100
AcDbLine
 10
-4764.123639320031
 20
-1177.75566422411
 30
0.0
 11
-4763.594375676054
 21
-1178.418898718963
 31
0.0
  0
LINE
  5
12F
100
AcDbEntity
  8
WHITE
  6
CONTINUOUS
 62
           1
100
AcDbLine
 10
-4757.525957736796
 20
-1179.100653338376
 30
0.0
 11
-4756.862723241942
 21
-1178.571389694399
 31
0.0
  0
LINE
  5
130
100
AcDbEntity
  8
WHITE
  6
CONTINUOUS
 62
           1
100
AcDbLine
 10
-4756.862723241942
 20
-1178.571389694399
 30
0.0
 11
-4751.549445239754
 21
-1179.168308340821
 31
0.0
  0
LINE
  5
131
100
AcDbEntity
  8
WHITE
  6
CONTINUOUS
 62
           1
100
AcDbLine
 10
-4757.514960431667
 20
-1177.693081597158
 30
0.0
 11
-4758.044224075646
 21
-1177.029847102305
 31
0.0
  0
LINE
  5
132
100
AcDbEntity
  8
WHITE
  6
CONTINUOUS
 62
           1
100
AcDbLine
 10
-4758.044224075646
 20
-1177.029847102305
 30
0.0
 11
-4751.989394983148
 21
-1177.710075086747
 31
0.0
  0
LINE
  5
133
100
AcDbEntity
  8
WHITE
  6
CONTINUOUS
 62
           1
100
AcDbLine
 10
-4758.044224075646
 20
-1177.029847102305
 30
0.0
 11
-4757.380989580792
 21
-1176.500583458327
 31
0.0
  0
LINE
  5
134
100
AcDbEntity
  8
WHITE
  6
CONTINUOUS
 62
           1
100
AcDbLine
 10
-4757.380989580792
 20
-1176.500583458327
 30
0.0
 11
-4751.326160488295
 21
-1177.180811442769
 31
0.0
  0
LINE
  5
135
100
AcDbEntity
  8
WHITE
  6
CONTINUOUS
 62
           1
100
AcDbLine
 10
-4769.213632570762
 20
-1175.171248679637
 30
0.0
 11
-4769.347603421636
 21
-1176.363746818467
 31
0.0
  0
LINE
  5
136
100
AcDbEntity
  8
WHITE
  6
CONTINUOUS
 62
           1
100
AcDbLine
 10
-4769.124318670178
 20
-1174.376249920415
 30
0.0
 11
-4768.990347819303
 21
-1173.183751781585
 31
0.0
  0
LINE
  5
137
100
AcDbEntity
  8
WHITE
  6
CONTINUOUS
 62
           1
100
AcDbLine
 10
-4768.901033918719
 20
-1172.388753022363
 30
0.0
 11
-4768.767063067844
 21
-1171.196254883533
 31
0.0
  0
LINE
  5
138
100
AcDbEntity
  8
WHITE
  6
CONTINUOUS
 62
           1
100
AcDbLine
 10
-4768.67774916726
 20
-1170.401256124311
 30
0.0
 11
-4768.543778316384
 21
-1169.208757985481
 31
0.0
  0
LINE
  5
139
100
AcDbEntity
  8
WHITE
  6
CONTINUOUS
 62
           1
100
AcDbLine
 10
-4769.43691732222
 20
-1177.158745577689
 30
0.0
 11
-4769.503902747659
 21
-1177.754994647103
 31
0.0
  0
LINE
  5
13A
100
AcDbEntity
  8
WHITE
  6
CONTINUOUS
 62
           1
100
AcDbLine
 10
-4751.616430665192
 20
-1179.764557410236
 30
0.0
 11
-4751.549445239754
 21
-1179.168308340821
 31
0.0
  0
LINE
  5
13B
100
AcDbEntity
  8
WHITE
  6
CONTINUOUS
 62
           1
100
AcDbLine
 10
-4751.46013133917
 20
-1178.373309581599
 30
0.0
 11
-4751.326160488295
 21
-1177.180811442769
 31
0.0
  0
LINE
  5
13C
100
AcDbEntity
  8
WHITE
  6
CONTINUOUS
 62
           1
100
AcDbLine
 10
-4751.236846587712
 20
-1176.385812683547
 30
0.0
 11
-4751.102875736836
 21
-1175.193314544717
 31
0.0
  0
LINE
  5
13D
100
AcDbEntity
  8
WHITE
  6
CONTINUOUS
 62
           1
100
AcDbLine
 10
-4751.013561836252
 20
-1174.398315785495
 30
0.0
 11
-4750.879590985376
 21
-1173.205817646666
 31
0.0
  0
LINE
  5
13E
100
AcDbEntity
  8
WHITE
  6
CONTINUOUS
 62
           1
100
AcDbLine
 10
-4750.790277084792
 20
-1172.410818887444
 30
0.0
 11
-4750.656306233917
 21
-1171.218320748614
 31
0.0
  0
LINE
  5
13F
100
AcDbEntity
  8
WHITE
  6
CONTINUOUS
 62
           1
100
AcDbLine
 10
-4752.576555096466
 20
-1188.310794071859
 30
0.0
 11
-4752.442584245591
 21
-1187.118295933029
 31
0.0
  0
LINE
  5
140
100
AcDbEntity
  8
WHITE
  6
CONTINUOUS
 62
           1
100
AcDbLine
 10
-4752.353270345007
 20
-1186.323297173807
 30
0.0
 11
-4752.219299494132
 21
-1185.130799034977
 31
0.0
  0
LINE
  5
141
100
AcDbEntity
  8
WHITE
  6
CONTINUOUS
 62
           1
100
AcDbLine
 10
-4752.129985593548
 20
-1184.335800275755
 30
0.0
 11
-4751.996014742672
 21
-1183.143302136925
 31
0.0
  0
LINE
  5
142
100
AcDbEntity
  8
WHITE
  6
CONTINUOUS
 62
           1
100
AcDbLine
 10
-4751.906700842088
 20
-1182.348303377703
 30
0.0
 11
-4751.772729991213
 21
-1181.155805238873
 31
0.0
  0
LINE
  5
143
100
AcDbEntity
  8
WHITE
  6
CONTINUOUS
 62
           1
100
AcDbLine
 10
-4751.683416090629
 20
-1180.360806479651
 30
0.0
 11
-4751.616430665192
 21
-1179.764557410236
 31
0.0
  0
LINE
  5
144
100
AcDbEntity
  8
WHITE
  6
CONTINUOUS
 62
           1
100
AcDbLine
 10
-4769.503902747659
 20
-1177.754994647103
 30
0.0
 11
-4769.570888173096
 21
-1178.351243716519
 31
0.0
  0
LINE
  5
145
100
AcDbEntity
  8
WHITE
  6
CONTINUOUS
 62
           1
100
AcDbLine
 10
-4770.464027178933
 20
-1186.301231308726
 30
0.0
 11
-4770.330056328057
 21
-1185.108733169896
 31
0.0
  0
LINE
  5
146
100
AcDbEntity
  8
WHITE
  6
CONTINUOUS
 62
           1
100
AcDbLine
 10
-4770.240742427473
 20
-1184.313734410674
 30
0.0
 11
-4770.106771576599
 21
-1183.121236271844
 31
0.0
  0
LINE
  5
147
100
AcDbEntity
  8
WHITE
  6
CONTINUOUS
 62
           1
100
AcDbLine
 10
-4770.017457676015
 20
-1182.326237512622
 30
0.0
 11
-4769.88348682514
 21
-1181.133739373792
 31
0.0
  0
LINE
  5
148
100
AcDbEntity
  8
WHITE
  6
CONTINUOUS
 62
           1
100
AcDbLine
 10
-4769.66020207368
 20
-1179.146242475741
 30
0.0
 11
-4769.794172924556
 21
-1180.338740614571
 31
0.0
  0
LINE
  5
149
100
AcDbEntity
  8
WHITE
  6
CONTINUOUS
 62
           1
100
AcDbLine
 10
-4751.906700842088
 20
-1182.348303377703
 30
0.0
 11
-4757.961529934585
 21
-1181.668075393261
 31
0.0
  0
LINE
  5
14A
100
AcDbEntity
  8
WHITE
  6
CONTINUOUS
 62
           1
100
AcDbLine
 10
-4757.961529934585
 20
-1181.668075393261
 30
0.0
 11
-4758.490793578563
 21
-1181.004840898408
 31
0.0
  0
LINE
  5
14B
100
AcDbEntity
  8
WHITE
  6
CONTINUOUS
 62
           1
100
AcDbLine
 10
-4752.435964486066
 20
-1181.68506888285
 30
0.0
 11
-4758.490793578563
 21
-1181.004840898408
 31
0.0
  0
LINE
  5
14C
100
AcDbEntity
  8
WHITE
  6
CONTINUOUS
 62
           1
100
AcDbLine
 10
-4758.490793578563
 20
-1181.004840898408
 30
0.0
 11
-4757.827559083709
 21
-1180.475577254432
 31
0.0
  0
LINE
  5
14D
100
AcDbEntity
  8
WHITE
  6
CONTINUOUS
 62
           1
100
AcDbLine
 10
-4751.683416090629
 20
-1180.360806479651
 30
0.0
 11
-4756.996694092818
 21
-1179.763887833229
 31
0.0
  0
LINE
  5
14E
100
AcDbEntity
  8
WHITE
  6
CONTINUOUS
 62
           1
100
AcDbLine
 10
-4756.996694092818
 20
-1179.763887833229
 30
0.0
 11
-4757.525957736796
 21
-1179.100653338376
 31
0.0
  0
LINE
  5
14F
100
AcDbEntity
  8
WHITE
  6
CONTINUOUS
 62
           1
100
AcDbLine
 10
-4768.907653678243
 20
-1177.821980072541
 30
0.0
 11
-4763.594375676054
 21
-1178.418898718963
 31
0.0
  0
LINE
  5
150
100
AcDbEntity
  8
WHITE
  6
CONTINUOUS
 62
           1
100
AcDbLine
 10
-4763.594375676054
 20
-1178.418898718963
 30
0.0
 11
-4764.257610170906
 21
-1178.94816236294
 31
0.0
  0
LINE
  5
151
100
AcDbEntity
  8
WHITE
  6
CONTINUOUS
 62
           1
100
AcDbLine
 10
-4763.739343832058
 20
-1181.018968599012
 30
0.0
 11
-4763.076109337205
 21
-1180.489704955034
 31
0.0
  0
LINE
  5
152
100
AcDbEntity
  8
WHITE
  6
CONTINUOUS
 62
           1
100
AcDbLine
 10
-4769.66020207368
 20
-1179.146242475741
 30
0.0
 11
-4763.605372981182
 21
-1179.826470460182
 31
0.0
  0
LINE
  5
153
100
AcDbEntity
  8
WHITE
  6
CONTINUOUS
 62
           1
100
AcDbLine
 10
-4763.076109337205
 20
-1180.489704955034
 30
0.0
 11
-4763.605372981182
 21
-1179.826470460182
 31
0.0
  0
LINE
  5
154
100
AcDbEntity
  8
WHITE
  6
CONTINUOUS
 62
           1
100
AcDbLine
 10
-4752.659249237525
 20
-1183.672565780902
 30
0.0
 11
-4769.354223181161
 21
-1181.796973868645
 31
0.0
  0
LINE
  5
155
100
AcDbEntity
  8
WHITE
  6
CONTINUOUS
 62
           1
100
AcDbLine
 10
-4763.076109337205
 20
-1180.489704955034
 30
0.0
 11
-4769.130938429702
 21
-1179.809476970593
 31
0.0
  0
LINE
  5
156
100
AcDbEntity
  8
WHITE
  6
CONTINUOUS
 62
           1
100
AcDbLine
 10
-4757.525957736796
 20
-1179.100653338376
 30
0.0
 11
-4752.212679734606
 21
-1179.697571984798
 31
0.0
  0
LINE
  5
157
100
AcDbEntity
  8
WHITE
  6
CONTINUOUS
 62
           1
100
AcDbLine
 10
-4752.212679734606
 20
-1179.697571984798
 30
0.0
 11
-4751.683416090629
 21
-1180.360806479651
 31
0.0
  0
LINE
  5
158
100
AcDbEntity
  8
WHITE
  6
CONTINUOUS
 62
           1
100
AcDbLine
 10
-4764.257610170906
 20
-1178.94816236294
 30
0.0
 11
-4769.570888173096
 21
-1178.351243716519
 31
0.0
  0
LINE
  5
159
100
AcDbEntity
  8
WHITE
  6
CONTINUOUS
 62
           1
100
AcDbLine
 10
-4769.570888173096
 20
-1178.351243716519
 30
0.0
 11
-4768.907653678243
 21
-1177.821980072541
 31
0.0
  0
LINE
  5
15A
100
AcDbEntity
  8
WHITE
  6
CONTINUOUS
 62
           1
100
AcDbLine
 10
-4769.130938429702
 20
-1179.809476970593
 30
0.0
 11
-4769.66020207368
 21
-1179.146242475741
 31
0.0
  0
LINE
  5
15B
100
AcDbEntity
  8
WHITE
  6
CONTINUOUS
 62
           1
100
AcDbLine
 10
-4757.827559083709
 20
-1180.475577254432
 30
0.0
 11
-4751.772729991213
 21
-1181.155805238873
 31
0.0
  0
LINE
  5
15C
100
AcDbEntity
  8
WHITE
  6
CONTINUOUS
 62
           1
100
AcDbLine
 10
-4751.772729991213
 20
-1181.155805238873
 30
0.0
 11
-4752.435964486066
 21
-1181.68506888285
 31
0.0
  0
LINE
  5
15D
100
AcDbEntity
  8
WHITE
  6
CONTINUOUS
 62
           1
100
AcDbLine
 10
-4752.435964486066
 20
-1181.68506888285
 30
0.0
 11
-4751.906700842088
 21
-1182.348303377703
 31
0.0
  0
LINE
  5
15E
100
AcDbEntity
  8
WHITE
  6
CONTINUOUS
 62
           1
100
AcDbLine
 10
-4763.739343832058
 20
-1181.018968599012
 30
0.0
 11
-4769.794172924556
 21
-1180.338740614571
 31
0.0
  0
LINE
  5
15F
100
AcDbEntity
  8
WHITE
  6
CONTINUOUS
 62
           1
100
AcDbLine
 10
-4769.794172924556
 20
-1180.338740614571
 30
0.0
 11
-4769.130938429702
 21
-1179.809476970593
 31
0.0
  0
LINE
  5
160
100
AcDbEntity
  8
WHITE
  6
CONTINUOUS
 62
           1
100
AcDbLine
 10
-4769.354223181161
 20
-1181.796973868645
 30
0.0
 11
-4769.88348682514
 21
-1181.133739373792
 31
0.0
  0
LINE
  5
161
100
AcDbEntity
  8
WHITE
  6
CONTINUOUS
 62
           1
100
AcDbLine
 10
-4769.88348682514
 20
-1181.133739373792
 30
0.0
 11
-4751.996014742672
 21
-1183.143302136925
 31
0.0
  0
LINE
  5
162
100
AcDbEntity
  8
WHITE
  6
CONTINUOUS
 62
           1
100
AcDbLine
 10
-4751.996014742672
 20
-1183.143302136925
 30
0.0
 11
-4752.659249237525
 21
-1183.672565780902
 31
0.0
  0
LINE
  5
163
100
AcDbEntity
  8
WHITE
  6
CONTINUOUS
 62
           1
100
AcDbLine
 10
-4752.659249237525
 20
-1183.672565780902
 30
0.0
 11
-4752.129985593548
 21
-1184.335800275755
 31
0.0
  0
LINE
  5
164
100
AcDbEntity
  8
WHITE
  6
CONTINUOUS
 62
           1
100
AcDbLine
 10
-4752.129985593548
 20
-1184.335800275755
 30
0.0
 11
-4770.017457676015
 21
-1182.326237512622
 31
0.0
  0
LINE
  5
165
100
AcDbEntity
  8
WHITE
  6
CONTINUOUS
 62
           1
100
AcDbLine
 10
-4770.017457676015
 20
-1182.326237512622
 30
0.0
 11
-4769.354223181161
 21
-1181.796973868645
 31
0.0
  0
LINE
  5
166
100
AcDbEntity
  8
WHITE
  6
CONTINUOUS
 62
           1
100
AcDbLine
 10
-4769.57750793262
 20
-1183.784470766697
 30
0.0
 11
-4752.882533988985
 21
-1185.660062678953
 31
0.0
  0
LINE
  5
167
100
AcDbEntity
  8
WHITE
  6
CONTINUOUS
 62
           1
100
AcDbLine
 10
-4769.57750793262
 20
-1183.784470766697
 30
0.0
 11
-4770.106771576599
 21
-1183.121236271844
 31
0.0
  0
LINE
  5
168
100
AcDbEntity
  8
WHITE
  6
CONTINUOUS
 62
           1
100
AcDbLine
 10
-4770.106771576599
 20
-1183.121236271844
 30
0.0
 11
-4752.219299494132
 21
-1185.130799034977
 31
0.0
  0
LINE
  5
169
100
AcDbEntity
  8
WHITE
  6
CONTINUOUS
 62
           1
100
AcDbLine
 10
-4752.219299494132
 20
-1185.130799034977
 30
0.0
 11
-4752.882533988985
 21
-1185.660062678953
 31
0.0
  0
LINE
  5
16A
100
AcDbEntity
  8
WHITE
  6
CONTINUOUS
 62
           1
100
AcDbLine
 10
-4752.882533988985
 20
-1185.660062678953
 30
0.0
 11
-4752.353270345007
 21
-1186.323297173807
 31
0.0
  0
LINE
  5
16B
100
AcDbEntity
  8
WHITE
  6
CONTINUOUS
 62
           1
100
AcDbLine
 10
-4752.353270345007
 20
-1186.323297173807
 30
0.0
 11
-4770.240742427473
 21
-1184.313734410674
 31
0.0
  0
LINE
  5
16C
100
AcDbEntity
  8
WHITE
  6
CONTINUOUS
 62
           1
100
AcDbLine
 10
-4770.240742427473
 20
-1184.313734410674
 30
0.0
 11
-4769.57750793262
 21
-1183.784470766697
 31
0.0
  0
LINE
  5
16D
100
AcDbEntity
  8
WHITE
  6
CONTINUOUS
 62
           1
100
AcDbLine
 10
-4753.105818740443
 20
-1187.647559577006
 30
0.0
 11
-4769.800792684079
 21
-1185.771967664749
 31
0.0
  0
LINE
  5
16E
100
AcDbEntity
  8
WHITE
  6
CONTINUOUS
 62
           1
100
AcDbLine
 10
-4770.330056328057
 20
-1185.108733169896
 30
0.0
 11
-4769.800792684079
 21
-1185.771967664749
 31
0.0
  0
LINE
  5
16F
100
AcDbEntity
  8
WHITE
  6
CONTINUOUS
 62
           1
100
AcDbLine
 10
-4769.800792684079
 20
-1185.771967664749
 30
0.0
 11
-4770.464027178933
 21
-1186.301231308726
 31
0.0
  0
LINE
  5
170
100
AcDbEntity
  8
WHITE
  6
CONTINUOUS
 62
           1
100
AcDbLine
 10
-4770.464027178933
 20
-1186.301231308726
 30
0.0
 11
-4752.576555096466
 21
-1188.310794071859
 31
0.0
  0
LINE
  5
171
100
AcDbEntity
  8
WHITE
  6
CONTINUOUS
 62
           1
100
AcDbLine
 10
-4752.576555096466
 20
-1188.310794071859
 30
0.0
 11
-4753.105818740443
 21
-1187.647559577006
 31
0.0
  0
LINE
  5
172
100
AcDbEntity
  8
WHITE
  6
CONTINUOUS
 62
           1
100
AcDbLine
 10
-4753.105818740443
 20
-1187.647559577006
 30
0.0
 11
-4752.442584245591
 21
-1187.118295933029
 31
0.0
  0
LINE
  5
173
100
AcDbEntity
  8
WHITE
  6
CONTINUOUS
 62
           1
100
AcDbLine
 10
-4752.442584245591
 20
-1187.118295933029
 30
0.0
 11
-4770.330056328057
 21
-1185.108733169896
 31
0.0
  0
LINE
  5
174
100
AcDbEntity
  8
WHITE
  6
CONTINUOUS
 62
          15
100
AcDbLine
 10
-4796.631831758445
 20
-1188.21999391033
 30
0.0
 11
-4795.73439011397
 21
-1187.003178366441
 31
0.0
  0
LINE
  5
175
100
AcDbEntity
  8
WHITE
  6
CONTINUOUS
 62
          15
100
AcDbLine
 10
-4791.516904866323
 20
-1187.476990499796
 30
0.0
 11
-4795.73439011397
 21
-1187.003178366441
 31
0.0
  0
LINE
  5
176
100
AcDbEntity
  8
WHITE
  6
CONTINUOUS
 62
          15
100
AcDbLine
 10
-4795.73439011397
 20
-1187.003178366441
 30
0.0
 11
-4796.193277817469
 21
-1184.316348042784
 31
0.0
  0
LINE
  5
177
100
AcDbEntity
  8
WHITE
  6
CONTINUOUS
 62
          15
100
AcDbLine
 10
-4795.746708314549
 20
-1180.34135424668
 30
0.0
 11
-4794.703082023083
 21
-1177.82332341361
 31
0.0
  0
LINE
  5
178
100
AcDbEntity
  8
WHITE
  6
CONTINUOUS
 62
          15
100
AcDbLine
 10
-4790.485596775436
 20
-1178.297135546966
 30
0.0
 11
-4794.703082023083
 21
-1177.82332341361
 31
0.0
  0
LINE
  5
179
100
AcDbEntity
  8
WHITE
  6
CONTINUOUS
 62
          15
100
AcDbLine
 10
-4794.703082023083
 20
-1177.82332341361
 30
0.0
 11
-4795.308154373573
 21
-1176.437708379137
 31
0.0
  0
LINE
  5
17A
100
AcDbEntity
  8
WHITE
  6
CONTINUOUS
 62
          15
100
AcDbLine
 10
-4796.250044159413
 20
-1191.593105842856
 30
0.0
 11
-4796.855116509903
 21
-1190.207490808381
 31
0.0
  0
LINE
  5
17B
100
AcDbEntity
  8
WHITE
  6
CONTINUOUS
 62
          15
100
AcDbLine
 10
-4789.969942729993
 20
-1173.70720807055
 30
0.0
 11
-4794.187427977638
 21
-1173.233395937194
 31
0.0
  0
LINE
  5
17C
100
AcDbEntity
  8
WHITE
  6
CONTINUOUS
 62
          15
100
AcDbLine
 10
-4795.084869622115
 20
-1174.450211481085
 30
0.0
 11
-4794.187427977638
 21
-1173.233395937194
 31
0.0
  0
LINE
  5
17D
100
AcDbEntity
  8
WHITE
  6
CONTINUOUS
 62
          15
100
AcDbLine
 10
-4792.032558911767
 20
-1192.066917976212
 30
0.0
 11
-4791.886374264775
 21
-1190.765702687029
 31
0.0
  0
LINE
  5
17E
100
AcDbEntity
  8
WHITE
  6
CONTINUOUS
 62
          15
100
AcDbLine
 10
-4796.631831758445
 20
-1188.21999391033
 30
0.0
 11
-4796.855116509903
 21
-1190.207490808381
 31
0.0
  0
LINE
  5
17F
100
AcDbEntity
  8
WHITE
  6
CONTINUOUS
 62
          15
100
AcDbLine
 10
-4791.886374264775
 20
-1190.765702687029
 30
0.0
 11
-4796.855116509903
 21
-1190.207490808381
 31
0.0
  0
LINE
  5
180
100
AcDbEntity
  8
WHITE
  6
CONTINUOUS
 62
          15
100
AcDbLine
 10
-4791.886374264775
 20
-1190.765702687029
 30
0.0
 11
-4791.663089513315
 21
-1188.778205788977
 31
0.0
  0
LINE
  5
181
100
AcDbEntity
  8
WHITE
  6
CONTINUOUS
 62
          15
100
AcDbLine
 10
-4796.193277817469
 20
-1184.316348042784
 30
0.0
 11
-4796.631831758445
 21
-1188.21999391033
 31
0.0
  0
LINE
  5
182
100
AcDbEntity
  8
WHITE
  6
CONTINUOUS
 62
          15
100
AcDbLine
 10
-4791.663089513315
 20
-1188.778205788977
 30
0.0
 11
-4796.631831758445
 21
-1188.21999391033
 31
0.0
  0
LINE
  5
183
100
AcDbEntity
  8
WHITE
  6
CONTINUOUS
 62
          15
100
AcDbLine
 10
-4791.663089513315
 20
-1188.778205788977
 30
0.0
 11
-4791.516904866323
 21
-1187.476990499796
 31
0.0
  0
LINE
  5
184
100
AcDbEntity
  8
WHITE
  6
CONTINUOUS
 62
          15
100
AcDbLine
 10
-4791.516904866323
 20
-1187.476990499796
 30
0.0
 11
-4791.224535572339
 21
-1184.874559921432
 31
0.0
  0
LINE
  5
185
100
AcDbEntity
  8
WHITE
  6
CONTINUOUS
 62
          15
100
AcDbLine
 10
-4795.746708314549
 20
-1180.34135424668
 30
0.0
 11
-4796.193277817469
 21
-1184.316348042784
 31
0.0
  0
LINE
  5
186
100
AcDbEntity
  8
WHITE
  6
CONTINUOUS
 62
          15
100
AcDbLine
 10
-4791.224535572339
 20
-1184.874559921432
 30
0.0
 11
-4796.193277817469
 21
-1184.316348042784
 31
0.0
  0
LINE
  5
187
100
AcDbEntity
  8
WHITE
  6
CONTINUOUS
 62
          15
100
AcDbLine
 10
-4791.224535572339
 20
-1184.874559921432
 30
0.0
 11
-4790.777966069421
 21
-1180.899566125328
 31
0.0
  0
LINE
  5
188
100
AcDbEntity
  8
WHITE
  6
CONTINUOUS
 62
          15
100
AcDbLine
 10
-4795.308154373573
 20
-1176.437708379137
 30
0.0
 11
-4795.746708314549
 21
-1180.34135424668
 31
0.0
  0
LINE
  5
189
100
AcDbEntity
  8
WHITE
  6
CONTINUOUS
 62
          15
100
AcDbLine
 10
-4790.777966069421
 20
-1180.899566125328
 30
0.0
 11
-4795.746708314549
 21
-1180.34135424668
 31
0.0
  0
LINE
  5
18A
100
AcDbEntity
  8
WHITE
  6
CONTINUOUS
 62
          15
100
AcDbLine
 10
-4790.777966069421
 20
-1180.899566125328
 30
0.0
 11
-4790.485596775436
 21
-1178.297135546966
 31
0.0
  0
LINE
  5
18B
100
AcDbEntity
  8
WHITE
  6
CONTINUOUS
 62
          15
100
AcDbLine
 10
-4790.485596775436
 20
-1178.297135546966
 30
0.0
 11
-4790.339412128444
 21
-1176.995920257785
 31
0.0
  0
LINE
  5
18C
100
AcDbEntity
  8
WHITE
  6
CONTINUOUS
 62
          15
100
AcDbLine
 10
-4795.084869622115
 20
-1174.450211481085
 30
0.0
 11
-4795.308154373573
 21
-1176.437708379137
 31
0.0
  0
LINE
  5
18D
100
AcDbEntity
  8
WHITE
  6
CONTINUOUS
 62
          15
100
AcDbLine
 10
-4790.339412128444
 20
-1176.995920257785
 30
0.0
 11
-4795.308154373573
 21
-1176.437708379137
 31
0.0
  0
LINE
  5
18E
100
AcDbEntity
  8
WHITE
  6
CONTINUOUS
 62
          15
100
AcDbLine
 10
-4790.339412128444
 20
-1176.995920257785
 30
0.0
 11
-4790.116127376985
 21
-1175.008423359733
 31
0.0
  0
LINE
  5
18F
100
AcDbEntity
  8
WHITE
  6
CONTINUOUS
 62
          15
100
AcDbLine
 10
-4795.084869622115
 20
-1174.450211481085
 30
0.0
 11
-4790.116127376985
 21
-1175.008423359733
 31
0.0
  0
LINE
  5
190
100
AcDbEntity
  8
WHITE
  6
CONTINUOUS
 62
          15
100
AcDbLine
 10
-4796.250044159413
 20
-1191.593105842856
 30
0.0
 11
-4792.032558911767
 21
-1192.066917976212
 31
0.0
  0
LINE
  5
191
100
AcDbEntity
  8
WHITE
  6
CONTINUOUS
 62
          15
100
AcDbLine
 10
-4790.116127376985
 20
-1175.008423359733
 30
0.0
 11
-4789.969942729993
 21
-1173.70720807055
 31
0.0
  0
LINE
  5
192
100
AcDbEntity
  8
WHITE
  6
CONTINUOUS
 62
          15
100
AcDbLine
 10
-4741.087635498664
 20
-1148.746103671513
 30
0.0
 11
-4740.501513026084
 21
-1143.528924314127
 31
0.0
  0
LINE
  5
193
100
AcDbEntity
  8
WHITE
  6
CONTINUOUS
 62
          15
100
AcDbLine
 10
-4742.969006487256
 20
-1152.056759679509
 30
0.0
 11
-4743.35975480231
 21
-1155.534879251101
 31
0.0
  0
LINE
  5
194
100
AcDbEntity
  8
WHITE
  6
CONTINUOUS
 62
          15
100
AcDbLine
 10
-4743.35975480231
 20
-1155.534879251101
 30
0.0
 11
-4742.608492248069
 21
-1155.619279620665
 31
0.0
  0
LINE
  5
195
100
AcDbEntity
  8
WHITE
  6
CONTINUOUS
 62
          15
100
AcDbLine
 10
-4742.187509857149
 20
-1145.100520536327
 30
0.0
 11
-4742.969006487256
 21
-1152.056759679509
 31
0.0
  0
LINE
  5
196
100
AcDbEntity
  8
WHITE
  6
CONTINUOUS
 62
          15
100
AcDbLine
 10
-4742.969006487256
 20
-1152.056759679509
 30
0.0
 11
-4742.217743933015
 21
-1152.141160049074
 31
0.0
  0
LINE
  5
197
100
AcDbEntity
  8
WHITE
  6
CONTINUOUS
 62
          15
100
AcDbLine
 10
-4741.796761542096
 20
-1141.622400964738
 30
0.0
 11
-4742.187509857149
 21
-1145.100520536327
 31
0.0
  0
LINE
  5
198
100
AcDbEntity
  8
WHITE
  6
CONTINUOUS
 62
          15
100
AcDbLine
 10
-4742.187509857149
 20
-1145.100520536327
 30
0.0
 11
-4741.436247302908
 21
-1145.184920905892
 31
0.0
  0
LINE
  5
199
100
AcDbEntity
  8
WHITE
  6
CONTINUOUS
 62
          15
100
AcDbLine
 10
-4741.182728475583
 20
-1136.156784495094
 30
0.0
 11
-4741.796761542096
 21
-1141.622400964738
 31
0.0
  0
LINE
  5
19A
100
AcDbEntity
  8
WHITE
  6
CONTINUOUS
 62
          15
100
AcDbLine
 10
-4741.796761542096
 20
-1141.622400964738
 30
0.0
 11
-4741.045498987854
 21
-1141.706801334302
 31
0.0
  0
LINE
  5
19B
100
AcDbEntity
  8
WHITE
  6
CONTINUOUS
 62
          15
100
AcDbLine
 10
-4786.565089944694
 20
-1177.347696933239
 30
0.0
 11
-4787.904798453448
 21
-1189.272678321551
 31
0.0
  0
LINE
  5
19C
100
AcDbEntity
  8
WHITE
  6
CONTINUOUS
 62
           2
100
AcDbLine
 10
-4787.904798453448
 20
-1189.272678321551
 30
0.0
 11
-4791.671105075257
 21
-1188.849553717537
 31
0.0
  0
LINE
  5
19D
100
AcDbEntity
  8
WHITE
  6
CONTINUOUS
 62
          15
100
AcDbLine
 10
-4786.453447568964
 20
-1176.353948484213
 30
0.0
 11
-4786.565089944694
 21
-1177.347696933239
 31
0.0
  0
LINE
  5
19E
100
AcDbEntity
  8
WHITE
  6
CONTINUOUS
 62
           2
100
AcDbLine
 10
-4786.565089944694
 20
-1177.347696933239
 30
0.0
 11
-4790.331396566502
 21
-1176.924572329225
 31
0.0
  0
LINE
  5
19F
100
AcDbEntity
  8
WHITE
  6
CONTINUOUS
 62
          15
100
AcDbLine
 10
-4787.904798453448
 20
-1189.272678321551
 30
0.0
 11
-4788.016440829179
 21
-1190.266426770577
 31
0.0
  0
LINE
  5
1A0
100
AcDbEntity
  8
WHITE
  6
CONTINUOUS
 62
          15
100
AcDbLine
 10
-4791.782747450987
 20
-1189.843302166562
 30
0.0
 11
-4788.016440829179
 21
-1190.266426770577
 31
0.0
  0
LINE
  5
1A1
100
AcDbEntity
  8
WHITE
  6
CONTINUOUS
 62
          15
100
AcDbLine
 10
-4786.3976263811
 20
-1175.8570742597
 30
0.0
 11
-4786.453447568964
 21
-1176.353948484213
 31
0.0
  0
LINE
  5
1A2
100
AcDbEntity
  8
WHITE
  6
CONTINUOUS
 62
          15
100
AcDbLine
 10
-4790.219754190773
 20
-1175.930823880198
 30
0.0
 11
-4786.453447568964
 21
-1176.353948484213
 31
0.0
  0
LINE
  5
1A3
100
AcDbEntity
  8
WHITE
  6
CONTINUOUS
 62
          15
100
AcDbLine
 10
-4749.75712554168
 20
-1194.564658236166
 30
0.0
 11
-4768.674020037452
 21
-1192.439445316333
 31
0.0
  0
LINE
  5
1A4
100
AcDbEntity
  8
WHITE
  6
CONTINUOUS
 62
          15
100
AcDbLine
 10
-4768.674020037452
 20
-1192.439445316333
 30
0.0
 11
-4776.314744192327
 21
-1193.593632177384
 31
0.0
  0
LINE
  5
1A5
100
AcDbEntity
  8
WHITE
  6
CONTINUOUS
 62
          15
100
AcDbLine
 10
-4744.531999747471
 20
-1165.969237965872
 30
0.0
 11
-4745.028873971984
 21
-1165.913416778007
 31
0.0
  0
LINE
  5
1A6
100
AcDbEntity
  8
WHITE
  6
CONTINUOUS
 62
          15
100
AcDbLine
 10
-4748.099039304547
 20
-1193.241499126221
 30
0.0
 11
-4745.028873971984
 21
-1165.913416778007
 31
0.0
  0
LINE
  5
1A7
100
AcDbEntity
  8
WHITE
  6
CONTINUOUS
 62
          15
100
AcDbLine
 10
-4774.600836767328
 20
-1191.773598842927
 30
0.0
 11
-4768.674020037452
 21
-1192.439445316333
 31
0.0
  0
LINE
  5
1A8
100
AcDbEntity
  8
WHITE
  6
CONTINUOUS
 62
          15
100
AcDbLine
 10
-4745.028873971984
 20
-1165.913416778007
 30
0.0
 11
-4772.853830544709
 21
-1162.787430257579
 31
0.0
  0
LINE
  5
1A9
100
AcDbEntity
  8
WHITE
  6
CONTINUOUS
 62
          15
100
AcDbLine
 10
-4775.923995877272
 20
-1190.115512605792
 30
0.0
 11
-4772.853830544709
 21
-1162.787430257579
 31
0.0
  0
LINE
  5
1AA
100
AcDbEntity
  8
WHITE
  6
CONTINUOUS
 62
          15
100
AcDbLine
 10
-4786.749102907099
 20
-1192.421387232224
 30
0.0
 11
-4776.314744192327
 21
-1193.593632177384
 31
0.0
  0
LINE
  5
1AB
100
AcDbEntity
  8
WHITE
  6
CONTINUOUS
 62
          15
100
AcDbLine
 10
-4788.016440829179
 20
-1190.266426770577
 30
0.0
 11
-4788.072262017044
 21
-1190.763300995089
 31
0.0
  0
LINE
  5
1AC
100
AcDbEntity
  8
WHITE
  6
CONTINUOUS
 62
          15
100
AcDbLine
 10
-4784.739540143966
 20
-1174.533915149756
 30
0.0
 11
-4774.305181429194
 21
-1175.706160094916
 31
0.0
  0
LINE
  5
1AD
100
AcDbEntity
  8
WHITE
  6
CONTINUOUS
 62
          15
100
AcDbLine
 10
-4744.420357371741
 20
-1164.975489516846
 30
0.0
 11
-4744.531999747471
 21
-1165.969237965872
 31
0.0
  0
LINE
  5
1AE
100
AcDbEntity
  8
WHITE
  6
CONTINUOUS
 62
          15
100
AcDbLine
 10
-4772.853830544709
 20
-1162.787430257579
 30
0.0
 11
-4773.350704769222
 21
-1162.731609069714
 31
0.0
  0
LINE
  5
1AF
100
AcDbEntity
  8
WHITE
  6
CONTINUOUS
 62
          15
100
AcDbLine
 10
-4773.350704769222
 20
-1162.731609069714
 30
0.0
 11
-4773.239062393493
 21
-1161.737860620689
 31
0.0
  0
LINE
  5
1B0
100
AcDbEntity
  8
WHITE
  6
CONTINUOUS
 62
          15
100
AcDbLine
 10
-4744.420357371741
 20
-1164.975489516846
 30
0.0
 11
-4773.239062393493
 21
-1161.737860620689
 31
0.0
  0
LINE
  5
1B1
100
AcDbEntity
  8
WHITE
  6
CONTINUOUS
 62
           7
100
AcDbLine
 10
-4770.330117567787
 20
-1135.844830398464
 30
0.0
 11
-4770.392181812389
 21
-1136.397275170528
 31
0.0
  0
LINE
  5
1B2
100
AcDbEntity
  8
WHITE
  6
CONTINUOUS
 62
          15
100
AcDbLine
 10
-4768.188834578754
 20
-1134.074036455834
 30
0.0
 11
-4741.182728475583
 21
-1136.156784495094
 31
0.0
  0
LINE
  5
1B3
100
AcDbEntity
  8
WHITE
  6
CONTINUOUS
 62
           7
100
AcDbLine
 10
-4776.644811378408
 20
-1147.267170455678
 30
0.0
 11
-4776.588990190544
 21
-1146.770296231165
 31
0.0
  0
LINE
  5
1B4
100
AcDbEntity
  8
WHITE
  6
CONTINUOUS
 62
           1
100
AcDbLine
 10
-4774.116195300391
 20
-1147.048101642081
 30
0.0
 11
-4776.588990190544
 21
-1146.770296231165
 31
0.0
  0
LINE
  5
1B5
100
AcDbEntity
  8
WHITE
  6
CONTINUOUS
 62
           7
100
AcDbLine
 10
-4776.588990190544
 20
-1146.770296231165
 30
0.0
 11
-4776.142420687625
 21
-1142.795302435062
 31
0.0
  0
LINE
  5
1B6
100
AcDbEntity
  8
WHITE
  6
CONTINUOUS
 62
           1
100
AcDbLine
 10
-4773.669625797473
 20
-1143.073107845977
 30
0.0
 11
-4776.142420687625
 21
-1142.795302435062
 31
0.0
  0
LINE
  5
1B7
100
AcDbEntity
  8
WHITE
  6
CONTINUOUS
 62
           7
100
AcDbLine
 10
-4776.700632566273
 20
-1147.764044680191
 30
0.0
 11
-4776.644811378408
 21
-1147.267170455678
 31
0.0
  0
LINE
  5
1B8
100
AcDbEntity
  8
WHITE
  6
CONTINUOUS
 62
           1
100
AcDbLine
 10
-4774.172016488255
 20
-1147.544975866593
 30
0.0
 11
-4776.644811378408
 21
-1147.267170455678
 31
0.0
  0
LINE
  5
1B9
100
AcDbEntity
  8
WHITE
  6
CONTINUOUS
 62
           7
100
AcDbLine
 10
-4776.142420687625
 20
-1142.795302435062
 30
0.0
 11
-4776.08659949976
 21
-1142.298428210548
 31
0.0
  0
LINE
  5
1BA
100
AcDbEntity
  8
WHITE
  6
CONTINUOUS
 62
           1
100
AcDbLine
 10
-4773.613804609608
 20
-1142.576233621464
 30
0.0
 11
-4776.08659949976
 21
-1142.298428210548
 31
0.0
  0
LINE
  5
1BB
100
AcDbEntity
  8
WHITE
  6
CONTINUOUS
 62
           7
100
AcDbLine
 10
-4775.03702986287
 20
-1141.913196361765
 30
0.0
 11
-4775.706884117248
 21
-1147.875687055921
 31
0.0
  0
LINE
  5
1BC
100
AcDbEntity
  8
WHITE
  6
CONTINUOUS
 62
           2
100
AcDbLine
 10
-4775.706884117248
 20
-1147.875687055921
 30
0.0
 11
-4776.700632566273
 21
-1147.764044680191
 31
0.0
  0
LINE
  5
1BD
100
AcDbEntity
  8
WHITE
  6
CONTINUOUS
 62
           7
100
AcDbLine
 10
-4774.92538748714
 20
-1140.919447912739
 30
0.0
 11
-4775.03702986287
 21
-1141.913196361765
 31
0.0
  0
LINE
  5
1BE
100
AcDbEntity
  8
WHITE
  6
CONTINUOUS
 62
           2
100
AcDbLine
 10
-4775.03702986287
 20
-1141.913196361765
 30
0.0
 11
-4776.030778311895
 21
-1141.801553986036
 31
0.0
  0
LINE
  5
1BF
100
AcDbEntity
  8
WHITE
  6
CONTINUOUS
 62
           7
100
AcDbLine
 10
-4775.706884117248
 20
-1147.875687055921
 30
0.0
 11
-4775.818526492976
 21
-1148.869435504947
 31
0.0
  0
LINE
  5
1C0
100
AcDbEntity
  8
WHITE
  6
CONTINUOUS
 62
           7
100
AcDbLine
 10
-4775.818526492976
 20
-1148.869435504947
 30
0.0
 11
-4776.700632566273
 21
-1147.764044680191
 31
0.0
  0
LINE
  5
1C1
100
AcDbEntity
  8
WHITE
  6
CONTINUOUS
 62
           7
100
AcDbLine
 10
-4776.08659949976
 20
-1142.298428210548
 30
0.0
 11
-4776.030778311895
 21
-1141.801553986036
 31
0.0
  0
LINE
  5
1C2
100
AcDbEntity
  8
WHITE
  6
CONTINUOUS
 62
           7
100
AcDbLine
 10
-4774.367175608492
 20
-1135.95070566761
 30
0.0
 11
-4774.92538748714
 21
-1140.919447912739
 31
0.0
  0
LINE
  5
1C3
100
AcDbEntity
  8
WHITE
  6
CONTINUOUS
 62
           7
100
AcDbLine
 10
-4776.030778311895
 20
-1141.801553986036
 30
0.0
 11
-4774.92538748714
 21
-1140.919447912739
 31
0.0
  0
LINE
  5
1C4
100
AcDbEntity
  8
WHITE
  6
CONTINUOUS
 62
          15
100
AcDbLine
 10
-4743.35975480231
 20
-1155.534879251101
 30
0.0
 11
-4744.420357371741
 21
-1164.975489516846
 31
0.0
  0
LINE
  5
1C5
100
AcDbEntity
  8
WHITE
  6
CONTINUOUS
 62
          15
100
AcDbLine
 10
-4773.239062393493
 20
-1161.737860620689
 30
0.0
 11
-4772.401744575521
 21
-1154.284747252995
 31
0.0
  0
LINE
  5
1C6
100
AcDbEntity
  8
WHITE
  6
CONTINUOUS
 62
           7
100
AcDbLine
 10
-4773.507135400277
 20
-1155.166853326291
 30
0.0
 11
-4771.274287885685
 21
-1135.291884345773
 31
0.0
  0
LINE
  5
1C7
100
AcDbEntity
  8
WHITE
  6
CONTINUOUS
 62
           7
100
AcDbLine
 10
-4775.494632298329
 20
-1154.943568574832
 30
0.0
 11
-4773.261784783737
 21
-1135.068599594313
 31
0.0
  0
LINE
  5
1C8
100
AcDbEntity
  8
WHITE
  6
CONTINUOUS
 62
           7
100
AcDbLine
 10
-4775.494632298329
 20
-1154.943568574832
 30
0.0
 11
-4776.376738371624
 21
-1153.838177750077
 31
0.0
  0
LINE
  5
1C9
100
AcDbEntity
  8
WHITE
  6
CONTINUOUS
 62
           7
100
AcDbLine
 10
-4772.401744575521
 20
-1154.284747252995
 30
0.0
 11
-4773.507135400277
 21
-1155.166853326291
 31
0.0
  0
LINE
  5
1CA
100
AcDbEntity
  8
WHITE
  6
CONTINUOUS
 62
           7
100
AcDbLine
 10
-4771.274287885685
 20
-1135.291884345773
 30
0.0
 11
-4770.392181812389
 21
-1136.397275170528
 31
0.0
  0
LINE
  5
1CB
100
AcDbEntity
  8
WHITE
  6
CONTINUOUS
 62
           7
100
AcDbLine
 10
-4773.261784783737
 20
-1135.068599594313
 30
0.0
 11
-4774.367175608492
 21
-1135.95070566761
 31
0.0
  0
LINE
  5
1CC
100
AcDbEntity
  8
WHITE
  6
CONTINUOUS
 62
           7
100
AcDbLine
 10
-4775.818526492976
 20
-1148.869435504947
 30
0.0
 11
-4776.376738371624
 21
-1153.838177750077
 31
0.0
  0
LINE
  5
1CD
100
AcDbEntity
  8
WHITE
  6
CONTINUOUS
 62
           7
100
AcDbLine
 10
-4775.494632298329
 20
-1154.943568574832
 30
0.0
 11
-4773.507135400277
 21
-1155.166853326291
 31
0.0
  0
LINE
  5
1CE
100
AcDbEntity
  8
WHITE
  6
CONTINUOUS
 62
          15
100
AcDbLine
 10
-4772.401744575521
 20
-1154.284747252995
 30
0.0
 11
-4770.392181812389
 21
-1136.397275170528
 31
0.0
  0
LINE
  5
1CF
100
AcDbEntity
  8
WHITE
  6
CONTINUOUS
 62
           7
100
AcDbLine
 10
-4771.274287885685
 20
-1135.291884345773
 30
0.0
 11
-4773.261784783737
 21
-1135.068599594313
 31
0.0
  0
LINE
  5
1D0
100
AcDbEntity
  8
WHITE
  6
CONTINUOUS
 62
          15
100
AcDbLine
 10
-4724.836183788249
 20
-1133.968068710664
 30
0.0
 11
-4724.339309563737
 21
-1134.023889898528
 31
0.0
  0
LINE
  5
1D1
100
AcDbEntity
  8
WHITE
  6
CONTINUOUS
 62
          15
100
AcDbLine
 10
-4740.306138868556
 20
-1141.789864528332
 30
0.0
 11
-4735.83427084794
 21
-1142.292255219115
 31
0.0
  0
LINE
  5
1D2
100
AcDbEntity
  8
WHITE
  6
CONTINUOUS
 62
           7
100
AcDbLine
 10
-4752.530781461159
 20
-1156.42329536062
 30
0.0
 11
-4760.799872156023
 21
-1155.49430681105
 31
0.0
  0
LINE
  5
1D3
100
AcDbEntity
  8
WHITE
  6
CONTINUOUS
 62
           7
100
AcDbLine
 10
-4760.799872156023
 20
-1155.49430681105
 30
0.0
 11
-4760.033644403547
 21
-1148.673978636848
 31
0.0
  0
LINE
  5
1D4
100
AcDbEntity
  8
WHITE
  6
CONTINUOUS
 62
           7
100
AcDbLine
 10
-4760.033644403547
 20
-1148.673978636848
 30
0.0
 11
-4751.764553708683
 21
-1149.602967186418
 31
0.0
  0
LINE
  5
1D5
100
AcDbEntity
  8
WHITE
  6
CONTINUOUS
 62
           7
100
AcDbLine
 10
-4751.764553708683
 20
-1149.602967186418
 30
0.0
 11
-4752.530781461159
 21
-1156.42329536062
 31
0.0
  0
ARC
  5
1D6
100
AcDbEntity
  8
WHITE
  6
CONTINUOUS
 62
          15
100
AcDbCircle
 10
-4696.263223298135
 20
-1130.435940622619
 30
0.0
 40
2.25
100
AcDbArc
 50
173.59
 51
353.589999999999
  0
ARC
  5
1D7
100
AcDbEntity
  8
WHITE
  6
CONTINUOUS
 62
          15
100
AcDbCircle
 10
-4696.263223298135
 20
-1130.435940622619
 30
0.0
 40
2.25
100
AcDbArc
 50
353.589999999999
 51
173.59
  0
ARC
  5
1D8
100
AcDbEntity
  8
WHITE
  6
CONTINUOUS
 62
          15
100
AcDbCircle
 10
-4749.638251639757
 20
-1147.785487228913
 30
0.0
 40
8.604407030244
100
AcDbArc
 50
353.589999999999
 51
17.59198532828
  0
ARC
  5
1D9
100
AcDbEntity
  8
WHITE
  6
CONTINUOUS
 62
          15
100
AcDbCircle
 10
-4744.088672051254
 20
-1153.691980220487
 30
0.0
 40
2.430106011614
100
AcDbArc
 50
353.589999999999
 51
39.655478142734
  0
ARC
  5
1DA
100
AcDbEntity
  8
WHITE
  6
CONTINUOUS
 62
          15
100
AcDbCircle
 10
-4742.916427106094
 20
-1143.257621505716
 30
0.0
 40
2.430106011614
100
AcDbArc
 50
353.589999999999
 51
39.655478142734
  0
ARC
  5
1DB
100
AcDbEntity
  8
WHITE
  6
CONTINUOUS
 62
          15
100
AcDbCircle
 10
-4744.088672051254
 20
-1153.691980220487
 30
0.0
 40
2.430106011614
100
AcDbArc
 50
307.524521857251
 51
353.589999999999
  0
ARC
  5
1DC
100
AcDbEntity
  8
WHITE
  6
CONTINUOUS
 62
          15
100
AcDbCircle
 10
-4742.916427106094
 20
-1143.257621505716
 30
0.0
 40
2.430106011613
100
AcDbArc
 50
307.524521857281
 51
353.589999999999
  0
ARC
  5
1DD
100
AcDbEntity
  8
WHITE
  6
CONTINUOUS
 62
          15
100
AcDbCircle
 10
-4749.638251639757
 20
-1147.785487228913
 30
0.0
 40
8.604407030244
100
AcDbArc
 50
329.588014671731
 51
353.589999999999
  0
CIRCLE
  5
1DE
100
AcDbEntity
  8
WHITE
  6
CONTINUOUS
 62
          15
100
AcDbCircle
 10
-4669.922716407515
 20
-1173.646792231273
 30
0.0
 40
2.25
  0
CIRCLE
  5
1DF
100
AcDbEntity
  8
WHITE
  6
CONTINUOUS
 62
          15
100
AcDbCircle
 10
-4690.791433837059
 20
-1171.302302340952
 30
0.0
 40
2.25
  0
CIRCLE
  5
1E0
100
AcDbEntity
  8
WHITE
  6
CONTINUOUS
 62
          15
100
AcDbCircle
 10
-4655.519536888071
 20
-1135.013278027531
 30
0.0
 40
2.25
  0
ARC
  5
1E1
100
AcDbEntity
  8
WHITE
  6
CONTINUOUS
 62
          15
100
AcDbCircle
 10
-4738.566215919499
 20
-1135.385273596323
 30
0.0
 40
0.5
100
AcDbArc
 50
90.739821982564
 51
173.59
  0
ARC
  5
1E2
100
AcDbEntity
  8
WHITE
  6
CONTINUOUS
 62
          15
100
AcDbCircle
 10
-4739.137557262381
 20
-1140.470883514988
 30
0.0
 40
0.5
100
AcDbArc
 50
173.59
 51
256.44017801742
  0
ARC
  5
1E3
100
AcDbEntity
  8
WHITE
  6
CONTINUOUS
 62
          15
100
AcDbCircle
 10
-4738.363430225829
 20
-1133.45464508734
 30
0.0
 40
1.0
100
AcDbArc
 50
83.59
 51
173.59
  0
ARC
  5
1E4
100
AcDbEntity
  8
WHITE
  6
CONTINUOUS
 62
          15
100
AcDbCircle
 10
-4741.824343873446
 20
-1164.260847007144
 30
0.0
 40
1.0
100
AcDbArc
 50
173.59
 51
263.59
  0
ARC
  5
1E5
100
AcDbEntity
  8
WHITE
  6
CONTINUOUS
 62
          15
100
AcDbCircle
 10
-4749.589661978085
 20
-1193.074035562626
 30
0.0
 40
1.500000000001
100
AcDbArc
 50
263.59
 51
353.589999999999
  0
ARC
  5
1E6
100
AcDbEntity
  8
WHITE
  6
CONTINUOUS
 62
          15
100
AcDbCircle
 10
-4774.433373203734
 20
-1190.282976169387
 30
0.0
 40
1.5
100
AcDbArc
 50
173.59
 51
263.59
  0
ARC
  5
1E7
100
AcDbEntity
  8
WHITE
  6
CONTINUOUS
 62
          15
100
AcDbCircle
 10
-4784.907003707561
 20
-1176.024537823295
 30
0.0
 40
1.5
100
AcDbArc
 50
83.59
 51
173.59
  0
ARC
  5
1E8
100
AcDbEntity
  8
WHITE
  6
CONTINUOUS
 62
          15
100
AcDbCircle
 10
-4786.581639343504
 20
-1190.930764558684
 30
0.0
 40
1.5
100
AcDbArc
 50
173.59
 51
263.59
  0
ARC
  5
1E9
100
AcDbEntity
  8
WHITE
  6
CONTINUOUS
 62
          15
100
AcDbCircle
 10
-4768.342620669735
 20
-1136.068115149924
 30
0.0
 40
2.0
100
AcDbArc
 50
85.59
 51
173.59
  0
TEXT
  5
1EA
100
AcDbEntity
  8
WHITE
  6
CONTINUOUS
 62
           7
100
AcDbText
 10
-4759.304514763487
 20
-1154.072145551782
 30
0.0
 40
4.0
  1
14
 50
-6.41
 41
0.955
  7
TXT
100
AcDbText
  0
ENDSEC
  0
SECTION
  2
OBJECTS
  0
DICTIONARY
  5
19
100
AcDbDictionary
  3
ACAD_GROUP
350
1A
  3
ACAD_MLINESTYLE
350
1B
  0
DICTIONARY
  5
1A
102
{ACAD_REACTORS
330
19
102
}
100
AcDbDictionary
  0
DICTIONARY
  5
1B
102
{ACAD_REACTORS
330
19
102
}
100
AcDbDictionary
  3
STANDARD
350
1C
  0
MLINESTYLE
  5
1C
102
{ACAD_REACTORS
330
1B
102
}
100
AcDbMlineStyle
  2
STANDARD
 70
           0
  3

 62
           0
 51
90.0
 52
90.0
 71
           2
 49
0.5
 62
         256
  6
BYLAYER
 49
-0.5
 62
         256
  6
BYLAYER
  0
ENDSEC
  0
EOF
