  0
SECTION
  2
HEADER
  9
$ACADVER
  1
AC1012
  9
$DWGCODEPAGE
  3
dos850
  9
$INSBASE
 10
0.0
 20
0.0
 30
0.0
  9
$EXTMIN
 10
-5096.905542290236
 20
-2453.042581377301
 30
0.0
  9
$EXTMAX
 10
-4474.995386290237
 20
-2078.042581377301
 30
0.0
  9
$LIMMIN
 10
-5096.905542290236
 20
-2453.042581377301
  9
$LIMMAX
 10
-4474.995386290237
 20
-2078.042581377301
  9
$ORTHOMODE
 70
           0
  9
$REGENMODE
 70
           1
  9
$FILLMODE
 70
           1
  9
$QTEXTMODE
 70
           0
  9
$MIRRTEXT
 70
           1
  9
$DRAGMODE
 70
           2
  9
$LTSCALE
 40
5.0
  9
$OSMODE
 70
           0
  9
$ATTMODE
 70
           1
  9
$TEXTSIZE
 40
0.2
  9
$TRACEWID
 40
0.05
  9
$TEXTSTYLE
  7
TXT
  9
$CLAYER
  8
0
  9
$CELTYPE
  6
CONTINUOUS
  9
$CECOLOR
 62
         256
  9
$CELTSCALE
 40
1.0
  9
$DELOBJ
 70
           1
  9
$DISPSILH
 70
           0
  9
$DIMSCALE
 40
1.0
  9
$DIMASZ
 40
3.5
  9
$DIMEXO
 40
0.0625
  9
$DIMDLI
 40
0.38
  9
$DIMRND
 40
0.0
  9
$DIMDLE
 40
0.0
  9
$DIMEXE
 40
0.18
  9
$DIMTP
 40
0.0
  9
$DIMTM
 40
0.0
  9
$DIMTXT
 40
3.5
  9
$DIMCEN
 40
0.09
  9
$DIMTSZ
 40
0.0
  9
$DIMTOL
 70
           0
  9
$DIMLIM
 70
           0
  9
$DIMTIH
 70
           1
  9
$DIMTOH
 70
           1
  9
$DIMSE1
 70
           0
  9
$DIMSE2
 70
           0
  9
$DIMTAD
 70
           0
  9
$DIMZIN
 70
           0
  9
$DIMBLK
  1

  9
$DIMASO
 70
           1
  9
$DIMSHO
 70
           1
  9
$DIMPOST
  1

  9
$DIMAPOST
  1

  9
$DIMALT
 70
           0
  9
$DIMALTD
 70
           2
  9
$DIMALTF
 40
25.4
  9
$DIMLFAC
 40
1.0
  9
$DIMTOFL
 70
           0
  9
$DIMTVP
 40
0.0
  9
$DIMTIX
 70
           0
  9
$DIMSOXD
 70
           0
  9
$DIMSAH
 70
           0
  9
$DIMBLK1
  1

  9
$DIMBLK2
  1

  9
$DIMSTYLE
  2
STANDARD
  9
$DIMCLRD
 70
           0
  9
$DIMCLRE
 70
           0
  9
$DIMCLRT
 70
           0
  9
$DIMTFAC
 40
1.0
  9
$DIMGAP
 40
0.09
  9
$DIMJUST
 70
           0
  9
$DIMSD1
 70
           0
  9
$DIMSD2
 70
           0
  9
$DIMTOLJ
 70
           1
  9
$DIMTZIN
 70
           0
  9
$DIMALTZ
 70
           0
  9
$DIMALTTZ
 70
           0
  9
$DIMFIT
 70
           3
  9
$DIMUPT
 70
           0
  9
$DIMUNIT
 70
           2
  9
$DIMDEC
 70
           4
  9
$DIMTDEC
 70
           4
  9
$DIMALTU
 70
           2
  9
$DIMALTTD
 70
           2
  9
$DIMTXSTY
  7
TXT
  9
$DIMAUNIT
 70
           0
  9
$LUNITS
 70
           2
  9
$LUPREC
 70
           2
  9
$SKETCHINC
 40
0.1
  9
$FILLETRAD
 40
0.0
  9
$AUNITS
 70
           0
  9
$AUPREC
 70
           2
  9
$MENU
  1
acad
  9
$ELEVATION
 40
0.0
  9
$PELEVATION
 40
0.0
  9
$THICKNESS
 40
0.0
  9
$LIMCHECK
 70
           0
  9
$BLIPMODE
 70
           1
  9
$CHAMFERA
 40
0.0
  9
$CHAMFERB
 40
0.0
  9
$CHAMFERC
 40
0.0
  9
$CHAMFERD
 40
0.0
  9
$SKPOLY
 70
           0
  9
$TDCREATE
 40
0.000000000
  9
$TDUPDATE
 40
0.000000000
  9
$TDINDWG
 40
0.0000000000
  9
$TDUSRTIMER
 40
0.0000000000
  9
$USRTIMER
 70
           1
  9
$ANGBASE
 50
0.0
  9
$ANGDIR
 70
           0
  9
$PDMODE
 70
           2
  9
$PDSIZE
 40
0.5
  9
$PLINEWID
 40
0.0
  9
$COORDS
 70
           0
  9
$SPLFRAME
 70
           0
  9
$SPLINETYPE
 70
           6
  9
$SPLINESEGS
 70
           8
  9
$ATTDIA
 70
           0
  9
$ATTREQ
 70
           1
  9
$HANDLING
 70
           1
  9
$HANDSEED
  5
21C
  9
$SURFTAB1
 70
           6
  9
$SURFTAB2
 70
           6
  9
$SURFTYPE
 70
           6
  9
$SURFU
 70
           6
  9
$SURFV
 70
           6
  9
$UCSNAME
  2

  9
$UCSORG
 10
0.0
 20
0.0
 30
0.0
  9
$UCSXDIR
 10
1.0
 20
0.0
 30
0.0
  9
$UCSYDIR
 10
0.0
 20
1.0
 30
0.0
  9
$PUCSNAME
  2

  9
$PUCSORG
 10
0.0
 20
0.0
 30
0.0
  9
$PUCSXDIR
 10
1.0
 20
0.0
 30
0.0
  9
$PUCSYDIR
 10
0.0
 20
1.0
 30
0.0
  9
$USERI1
 70
           0
  9
$USERI2
 70
           0
  9
$USERI3
 70
           0
  9
$USERI4
 70
           0
  9
$USERI5
 70
           0
  9
$USERR1
 40
0.0
  9
$USERR2
 40
0.0
  9
$USERR3
 40
0.0
  9
$USERR4
 40
0.0
  9
$USERR5
 40
0.0
  9
$WORLDVIEW
 70
           1
  9
$SHADEDGE
 70
           3
  9
$SHADEDIF
 70
          70
  9
$TILEMODE
 70
           1
  9
$MAXACTVP
 70
          16
  9
$PINSBASE
 10
0.0
 20
0.0
 30
0.0
  9
$PLIMCHECK
 70
           0
  9
$PEXTMIN
 10
1.000000000000E+20
 20
1.000000000000E+20
 30
1.000000000000E+20
  9
$PEXTMAX
 10
-1.000000000000E+20
 20
-1.000000000000E+20
 30
-1.000000000000E+20
  9
$PLIMMIN
 10
0.0
 20
0.0
  9
$PLIMMAX
 10
12.0
 20
9.0
  9
$UNITMODE
 70
           0
  9
$VISRETAIN
 70
           0
  9
$PLINEGEN
 70
           1
  9
$PSLTSCALE
 70
           0
  9
$TREEDEPTH
 70
        3020
  9
$PICKSTYLE
 70
           1
  9
$CMLSTYLE
  2
STANDARD
  9
$CMLJUST
 70
           0
  9
$CMLSCALE
 40
1.0
  9
$SAVEIMAGES
 70
           0
  0
ENDSEC
  0
SECTION
  2
CLASSES
  0
CLASS
  1
LWPOLYLINE
  2
AcDbPolyline
  3
"AutoCAD"
 90
        0
280
           0
281
           1
  0
CLASS
  1
IMAGE
  2
AcDbRasterImage
  3
ISM
 90
      127
280
           0
281
           1
  0
CLASS
  1
OLE2FRAME
  2
AcDbOle2Frame
  3
""
 90
        0
280
           0
281
           1
  0
CLASS
  1
HATCH
  2
AcDbHatch
  3
"ACAD_SEDONA"
 90
        0
280
           0
281
           1
  0
CLASS
  1
DICTIONARYVAR
  2
AcDbDictionaryVar
  3
"AutoCAD"
 90
        0
280
           0
281
           0
  0
CLASS
  1
RASTERVARIABLES
  2
AcDbRasterVariables
  3
ISM
 90
        0
280
           0
281
           0
  0
CLASS
  1
IMAGEDEF
  2
AcDbRasterImageDef
  3
ISM
 90
        0
280
           0
281
           0
  0
CLASS
  1
IMAGEDEF_REACTOR
  2
AcDbRasterImageDefReactor
  3
ISM
 90
        1
280
           0
281
           0
  0
CLASS
  1
IDBUFFER
  2
AcDbIdBuffer
  3
"Acad"
 90
        0
280
           0
281
           0
  0
CLASS
  1
SPATIAL_FILTER
  2
AcDbSpatialFilter
  3
"Acad"
 90
        0
280
           0
281
           0
  0
CLASS
  1
XRECORD
  2
AcDbXrecord
  3
"<Built In>"
 90
        0
280
           0
281
           0
  0
ENDSEC
  0
SECTION
  2
TABLES
  0
TABLE
  2
VPORT
  5
7
100
AcDbSymbolTable
 70
           1
  0
VPORT
  5
15
100
AcDbSymbolTableRecord
100
AcDbViewportTableRecord
  2
*ACTIVE
 70
           0
 10
0.0
 20
0.0
 11
1.0
 21
1.0
 12
6.591288
 22
4.579184
 13
0.0
 23
0.0
 14
1.0
 24
1.0
 15
0.0
 25
0.0
 16
0.0
 26
0.0
 36
1.0
 17
0.0
 27
0.0
 37
0.0
 40
9.158369
 41
0.688564
 42
50.0
 43
0.0
 44
0.0
 50
0.0
 51
0.0
 71
           0
 72
         100
 73
           1
 74
           1
 75
           0
 76
           0
 77
           0
 78
           0
  0
ENDTAB
  0
TABLE
  2
LTYPE
  5
4
100
AcDbSymbolTable
 70
           5
  0
LTYPE
  5
11
100
AcDbSymbolTableRecord
100
AcDbLinetypeTableRecord
  2
BYBLOCK
 70
           0
  3

 72
          65
 73
           0
 40
0.0
  0
LTYPE
  5
12
100
AcDbSymbolTableRecord
100
AcDbLinetypeTableRecord
  2
BYLAYER
 70
           0
  3

 72
          65
 73
           0
 40
0.0
  0
LTYPE
  5
13
100
AcDbSymbolTableRecord
100
AcDbLinetypeTableRecord
  2
CONTINUOUS
 70
           0
  3
Solid line
 72
          65
 73
           0
 40
0.0
  0
LTYPE
  5
1D
100
AcDbSymbolTableRecord
100
AcDbLinetypeTableRecord
  2
GESTRICHELT
 70
           0
  3

 72
          65
 73
           2
 40
0.75
 49
0.5
 74
           0
 49
-0.25
 74
           0
  0
LTYPE
  5
1E
100
AcDbSymbolTableRecord
100
AcDbLinetypeTableRecord
  2
STRICHPUNKT
 70
           0
  3

 72
          65
 73
           4
 40
1.0
 49
0.5
 74
           0
 49
-0.25
 74
           0
 49
0.0
 74
           0
 49
-0.25
 74
           0
  0
ENDTAB
  0
TABLE
  2
LAYER
  5
2
100
AcDbSymbolTable
 70
           3
  0
LAYER
  5
14
100
AcDbSymbolTableRecord
100
AcDbLayerTableRecord
  2
0
 70
           0
 62
           7
  6
CONTINUOUS
  0
LAYER
  5
20
100
AcDbSymbolTableRecord
100
AcDbLayerTableRecord
  2
BLACK
 70
           0
 62
           7
  6
CONTINUOUS
  0
LAYER
  5
21
100
AcDbSymbolTableRecord
100
AcDbLayerTableRecord
  2
WHITE
 70
           0
 62
           7
  6
CONTINUOUS
  0
ENDTAB
  0
TABLE
  2
STYLE
  5
3
100
AcDbSymbolTable
 70
           2
  0
STYLE
  5
17
100
AcDbSymbolTableRecord
100
AcDbTextStyleTableRecord
  2
TXT
 70
           0
 40
3.5
 41
1.0
 50
0.0
 71
           0
 42
3.5
  3
TXT
  4

  0
STYLE
  5
1F
100
AcDbSymbolTableRecord
100
AcDbTextStyleTableRecord
  2
GOTHICG
 70
           0
 40
3.5
 41
1.0
 50
0.0
 71
           0
 42
3.5
  3
GOTHICG
  4

  0
ENDTAB
  0
TABLE
  2
VIEW
  5
5
100
AcDbSymbolTable
 70
           0
  0
ENDTAB
  0
TABLE
  2
UCS
  5
6
100
AcDbSymbolTable
 70
           0
  0
ENDTAB
  0
TABLE
  2
APPID
  5
8
100
AcDbSymbolTable
 70
           2
  0
APPID
  5
16
100
AcDbSymbolTableRecord
100
AcDbRegAppTableRecord
  2
ACAD
 70
           0
  0
APPID
  5
22
100
AcDbSymbolTableRecord
100
AcDbRegAppTableRecord
  2
MegaCADPntStyle
 70
           0
  0
ENDTAB
  0
TABLE
  2
DIMSTYLE
  5
9
100
AcDbSymbolTable
 70
           1
  0
DIMSTYLE
105
18
100
AcDbSymbolTableRecord
100
AcDbDimStyleTableRecord
  2
STANDARD
 70
           0
  3

  4

  5

  6

  7

 40
1.0
 41
0.18
 42
0.0625
 43
0.38
 44
0.18
 45
0.0
 46
0.0
 47
0.0
 48
0.0
140
0.18
141
0.09
142
0.0
143
25.4
144
1.0
145
0.0
146
1.0
147
0.09
 71
           0
 72
           0
 73
           1
 74
           1
 75
           0
 76
           0
 77
           0
 78
           0
170
           0
171
           2
172
           0
173
           0
174
           0
175
           0
176
           0
177
           0
178
           0
270
           2
271
           4
272
           4
273
           2
274
           2
340
17
275
           0
280
           0
281
           0
282
           0
283
           1
284
           0
285
           0
286
           0
287
           0
288
           0
  0
ENDTAB
  0
TABLE
  2
BLOCK_RECORD
  5
1
100
AcDbSymbolTable
 70
           2
  0
BLOCK_RECORD
  5
A
100
AcDbSymbolTableRecord
100
AcDbBlockTableRecord
  2
*MODEL_SPACE
  0
BLOCK_RECORD
  5
B
100
AcDbSymbolTableRecord
100
AcDbBlockTableRecord
  2
*PAPER_SPACE
  0
BLOCK_RECORD
  5
23
100
AcDbSymbolTableRecord
100
AcDbBlockTableRecord
  2
ELIPPSE
  0
BLOCK_RECORD
  5
24
100
AcDbSymbolTableRecord
100
AcDbBlockTableRecord
  2
MAK1
  0
ENDTAB
  0
ENDSEC
  0
SECTION
  2
BLOCKS
  0
BLOCK
  5
D
100
AcDbEntity
  8
0
100
AcDbBlockBegin
  2
*MODEL_SPACE
 70
           0
 10
0.0
 20
0.0
 30
0.0
  3
*MODEL_SPACE
  1

  0
ENDBLK
  5
E
100
AcDbEntity
  8
0
100
AcDbBlockEnd
  0
BLOCK
  5
F
100
AcDbEntity
 67
           1
  8
0
100
AcDbBlockBegin
  2
*PAPER_SPACE
 70
           0
 10
0.0
 20
0.0
 30
0.0
  3
*PAPER_SPACE
  1

  0
ENDBLK
  5
10
100
AcDbEntity
 67
           1
  8
0
100
AcDbBlockEnd
  0
BLOCK
  5
1EB
100
AcDbEntity
  8
0
100
AcDbBlockBegin
  2
ELIPPSE
 70
          64
 10
0.0
 20
0.0
 30
0.0
  3
ELIPPSE
  1

  0
CIRCLE
  5
1EC
100
AcDbEntity
  8
0
  6
BYBLOCK
 62
           0
100
AcDbCircle
 10
0.0
 20
0.0
 30
0.0
 40
1.0
  0
ENDBLK
  5
1ED
100
AcDbEntity
  8
0
  6
BYBLOCK
 62
           0
100
AcDbBlockEnd
  0
BLOCK
  5
1EE
100
AcDbEntity
  8
0
100
AcDbBlockBegin
  2
MAK1
 70
          64
 10
0.0
 20
0.0
 30
0.0
  3
MAK1
  1

  0
LINE
  5
1EF
100
AcDbEntity
  8
WHITE
  6
CONTINUOUS
 62
           2
100
AcDbLine
 10
-15.50693229743
 20
611.597948837688
 30
0.0
 11
-15.596491646589
 21
611.687508186849
 31
0.0
  0
LINE
  5
1F0
100
AcDbEntity
  8
WHITE
  6
CONTINUOUS
 62
           2
100
AcDbLine
 10
-14.44627212565
 20
611.597948837688
 30
0.0
 11
-15.596491646589
 21
612.748168358628
 31
0.0
  0
LINE
  5
1F1
100
AcDbEntity
  8
WHITE
  6
CONTINUOUS
 62
           2
100
AcDbLine
 10
-13.59649164659
 20
611.808828530409
 30
0.0
 11
-15.596491646589
 21
613.808828530408
 31
0.0
  0
LINE
  5
1F2
100
AcDbEntity
  8
WHITE
  6
CONTINUOUS
 62
           2
100
AcDbLine
 10
-13.596491646589
 20
612.869488702188
 30
0.0
 11
-15.596491646589
 21
614.869488702188
 31
0.0
  0
LINE
  5
1F3
100
AcDbEntity
  8
WHITE
  6
CONTINUOUS
 62
           2
100
AcDbLine
 10
-13.59649164659
 20
613.930148873967
 30
0.0
 11
-15.596491646589
 21
615.930148873967
 31
0.0
  0
LINE
  5
1F4
100
AcDbEntity
  8
WHITE
  6
CONTINUOUS
 62
           2
100
AcDbLine
 10
-13.596491646589
 20
614.990809045747
 30
0.0
 11
-15.596491646588
 21
616.990809045747
 31
0.0
  0
LINE
  5
1F5
100
AcDbEntity
  8
WHITE
  6
CONTINUOUS
 62
           2
100
AcDbLine
 10
-13.596491646589
 20
616.051469217527
 30
0.0
 11
-15.596491646589
 21
618.051469217527
 31
0.0
  0
LINE
  5
1F6
100
AcDbEntity
  8
WHITE
  6
CONTINUOUS
 62
           2
100
AcDbLine
 10
-13.596491646589
 20
617.112129389307
 30
0.0
 11
-15.596491646589
 21
619.112129389307
 31
0.0
  0
LINE
  5
1F7
100
AcDbEntity
  8
WHITE
  6
CONTINUOUS
 62
           2
100
AcDbLine
 10
-13.596491646589
 20
618.172789561087
 30
0.0
 11
-15.596491646589
 21
620.172789561087
 31
0.0
  0
LINE
  5
1F8
100
AcDbEntity
  8
WHITE
  6
CONTINUOUS
 62
           2
100
AcDbLine
 10
-13.59649164659
 20
619.233449732867
 30
0.0
 11
-15.59649164659
 21
621.233449732867
 31
0.0
  0
LINE
  5
1F9
100
AcDbEntity
  8
WHITE
  6
CONTINUOUS
 62
           2
100
AcDbLine
 10
-13.596491646589
 20
620.294109904647
 30
0.0
 11
-15.596491646589
 21
622.294109904647
 31
0.0
  0
LINE
  5
1FA
100
AcDbEntity
  8
WHITE
  6
CONTINUOUS
 62
           2
100
AcDbLine
 10
-13.59649164659
 20
621.354770076426
 30
0.0
 11
-15.596491646589
 21
623.354770076426
 31
0.0
  0
LINE
  5
1FB
100
AcDbEntity
  8
WHITE
  6
CONTINUOUS
 62
           2
100
AcDbLine
 10
-13.596491646589
 20
622.415430248206
 30
0.0
 11
-15.596491646588
 21
624.415430248206
 31
0.0
  0
LINE
  5
1FC
100
AcDbEntity
  8
WHITE
  6
CONTINUOUS
 62
           2
100
AcDbLine
 10
-13.596491646589
 20
623.476090419986
 30
0.0
 11
-15.596491646589
 21
625.476090419986
 31
0.0
  0
LINE
  5
1FD
100
AcDbEntity
  8
WHITE
  6
CONTINUOUS
 62
           2
100
AcDbLine
 10
-13.596491646589
 20
624.536750591765
 30
0.0
 11
-15.596491646589
 21
626.536750591766
 31
0.0
  0
LINE
  5
1FE
100
AcDbEntity
  8
WHITE
  6
CONTINUOUS
 62
           2
100
AcDbLine
 10
-13.59649164659
 20
625.597410763546
 30
0.0
 11
-15.596491646589
 21
627.597410763545
 31
0.0
  0
LINE
  5
1FF
100
AcDbEntity
  8
WHITE
  6
CONTINUOUS
 62
           2
100
AcDbLine
 10
-13.59649164659
 20
626.658070935326
 30
0.0
 11
-15.59649164659
 21
628.658070935326
 31
0.0
  0
LINE
  5
200
100
AcDbEntity
  8
WHITE
  6
CONTINUOUS
 62
           2
100
AcDbLine
 10
-13.596491646589
 20
627.718731107105
 30
0.0
 11
-15.596491646588
 21
629.718731107105
 31
0.0
  0
LINE
  5
201
100
AcDbEntity
  8
WHITE
  6
CONTINUOUS
 62
           2
100
AcDbLine
 10
-13.596491646589
 20
628.779391278885
 30
0.0
 11
-15.596491646589
 21
630.779391278884
 31
0.0
  0
LINE
  5
202
100
AcDbEntity
  8
WHITE
  6
CONTINUOUS
 62
           2
100
AcDbLine
 10
-13.596491646589
 20
629.840051450664
 30
0.0
 11
-15.354389033614
 21
631.597948837688
 31
0.0
  0
LINE
  5
203
100
AcDbEntity
  8
WHITE
  6
CONTINUOUS
 62
           2
100
AcDbLine
 10
-13.596491646589
 20
630.900711622444
 30
0.0
 11
-14.293728861833
 21
631.597948837689
 31
0.0
  0
LINE
  5
204
100
AcDbEntity
  8
WHITE
  6
CONTINUOUS
 62
           2
100
AcDbLine
 10
-15.59649164659
 20
631.406213139101
 30
0.0
 11
-15.404755948003
 21
631.597948837689
 31
0.0
  0
LINE
  5
205
100
AcDbEntity
  8
WHITE
  6
CONTINUOUS
 62
           2
100
AcDbLine
 10
-15.596491646589
 20
630.345552967322
 30
0.0
 11
-14.344095776223
 21
631.597948837689
 31
0.0
  0
LINE
  5
206
100
AcDbEntity
  8
WHITE
  6
CONTINUOUS
 62
           2
100
AcDbLine
 10
-15.596491646589
 20
629.284892795542
 30
0.0
 11
-13.596491646589
 21
631.284892795541
 31
0.0
  0
LINE
  5
207
100
AcDbEntity
  8
WHITE
  6
CONTINUOUS
 62
           2
100
AcDbLine
 10
-15.596491646589
 20
628.224232623762
 30
0.0
 11
-13.596491646589
 21
630.224232623762
 31
0.0
  0
LINE
  5
208
100
AcDbEntity
  8
WHITE
  6
CONTINUOUS
 62
           2
100
AcDbLine
 10
-15.596491646589
 20
627.163572451982
 30
0.0
 11
-13.596491646589
 21
629.163572451982
 31
0.0
  0
LINE
  5
209
100
AcDbEntity
  8
WHITE
  6
CONTINUOUS
 62
           2
100
AcDbLine
 10
-15.596491646588
 20
626.102912280202
 30
0.0
 11
-13.596491646589
 21
628.102912280202
 31
0.0
  0
LINE
  5
20A
100
AcDbEntity
  8
WHITE
  6
CONTINUOUS
 62
           2
100
AcDbLine
 10
-15.596491646589
 20
625.042252108422
 30
0.0
 11
-13.596491646589
 21
627.042252108422
 31
0.0
  0
LINE
  5
20B
100
AcDbEntity
  8
WHITE
  6
CONTINUOUS
 62
           2
100
AcDbLine
 10
-15.596491646589
 20
623.981591936643
 30
0.0
 11
-13.59649164659
 21
625.981591936642
 31
0.0
  0
LINE
  5
20C
100
AcDbEntity
  8
WHITE
  6
CONTINUOUS
 62
           2
100
AcDbLine
 10
-15.596491646589
 20
622.920931764863
 30
0.0
 11
-13.596491646589
 21
624.920931764863
 31
0.0
  0
LINE
  5
20D
100
AcDbEntity
  8
WHITE
  6
CONTINUOUS
 62
           2
100
AcDbLine
 10
-15.596491646589
 20
621.860271593083
 30
0.0
 11
-13.596491646589
 21
623.860271593083
 31
0.0
  0
LINE
  5
20E
100
AcDbEntity
  8
WHITE
  6
CONTINUOUS
 62
           2
100
AcDbLine
 10
-15.596491646589
 20
620.799611421304
 30
0.0
 11
-13.596491646589
 21
622.799611421303
 31
0.0
  0
LINE
  5
20F
100
AcDbEntity
  8
WHITE
  6
CONTINUOUS
 62
           2
100
AcDbLine
 10
-15.596491646589
 20
619.738951249523
 30
0.0
 11
-13.596491646589
 21
621.738951249524
 31
0.0
  0
LINE
  5
210
100
AcDbEntity
  8
WHITE
  6
CONTINUOUS
 62
           2
100
AcDbLine
 10
-15.596491646588
 20
618.678291077744
 30
0.0
 11
-13.59649164659
 21
620.678291077744
 31
0.0
  0
LINE
  5
211
100
AcDbEntity
  8
WHITE
  6
CONTINUOUS
 62
           2
100
AcDbLine
 10
-15.59649164659
 20
617.617630905964
 30
0.0
 11
-13.596491646589
 21
619.617630905964
 31
0.0
  0
LINE
  5
212
100
AcDbEntity
  8
WHITE
  6
CONTINUOUS
 62
           2
100
AcDbLine
 10
-15.596491646589
 20
616.556970734184
 30
0.0
 11
-13.59649164659
 21
618.556970734184
 31
0.0
  0
LINE
  5
213
100
AcDbEntity
  8
WHITE
  6
CONTINUOUS
 62
           2
100
AcDbLine
 10
-15.596491646589
 20
615.496310562405
 30
0.0
 11
-13.596491646589
 21
617.496310562404
 31
0.0
  0
LINE
  5
214
100
AcDbEntity
  8
WHITE
  6
CONTINUOUS
 62
           2
100
AcDbLine
 10
-15.596491646589
 20
614.435650390625
 30
0.0
 11
-13.596491646589
 21
616.435650390625
 31
0.0
  0
LINE
  5
215
100
AcDbEntity
  8
WHITE
  6
CONTINUOUS
 62
           2
100
AcDbLine
 10
-15.596491646589
 20
613.374990218845
 30
0.0
 11
-13.596491646589
 21
615.374990218845
 31
0.0
  0
LINE
  5
216
100
AcDbEntity
  8
WHITE
  6
CONTINUOUS
 62
           2
100
AcDbLine
 10
-15.596491646589
 20
612.314330047065
 30
0.0
 11
-13.596491646588
 21
614.314330047066
 31
0.0
  0
LINE
  5
217
100
AcDbEntity
  8
WHITE
  6
CONTINUOUS
 62
           2
100
AcDbLine
 10
-15.252212684186
 20
611.597948837689
 30
0.0
 11
-13.59649164659
 21
613.253669875285
 31
0.0
  0
LINE
  5
218
100
AcDbEntity
  8
WHITE
  6
CONTINUOUS
 62
           2
100
AcDbLine
 10
-14.191552512407
 20
611.597948837688
 30
0.0
 11
-13.596491646589
 21
612.193009703505
 31
0.0
  0
ENDBLK
  5
219
100
AcDbEntity
  8
0
  6
BYBLOCK
 62
           0
100
AcDbBlockEnd
  0
ENDSEC
  0
SECTION
  2
ENTITIES
  0
INSERT
  5
25
100
AcDbEntity
  8
0
  6
CONTINUOUS
 62
           7
100
AcDbBlockReference
  2
MAK1
 10
-4794.338246607442
 20
-2862.923507727585
 30
0.0
 50
353.589999999999
  0
LINE
  5
26
100
AcDbEntity
  8
0
  6
CONTINUOUS
 62
          15
100
AcDbLine
 10
-5089.905542290236
 20
-2078.042581377301
 30
0.0
 11
-4732.905542290236
 21
-2078.042581377301
 31
0.0
  0
LINE
  5
27
100
AcDbEntity
  8
0
  6
CONTINUOUS
 62
          15
100
AcDbLine
 10
-4732.905542290236
 20
-2305.542642377301
 30
0.0
 11
-4732.905542290236
 21
-2453.042581377301
 31
0.0
  0
LINE
  5
28
100
AcDbEntity
  8
0
  6
GESTRICHELT
 62
          15
100
AcDbLine
 10
-4732.905542290236
 20
-2208.89536165371
 30
0.0
 11
-4732.905542290236
 21
-2305.542642377301
 31
0.0
  0
LINE
  5
29
100
AcDbEntity
  8
0
  6
CONTINUOUS
 62
          15
100
AcDbLine
 10
-4732.905542290236
 20
-2078.042581377301
 30
0.0
 11
-4732.905542290236
 21
-2208.89536165371
 31
0.0
  0
LINE
  5
2A
100
AcDbEntity
  8
0
  6
CONTINUOUS
 62
          15
100
AcDbLine
 10
-4732.905542290236
 20
-2453.042581377301
 30
0.0
 11
-5089.905542290236
 21
-2453.042581377301
 31
0.0
  0
LINE
  5
2B
100
AcDbEntity
  8
0
  6
CONTINUOUS
 62
          15
100
AcDbLine
 10
-5089.905542290236
 20
-2240.542581377301
 30
0.0
 11
-5089.905542290236
 21
-2078.042581377301
 31
0.0
  0
LINE
  5
2C
100
AcDbEntity
  8
0
  6
GESTRICHELT
 62
          15
100
AcDbLine
 10
-5089.905542290236
 20
-2290.542581377301
 30
0.0
 11
-5089.905542290236
 21
-2240.542581377301
 31
0.0
  0
LINE
  5
2D
100
AcDbEntity
  8
0
  6
CONTINUOUS
 62
          15
100
AcDbLine
 10
-5089.905542290236
 20
-2453.042581377301
 30
0.0
 11
-5089.905542290236
 21
-2290.542581377301
 31
0.0
  0
LINE
  5
2E
100
AcDbEntity
  8
0
  6
STRICHPUNKT
 62
          15
100
AcDbLine
 10
-4911.405542290236
 20
-2078.042581377301
 30
0.0
 11
-4911.405542290236
 21
-2453.042581377301
 31
0.0
  0
LINE
  5
2F
100
AcDbEntity
  8
0
  6
GESTRICHELT
 62
          15
100
AcDbLine
 10
-5089.905542290236
 20
-2265.542581377301
 30
0.0
 11
-4732.905542290236
 21
-2265.542581377301
 31
0.0
  0
CIRCLE
  5
30
100
AcDbEntity
  8
0
  6
CONTINUOUS
 62
          15
100
AcDbCircle
 10
-4911.405542290236
 20
-2265.542581377301
 30
0.0
 40
10.25
  0
LINE
  5
31
100
AcDbEntity
  8
0
  6
GESTRICHELT
 62
          15
100
AcDbLine
 10
-4725.905542290236
 20
-2240.542581377301
 30
0.0
 11
-4725.905542290236
 21
-2290.542581377301
 31
0.0
  0
LINE
  5
32
100
AcDbEntity
  8
0
  6
CONTINUOUS
 62
          15
100
AcDbLine
 10
-5096.905542290236
 20
-2290.542581377301
 30
0.0
 11
-5096.905542290236
 21
-2240.542581377301
 31
0.0
  0
LINE
  5
33
100
AcDbEntity
  8
0
  6
GESTRICHELT
 62
          15
100
AcDbLine
 10
-4971.405542290237
 20
-2290.542581377301
 30
0.0
 11
-4725.905542290236
 21
-2290.542581377301
 31
0.0
  0
LINE
  5
34
100
AcDbEntity
  8
0
  6
CONTINUOUS
 62
          15
100
AcDbLine
 10
-5096.905542290236
 20
-2290.542581377301
 30
0.0
 11
-4971.405542290237
 21
-2290.542581377301
 31
0.0
  0
LINE
  5
35
100
AcDbEntity
  8
0
  6
GESTRICHELT
 62
          15
100
AcDbLine
 10
-4971.405542290237
 20
-2240.542581377301
 30
0.0
 11
-4725.905542290236
 21
-2240.542581377301
 31
0.0
  0
LINE
  5
36
100
AcDbEntity
  8
0
  6
CONTINUOUS
 62
          15
100
AcDbLine
 10
-5096.905542290236
 20
-2240.542581377301
 30
0.0
 11
-4971.405542290237
 21
-2240.542581377301
 31
0.0
  0
TEXT
  5
37
100
AcDbEntity
  8
0
  6
CONTINUOUS
 62
          15
100
AcDbText
 10
-5045.159493402125
 20
-2401.256185133271
 30
0.0
 40
3.5
  1
355-730
 41
0.900000010218
  7
GOTHICG
100
AcDbText
  0
CIRCLE
  5
38
100
AcDbEntity
  8
0
  6
GESTRICHELT
 62
          15
100
AcDbCircle
 10
-4911.405542290236
 20
-2265.542581377301
 30
0.0
 40
17.5
  0
ARC
  5
39
100
AcDbEntity
  8
0
  6
GESTRICHELT
 62
          15
100
AcDbCircle
 10
-4911.405542290237
 20
-2265.542581377301
 30
0.0
 40
22.5
100
AcDbArc
 50
109.064916387402
 51
186.057558731017
  0
ARC
  5
3A
100
AcDbEntity
  8
0
  6
CONTINUOUS
 62
          15
100
AcDbCircle
 10
-4911.405542290237
 20
-2265.542581377301
 30
0.0
 40
22.5
100
AcDbArc
 50
186.057558731017
 51
109.064916387402
  0
CIRCLE
  5
3B
100
AcDbEntity
  8
0
  6
CONTINUOUS
 62
          15
100
AcDbCircle
 10
-4514.995386290237
 20
-2265.542581377301
 30
0.0
 40
6.25
  0
LINE
  5
3C
100
AcDbEntity
  8
0
  6
GESTRICHELT
 62
          15
100
AcDbLine
 10
-4781.783520332041
 20
-2225.542578992031
 30
0.0
 11
-4971.405542290237
 21
-2225.542656725075
 31
0.0
  0
LINE
  5
3D
100
AcDbEntity
  8
0
  6
CONTINUOUS
 62
          15
100
AcDbLine
 10
-4773.143516796052
 20
-2225.542575450176
 30
0.0
 11
-4781.783520332041
 21
-2225.542578992031
 31
0.0
  0
LINE
  5
3E
100
AcDbEntity
  8
0
  6
GESTRICHELT
 62
          15
100
AcDbLine
 10
-4589.205017697952
 20
-2225.542500047016
 30
0.0
 11
-4773.143516796052
 21
-2225.542575450176
 31
0.0
  0
LINE
  5
3F
100
AcDbEntity
  8
0
  6
CONTINUOUS
 62
          15
100
AcDbLine
 10
-4474.995386290237
 20
-2225.542453228286
 30
0.0
 11
-4589.205017697952
 21
-2225.542500047016
 31
0.0
  0
LINE
  5
40
100
AcDbEntity
  8
0
  6
CONTINUOUS
 62
          15
100
AcDbLine
 10
-4971.405542290237
 20
-2305.542642377301
 30
0.0
 11
-4474.995386290237
 21
-2305.542642377301
 31
0.0
  0
LINE
  5
41
100
AcDbEntity
  8
0
  6
CONTINUOUS
 62
          15
100
AcDbLine
 10
-4474.995386290237
 20
-2305.542642377301
 30
0.0
 11
-4474.995386290237
 21
-2225.542453228286
 31
0.0
  0
LINE
  5
42
100
AcDbEntity
  8
0
  6
CONTINUOUS
 62
          15
100
AcDbLine
 10
-4971.405542290237
 20
-2230.29131871883
 30
0.0
 11
-4971.405542290237
 21
-2305.542642377301
 31
0.0
  0
LINE
  5
43
100
AcDbEntity
  8
0
  6
GESTRICHELT
 62
          15
100
AcDbLine
 10
-4971.405542290237
 20
-2225.542656725075
 30
0.0
 11
-4971.405542290237
 21
-2230.29131871883
 31
0.0
  0
LINE
  5
44
100
AcDbEntity
  8
WHITE
  6
GESTRICHELT
 62
          15
100
AcDbLine
 10
-4950.649968646089
 20
-2201.549417679918
 30
0.0
 11
-4946.250930788214
 21
-2205.943252646098
 31
0.0
  0
LINE
  5
45
100
AcDbEntity
  8
WHITE
  6
CONTINUOUS
 62
          15
100
AcDbLine
 10
-4947.106994925024
 20
-2233.132924959327
 30
0.0
 11
-4947.114434740157
 21
-2233.369222833313
 31
0.0
  0
LINE
  5
46
100
AcDbEntity
  8
WHITE
  6
GESTRICHELT
 62
          15
100
AcDbLine
 10
-4946.250930788214
 20
-2205.943252646098
 30
0.0
 11
-4947.106994925024
 21
-2233.132924959327
 31
0.0
  0
LINE
  5
47
100
AcDbEntity
  8
WHITE
  6
CONTINUOUS
 62
          15
100
AcDbLine
 10
-4947.114434740157
 20
-2233.369222833313
 30
0.0
 11
-4901.152493963031
 21
-2251.046892362977
 31
0.0
  0
LINE
  5
48
100
AcDbEntity
  8
WHITE
  6
CONTINUOUS
 62
          15
100
AcDbLine
 10
-4901.152493963031
 20
-2251.046892362977
 30
0.0
 11
-4897.616960057098
 21
-2254.582426268909
 31
0.0
  0
ARC
  5
49
100
AcDbEntity
  8
WHITE
  6
CONTINUOUS
 62
          15
100
AcDbCircle
 10
-4908.223561774896
 20
-2265.189027986708
 30
0.0
 40
15.0
100
AcDbArc
 50
314.999999999999
 51
45.0
  0
LINE
  5
4A
100
AcDbEntity
  8
WHITE
  6
CONTINUOUS
 62
          15
100
AcDbLine
 10
-4897.616960057098
 20
-2275.795629704506
 30
0.0
 11
-4901.152493963031
 21
-2279.331163610439
 31
0.0
  0
ARC
  5
4B
100
AcDbEntity
  8
WHITE
  6
CONTINUOUS
 62
          15
100
AcDbCircle
 10
-4911.759095680829
 20
-2268.724561892641
 30
0.0
 40
15.0
100
AcDbArc
 50
224.999999999999
 51
314.999999999999
  0
LINE
  5
4C
100
AcDbEntity
  8
WHITE
  6
GESTRICHELT
 62
          15
100
AcDbLine
 10
-4971.27960024883
 20
-2230.417260760235
 30
0.0
 11
-4975.398705987618
 21
-2226.298155021447
 31
0.0
  0
LINE
  5
4D
100
AcDbEntity
  8
WHITE
  6
CONTINUOUS
 62
          15
100
AcDbLine
 10
-4922.365697398627
 20
-2279.331163610439
 30
0.0
 11
-4971.27960024883
 21
-2230.417260760235
 31
0.0
  0
ARC
  5
4E
100
AcDbEntity
  8
WHITE
  6
GESTRICHELT
 62
          15
100
AcDbCircle
 10
-4964.79210426982
 20
-2215.691553303649
 30
0.0
 40
15.0
100
AcDbArc
 50
135.0
 51
225.0
  0
LINE
  5
4F
100
AcDbEntity
  8
WHITE
  6
GESTRICHELT
 62
          15
100
AcDbLine
 10
-4975.398705987618
 20
-2205.084951585851
 30
0.0
 11
-4971.863172081686
 21
-2201.549417679918
 31
0.0
  0
ARC
  5
50
100
AcDbEntity
  8
WHITE
  6
GESTRICHELT
 62
          15
100
AcDbCircle
 10
-4961.256570363888
 20
-2212.156019397717
 30
0.0
 40
15.0
100
AcDbArc
 50
115.494701449336
 51
135.0
  0
ARC
  5
51
100
AcDbEntity
  8
WHITE
  6
CONTINUOUS
 62
          15
100
AcDbCircle
 10
-4961.256570363888
 20
-2212.156019397717
 30
0.0
 40
15.0
100
AcDbArc
 50
51.685298550662
 51
115.494701449336
  0
ARC
  5
52
100
AcDbEntity
  8
WHITE
  6
GESTRICHELT
 62
          15
100
AcDbCircle
 10
-4961.256570363888
 20
-2212.156019397717
 30
0.0
 40
15.0
100
AcDbArc
 50
45.0
 51
51.685298550662
  0
CIRCLE
  5
53
100
AcDbEntity
  8
WHITE
  6
CONTINUOUS
 62
          15
100
AcDbCircle
 10
-4961.610123754481
 20
-2215.337999913056
 30
0.0
 40
8.25
  0
LINE
  5
54
100
AcDbEntity
  8
BLACK
  6
GESTRICHELT
 62
          15
100
AcDbLine
 10
-4537.855499255502
 20
-2263.009509196042
 30
0.0
 11
-4535.62265174091
 21
-2243.134540215523
 31
0.0
  0
LINE
  5
55
100
AcDbEntity
  8
BLACK
  6
GESTRICHELT
 62
          15
100
AcDbLine
 10
-4535.62265174091
 20
-2243.134540215523
 30
0.0
 11
-4539.597645537013
 21
-2242.687970712605
 31
0.0
  0
LINE
  5
56
100
AcDbEntity
  8
BLACK
  6
CONTINUOUS
 62
          15
100
AcDbLine
 10
-4538.257937028258
 20
-2230.762989324294
 30
0.0
 11
-4567.672891119426
 21
-2227.458375002699
 31
0.0
  0
LINE
  5
57
100
AcDbEntity
  8
BLACK
  6
CONTINUOUS
 62
          15
100
AcDbLine
 10
-4567.672891119426
 20
-2227.458375002699
 30
0.0
 11
-4567.728712307291
 21
-2227.955249227211
 31
0.0
  0
LINE
  5
58
100
AcDbEntity
  8
BLACK
  6
CONTINUOUS
 62
          15
100
AcDbLine
 10
-4567.728712307291
 20
-2227.955249227211
 30
0.0
 11
-4713.610984624298
 21
-2211.56614847011
 31
0.0
  0
LINE
  5
59
100
AcDbEntity
  8
BLACK
  6
CONTINUOUS
 62
          15
100
AcDbLine
 10
-4713.610984624298
 20
-2211.56614847011
 30
0.0
 11
-4713.555163436433
 21
-2211.069274245597
 31
0.0
  0
LINE
  5
5A
100
AcDbEntity
  8
BLACK
  6
CONTINUOUS
 62
          15
100
AcDbLine
 10
-4713.555163436433
 20
-2211.069274245597
 30
0.0
 11
-4742.970117527601
 21
-2207.764659924002
 31
0.0
  0
LINE
  5
5B
100
AcDbEntity
  8
BLACK
  6
CONTINUOUS
 62
          15
100
AcDbLine
 10
-4742.970117527601
 20
-2207.764659924002
 30
0.0
 11
-4744.309826036357
 21
-2219.689641312312
 31
0.0
  0
LINE
  5
5C
100
AcDbEntity
  8
BLACK
  6
CONTINUOUS
 62
          15
100
AcDbLine
 10
-4744.309826036357
 20
-2219.689641312312
 30
0.0
 11
-4755.737933200155
 21
-2218.405753991422
 31
0.0
  0
LINE
  5
5D
100
AcDbEntity
  8
BLACK
  6
CONTINUOUS
 62
          15
100
AcDbLine
 10
-4755.737933200155
 20
-2218.405753991422
 30
0.0
 11
-4755.849575575885
 21
-2219.399502440449
 31
0.0
  0
LINE
  5
5E
100
AcDbEntity
  8
BLACK
  6
CONTINUOUS
 62
          15
100
AcDbLine
 10
-4755.849575575885
 20
-2219.399502440449
 30
0.0
 11
-4772.246424984813
 21
-2217.55740324091
 31
0.0
  0
LINE
  5
5F
100
AcDbEntity
  8
BLACK
  6
CONTINUOUS
 62
          15
100
AcDbLine
 10
-4772.246424984813
 20
-2217.55740324091
 30
0.0
 11
-4776.488835262537
 21
-2255.319844303896
 31
0.0
  0
LINE
  5
60
100
AcDbEntity
  8
BLACK
  6
CONTINUOUS
 62
          15
100
AcDbLine
 10
-4776.488835262537
 20
-2255.319844303896
 30
0.0
 11
-4760.091985853608
 21
-2257.161943503434
 31
0.0
  0
LINE
  5
61
100
AcDbEntity
  8
BLACK
  6
CONTINUOUS
 62
          15
100
AcDbLine
 10
-4760.091985853608
 20
-2257.161943503434
 30
0.0
 11
-4760.203628229338
 21
-2258.15569195246
 31
0.0
  0
LINE
  5
62
100
AcDbEntity
  8
BLACK
  6
CONTINUOUS
 62
          15
100
AcDbLine
 10
-4760.203628229338
 20
-2258.15569195246
 30
0.0
 11
-4748.77552106554
 21
-2259.43957927335
 31
0.0
  0
LINE
  5
63
100
AcDbEntity
  8
BLACK
  6
CONTINUOUS
 62
          15
100
AcDbLine
 10
-4748.77552106554
 20
-2259.43957927335
 30
0.0
 11
-4750.115229574294
 21
-2271.364560661661
 31
0.0
  0
LINE
  5
64
100
AcDbEntity
  8
BLACK
  6
GESTRICHELT
 62
          15
100
AcDbLine
 10
-4740.177745084036
 20
-2272.480984418957
 30
0.0
 11
-4720.700275483127
 21
-2274.669174983256
 31
0.0
  0
LINE
  5
65
100
AcDbEntity
  8
BLACK
  6
CONTINUOUS
 62
          15
100
AcDbLine
 10
-4750.115229574294
 20
-2271.364560661661
 30
0.0
 11
-4740.177745084036
 21
-2272.480984418957
 31
0.0
  0
LINE
  5
66
100
AcDbEntity
  8
BLACK
  6
GESTRICHELT
 62
          15
100
AcDbLine
 10
-4720.700275483127
 20
-2274.669174983256
 30
0.0
 11
-4720.644454295261
 21
-2274.172300758743
 31
0.0
  0
LINE
  5
67
100
AcDbEntity
  8
BLACK
  6
CONTINUOUS
 62
          15
100
AcDbLine
 10
-4712.296967323444
 20
-2275.110096714872
 30
0.0
 11
-4574.762181978254
 21
-2290.561401515845
 31
0.0
  0
LINE
  5
68
100
AcDbEntity
  8
BLACK
  6
GESTRICHELT
 62
          15
100
AcDbLine
 10
-4720.644454295261
 20
-2274.172300758743
 30
0.0
 11
-4712.296967323444
 21
-2275.110096714872
 31
0.0
  0
LINE
  5
69
100
AcDbEntity
  8
BLACK
  6
CONTINUOUS
 62
          15
100
AcDbLine
 10
-4574.762181978254
 20
-2290.561401515845
 30
0.0
 11
-4574.818003166119
 21
-2291.058275740358
 31
0.0
  0
LINE
  5
6A
100
AcDbEntity
  8
BLACK
  6
CONTINUOUS
 62
          15
100
AcDbLine
 10
-4574.818003166119
 20
-2291.058275740358
 30
0.0
 11
-4545.403049074952
 21
-2294.362890061954
 31
0.0
  0
LINE
  5
6B
100
AcDbEntity
  8
BLACK
  6
GESTRICHELT
 62
          15
100
AcDbLine
 10
-4544.063340566197
 20
-2282.437908673643
 30
0.0
 11
-4540.088346770093
 21
-2282.884478176561
 31
0.0
  0
LINE
  5
6C
100
AcDbEntity
  8
BLACK
  6
GESTRICHELT
 62
          15
100
AcDbLine
 10
-4540.088346770093
 20
-2282.884478176561
 30
0.0
 11
-4537.855499255502
 21
-2263.009509196042
 31
0.0
  0
LINE
  5
6D
100
AcDbEntity
  8
BLACK
  6
CONTINUOUS
 62
          15
100
AcDbLine
 10
-4567.728712307291
 20
-2227.955249227211
 30
0.0
 11
-4574.762181978254
 21
-2290.561401515845
 31
0.0
  0
LINE
  5
6E
100
AcDbEntity
  8
BLACK
  6
GESTRICHELT
 62
          15
100
AcDbLine
 10
-4716.124143240743
 20
-2233.936215937124
 30
0.0
 11
-4720.644454295261
 21
-2274.172300758743
 31
0.0
  0
LINE
  5
6F
100
AcDbEntity
  8
BLACK
  6
CONTINUOUS
 62
          15
100
AcDbLine
 10
-4713.610984624298
 20
-2211.56614847011
 30
0.0
 11
-4716.124143240743
 21
-2233.936215937124
 31
0.0
  0
LINE
  5
70
100
AcDbEntity
  8
BLACK
  6
CONTINUOUS
 62
          15
100
AcDbLine
 10
-4744.309826036357
 20
-2219.689641312312
 30
0.0
 11
-4748.77552106554
 21
-2259.43957927335
 31
0.0
  0
LINE
  5
71
100
AcDbEntity
  8
BLACK
  6
CONTINUOUS
 62
          15
100
AcDbLine
 10
-4755.737933200155
 20
-2218.405753991422
 30
0.0
 11
-4760.203628229338
 21
-2258.15569195246
 31
0.0
  0
LINE
  5
72
100
AcDbEntity
  8
BLACK
  6
GESTRICHELT
 62
          15
100
AcDbLine
 10
-4889.190833417053
 20
-2215.488517913159
 30
0.0
 11
-4913.582985571159
 21
-2212.748188790321
 31
0.0
  0
LINE
  5
73
100
AcDbEntity
  8
BLACK
  6
CONTINUOUS
 62
          15
100
AcDbLine
 10
-4882.697383150278
 20
-2216.218022663757
 30
0.0
 11
-4889.190833417053
 21
-2215.488517913159
 31
0.0
  0
LINE
  5
74
100
AcDbEntity
  8
BLACK
  6
GESTRICHELT
 62
          15
100
AcDbLine
 10
-4890.977111428727
 20
-2231.388493097574
 30
0.0
 11
-4915.369263582832
 21
-2228.648163974735
 31
0.0
  0
LINE
  5
75
100
AcDbEntity
  8
BLACK
  6
CONTINUOUS
 62
          15
100
AcDbLine
 10
-4884.483661161952
 20
-2232.117997848173
 30
0.0
 11
-4890.977111428727
 21
-2231.388493097574
 31
0.0
  0
LINE
  5
76
100
AcDbEntity
  8
BLACK
  6
GESTRICHELT
 62
          15
100
AcDbLine
 10
-4914.600060134711
 20
-2213.559854338298
 30
0.0
 11
-4913.582985571159
 21
-2212.748188790321
 31
0.0
  0
LINE
  5
77
100
AcDbEntity
  8
BLACK
  6
GESTRICHELT
 62
          15
100
AcDbLine
 10
-4916.180884915178
 20
-2227.63105412694
 30
0.0
 11
-4915.369263582832
 21
-2228.648163974735
 31
0.0
  0
LINE
  5
78
100
AcDbEntity
  8
BLACK
  6
GESTRICHELT
 62
          15
100
AcDbLine
 10
-4914.600060134711
 20
-2213.559854338298
 30
0.0
 11
-4916.180884915178
 21
-2227.63105412694
 31
0.0
  0
LINE
  5
79
100
AcDbEntity
  8
BLACK
  6
CONTINUOUS
 62
          15
100
AcDbLine
 10
-4889.293560032657
 20
-2216.402905611046
 30
0.0
 11
-4882.800109765882
 21
-2217.132410361644
 31
0.0
  0
LINE
  5
7A
100
AcDbEntity
  8
BLACK
  6
GESTRICHELT
 62
          15
100
AcDbLine
 10
-4914.600060134711
 20
-2213.559854338298
 30
0.0
 11
-4889.293560032657
 21
-2216.402905611046
 31
0.0
  0
LINE
  5
7B
100
AcDbEntity
  8
BLACK
  6
CONTINUOUS
 62
          15
100
AcDbLine
 10
-4890.874384813124
 20
-2230.474105399687
 30
0.0
 11
-4884.380934546348
 21
-2231.203610150286
 31
0.0
  0
LINE
  5
7C
100
AcDbEntity
  8
BLACK
  6
GESTRICHELT
 62
          15
100
AcDbLine
 10
-4916.180884915178
 20
-2227.63105412694
 30
0.0
 11
-4890.874384813124
 21
-2230.474105399687
 31
0.0
  0
LINE
  5
7D
100
AcDbEntity
  8
BLACK
  6
GESTRICHELT
 62
          15
100
AcDbLine
 10
-4913.582985571159
 20
-2212.748188790321
 30
0.0
 11
-4915.369263582832
 21
-2228.648163974735
 31
0.0
  0
LINE
  5
7E
100
AcDbEntity
  8
BLACK
  6
CONTINUOUS
 62
          15
100
AcDbLine
 10
-4773.251206366378
 20
-2226.501139282143
 30
0.0
 11
-4882.47409839882
 21
-2214.230525765706
 31
0.0
  0
LINE
  5
7F
100
AcDbEntity
  8
BLACK
  6
CONTINUOUS
 62
          15
100
AcDbLine
 10
-4882.47409839882
 20
-2214.230525765706
 30
0.0
 11
-4884.706945913411
 21
-2234.105494746224
 31
0.0
  0
LINE
  5
80
100
AcDbEntity
  8
BLACK
  6
CONTINUOUS
 62
          15
100
AcDbLine
 10
-4884.706945913411
 20
-2234.105494746224
 30
0.0
 11
-4775.48405388097
 21
-2246.376108262663
 31
0.0
  0
LINE
  5
81
100
AcDbEntity
  8
BLACK
  6
CONTINUOUS
 62
          15
100
AcDbLine
 10
-4883.002409099976
 20
-2218.933112363733
 30
0.0
 11
-4876.377416127307
 21
-2219.677395240738
 31
0.0
  0
LINE
  5
82
100
AcDbEntity
  8
BLACK
  6
CONTINUOUS
 62
          15
100
AcDbLine
 10
-4884.178635212254
 20
-2229.402908148198
 30
0.0
 11
-4877.553642239586
 21
-2230.147191025203
 31
0.0
  0
LINE
  5
83
100
AcDbEntity
  8
BLACK
  6
CONTINUOUS
 62
          15
100
AcDbLine
 10
-4876.377416127307
 20
-2219.677395240738
 30
0.0
 11
-4877.553642239586
 21
-2230.147191025203
 31
0.0
  0
LINE
  5
84
100
AcDbEntity
  8
BLACK
  6
CONTINUOUS
 62
          15
100
AcDbLine
 10
-4883.002409099976
 20
-2218.933112363733
 30
0.0
 11
-4877.553642239586
 21
-2230.147191025203
 31
0.0
  0
LINE
  5
85
100
AcDbEntity
  8
BLACK
  6
CONTINUOUS
 62
          15
100
AcDbLine
 10
-4876.377416127307
 20
-2219.677395240738
 30
0.0
 11
-4884.178635212254
 21
-2229.402908148198
 31
0.0
  0
CIRCLE
  5
86
100
AcDbEntity
  8
BLACK
  6
GESTRICHELT
 62
          15
100
AcDbCircle
 10
-4733.579155458287
 20
-2249.574465369766
 30
0.0
 40
5.7225
  0
ARC
  5
87
100
AcDbEntity
  8
BLACK
  6
GESTRICHELT
 62
          15
100
AcDbCircle
 10
-4733.579155458287
 20
-2249.574465369766
 30
0.0
 40
6.5785
100
AcDbArc
 50
103.59
 51
13.59
  0
CIRCLE
  5
88
100
AcDbEntity
  8
BLACK
  6
CONTINUOUS
 62
          15
100
AcDbCircle
 10
-4554.794011144267
 20
-2252.553084616189
 30
0.0
 40
5.7225
  0
ARC
  5
89
100
AcDbEntity
  8
BLACK
  6
CONTINUOUS
 62
          15
100
AcDbCircle
 10
-4554.794011144267
 20
-2252.553084616189
 30
0.0
 40
6.57849
100
AcDbArc
 50
103.59
 51
13.59
  0
LINE
  5
8A
100
AcDbEntity
  8
BLACK
  6
GESTRICHELT
 62
          15
100
AcDbLine
 10
-4727.340395410103
 20
-2233.071203146153
 30
0.0
 11
-4730.586148262753
 21
-2235.661323085451
 31
0.0
  0
LINE
  5
8B
100
AcDbEntity
  8
BLACK
  6
CONTINUOUS
 62
          15
100
AcDbLine
 10
-4721.280195642808
 20
-2228.235146623675
 30
0.0
 11
-4727.340395410103
 21
-2233.071203146153
 31
0.0
  0
LINE
  5
8C
100
AcDbEntity
  8
BLACK
  6
GESTRICHELT
 62
          15
100
AcDbLine
 10
-4729.533345571081
 20
-2232.902079814172
 30
0.0
 11
-4731.521803756818
 21
-2234.488884725055
 31
0.0
  0
LINE
  5
8D
100
AcDbEntity
  8
BLACK
  6
CONTINUOUS
 62
          15
100
AcDbLine
 10
-4722.215845554752
 20
-2227.062658575857
 30
0.0
 11
-4729.533345571081
 21
-2232.902079814172
 31
0.0
  0
ARC
  5
8E
100
AcDbEntity
  8
BLACK
  6
CONTINUOUS
 62
          15
100
AcDbCircle
 10
-4726.400997466964
 20
-2231.361995799396
 30
0.0
 40
6.0
100
AcDbArc
 50
338.368688099555
 51
192.811311900445
  0
ARC
  5
8F
100
AcDbEntity
  8
BLACK
  6
GESTRICHELT
 62
          15
100
AcDbCircle
 10
-4726.400997466964
 20
-2231.361995799396
 30
0.0
 40
6.0
100
AcDbArc
 50
192.811311900445
 51
338.368688099555
  0
LINE
  5
90
100
AcDbEntity
  8
BLACK
  6
CONTINUOUS
 62
          15
100
AcDbLine
 10
-4556.851064721201
 20
-2267.638698753613
 30
0.0
 11
-4566.157321047799
 21
-2275.064891410098
 31
0.0
  0
LINE
  5
91
100
AcDbEntity
  8
BLACK
  6
CONTINUOUS
 62
          15
100
AcDbLine
 10
-4557.787018339799
 20
-2266.466226900504
 30
0.0
 11
-4567.09326908428
 21
-2273.892369869567
 31
0.0
  0
CIRCLE
  5
92
100
AcDbEntity
  8
BLACK
  6
CONTINUOUS
 62
          15
100
AcDbCircle
 10
-4561.972169135587
 20
-2270.765554186559
 30
0.0
 40
6.0
  0
LINE
  5
93
100
AcDbEntity
  8
BLACK
  6
CONTINUOUS
 62
          15
100
AcDbLine
 10
-4889.026288087181
 20
-2209.613359291095
 30
0.0
 11
-4892.506892029895
 21
-2209.222331870102
 31
0.0
  0
LINE
  5
94
100
AcDbEntity
  8
BLACK
  6
CONTINUOUS
 62
          15
100
AcDbLine
 10
-4895.987495972608
 20
-2208.831304449109
 30
0.0
 11
-4892.506892029895
 21
-2209.222331870102
 31
0.0
  0
LINE
  5
95
100
AcDbEntity
  8
BLACK
  6
CONTINUOUS
 62
          15
100
AcDbLine
 10
-4899.081508116627
 20
-2236.371651466035
 30
0.0
 11
-4895.600904173914
 21
-2236.762678887027
 31
0.0
  0
LINE
  5
96
100
AcDbEntity
  8
BLACK
  6
CONTINUOUS
 62
          15
100
AcDbLine
 10
-4892.1203002312
 20
-2237.15370630802
 30
0.0
 11
-4895.600904173914
 21
-2236.762678887027
 31
0.0
  0
LINE
  5
97
100
AcDbEntity
  8
BLACK
  6
CONTINUOUS
 62
          15
100
AcDbLine
 10
-4889.799790006762
 20
-2216.498436107841
 30
0.0
 11
-4893.280393949475
 21
-2216.107408686848
 31
0.0
  0
LINE
  5
98
100
AcDbEntity
  8
BLACK
  6
CONTINUOUS
 62
          15
100
AcDbLine
 10
-4896.760997892188
 20
-2215.716381265856
 30
0.0
 11
-4893.280393949475
 21
-2216.107408686848
 31
0.0
  0
LINE
  5
99
100
AcDbEntity
  8
BLACK
  6
CONTINUOUS
 62
          15
100
AcDbLine
 10
-4898.308006197046
 20
-2229.486574649287
 30
0.0
 11
-4894.827402254333
 21
-2229.87760207028
 31
0.0
  0
LINE
  5
9A
100
AcDbEntity
  8
BLACK
  6
CONTINUOUS
 62
          15
100
AcDbLine
 10
-4891.346798311619
 20
-2230.268629491273
 30
0.0
 11
-4894.827402254333
 21
-2229.87760207028
 31
0.0
  0
ARC
  5
9B
100
AcDbEntity
  8
BLACK
  6
CONTINUOUS
 62
          15
100
AcDbCircle
 10
-4938.7599577028
 20
-2217.970016328904
 30
0.0
 40
48.982200000031
100
AcDbArc
 50
354.449437000001
 51
1.721609999997
  0
ARC
  5
9C
100
AcDbEntity
  8
BLACK
  6
CONTINUOUS
 62
          15
100
AcDbCircle
 10
-4849.347838501048
 20
-2228.014994428218
 30
0.0
 40
48.982199999991
100
AcDbArc
 50
165.458000000003
 51
172.731000000004
  0
ARC
  5
9D
100
AcDbEntity
  8
BLACK
  6
CONTINUOUS
 62
          15
100
AcDbCircle
 10
-4849.347838501048
 20
-2228.014994428226
 30
0.0
 40
48.982199999991
100
AcDbArc
 50
174.448999999995
 51
181.721999999996
  0
ARC
  5
9E
100
AcDbEntity
  8
BLACK
  6
CONTINUOUS
 62
          15
100
AcDbCircle
 10
-4938.7599577028
 20
-2217.970016328899
 30
0.0
 40
48.982200000031
100
AcDbArc
 50
345.458390000002
 51
352.730562999997
  0
LINE
  5
9F
100
AcDbEntity
  8
BLACK
  6
CONTINUOUS
 62
          15
100
AcDbLine
 10
-4890.007413716057
 20
-2222.70777852431
 30
0.0
 11
-4890.08397242289
 21
-2223.438505505366
 31
0.0
  0
LINE
  5
A0
100
AcDbEntity
  8
BLACK
  6
CONTINUOUS
 62
          15
100
AcDbLine
 10
-4897.936333841145
 20
-2221.817006336839
 30
0.0
 11
-4898.023823780918
 21
-2222.546505251762
 31
0.0
  0
LINE
  5
A1
100
AcDbEntity
  8
BLACK
  6
CONTINUOUS
 62
          15
100
AcDbLine
 10
-4898.10038248775
 20
-2223.277232232819
 30
0.0
 11
-4898.023823780918
 21
-2222.546505251762
 31
0.0
  0
LINE
  5
A2
100
AcDbEntity
  8
BLACK
  6
CONTINUOUS
 62
          15
100
AcDbLine
 10
-4890.171462362663
 20
-2224.16800442029
 30
0.0
 11
-4890.08397242289
 21
-2223.438505505366
 31
0.0
  0
ARC
  5
A3
100
AcDbEntity
  8
BLACK
  6
CONTINUOUS
 62
          15
100
AcDbCircle
 10
-4901.645089264222
 20
-2211.68169666536
 30
0.0
 40
12.801499999978
100
AcDbArc
 50
337.871499999983
 51
353.59000000001
  0
ARC
  5
A4
100
AcDbEntity
  8
BLACK
  6
CONTINUOUS
 62
          15
100
AcDbCircle
 10
-4884.14215808161
 20
-2213.648058294775
 30
0.0
 40
12.787200000002
100
AcDbArc
 50
173.59
 51
189.308999999996
  0
ARC
  5
A5
100
AcDbEntity
  8
BLACK
  6
CONTINUOUS
 62
          15
100
AcDbCircle
 10
-4886.462667189613
 20
-2234.303318557473
 30
0.0
 40
12.801500000013
100
AcDbArc
 50
157.871000000002
 51
173.589999999986
  0
ARC
  5
A6
100
AcDbEntity
  8
BLACK
  6
CONTINUOUS
 62
          15
100
AcDbCircle
 10
-4903.965598372289
 20
-2232.336956928049
 30
0.0
 40
12.78720000003
100
AcDbArc
 50
353.590000000019
 51
9.308499999982
  0
ARC
  5
A7
100
AcDbEntity
  8
BLACK
  6
CONTINUOUS
 62
          15
100
AcDbCircle
 10
-4901.645089264274
 20
-2211.681696665356
 30
0.0
 40
12.78720000003
100
AcDbArc
 50
353.590000000019
 51
9.308499999982
  0
ARC
  5
A8
100
AcDbEntity
  8
BLACK
  6
CONTINUOUS
 62
          15
100
AcDbCircle
 10
-4884.142158081599
 20
-2213.64805829478
 30
0.0
 40
12.801500000013
100
AcDbArc
 50
157.871000000002
 51
173.589999999986
  0
ARC
  5
A9
100
AcDbEntity
  8
BLACK
  6
CONTINUOUS
 62
          15
100
AcDbCircle
 10
-4886.462667189624
 20
-2234.303318557469
 30
0.0
 40
12.787200000002
100
AcDbArc
 50
173.59
 51
189.308999999996
  0
ARC
  5
AA
100
AcDbEntity
  8
BLACK
  6
CONTINUOUS
 62
          15
100
AcDbCircle
 10
-4903.965598372237
 20
-2232.336956928054
 30
0.0
 40
12.801499999978
100
AcDbArc
 50
337.871499999983
 51
353.59000000001
  0
LINE
  5
AB
100
AcDbEntity
  8
BLACK
  6
CONTINUOUS
 62
          15
100
AcDbLine
 10
-4888.923717868884
 20
-2213.110875374019
 30
0.0
 11
-4890.08397242289
 21
-2223.438505505366
 31
0.0
  0
LINE
  5
AC
100
AcDbEntity
  8
BLACK
  6
CONTINUOUS
 62
          15
100
AcDbLine
 10
-4896.863569226911
 20
-2212.218875120415
 30
0.0
 11
-4898.023823780918
 21
-2222.546505251762
 31
0.0
  0
LINE
  5
AD
100
AcDbEntity
  8
BLACK
  6
CONTINUOUS
 62
          15
100
AcDbLine
 10
-4899.184078334925
 20
-2232.874135383109
 30
0.0
 11
-4898.023823780918
 21
-2222.546505251762
 31
0.0
  0
LINE
  5
AE
100
AcDbEntity
  8
BLACK
  6
CONTINUOUS
 62
          15
100
AcDbLine
 10
-4891.244226976897
 20
-2233.766135636713
 30
0.0
 11
-4890.08397242289
 21
-2223.438505505366
 31
0.0
  0
LINE
  5
AF
100
AcDbEntity
  8
0
  6
CONTINUOUS
 62
          15
100
AcDbLine
 10
-4538.253988180413
 20
-2230.727839934143
 30
0.0
 11
-4545.399100227106
 21
-2294.327740671803
 31
0.0
  0
LINE
  5
B0
100
AcDbEntity
  8
0
  6
CONTINUOUS
 62
          15
100
AcDbLine
 10
-4537.713957344445
 20
-2288.621136740955
 30
0.0
 11
-4538.196098614685
 21
-2292.912761102957
 31
0.0
  0
LINE
  5
B1
100
AcDbEntity
  8
0
  6
CONTINUOUS
 62
          15
100
AcDbLine
 10
-4531.544611926825
 20
-2233.706706622462
 30
0.0
 11
-4532.026753197066
 21
-2237.998330984466
 31
0.0
  0
LINE
  5
B2
100
AcDbEntity
  8
0
  6
CONTINUOUS
 62
          15
100
AcDbLine
 10
-4532.026753197066
 20
-2237.998330984466
 30
0.0
 11
-4533.032119508522
 21
-2246.947273589666
 31
0.0
  0
LINE
  5
B3
100
AcDbEntity
  8
0
  6
CONTINUOUS
 62
          15
100
AcDbLine
 10
-4536.708591032988
 20
-2279.672194135751
 30
0.0
 11
-4537.713957344445
 21
-2288.621136740955
 31
0.0
  0
LINE
  5
B4
100
AcDbEntity
  8
WHITE
  6
CONTINUOUS
 62
          15
100
AcDbLine
 10
-4540.337381603719
 20
-2294.683555045587
 30
0.0
 11
-4545.395251799615
 21
-2294.293485140911
 31
0.0
  0
LINE
  5
B5
100
AcDbEntity
  8
WHITE
  6
CONTINUOUS
 62
          15
100
AcDbLine
 10
-4533.239597451016
 20
-2231.504928227808
 30
0.0
 11
-4538.257937028258
 21
-2230.762989324294
 31
0.0
  0
LINE
  5
B6
100
AcDbEntity
  8
0
  6
CONTINUOUS
 62
          15
100
AcDbLine
 10
-4536.611858114113
 20
-2288.706132149115
 30
0.0
 11
-4537.713957344445
 21
-2288.621136740955
 31
0.0
  0
LINE
  5
B7
100
AcDbEntity
  8
WHITE
  6
CONTINUOUS
 62
          15
100
AcDbLine
 10
-4528.390789318741
 20
-2241.462665496087
 30
0.0
 11
-4529.394052583319
 21
-2250.392888510633
 31
0.0
  0
LINE
  5
B8
100
AcDbEntity
  8
0
  6
CONTINUOUS
 62
          15
100
AcDbLine
 10
-4532.026753197066
 20
-2237.998330984466
 30
0.0
 11
-4530.933267605025
 21
-2238.159997904107
 31
0.0
  0
LINE
  5
B9
100
AcDbEntity
  8
WHITE
  6
CONTINUOUS
 62
          15
100
AcDbLine
 10
-4532.376164314333
 20
-2276.937190243311
 30
0.0
 11
-4532.396670365984
 21
-2277.119718220622
 31
0.0
  0
LINE
  5
BA
100
AcDbEntity
  8
0
  6
CONTINUOUS
 62
          15
100
AcDbLine
 10
-4513.447762203631
 20
-2253.642797358817
 30
0.0
 11
-4528.549778859827
 21
-2251.67870753188
 31
0.0
  0
LINE
  5
BB
100
AcDbEntity
  8
0
  6
CONTINUOUS
 62
          15
100
AcDbLine
 10
-4516.126771132951
 20
-2277.489127670589
 30
0.0
 11
-4531.288133795081
 21
-2276.053287094601
 31
0.0
  0
LINE
  5
BC
100
AcDbEntity
  8
0
  6
CONTINUOUS
 62
          15
100
AcDbLine
 10
-4529.196162703847
 20
-2251.318587543134
 30
0.0
 11
-4531.998311176039
 21
-2276.261004613562
 31
0.0
  0
LINE
  5
BD
100
AcDbEntity
  8
WHITE
  6
CONTINUOUS
 62
          15
100
AcDbLine
 10
-4531.302559958237
 20
-2249.15385567754
 30
0.0
 11
-4530.258832358461
 21
-2249.289597466696
 31
0.0
  0
LINE
  5
BE
100
AcDbEntity
  8
WHITE
  6
CONTINUOUS
 62
          15
100
AcDbLine
 10
-4529.394052583319
 20
-2250.392888510633
 30
0.0
 11
-4529.41455863497
 21
-2250.575416487945
 31
0.0
  0
LINE
  5
BF
100
AcDbEntity
  8
WHITE
  6
CONTINUOUS
 62
          15
100
AcDbLine
 10
-4532.396670365984
 20
-2277.119718220622
 30
0.0
 11
-4533.399933630562
 21
-2286.04994123517
 31
0.0
  0
LINE
  5
C0
100
AcDbEntity
  8
WHITE
  6
CONTINUOUS
 62
          15
100
AcDbLine
 10
-4533.484700885238
 20
-2278.003621369332
 30
0.0
 11
-4534.532529994482
 21
-2277.90438783833
 31
0.0
  0
ARC
  5
C1
100
AcDbEntity
  8
0
  6
CONTINUOUS
 62
          15
100
AcDbCircle
 10
-4514.995386290237
 20
-2265.542581377301
 30
0.0
 40
12.0
100
AcDbArc
 50
264.589999999997
 51
82.590000000002
  0
ARC
  5
C2
100
AcDbEntity
  8
WHITE
  6
CONTINUOUS
 62
          15
100
AcDbCircle
 10
-4533.532108824877
 20
-2233.483421871003
 30
0.0
 40
2.0
100
AcDbArc
 50
353.589999999999
 51
81.590000000022
  0
ARC
  5
C3
100
AcDbEntity
  8
WHITE
  6
CONTINUOUS
 62
          15
100
AcDbCircle
 10
-4531.372034665817
 20
-2241.127738368899
 30
0.0
 40
3.0
100
AcDbArc
 50
353.589999999999
 51
81.589999999985
  0
ARC
  5
C4
100
AcDbEntity
  8
WHITE
  6
CONTINUOUS
 62
          15
100
AcDbCircle
 10
-4536.381178977641
 20
-2285.715014107981
 30
0.0
 40
3.0
100
AcDbArc
 50
265.589999999994
 51
353.589999999999
  0
ARC
  5
C5
100
AcDbEntity
  8
WHITE
  6
CONTINUOUS
 62
          15
100
AcDbCircle
 10
-4540.183595512737
 20
-2292.689476351497
 30
0.0
 40
2.0
100
AcDbArc
 50
265.589999999977
 51
353.589999999999
  0
ARC
  5
C6
100
AcDbEntity
  8
WHITE
  6
CONTINUOUS
 62
          15
100
AcDbCircle
 10
-4530.387801032344
 20
-2250.281246134904
 30
0.0
 40
1.0
100
AcDbArc
 50
353.589999999999
 51
82.59000000007
  0
ARC
  5
C7
100
AcDbEntity
  8
WHITE
  6
CONTINUOUS
 62
          15
100
AcDbCircle
 10
-4531.04462261047
 20
-2247.170558341126
 30
0.0
 40
2.0
100
AcDbArc
 50
173.59
 51
262.59000000002
  0
ARC
  5
C8
100
AcDbEntity
  8
WHITE
  6
CONTINUOUS
 62
          15
100
AcDbCircle
 10
-4528.420810185943
 20
-2250.687058863674
 30
0.0
 40
1.000000000001
100
AcDbArc
 50
219.162995999259
 51
262.590000000031
  0
ARC
  5
C9
100
AcDbEntity
  8
WHITE
  6
CONTINUOUS
 62
          15
100
AcDbCircle
 10
-4528.420810185943
 20
-2250.687058863674
 30
0.0
 40
1.0
100
AcDbArc
 50
173.59
 51
219.162995999262
  0
ARC
  5
CA
100
AcDbEntity
  8
WHITE
  6
CONTINUOUS
 62
          15
100
AcDbCircle
 10
-4534.721094134937
 20
-2279.895478887211
 30
0.0
 40
1.999999999999
100
AcDbArc
 50
84.589999999927
 51
173.59
  0
ARC
  5
CB
100
AcDbEntity
  8
WHITE
  6
CONTINUOUS
 62
          15
100
AcDbCircle
 10
-4533.39041881501
 20
-2277.008075844892
 30
0.0
 40
1.0
100
AcDbArc
 50
264.58999999993
 51
353.589999999999
  0
ARC
  5
CC
100
AcDbEntity
  8
WHITE
  6
CONTINUOUS
 62
          15
100
AcDbCircle
 10
-4531.382415865308
 20
-2277.048832619042
 30
0.0
 40
1.0
100
AcDbArc
 50
128.017004000809
 51
173.59
  0
ARC
  5
CD
100
AcDbEntity
  8
WHITE
  6
CONTINUOUS
 62
          15
100
AcDbCircle
 10
-4531.382415865308
 20
-2277.048832619042
 30
0.0
 40
1.0
100
AcDbArc
 50
84.589999999969
 51
128.017004000808
  0
LINE
  5
CE
100
AcDbEntity
  8
WHITE
  6
CONTINUOUS
 62
          15
100
AcDbLine
 10
-4898.916962786754
 20
-2230.49649284397
 30
0.0
 11
-4898.82764888617
 21
-2229.701494084748
 31
0.0
  0
LINE
  5
CF
100
AcDbEntity
  8
WHITE
  6
CONTINUOUS
 62
          15
100
AcDbLine
 10
-4898.82764888617
 20
-2229.701494084748
 30
0.0
 11
-4897.219998675665
 21
-2215.391516418776
 31
0.0
  0
LINE
  5
D0
100
AcDbEntity
  8
WHITE
  6
CONTINUOUS
 62
          15
100
AcDbLine
 10
-4897.219998675665
 20
-2215.391516418776
 30
0.0
 11
-4897.130684775081
 21
-2214.596517659555
 31
0.0
  0
LINE
  5
D1
100
AcDbEntity
  8
WHITE
  6
CONTINUOUS
 62
          15
100
AcDbLine
 10
-4897.130684775081
 20
-2214.596517659555
 30
0.0
 11
-4896.639458321872
 21
-2210.22402448384
 31
0.0
  0
LINE
  5
D2
100
AcDbEntity
  8
WHITE
  6
CONTINUOUS
 62
          15
100
AcDbLine
 10
-4931.610052161421
 20
-2234.873924412831
 30
0.0
 11
-4929.882027014163
 21
-2235.068058887153
 31
0.0
  0
LINE
  5
D3
100
AcDbEntity
  8
WHITE
  6
CONTINUOUS
 62
          15
100
AcDbLine
 10
-4926.309470990816
 20
-2203.268108518323
 30
0.0
 11
-4928.037496138075
 21
-2203.073974044001
 31
0.0
  0
LINE
  5
D4
100
AcDbEntity
  8
WHITE
  6
CONTINUOUS
 62
          15
100
AcDbLine
 10
-4929.882027014163
 20
-2235.068058887153
 30
0.0
 11
-4924.852562708044
 21
-2235.633092567792
 31
0.0
  0
LINE
  5
D5
100
AcDbEntity
  8
WHITE
  6
CONTINUOUS
 62
          15
100
AcDbLine
 10
-4921.280006684698
 20
-2203.833142198962
 30
0.0
 11
-4926.309470990816
 21
-2203.268108518323
 31
0.0
  0
LINE
  5
D6
100
AcDbEntity
  8
WHITE
  6
CONTINUOUS
 62
          15
100
AcDbLine
 10
-4975.122488011008
 20
-2197.784224551507
 30
0.0
 11
-4928.037496138075
 21
-2203.073974044001
 31
0.0
  0
LINE
  5
D7
100
AcDbEntity
  8
WHITE
  6
CONTINUOUS
 62
          15
100
AcDbLine
 10
-4978.695044034354
 20
-2229.584174920336
 30
0.0
 11
-4931.610052161421
 21
-2234.873924412831
 31
0.0
  0
LINE
  5
D8
100
AcDbEntity
  8
WHITE
  6
CONTINUOUS
 62
          15
100
AcDbLine
 10
-4920.355450247618
 20
-2206.352109327499
 30
0.0
 11
-4923.392122867463
 21
-2233.382067141005
 31
0.0
  0
LINE
  5
D9
100
AcDbEntity
  8
WHITE
  6
CONTINUOUS
 62
          15
100
AcDbLine
 10
-4897.697985609826
 20
-2208.897555494134
 30
0.0
 11
-4901.302482885567
 21
-2208.492609313268
 31
0.0
  0
LINE
  5
DA
100
AcDbEntity
  8
WHITE
  6
CONTINUOUS
 62
          15
100
AcDbLine
 10
-4899.408189239965
 20
-2234.868986019684
 30
0.0
 11
-4898.916962786754
 21
-2230.49649284397
 31
0.0
  0
LINE
  5
DB
100
AcDbEntity
  8
WHITE
  6
CONTINUOUS
 62
          15
100
AcDbLine
 10
-4922.199624728632
 20
-2233.516037991881
 30
0.0
 11
-4919.760914514997
 21
-2233.790014169889
 31
0.0
  0
LINE
  5
DC
100
AcDbEntity
  8
WHITE
  6
CONTINUOUS
 62
          15
100
AcDbLine
 10
-4916.545614093985
 20
-2205.170058837942
 30
0.0
 11
-4916.724241895153
 21
-2206.760056356384
 31
0.0
  0
LINE
  5
DD
100
AcDbEntity
  8
WHITE
  6
CONTINUOUS
 62
          15
100
AcDbLine
 10
-4916.724241895153
 20
-2206.760056356384
 30
0.0
 11
-4919.162952108787
 21
-2206.486080178375
 31
0.0
  0
LINE
  5
DE
100
AcDbEntity
  8
WHITE
  6
CONTINUOUS
 62
          15
100
AcDbLine
 10
-4916.724241895153
 20
-2206.760056356384
 30
0.0
 11
-4919.760914514997
 21
-2233.790014169889
 31
0.0
  0
LINE
  5
DF
100
AcDbEntity
  8
WHITE
  6
CONTINUOUS
 62
          15
100
AcDbLine
 10
-4919.760914514997
 20
-2233.790014169889
 30
0.0
 11
-4919.939542316164
 21
-2235.38001168833
 31
0.0
  0
LINE
  5
E0
100
AcDbEntity
  8
WHITE
  6
CONTINUOUS
 62
          15
100
AcDbLine
 10
-4904.517783306579
 20
-2237.112564645215
 30
0.0
 11
-4904.339155505411
 21
-2235.522567126774
 31
0.0
  0
LINE
  5
E1
100
AcDbEntity
  8
WHITE
  6
CONTINUOUS
 62
          15
100
AcDbLine
 10
-4904.339155505411
 20
-2235.522567126774
 30
0.0
 11
-4900.734658229671
 21
-2235.927513307639
 31
0.0
  0
LINE
  5
E2
100
AcDbEntity
  8
WHITE
  6
CONTINUOUS
 62
          15
100
AcDbLine
 10
-4904.339155505411
 20
-2235.522567126774
 30
0.0
 11
-4901.302482885567
 21
-2208.492609313268
 31
0.0
  0
LINE
  5
E3
100
AcDbEntity
  8
WHITE
  6
CONTINUOUS
 62
          15
100
AcDbLine
 10
-4901.302482885567
 20
-2208.492609313268
 30
0.0
 11
-4901.123855084399
 21
-2206.902611794827
 31
0.0
  0
LINE
  5
E4
100
AcDbEntity
  8
WHITE
  6
CONTINUOUS
 62
          15
100
AcDbLine
 10
-4916.545614093985
 20
-2205.170058837942
 30
0.0
 11
-4901.123855084399
 21
-2206.902611794827
 31
0.0
  0
LINE
  5
E5
100
AcDbEntity
  8
WHITE
  6
CONTINUOUS
 62
          15
100
AcDbLine
 10
-4919.939542316164
 20
-2235.38001168833
 30
0.0
 11
-4904.517783306579
 21
-2237.112564645215
 31
0.0
  0
ARC
  5
E6
100
AcDbEntity
  8
WHITE
  6
CONTINUOUS
 62
          15
100
AcDbCircle
 10
-4950.713833733872
 20
-2216.627061660048
 30
0.0
 40
27.821476415486
100
AcDbArc
 50
318.483694434248
 51
28.696305565753
  0
ARC
  5
E7
100
AcDbEntity
  8
WHITE
  6
CONTINUOUS
 62
          15
100
AcDbCircle
 10
-4937.608990758917
 20
-2218.099321369959
 30
0.0
 40
39.547005383793
100
AcDbArc
 50
149.72507458395
 51
197.45492541605
  0
ARC
  5
E8
100
AcDbEntity
  8
WHITE
  6
CONTINUOUS
 62
          15
100
AcDbCircle
 10
-4951.664164902399
 20
-2216.520296985861
 30
0.0
 40
30.022213997861
100
AcDbArc
 50
141.385772496028
 51
205.794227503972
  0
ARC
  5
E9
100
AcDbEntity
  8
WHITE
  6
CONTINUOUS
 62
          15
100
AcDbCircle
 10
-4921.413977535573
 20
-2205.025640337793
 30
0.0
 40
1.2
100
AcDbArc
 50
353.589999999999
 51
83.59
  0
ARC
  5
EA
100
AcDbEntity
  8
WHITE
  6
CONTINUOUS
 62
          15
100
AcDbCircle
 10
-4919.028981257911
 20
-2205.293582039544
 30
0.0
 40
1.2
100
AcDbArc
 50
173.59
 51
263.589999999999
  0
ARC
  5
EB
100
AcDbEntity
  8
WHITE
  6
CONTINUOUS
 62
          15
100
AcDbCircle
 10
-4897.831956460702
 20
-2210.090053632966
 30
0.0
 40
1.2
100
AcDbArc
 50
353.589999999999
 51
83.59
  0
ARC
  5
EC
100
AcDbEntity
  8
WHITE
  6
CONTINUOUS
 62
          15
100
AcDbCircle
 10
-4900.600687378796
 20
-2234.735015168808
 30
0.0
 40
1.2
100
AcDbArc
 50
263.589999999999
 51
353.589999999999
  0
ARC
  5
ED
100
AcDbEntity
  8
WHITE
  6
CONTINUOUS
 62
          15
100
AcDbCircle
 10
-4922.333595579506
 20
-2234.708536130712
 30
0.0
 40
1.2
100
AcDbArc
 50
83.59
 51
173.59
  0
ARC
  5
EE
100
AcDbEntity
  8
WHITE
  6
CONTINUOUS
 62
          15
100
AcDbCircle
 10
-4924.718591857169
 20
-2234.440594428961
 30
0.0
 40
1.2
100
AcDbArc
 50
263.589999999999
 51
353.589999999999
  0
LINE
  5
EF
100
AcDbEntity
  8
WHITE
  6
CONTINUOUS
 62
          15
100
AcDbLine
 10
-4705.317143195305
 20
-2239.421143028541
 30
0.0
 11
-4701.840805353657
 21
-2240.259577681986
 31
0.0
  0
LINE
  5
F0
100
AcDbEntity
  8
WHITE
  6
CONTINUOUS
 62
          15
100
AcDbLine
 10
-4705.4669376969
 20
-2236.833328279688
 30
0.0
 11
-4705.696787180475
 21
-2238.879259014507
 31
0.0
  0
LINE
  5
F1
100
AcDbEntity
  8
WHITE
  6
CONTINUOUS
 62
          15
100
AcDbLine
 10
-4704.635027598415
 20
-2233.349511965191
 30
0.0
 11
-4701.05930872355
 21
-2233.303338538804
 31
0.0
  0
LINE
  5
F2
100
AcDbEntity
  8
WHITE
  6
CONTINUOUS
 62
          15
100
AcDbLine
 10
-4705.355295321169
 20
-2235.839579830661
 30
0.0
 11
-4705.125445837593
 21
-2233.793649095842
 31
0.0
  0
LINE
  5
F3
100
AcDbEntity
  8
WHITE
  6
CONTINUOUS
 62
          15
100
AcDbLine
 10
-4703.890537423289
 20
-2237.010428502404
 30
0.0
 11
-4705.4669376969
 21
-2236.833328279688
 31
0.0
  0
LINE
  5
F4
100
AcDbEntity
  8
WHITE
  6
CONTINUOUS
 62
          15
100
AcDbLine
 10
-4703.834716235425
 20
-2236.513554277892
 30
0.0
 11
-4703.890537423289
 21
-2237.010428502404
 31
0.0
  0
LINE
  5
F5
100
AcDbEntity
  8
WHITE
  6
CONTINUOUS
 62
          15
100
AcDbLine
 10
-4703.778895047561
 20
-2236.016680053378
 30
0.0
 11
-4703.834716235425
 21
-2236.513554277892
 31
0.0
  0
LINE
  5
F6
100
AcDbEntity
  8
WHITE
  6
CONTINUOUS
 62
          15
100
AcDbLine
 10
-4705.355295321169
 20
-2235.839579830661
 30
0.0
 11
-4703.778895047561
 21
-2236.016680053378
 31
0.0
  0
LINE
  5
F7
100
AcDbEntity
  8
WHITE
  6
CONTINUOUS
 62
          15
100
AcDbLine
 10
-4700.836023972091
 20
-2231.315841640751
 30
0.0
 11
-4690.401665257318
 21
-2232.488086585912
 31
0.0
  0
LINE
  5
F8
100
AcDbEntity
  8
WHITE
  6
CONTINUOUS
 62
          15
100
AcDbLine
 10
-4700.836023972091
 20
-2231.315841640751
 30
0.0
 11
-4701.896626541522
 21
-2240.756451906499
 31
0.0
  0
LINE
  5
F9
100
AcDbEntity
  8
WHITE
  6
CONTINUOUS
 62
          15
100
AcDbLine
 10
-4694.510104684166
 20
-2269.058029510067
 30
0.0
 11
-4686.063242867445
 21
-2270.006989703768
 31
0.0
  0
LINE
  5
FA
100
AcDbEntity
  8
WHITE
  6
CONTINUOUS
 62
          15
100
AcDbLine
 10
-4686.063242867445
 20
-2270.006989703768
 30
0.0
 11
-4686.007421679581
 21
-2269.510115479256
 31
0.0
  0
LINE
  5
FB
100
AcDbEntity
  8
WHITE
  6
CONTINUOUS
 62
          15
100
AcDbLine
 10
-4686.007421679581
 20
-2269.510115479256
 30
0.0
 11
-4680.816051208156
 21
-2223.300812599549
 31
0.0
  0
LINE
  5
FC
100
AcDbEntity
  8
WHITE
  6
CONTINUOUS
 62
          15
100
AcDbLine
 10
-4679.82230275913
 20
-2223.41245497528
 30
0.0
 11
-4679.878123946995
 21
-2223.909329199792
 31
0.0
  0
LINE
  5
FD
100
AcDbEntity
  8
WHITE
  6
CONTINUOUS
 62
          15
100
AcDbLine
 10
-4679.878123946995
 20
-2223.909329199792
 30
0.0
 11
-4680.871872396021
 21
-2223.797686824063
 31
0.0
  0
LINE
  5
FE
100
AcDbEntity
  8
WHITE
  6
CONTINUOUS
 62
          15
100
AcDbLine
 10
-4679.878123946995
 20
-2223.909329199792
 30
0.0
 11
-4685.013673230556
 21
-2269.621757854985
 31
0.0
  0
LINE
  5
FF
100
AcDbEntity
  8
WHITE
  6
CONTINUOUS
 62
          15
100
AcDbLine
 10
-4685.013673230556
 20
-2269.621757854985
 30
0.0
 11
-4686.007421679581
 21
-2269.510115479256
 31
0.0
  0
LINE
  5
100
100
AcDbEntity
  8
WHITE
  6
CONTINUOUS
 62
          15
100
AcDbLine
 10
-4690.898539481831
 20
-2232.432265398047
 30
0.0
 11
-4689.75978724939
 21
-2222.296031217984
 31
0.0
  0
LINE
  5
101
100
AcDbEntity
  8
WHITE
  6
CONTINUOUS
 62
          15
100
AcDbLine
 10
-4680.816051208156
 20
-2223.300812599549
 30
0.0
 11
-4689.75978724939
 21
-2222.296031217984
 31
0.0
  0
LINE
  5
102
100
AcDbEntity
  8
WHITE
  6
CONTINUOUS
 62
          15
100
AcDbLine
 10
-4603.303672184133
 20
-2232.008917906457
 30
0.0
 11
-4679.82230275913
 21
-2223.41245497528
 31
0.0
  0
LINE
  5
103
100
AcDbEntity
  8
WHITE
  6
CONTINUOUS
 62
          15
100
AcDbLine
 10
-4690.898539481831
 20
-2232.432265398047
 30
0.0
 11
-4690.401665257318
 21
-2232.488086585912
 31
0.0
  0
LINE
  5
104
100
AcDbEntity
  8
WHITE
  6
CONTINUOUS
 62
          15
100
AcDbLine
 10
-4690.401665257318
 20
-2232.488086585912
 30
0.0
 11
-4694.510104684166
 21
-2269.058029510067
 31
0.0
  0
LINE
  5
105
100
AcDbEntity
  8
WHITE
  6
CONTINUOUS
 62
          15
100
AcDbLine
 10
-4608.550863843423
 20
-2278.715095010676
 30
0.0
 11
-4603.303672184133
 21
-2232.008917906457
 31
0.0
  0
LINE
  5
106
100
AcDbEntity
  8
WHITE
  6
CONTINUOUS
 62
          15
100
AcDbLine
 10
-4685.06949441842
 20
-2270.118632079499
 30
0.0
 11
-4608.550863843423
 21
-2278.715095010676
 31
0.0
  0
LINE
  5
107
100
AcDbEntity
  8
WHITE
  6
CONTINUOUS
 62
          15
100
AcDbLine
 10
-4685.013673230556
 20
-2269.621757854985
 30
0.0
 11
-4685.06949441842
 21
-2270.118632079499
 31
0.0
  0
LINE
  5
108
100
AcDbEntity
  8
WHITE
  6
CONTINUOUS
 62
          15
100
AcDbLine
 10
-4707.736113664825
 20
-2252.427479716283
 30
0.0
 11
-4707.149991192246
 21
-2247.210300358897
 31
0.0
  0
LINE
  5
109
100
AcDbEntity
  8
WHITE
  6
CONTINUOUS
 62
          15
100
AcDbLine
 10
-4708.880448016054
 20
-2262.613401318798
 30
0.0
 11
-4705.419534368437
 21
-2231.807199398994
 31
0.0
  0
LINE
  5
10A
100
AcDbEntity
  8
WHITE
  6
CONTINUOUS
 62
          15
100
AcDbLine
 10
-4704.314143543681
 20
-2230.925093325698
 30
0.0
 11
-4700.836023972091
 21
-2231.315841640751
 31
0.0
  0
LINE
  5
10B
100
AcDbEntity
  8
WHITE
  6
CONTINUOUS
 62
          15
100
AcDbLine
 10
-4707.998341942757
 20
-2263.718792143554
 30
0.0
 11
-4694.085863656394
 21
-2265.281785403768
 31
0.0
  0
LINE
  5
10C
100
AcDbEntity
  8
WHITE
  6
CONTINUOUS
 62
           1
100
AcDbLine
 10
-4734.740104860841
 20
-2268.865452811695
 30
0.0
 11
-4716.852632778375
 21
-2270.875015574828
 31
0.0
  0
LINE
  5
10D
100
AcDbEntity
  8
WHITE
  6
CONTINUOUS
 62
           1
100
AcDbLine
 10
-4716.852632778375
 20
-2270.875015574828
 30
0.0
 11
-4717.381896422352
 21
-2270.211781079975
 31
0.0
  0
LINE
  5
10E
100
AcDbEntity
  8
WHITE
  6
CONTINUOUS
 62
           1
100
AcDbLine
 10
-4717.381896422352
 20
-2270.211781079975
 30
0.0
 11
-4716.718661927499
 21
-2269.682517435997
 31
0.0
  0
LINE
  5
10F
100
AcDbEntity
  8
WHITE
  6
CONTINUOUS
 62
           1
100
AcDbLine
 10
-4716.718661927499
 20
-2269.682517435997
 30
0.0
 11
-4734.606134009966
 21
-2267.672954672865
 31
0.0
  0
LINE
  5
110
100
AcDbEntity
  8
WHITE
  6
CONTINUOUS
 62
           1
100
AcDbLine
 10
-4734.606134009966
 20
-2267.672954672865
 30
0.0
 11
-4734.076870365988
 21
-2268.336189167718
 31
0.0
  0
LINE
  5
111
100
AcDbEntity
  8
WHITE
  6
CONTINUOUS
 62
           1
100
AcDbLine
 10
-4734.076870365988
 20
-2268.336189167718
 30
0.0
 11
-4734.740104860841
 21
-2268.865452811695
 31
0.0
  0
LINE
  5
112
100
AcDbEntity
  8
WHITE
  6
CONTINUOUS
 62
           1
100
AcDbLine
 10
-4734.076870365988
 20
-2268.336189167718
 30
0.0
 11
-4717.381896422352
 21
-2270.211781079975
 31
0.0
  0
LINE
  5
113
100
AcDbEntity
  8
WHITE
  6
CONTINUOUS
 62
           1
100
AcDbLine
 10
-4734.300155117447
 20
-2270.32368606577
 30
0.0
 11
-4734.829418761425
 21
-2269.660451570917
 31
0.0
  0
LINE
  5
114
100
AcDbEntity
  8
WHITE
  6
CONTINUOUS
 62
           1
100
AcDbLine
 10
-4734.829418761425
 20
-2269.660451570917
 30
0.0
 11
-4716.941946678959
 21
-2271.67001433405
 31
0.0
  0
LINE
  5
115
100
AcDbEntity
  8
WHITE
  6
CONTINUOUS
 62
           1
100
AcDbLine
 10
-4716.941946678959
 20
-2271.67001433405
 30
0.0
 11
-4717.605181173811
 21
-2272.199277978027
 31
0.0
  0
LINE
  5
116
100
AcDbEntity
  8
WHITE
  6
CONTINUOUS
 62
           1
100
AcDbLine
 10
-4717.605181173811
 20
-2272.199277978027
 30
0.0
 11
-4717.075917529834
 21
-2272.862512472879
 31
0.0
  0
LINE
  5
117
100
AcDbEntity
  8
WHITE
  6
CONTINUOUS
 62
           1
100
AcDbLine
 10
-4717.075917529834
 20
-2272.862512472879
 30
0.0
 11
-4734.963389612301
 21
-2270.852949709747
 31
0.0
  0
LINE
  5
118
100
AcDbEntity
  8
WHITE
  6
CONTINUOUS
 62
           1
100
AcDbLine
 10
-4734.963389612301
 20
-2270.852949709747
 30
0.0
 11
-4734.300155117447
 21
-2270.32368606577
 31
0.0
  0
LINE
  5
119
100
AcDbEntity
  8
WHITE
  6
CONTINUOUS
 62
           1
100
AcDbLine
 10
-4717.605181173811
 20
-2272.199277978027
 30
0.0
 11
-4734.300155117447
 21
-2270.32368606577
 31
0.0
  0
LINE
  5
11A
100
AcDbEntity
  8
WHITE
  6
CONTINUOUS
 62
           1
100
AcDbLine
 10
-4734.523439868906
 20
-2272.311182963822
 30
0.0
 11
-4735.052703512884
 21
-2271.647948468969
 31
0.0
  0
LINE
  5
11B
100
AcDbEntity
  8
WHITE
  6
CONTINUOUS
 62
           1
100
AcDbLine
 10
-4735.052703512884
 20
-2271.647948468969
 30
0.0
 11
-4717.165231430417
 21
-2273.657511232101
 31
0.0
  0
LINE
  5
11C
100
AcDbEntity
  8
WHITE
  6
CONTINUOUS
 62
           1
100
AcDbLine
 10
-4717.165231430417
 20
-2273.657511232101
 30
0.0
 11
-4717.82846592527
 21
-2274.186774876079
 31
0.0
  0
LINE
  5
11D
100
AcDbEntity
  8
WHITE
  6
CONTINUOUS
 62
           1
100
AcDbLine
 10
-4717.82846592527
 20
-2274.186774876079
 30
0.0
 11
-4717.299202281292
 21
-2274.850009370931
 31
0.0
  0
LINE
  5
11E
100
AcDbEntity
  8
WHITE
  6
CONTINUOUS
 62
           1
100
AcDbLine
 10
-4717.299202281292
 20
-2274.850009370931
 30
0.0
 11
-4735.18667436376
 21
-2272.840446607799
 31
0.0
  0
LINE
  5
11F
100
AcDbEntity
  8
WHITE
  6
CONTINUOUS
 62
           1
100
AcDbLine
 10
-4735.18667436376
 20
-2272.840446607799
 30
0.0
 11
-4734.523439868906
 21
-2272.311182963822
 31
0.0
  0
LINE
  5
120
100
AcDbEntity
  8
WHITE
  6
CONTINUOUS
 62
           1
100
AcDbLine
 10
-4734.746724620365
 20
-2274.298679861874
 30
0.0
 11
-4735.275988264343
 21
-2273.63544536702
 31
0.0
  0
LINE
  5
121
100
AcDbEntity
  8
WHITE
  6
CONTINUOUS
 62
           1
100
AcDbLine
 10
-4735.275988264343
 20
-2273.63544536702
 30
0.0
 11
-4729.221159171845
 21
-2274.315673351463
 31
0.0
  0
LINE
  5
122
100
AcDbEntity
  8
WHITE
  6
CONTINUOUS
 62
           1
100
AcDbLine
 10
-4717.388516181876
 20
-2275.645008130153
 30
0.0
 11
-4718.051750676729
 21
-2276.174271774131
 31
0.0
  0
LINE
  5
123
100
AcDbEntity
  8
WHITE
  6
CONTINUOUS
 62
           1
100
AcDbLine
 10
-4718.051750676729
 20
-2276.174271774131
 30
0.0
 11
-4717.522487032751
 21
-2276.837506268983
 31
0.0
  0
LINE
  5
124
100
AcDbEntity
  8
WHITE
  6
CONTINUOUS
 62
           1
100
AcDbLine
 10
-4717.522487032751
 20
-2276.837506268983
 30
0.0
 11
-4723.577316125248
 21
-2276.157278284542
 31
0.0
  0
LINE
  5
125
100
AcDbEntity
  8
WHITE
  6
CONTINUOUS
 62
           1
100
AcDbLine
 10
-4735.409959115219
 20
-2274.82794350585
 30
0.0
 11
-4734.746724620365
 21
-2274.298679861874
 31
0.0
  0
LINE
  5
126
100
AcDbEntity
  8
WHITE
  6
CONTINUOUS
 62
           1
100
AcDbLine
 10
-4734.970009371824
 20
-2276.286176759924
 30
0.0
 11
-4735.499273015803
 21
-2275.622942265072
 31
0.0
  0
LINE
  5
127
100
AcDbEntity
  8
WHITE
  6
CONTINUOUS
 62
           1
100
AcDbLine
 10
-4735.499273015803
 20
-2275.622942265072
 30
0.0
 11
-4730.185995013613
 21
-2276.219860911494
 31
0.0
  0
LINE
  5
128
100
AcDbEntity
  8
WHITE
  6
CONTINUOUS
 62
           1
100
AcDbLine
 10
-4717.611800933335
 20
-2277.632505028205
 30
0.0
 11
-4718.275035428189
 21
-2278.161768672182
 31
0.0
  0
LINE
  5
129
100
AcDbEntity
  8
WHITE
  6
CONTINUOUS
 62
           1
100
AcDbLine
 10
-4734.746724620365
 20
-2274.298679861874
 30
0.0
 11
-4728.691895527868
 21
-2274.978907846316
 31
0.0
  0
LINE
  5
12A
100
AcDbEntity
  8
WHITE
  6
CONTINUOUS
 62
           1
100
AcDbLine
 10
-4734.523439868906
 20
-2272.311182963822
 30
0.0
 11
-4717.82846592527
 21
-2274.186774876079
 31
0.0
  0
LINE
  5
12B
100
AcDbEntity
  8
WHITE
  6
CONTINUOUS
 62
           1
100
AcDbLine
 10
-4729.355130022721
 20
-2275.508171490293
 30
0.0
 11
-4728.691895527868
 21
-2274.978907846316
 31
0.0
  0
LINE
  5
12C
100
AcDbEntity
  8
WHITE
  6
CONTINUOUS
 62
           1
100
AcDbLine
 10
-4729.355130022721
 20
-2275.508171490293
 30
0.0
 11
-4735.409959115219
 21
-2274.82794350585
 31
0.0
  0
LINE
  5
12D
100
AcDbEntity
  8
WHITE
  6
CONTINUOUS
 62
           1
100
AcDbLine
 10
-4728.691895527868
 20
-2274.978907846316
 30
0.0
 11
-4729.221159171845
 21
-2274.315673351463
 31
0.0
  0
LINE
  5
12E
100
AcDbEntity
  8
WHITE
  6
CONTINUOUS
 62
           1
100
AcDbLine
 10
-4730.185995013613
 20
-2276.219860911494
 30
0.0
 11
-4729.656731369636
 21
-2276.883095406346
 31
0.0
  0
LINE
  5
12F
100
AcDbEntity
  8
WHITE
  6
CONTINUOUS
 62
           1
100
AcDbLine
 10
-4723.588313430379
 20
-2277.56485002576
 30
0.0
 11
-4722.925078935525
 21
-2277.035586381783
 31
0.0
  0
LINE
  5
130
100
AcDbEntity
  8
WHITE
  6
CONTINUOUS
 62
           1
100
AcDbLine
 10
-4722.925078935525
 20
-2277.035586381783
 30
0.0
 11
-4717.611800933335
 21
-2277.632505028205
 31
0.0
  0
LINE
  5
131
100
AcDbEntity
  8
WHITE
  6
CONTINUOUS
 62
           1
100
AcDbLine
 10
-4723.577316125248
 20
-2276.157278284542
 30
0.0
 11
-4724.106579769226
 21
-2275.494043789689
 31
0.0
  0
LINE
  5
132
100
AcDbEntity
  8
WHITE
  6
CONTINUOUS
 62
           1
100
AcDbLine
 10
-4724.106579769226
 20
-2275.494043789689
 30
0.0
 11
-4718.051750676729
 21
-2276.174271774131
 31
0.0
  0
LINE
  5
133
100
AcDbEntity
  8
WHITE
  6
CONTINUOUS
 62
           1
100
AcDbLine
 10
-4724.106579769226
 20
-2275.494043789689
 30
0.0
 11
-4723.443345274372
 21
-2274.964780145711
 31
0.0
  0
LINE
  5
134
100
AcDbEntity
  8
WHITE
  6
CONTINUOUS
 62
           1
100
AcDbLine
 10
-4723.443345274372
 20
-2274.964780145711
 30
0.0
 11
-4717.388516181876
 21
-2275.645008130153
 31
0.0
  0
LINE
  5
135
100
AcDbEntity
  8
WHITE
  6
CONTINUOUS
 62
           1
100
AcDbLine
 10
-4735.275988264343
 20
-2273.63544536702
 30
0.0
 11
-4735.409959115219
 21
-2274.82794350585
 31
0.0
  0
LINE
  5
136
100
AcDbEntity
  8
WHITE
  6
CONTINUOUS
 62
           1
100
AcDbLine
 10
-4735.18667436376
 20
-2272.840446607799
 30
0.0
 11
-4735.052703512884
 21
-2271.647948468969
 31
0.0
  0
LINE
  5
137
100
AcDbEntity
  8
WHITE
  6
CONTINUOUS
 62
           1
100
AcDbLine
 10
-4734.963389612301
 20
-2270.852949709747
 30
0.0
 11
-4734.829418761425
 21
-2269.660451570917
 31
0.0
  0
LINE
  5
138
100
AcDbEntity
  8
WHITE
  6
CONTINUOUS
 62
           1
100
AcDbLine
 10
-4734.740104860841
 20
-2268.865452811695
 30
0.0
 11
-4734.606134009966
 21
-2267.672954672865
 31
0.0
  0
LINE
  5
139
100
AcDbEntity
  8
WHITE
  6
CONTINUOUS
 62
           1
100
AcDbLine
 10
-4735.499273015803
 20
-2275.622942265072
 30
0.0
 11
-4735.56625844124
 21
-2276.219191334487
 31
0.0
  0
LINE
  5
13A
100
AcDbEntity
  8
WHITE
  6
CONTINUOUS
 62
           1
100
AcDbLine
 10
-4717.678786358773
 20
-2278.22875409762
 30
0.0
 11
-4717.611800933335
 21
-2277.632505028205
 31
0.0
  0
LINE
  5
13B
100
AcDbEntity
  8
WHITE
  6
CONTINUOUS
 62
           1
100
AcDbLine
 10
-4717.522487032751
 20
-2276.837506268983
 30
0.0
 11
-4717.388516181876
 21
-2275.645008130153
 31
0.0
  0
LINE
  5
13C
100
AcDbEntity
  8
WHITE
  6
CONTINUOUS
 62
           1
100
AcDbLine
 10
-4717.299202281292
 20
-2274.850009370931
 30
0.0
 11
-4717.165231430417
 21
-2273.657511232101
 31
0.0
  0
LINE
  5
13D
100
AcDbEntity
  8
WHITE
  6
CONTINUOUS
 62
           1
100
AcDbLine
 10
-4717.075917529834
 20
-2272.862512472879
 30
0.0
 11
-4716.941946678959
 21
-2271.67001433405
 31
0.0
  0
LINE
  5
13E
100
AcDbEntity
  8
WHITE
  6
CONTINUOUS
 62
           1
100
AcDbLine
 10
-4716.852632778375
 20
-2270.875015574828
 30
0.0
 11
-4716.718661927499
 21
-2269.682517435997
 31
0.0
  0
LINE
  5
13F
100
AcDbEntity
  8
WHITE
  6
CONTINUOUS
 62
           1
100
AcDbLine
 10
-4718.638910790048
 20
-2286.774990759242
 30
0.0
 11
-4718.504939939172
 21
-2285.582492620412
 31
0.0
  0
LINE
  5
140
100
AcDbEntity
  8
WHITE
  6
CONTINUOUS
 62
           1
100
AcDbLine
 10
-4718.415626038588
 20
-2284.78749386119
 30
0.0
 11
-4718.281655187713
 21
-2283.59499572236
 31
0.0
  0
LINE
  5
141
100
AcDbEntity
  8
WHITE
  6
CONTINUOUS
 62
           1
100
AcDbLine
 10
-4718.192341287129
 20
-2282.799996963138
 30
0.0
 11
-4718.058370436254
 21
-2281.607498824309
 31
0.0
  0
LINE
  5
142
100
AcDbEntity
  8
WHITE
  6
CONTINUOUS
 62
           1
100
AcDbLine
 10
-4717.969056535671
 20
-2280.812500065087
 30
0.0
 11
-4717.835085684795
 21
-2279.620001926257
 31
0.0
  0
LINE
  5
143
100
AcDbEntity
  8
WHITE
  6
CONTINUOUS
 62
           1
100
AcDbLine
 10
-4717.745771784211
 20
-2278.825003167035
 30
0.0
 11
-4717.678786358773
 21
-2278.22875409762
 31
0.0
  0
LINE
  5
144
100
AcDbEntity
  8
WHITE
  6
CONTINUOUS
 62
           1
100
AcDbLine
 10
-4735.56625844124
 20
-2276.219191334487
 30
0.0
 11
-4735.633243866678
 21
-2276.815440403902
 31
0.0
  0
LINE
  5
145
100
AcDbEntity
  8
WHITE
  6
CONTINUOUS
 62
           1
100
AcDbLine
 10
-4736.526382872515
 20
-2284.76542799611
 30
0.0
 11
-4736.39241202164
 21
-2283.57292985728
 31
0.0
  0
LINE
  5
146
100
AcDbEntity
  8
WHITE
  6
CONTINUOUS
 62
           1
100
AcDbLine
 10
-4736.303098121056
 20
-2282.777931098058
 30
0.0
 11
-4736.16912727018
 21
-2281.585432959228
 31
0.0
  0
LINE
  5
147
100
AcDbEntity
  8
WHITE
  6
CONTINUOUS
 62
           1
100
AcDbLine
 10
-4736.079813369596
 20
-2280.790434200006
 30
0.0
 11
-4735.94584251872
 21
-2279.597936061176
 31
0.0
  0
LINE
  5
148
100
AcDbEntity
  8
WHITE
  6
CONTINUOUS
 62
           1
100
AcDbLine
 10
-4735.722557767262
 20
-2277.610439163124
 30
0.0
 11
-4735.856528618137
 21
-2278.802937301954
 31
0.0
  0
LINE
  5
149
100
AcDbEntity
  8
WHITE
  6
CONTINUOUS
 62
           1
100
AcDbLine
 10
-4717.969056535671
 20
-2280.812500065087
 30
0.0
 11
-4724.023885628167
 21
-2280.132272080645
 31
0.0
  0
LINE
  5
14A
100
AcDbEntity
  8
WHITE
  6
CONTINUOUS
 62
           1
100
AcDbLine
 10
-4724.023885628167
 20
-2280.132272080645
 30
0.0
 11
-4724.553149272145
 21
-2279.469037585792
 31
0.0
  0
LINE
  5
14B
100
AcDbEntity
  8
WHITE
  6
CONTINUOUS
 62
           1
100
AcDbLine
 10
-4718.498320179648
 20
-2280.149265570233
 30
0.0
 11
-4724.553149272145
 21
-2279.469037585792
 31
0.0
  0
LINE
  5
14C
100
AcDbEntity
  8
WHITE
  6
CONTINUOUS
 62
           1
100
AcDbLine
 10
-4724.553149272145
 20
-2279.469037585792
 30
0.0
 11
-4723.889914777292
 21
-2278.939773941816
 31
0.0
  0
LINE
  5
14D
100
AcDbEntity
  8
WHITE
  6
CONTINUOUS
 62
           1
100
AcDbLine
 10
-4717.745771784211
 20
-2278.825003167035
 30
0.0
 11
-4723.0590497864
 21
-2278.228084520613
 31
0.0
  0
LINE
  5
14E
100
AcDbEntity
  8
WHITE
  6
CONTINUOUS
 62
           1
100
AcDbLine
 10
-4723.0590497864
 20
-2278.228084520613
 30
0.0
 11
-4723.588313430379
 21
-2277.56485002576
 31
0.0
  0
LINE
  5
14F
100
AcDbEntity
  8
WHITE
  6
CONTINUOUS
 62
           1
100
AcDbLine
 10
-4734.970009371824
 20
-2276.286176759924
 30
0.0
 11
-4729.656731369636
 21
-2276.883095406346
 31
0.0
  0
LINE
  5
150
100
AcDbEntity
  8
WHITE
  6
CONTINUOUS
 62
           1
100
AcDbLine
 10
-4729.656731369636
 20
-2276.883095406346
 30
0.0
 11
-4730.319965864488
 21
-2277.412359050324
 31
0.0
  0
LINE
  5
151
100
AcDbEntity
  8
WHITE
  6
CONTINUOUS
 62
           1
100
AcDbLine
 10
-4729.801699525639
 20
-2279.483165286396
 30
0.0
 11
-4729.138465030786
 21
-2278.953901642418
 31
0.0
  0
LINE
  5
152
100
AcDbEntity
  8
WHITE
  6
CONTINUOUS
 62
           1
100
AcDbLine
 10
-4735.722557767262
 20
-2277.610439163124
 30
0.0
 11
-4729.667728674764
 21
-2278.290667147566
 31
0.0
  0
LINE
  5
153
100
AcDbEntity
  8
WHITE
  6
CONTINUOUS
 62
           1
100
AcDbLine
 10
-4729.138465030786
 20
-2278.953901642418
 30
0.0
 11
-4729.667728674764
 21
-2278.290667147566
 31
0.0
  0
LINE
  5
154
100
AcDbEntity
  8
WHITE
  6
CONTINUOUS
 62
           1
100
AcDbLine
 10
-4718.721604931106
 20
-2282.136762468285
 30
0.0
 11
-4735.416578874742
 21
-2280.261170556028
 31
0.0
  0
LINE
  5
155
100
AcDbEntity
  8
WHITE
  6
CONTINUOUS
 62
           1
100
AcDbLine
 10
-4729.138465030786
 20
-2278.953901642418
 30
0.0
 11
-4735.193294123284
 21
-2278.273673657976
 31
0.0
  0
LINE
  5
156
100
AcDbEntity
  8
WHITE
  6
CONTINUOUS
 62
           1
100
AcDbLine
 10
-4723.588313430379
 20
-2277.56485002576
 30
0.0
 11
-4718.275035428189
 21
-2278.161768672182
 31
0.0
  0
LINE
  5
157
100
AcDbEntity
  8
WHITE
  6
CONTINUOUS
 62
           1
100
AcDbLine
 10
-4718.275035428189
 20
-2278.161768672182
 30
0.0
 11
-4717.745771784211
 21
-2278.825003167035
 31
0.0
  0
LINE
  5
158
100
AcDbEntity
  8
WHITE
  6
CONTINUOUS
 62
           1
100
AcDbLine
 10
-4730.319965864488
 20
-2277.412359050324
 30
0.0
 11
-4735.633243866678
 21
-2276.815440403902
 31
0.0
  0
LINE
  5
159
100
AcDbEntity
  8
WHITE
  6
CONTINUOUS
 62
           1
100
AcDbLine
 10
-4735.633243866678
 20
-2276.815440403902
 30
0.0
 11
-4734.970009371824
 21
-2276.286176759924
 31
0.0
  0
LINE
  5
15A
100
AcDbEntity
  8
WHITE
  6
CONTINUOUS
 62
           1
100
AcDbLine
 10
-4735.193294123284
 20
-2278.273673657976
 30
0.0
 11
-4735.722557767262
 21
-2277.610439163124
 31
0.0
  0
LINE
  5
15B
100
AcDbEntity
  8
WHITE
  6
CONTINUOUS
 62
           1
100
AcDbLine
 10
-4723.889914777292
 20
-2278.939773941816
 30
0.0
 11
-4717.835085684795
 21
-2279.620001926257
 31
0.0
  0
LINE
  5
15C
100
AcDbEntity
  8
WHITE
  6
CONTINUOUS
 62
           1
100
AcDbLine
 10
-4717.835085684795
 20
-2279.620001926257
 30
0.0
 11
-4718.498320179648
 21
-2280.149265570233
 31
0.0
  0
LINE
  5
15D
100
AcDbEntity
  8
WHITE
  6
CONTINUOUS
 62
           1
100
AcDbLine
 10
-4718.498320179648
 20
-2280.149265570233
 30
0.0
 11
-4717.969056535671
 21
-2280.812500065087
 31
0.0
  0
LINE
  5
15E
100
AcDbEntity
  8
WHITE
  6
CONTINUOUS
 62
           1
100
AcDbLine
 10
-4729.801699525639
 20
-2279.483165286396
 30
0.0
 11
-4735.856528618137
 21
-2278.802937301954
 31
0.0
  0
LINE
  5
15F
100
AcDbEntity
  8
WHITE
  6
CONTINUOUS
 62
           1
100
AcDbLine
 10
-4735.856528618137
 20
-2278.802937301954
 30
0.0
 11
-4735.193294123284
 21
-2278.273673657976
 31
0.0
  0
LINE
  5
160
100
AcDbEntity
  8
WHITE
  6
CONTINUOUS
 62
           1
100
AcDbLine
 10
-4735.416578874742
 20
-2280.261170556028
 30
0.0
 11
-4735.94584251872
 21
-2279.597936061176
 31
0.0
  0
LINE
  5
161
100
AcDbEntity
  8
WHITE
  6
CONTINUOUS
 62
           1
100
AcDbLine
 10
-4735.94584251872
 20
-2279.597936061176
 30
0.0
 11
-4718.058370436254
 21
-2281.607498824309
 31
0.0
  0
LINE
  5
162
100
AcDbEntity
  8
WHITE
  6
CONTINUOUS
 62
           1
100
AcDbLine
 10
-4718.058370436254
 20
-2281.607498824309
 30
0.0
 11
-4718.721604931106
 21
-2282.136762468285
 31
0.0
  0
LINE
  5
163
100
AcDbEntity
  8
WHITE
  6
CONTINUOUS
 62
           1
100
AcDbLine
 10
-4718.721604931106
 20
-2282.136762468285
 30
0.0
 11
-4718.192341287129
 21
-2282.799996963138
 31
0.0
  0
LINE
  5
164
100
AcDbEntity
  8
WHITE
  6
CONTINUOUS
 62
           1
100
AcDbLine
 10
-4718.192341287129
 20
-2282.799996963138
 30
0.0
 11
-4736.079813369596
 21
-2280.790434200006
 31
0.0
  0
LINE
  5
165
100
AcDbEntity
  8
WHITE
  6
CONTINUOUS
 62
           1
100
AcDbLine
 10
-4736.079813369596
 20
-2280.790434200006
 30
0.0
 11
-4735.416578874742
 21
-2280.261170556028
 31
0.0
  0
LINE
  5
166
100
AcDbEntity
  8
WHITE
  6
CONTINUOUS
 62
           1
100
AcDbLine
 10
-4735.639863626202
 20
-2282.248667454081
 30
0.0
 11
-4718.944889682565
 21
-2284.124259366337
 31
0.0
  0
LINE
  5
167
100
AcDbEntity
  8
WHITE
  6
CONTINUOUS
 62
           1
100
AcDbLine
 10
-4735.639863626202
 20
-2282.248667454081
 30
0.0
 11
-4736.16912727018
 21
-2281.585432959228
 31
0.0
  0
LINE
  5
168
100
AcDbEntity
  8
WHITE
  6
CONTINUOUS
 62
           1
100
AcDbLine
 10
-4736.16912727018
 20
-2281.585432959228
 30
0.0
 11
-4718.281655187713
 21
-2283.59499572236
 31
0.0
  0
LINE
  5
169
100
AcDbEntity
  8
WHITE
  6
CONTINUOUS
 62
           1
100
AcDbLine
 10
-4718.281655187713
 20
-2283.59499572236
 30
0.0
 11
-4718.944889682565
 21
-2284.124259366337
 31
0.0
  0
LINE
  5
16A
100
AcDbEntity
  8
WHITE
  6
CONTINUOUS
 62
           1
100
AcDbLine
 10
-4718.944889682565
 20
-2284.124259366337
 30
0.0
 11
-4718.415626038588
 21
-2284.78749386119
 31
0.0
  0
LINE
  5
16B
100
AcDbEntity
  8
WHITE
  6
CONTINUOUS
 62
           1
100
AcDbLine
 10
-4718.415626038588
 20
-2284.78749386119
 30
0.0
 11
-4736.303098121056
 21
-2282.777931098058
 31
0.0
  0
LINE
  5
16C
100
AcDbEntity
  8
WHITE
  6
CONTINUOUS
 62
           1
100
AcDbLine
 10
-4736.303098121056
 20
-2282.777931098058
 30
0.0
 11
-4735.639863626202
 21
-2282.248667454081
 31
0.0
  0
LINE
  5
16D
100
AcDbEntity
  8
WHITE
  6
CONTINUOUS
 62
           1
100
AcDbLine
 10
-4719.168174434025
 20
-2286.111756264389
 30
0.0
 11
-4735.863148377661
 21
-2284.236164352133
 31
0.0
  0
LINE
  5
16E
100
AcDbEntity
  8
WHITE
  6
CONTINUOUS
 62
           1
100
AcDbLine
 10
-4736.39241202164
 20
-2283.57292985728
 30
0.0
 11
-4735.863148377661
 21
-2284.236164352133
 31
0.0
  0
LINE
  5
16F
100
AcDbEntity
  8
WHITE
  6
CONTINUOUS
 62
           1
100
AcDbLine
 10
-4735.863148377661
 20
-2284.236164352133
 30
0.0
 11
-4736.526382872515
 21
-2284.76542799611
 31
0.0
  0
LINE
  5
170
100
AcDbEntity
  8
WHITE
  6
CONTINUOUS
 62
           1
100
AcDbLine
 10
-4736.526382872515
 20
-2284.76542799611
 30
0.0
 11
-4718.638910790048
 21
-2286.774990759242
 31
0.0
  0
LINE
  5
171
100
AcDbEntity
  8
WHITE
  6
CONTINUOUS
 62
           1
100
AcDbLine
 10
-4718.638910790048
 20
-2286.774990759242
 30
0.0
 11
-4719.168174434025
 21
-2286.111756264389
 31
0.0
  0
LINE
  5
172
100
AcDbEntity
  8
WHITE
  6
CONTINUOUS
 62
           1
100
AcDbLine
 10
-4719.168174434025
 20
-2286.111756264389
 30
0.0
 11
-4718.504939939172
 21
-2285.582492620412
 31
0.0
  0
LINE
  5
173
100
AcDbEntity
  8
WHITE
  6
CONTINUOUS
 62
           1
100
AcDbLine
 10
-4718.504939939172
 20
-2285.582492620412
 30
0.0
 11
-4736.39241202164
 21
-2283.57292985728
 31
0.0
  0
LINE
  5
174
100
AcDbEntity
  8
WHITE
  6
CONTINUOUS
 62
          15
100
AcDbLine
 10
-4762.694187452026
 20
-2286.684190597714
 30
0.0
 11
-4761.796745807551
 21
-2285.467375053824
 31
0.0
  0
LINE
  5
175
100
AcDbEntity
  8
WHITE
  6
CONTINUOUS
 62
          15
100
AcDbLine
 10
-4757.579260559905
 20
-2285.94118718718
 30
0.0
 11
-4761.796745807551
 21
-2285.467375053824
 31
0.0
  0
LINE
  5
176
100
AcDbEntity
  8
WHITE
  6
CONTINUOUS
 62
          15
100
AcDbLine
 10
-4761.796745807551
 20
-2285.467375053824
 30
0.0
 11
-4762.255633511049
 21
-2282.780544730168
 31
0.0
  0
LINE
  5
177
100
AcDbEntity
  8
WHITE
  6
CONTINUOUS
 62
          15
100
AcDbLine
 10
-4761.809064008132
 20
-2278.805550934064
 30
0.0
 11
-4760.765437716664
 21
-2276.287520100994
 31
0.0
  0
LINE
  5
178
100
AcDbEntity
  8
WHITE
  6
CONTINUOUS
 62
          15
100
AcDbLine
 10
-4756.547952469018
 20
-2276.76133223435
 30
0.0
 11
-4760.765437716664
 21
-2276.287520100994
 31
0.0
  0
LINE
  5
179
100
AcDbEntity
  8
WHITE
  6
CONTINUOUS
 62
          15
100
AcDbLine
 10
-4760.765437716664
 20
-2276.287520100994
 30
0.0
 11
-4761.370510067155
 21
-2274.90190506652
 31
0.0
  0
LINE
  5
17A
100
AcDbEntity
  8
WHITE
  6
CONTINUOUS
 62
          15
100
AcDbLine
 10
-4762.312399852995
 20
-2290.057302530239
 30
0.0
 11
-4762.917472203486
 21
-2288.671687495765
 31
0.0
  0
LINE
  5
17B
100
AcDbEntity
  8
WHITE
  6
CONTINUOUS
 62
          15
100
AcDbLine
 10
-4756.032298423574
 20
-2272.171404757934
 30
0.0
 11
-4760.249783671221
 21
-2271.697592624578
 31
0.0
  0
LINE
  5
17C
100
AcDbEntity
  8
WHITE
  6
CONTINUOUS
 62
          15
100
AcDbLine
 10
-4761.147225315695
 20
-2272.914408168469
 30
0.0
 11
-4760.249783671221
 21
-2271.697592624578
 31
0.0
  0
LINE
  5
17D
100
AcDbEntity
  8
WHITE
  6
CONTINUOUS
 62
          15
100
AcDbLine
 10
-4758.094914605348
 20
-2290.531114663595
 30
0.0
 11
-4757.948729958356
 21
-2289.229899374413
 31
0.0
  0
LINE
  5
17E
100
AcDbEntity
  8
WHITE
  6
CONTINUOUS
 62
          15
100
AcDbLine
 10
-4762.694187452026
 20
-2286.684190597714
 30
0.0
 11
-4762.917472203486
 21
-2288.671687495765
 31
0.0
  0
LINE
  5
17F
100
AcDbEntity
  8
WHITE
  6
CONTINUOUS
 62
          15
100
AcDbLine
 10
-4757.948729958356
 20
-2289.229899374413
 30
0.0
 11
-4762.917472203486
 21
-2288.671687495765
 31
0.0
  0
LINE
  5
180
100
AcDbEntity
  8
WHITE
  6
CONTINUOUS
 62
          15
100
AcDbLine
 10
-4757.948729958356
 20
-2289.229899374413
 30
0.0
 11
-4757.725445206897
 21
-2287.242402476361
 31
0.0
  0
LINE
  5
181
100
AcDbEntity
  8
WHITE
  6
CONTINUOUS
 62
          15
100
AcDbLine
 10
-4762.255633511049
 20
-2282.780544730168
 30
0.0
 11
-4762.694187452026
 21
-2286.684190597714
 31
0.0
  0
LINE
  5
182
100
AcDbEntity
  8
WHITE
  6
CONTINUOUS
 62
          15
100
AcDbLine
 10
-4757.725445206897
 20
-2287.242402476361
 30
0.0
 11
-4762.694187452026
 21
-2286.684190597714
 31
0.0
  0
LINE
  5
183
100
AcDbEntity
  8
WHITE
  6
CONTINUOUS
 62
          15
100
AcDbLine
 10
-4757.725445206897
 20
-2287.242402476361
 30
0.0
 11
-4757.579260559905
 21
-2285.94118718718
 31
0.0
  0
LINE
  5
184
100
AcDbEntity
  8
WHITE
  6
CONTINUOUS
 62
          15
100
AcDbLine
 10
-4757.579260559905
 20
-2285.94118718718
 30
0.0
 11
-4757.286891265921
 21
-2283.338756608816
 31
0.0
  0
LINE
  5
185
100
AcDbEntity
  8
WHITE
  6
CONTINUOUS
 62
          15
100
AcDbLine
 10
-4761.809064008132
 20
-2278.805550934064
 30
0.0
 11
-4762.255633511049
 21
-2282.780544730168
 31
0.0
  0
LINE
  5
186
100
AcDbEntity
  8
WHITE
  6
CONTINUOUS
 62
          15
100
AcDbLine
 10
-4757.286891265921
 20
-2283.338756608816
 30
0.0
 11
-4762.255633511049
 21
-2282.780544730168
 31
0.0
  0
LINE
  5
187
100
AcDbEntity
  8
WHITE
  6
CONTINUOUS
 62
          15
100
AcDbLine
 10
-4757.286891265921
 20
-2283.338756608816
 30
0.0
 11
-4756.840321763002
 21
-2279.363762812712
 31
0.0
  0
LINE
  5
188
100
AcDbEntity
  8
WHITE
  6
CONTINUOUS
 62
          15
100
AcDbLine
 10
-4761.370510067155
 20
-2274.90190506652
 30
0.0
 11
-4761.809064008132
 21
-2278.805550934064
 31
0.0
  0
LINE
  5
189
100
AcDbEntity
  8
WHITE
  6
CONTINUOUS
 62
          15
100
AcDbLine
 10
-4756.840321763002
 20
-2279.363762812712
 30
0.0
 11
-4761.809064008132
 21
-2278.805550934064
 31
0.0
  0
LINE
  5
18A
100
AcDbEntity
  8
WHITE
  6
CONTINUOUS
 62
          15
100
AcDbLine
 10
-4756.840321763002
 20
-2279.363762812712
 30
0.0
 11
-4756.547952469018
 21
-2276.76133223435
 31
0.0
  0
LINE
  5
18B
100
AcDbEntity
  8
WHITE
  6
CONTINUOUS
 62
          15
100
AcDbLine
 10
-4756.547952469018
 20
-2276.76133223435
 30
0.0
 11
-4756.401767822026
 21
-2275.460116945168
 31
0.0
  0
LINE
  5
18C
100
AcDbEntity
  8
WHITE
  6
CONTINUOUS
 62
          15
100
AcDbLine
 10
-4761.147225315695
 20
-2272.914408168469
 30
0.0
 11
-4761.370510067155
 21
-2274.90190506652
 31
0.0
  0
LINE
  5
18D
100
AcDbEntity
  8
WHITE
  6
CONTINUOUS
 62
          15
100
AcDbLine
 10
-4756.401767822026
 20
-2275.460116945168
 30
0.0
 11
-4761.370510067155
 21
-2274.90190506652
 31
0.0
  0
LINE
  5
18E
100
AcDbEntity
  8
WHITE
  6
CONTINUOUS
 62
          15
100
AcDbLine
 10
-4756.401767822026
 20
-2275.460116945168
 30
0.0
 11
-4756.178483070567
 21
-2273.472620047117
 31
0.0
  0
LINE
  5
18F
100
AcDbEntity
  8
WHITE
  6
CONTINUOUS
 62
          15
100
AcDbLine
 10
-4761.147225315695
 20
-2272.914408168469
 30
0.0
 11
-4756.178483070567
 21
-2273.472620047117
 31
0.0
  0
LINE
  5
190
100
AcDbEntity
  8
WHITE
  6
CONTINUOUS
 62
          15
100
AcDbLine
 10
-4762.312399852995
 20
-2290.057302530239
 30
0.0
 11
-4758.094914605348
 21
-2290.531114663595
 31
0.0
  0
LINE
  5
191
100
AcDbEntity
  8
WHITE
  6
CONTINUOUS
 62
          15
100
AcDbLine
 10
-4756.178483070567
 20
-2273.472620047117
 30
0.0
 11
-4756.032298423574
 21
-2272.171404757934
 31
0.0
  0
LINE
  5
192
100
AcDbEntity
  8
WHITE
  6
CONTINUOUS
 62
          15
100
AcDbLine
 10
-4707.149991192246
 20
-2247.210300358897
 30
0.0
 11
-4706.563868719665
 21
-2241.993121001511
 31
0.0
  0
LINE
  5
193
100
AcDbEntity
  8
WHITE
  6
CONTINUOUS
 62
          15
100
AcDbLine
 10
-4709.031362180838
 20
-2250.520956366893
 30
0.0
 11
-4709.422110495892
 21
-2253.999075938485
 31
0.0
  0
LINE
  5
194
100
AcDbEntity
  8
WHITE
  6
CONTINUOUS
 62
          15
100
AcDbLine
 10
-4709.422110495892
 20
-2253.999075938485
 30
0.0
 11
-4708.67084794165
 21
-2254.083476308049
 31
0.0
  0
LINE
  5
195
100
AcDbEntity
  8
WHITE
  6
CONTINUOUS
 62
          15
100
AcDbLine
 10
-4708.249865550731
 20
-2243.564717223711
 30
0.0
 11
-4709.031362180838
 21
-2250.520956366893
 31
0.0
  0
LINE
  5
196
100
AcDbEntity
  8
WHITE
  6
CONTINUOUS
 62
          15
100
AcDbLine
 10
-4709.031362180838
 20
-2250.520956366893
 30
0.0
 11
-4708.280099626596
 21
-2250.605356736458
 31
0.0
  0
LINE
  5
197
100
AcDbEntity
  8
WHITE
  6
CONTINUOUS
 62
          15
100
AcDbLine
 10
-4707.859117235677
 20
-2240.086597652121
 30
0.0
 11
-4708.249865550731
 21
-2243.564717223711
 31
0.0
  0
LINE
  5
198
100
AcDbEntity
  8
WHITE
  6
CONTINUOUS
 62
          15
100
AcDbLine
 10
-4708.249865550731
 20
-2243.564717223711
 30
0.0
 11
-4707.498602996489
 21
-2243.649117593276
 31
0.0
  0
LINE
  5
199
100
AcDbEntity
  8
WHITE
  6
CONTINUOUS
 62
          15
100
AcDbLine
 10
-4707.245084169164
 20
-2234.620981182477
 30
0.0
 11
-4707.859117235677
 21
-2240.086597652121
 31
0.0
  0
LINE
  5
19A
100
AcDbEntity
  8
WHITE
  6
CONTINUOUS
 62
          15
100
AcDbLine
 10
-4707.859117235677
 20
-2240.086597652121
 30
0.0
 11
-4707.107854681436
 21
-2240.170998021686
 31
0.0
  0
LINE
  5
19B
100
AcDbEntity
  8
WHITE
  6
CONTINUOUS
 62
          15
100
AcDbLine
 10
-4752.627445638275
 20
-2275.811893620623
 30
0.0
 11
-4753.967154147031
 21
-2287.736875008935
 31
0.0
  0
LINE
  5
19C
100
AcDbEntity
  8
WHITE
  6
CONTINUOUS
 62
           2
100
AcDbLine
 10
-4753.967154147031
 20
-2287.736875008935
 30
0.0
 11
-4757.733460768839
 21
-2287.31375040492
 31
0.0
  0
LINE
  5
19D
100
AcDbEntity
  8
WHITE
  6
CONTINUOUS
 62
          15
100
AcDbLine
 10
-4752.515803262546
 20
-2274.818145171597
 30
0.0
 11
-4752.627445638275
 21
-2275.811893620623
 31
0.0
  0
LINE
  5
19E
100
AcDbEntity
  8
WHITE
  6
CONTINUOUS
 62
           2
100
AcDbLine
 10
-4752.627445638275
 20
-2275.811893620623
 30
0.0
 11
-4756.393752260084
 21
-2275.388769016608
 31
0.0
  0
LINE
  5
19F
100
AcDbEntity
  8
WHITE
  6
CONTINUOUS
 62
          15
100
AcDbLine
 10
-4753.967154147031
 20
-2287.736875008935
 30
0.0
 11
-4754.07879652276
 21
-2288.730623457961
 31
0.0
  0
LINE
  5
1A0
100
AcDbEntity
  8
WHITE
  6
CONTINUOUS
 62
          15
100
AcDbLine
 10
-4757.845103144568
 20
-2288.307498853946
 30
0.0
 11
-4754.07879652276
 21
-2288.730623457961
 31
0.0
  0
LINE
  5
1A1
100
AcDbEntity
  8
WHITE
  6
CONTINUOUS
 62
          15
100
AcDbLine
 10
-4752.459982074681
 20
-2274.321270947084
 30
0.0
 11
-4752.515803262546
 21
-2274.818145171597
 31
0.0
  0
LINE
  5
1A2
100
AcDbEntity
  8
WHITE
  6
CONTINUOUS
 62
          15
100
AcDbLine
 10
-4756.282109884354
 20
-2274.395020567582
 30
0.0
 11
-4752.515803262546
 21
-2274.818145171597
 31
0.0
  0
LINE
  5
1A3
100
AcDbEntity
  8
WHITE
  6
CONTINUOUS
 62
          15
100
AcDbLine
 10
-4715.819481235261
 20
-2293.028854923549
 30
0.0
 11
-4734.736375731033
 21
-2290.903642003717
 31
0.0
  0
LINE
  5
1A4
100
AcDbEntity
  8
WHITE
  6
CONTINUOUS
 62
          15
100
AcDbLine
 10
-4734.736375731033
 20
-2290.903642003717
 30
0.0
 11
-4742.377099885908
 21
-2292.057828864768
 31
0.0
  0
LINE
  5
1A5
100
AcDbEntity
  8
WHITE
  6
CONTINUOUS
 62
          15
100
AcDbLine
 10
-4710.594355441051
 20
-2264.433434653256
 30
0.0
 11
-4711.091229665564
 21
-2264.377613465391
 31
0.0
  0
LINE
  5
1A6
100
AcDbEntity
  8
WHITE
  6
CONTINUOUS
 62
          15
100
AcDbLine
 10
-4714.161394998127
 20
-2291.705695813605
 30
0.0
 11
-4711.091229665564
 21
-2264.377613465391
 31
0.0
  0
LINE
  5
1A7
100
AcDbEntity
  8
WHITE
  6
CONTINUOUS
 62
          15
100
AcDbLine
 10
-4740.66319246091
 20
-2290.23779553031
 30
0.0
 11
-4734.736375731033
 21
-2290.903642003717
 31
0.0
  0
LINE
  5
1A8
100
AcDbEntity
  8
WHITE
  6
CONTINUOUS
 62
          15
100
AcDbLine
 10
-4711.091229665564
 20
-2264.377613465391
 30
0.0
 11
-4738.916186238292
 21
-2261.251626944963
 31
0.0
  0
LINE
  5
1A9
100
AcDbEntity
  8
WHITE
  6
CONTINUOUS
 62
          15
100
AcDbLine
 10
-4741.986351570855
 20
-2288.579709293176
 30
0.0
 11
-4738.916186238292
 21
-2261.251626944963
 31
0.0
  0
LINE
  5
1AA
100
AcDbEntity
  8
WHITE
  6
CONTINUOUS
 62
          15
100
AcDbLine
 10
-4752.811458600681
 20
-2290.885583919608
 30
0.0
 11
-4742.377099885908
 21
-2292.057828864768
 31
0.0
  0
LINE
  5
1AB
100
AcDbEntity
  8
WHITE
  6
CONTINUOUS
 62
          15
100
AcDbLine
 10
-4754.07879652276
 20
-2288.730623457961
 30
0.0
 11
-4754.134617710624
 21
-2289.227497682473
 31
0.0
  0
LINE
  5
1AC
100
AcDbEntity
  8
WHITE
  6
CONTINUOUS
 62
          15
100
AcDbLine
 10
-4750.801895837548
 20
-2272.99811183714
 30
0.0
 11
-4740.367537122776
 21
-2274.1703567823
 31
0.0
  0
LINE
  5
1AD
100
AcDbEntity
  8
WHITE
  6
CONTINUOUS
 62
          15
100
AcDbLine
 10
-4710.482713065322
 20
-2263.43968620423
 30
0.0
 11
-4710.594355441051
 21
-2264.433434653256
 31
0.0
  0
LINE
  5
1AE
100
AcDbEntity
  8
WHITE
  6
CONTINUOUS
 62
          15
100
AcDbLine
 10
-4738.916186238292
 20
-2261.251626944963
 30
0.0
 11
-4739.413060462804
 21
-2261.195805757098
 31
0.0
  0
LINE
  5
1AF
100
AcDbEntity
  8
WHITE
  6
CONTINUOUS
 62
          15
100
AcDbLine
 10
-4739.413060462804
 20
-2261.195805757098
 30
0.0
 11
-4739.301418087074
 21
-2260.202057308072
 31
0.0
  0
LINE
  5
1B0
100
AcDbEntity
  8
WHITE
  6
CONTINUOUS
 62
          15
100
AcDbLine
 10
-4710.482713065322
 20
-2263.43968620423
 30
0.0
 11
-4739.301418087074
 21
-2260.202057308072
 31
0.0
  0
LINE
  5
1B1
100
AcDbEntity
  8
WHITE
  6
CONTINUOUS
 62
           7
100
AcDbLine
 10
-4736.392473261369
 20
-2234.309027085848
 30
0.0
 11
-4736.45453750597
 21
-2234.861471857912
 31
0.0
  0
LINE
  5
1B2
100
AcDbEntity
  8
WHITE
  6
CONTINUOUS
 62
          15
100
AcDbLine
 10
-4734.251190272335
 20
-2232.538233143218
 30
0.0
 11
-4707.245084169164
 21
-2234.620981182477
 31
0.0
  0
LINE
  5
1B3
100
AcDbEntity
  8
WHITE
  6
CONTINUOUS
 62
           7
100
AcDbLine
 10
-4742.70716707199
 20
-2245.731367143061
 30
0.0
 11
-4742.651345884126
 21
-2245.234492918549
 31
0.0
  0
LINE
  5
1B4
100
AcDbEntity
  8
WHITE
  6
CONTINUOUS
 62
           1
100
AcDbLine
 10
-4740.178550993973
 20
-2245.512298329465
 30
0.0
 11
-4742.651345884126
 21
-2245.234492918549
 31
0.0
  0
LINE
  5
1B5
100
AcDbEntity
  8
WHITE
  6
CONTINUOUS
 62
           7
100
AcDbLine
 10
-4742.651345884126
 20
-2245.234492918549
 30
0.0
 11
-4742.204776381207
 21
-2241.259499122445
 31
0.0
  0
LINE
  5
1B6
100
AcDbEntity
  8
WHITE
  6
CONTINUOUS
 62
           1
100
AcDbLine
 10
-4739.731981491054
 20
-2241.537304533361
 30
0.0
 11
-4742.204776381207
 21
-2241.259499122445
 31
0.0
  0
LINE
  5
1B7
100
AcDbEntity
  8
WHITE
  6
CONTINUOUS
 62
           7
100
AcDbLine
 10
-4742.762988259855
 20
-2246.228241367575
 30
0.0
 11
-4742.70716707199
 21
-2245.731367143061
 31
0.0
  0
LINE
  5
1B8
100
AcDbEntity
  8
WHITE
  6
CONTINUOUS
 62
           1
100
AcDbLine
 10
-4740.234372181837
 20
-2246.009172553977
 30
0.0
 11
-4742.70716707199
 21
-2245.731367143061
 31
0.0
  0
LINE
  5
1B9
100
AcDbEntity
  8
WHITE
  6
CONTINUOUS
 62
           7
100
AcDbLine
 10
-4742.204776381207
 20
-2241.259499122445
 30
0.0
 11
-4742.148955193342
 21
-2240.762624897931
 31
0.0
  0
LINE
  5
1BA
100
AcDbEntity
  8
WHITE
  6
CONTINUOUS
 62
           1
100
AcDbLine
 10
-4739.676160303189
 20
-2241.040430308847
 30
0.0
 11
-4742.148955193342
 21
-2240.762624897931
 31
0.0
  0
LINE
  5
1BB
100
AcDbEntity
  8
WHITE
  6
CONTINUOUS
 62
           7
100
AcDbLine
 10
-4741.099385556451
 20
-2240.377393049149
 30
0.0
 11
-4741.769239810828
 21
-2246.339883743304
 31
0.0
  0
LINE
  5
1BC
100
AcDbEntity
  8
WHITE
  6
CONTINUOUS
 62
           2
100
AcDbLine
 10
-4741.769239810828
 20
-2246.339883743304
 30
0.0
 11
-4742.762988259855
 21
-2246.228241367575
 31
0.0
  0
LINE
  5
1BD
100
AcDbEntity
  8
WHITE
  6
CONTINUOUS
 62
           7
100
AcDbLine
 10
-4740.987743180722
 20
-2239.383644600123
 30
0.0
 11
-4741.099385556451
 21
-2240.377393049149
 31
0.0
  0
LINE
  5
1BE
100
AcDbEntity
  8
WHITE
  6
CONTINUOUS
 62
           2
100
AcDbLine
 10
-4741.099385556451
 20
-2240.377393049149
 30
0.0
 11
-4742.093134005478
 21
-2240.26575067342
 31
0.0
  0
LINE
  5
1BF
100
AcDbEntity
  8
WHITE
  6
CONTINUOUS
 62
           7
100
AcDbLine
 10
-4741.769239810828
 20
-2246.339883743304
 30
0.0
 11
-4741.880882186559
 21
-2247.333632192331
 31
0.0
  0
LINE
  5
1C0
100
AcDbEntity
  8
WHITE
  6
CONTINUOUS
 62
           7
100
AcDbLine
 10
-4741.880882186559
 20
-2247.333632192331
 30
0.0
 11
-4742.762988259855
 21
-2246.228241367575
 31
0.0
  0
LINE
  5
1C1
100
AcDbEntity
  8
WHITE
  6
CONTINUOUS
 62
           7
100
AcDbLine
 10
-4742.148955193342
 20
-2240.762624897931
 30
0.0
 11
-4742.093134005478
 21
-2240.26575067342
 31
0.0
  0
LINE
  5
1C2
100
AcDbEntity
  8
WHITE
  6
CONTINUOUS
 62
           7
100
AcDbLine
 10
-4740.429531302074
 20
-2234.414902354994
 30
0.0
 11
-4740.987743180722
 21
-2239.383644600123
 31
0.0
  0
LINE
  5
1C3
100
AcDbEntity
  8
WHITE
  6
CONTINUOUS
 62
           7
100
AcDbLine
 10
-4742.093134005478
 20
-2240.26575067342
 30
0.0
 11
-4740.987743180722
 21
-2239.383644600123
 31
0.0
  0
LINE
  5
1C4
100
AcDbEntity
  8
WHITE
  6
CONTINUOUS
 62
          15
100
AcDbLine
 10
-4709.422110495892
 20
-2253.999075938485
 30
0.0
 11
-4710.482713065322
 21
-2263.43968620423
 31
0.0
  0
LINE
  5
1C5
100
AcDbEntity
  8
WHITE
  6
CONTINUOUS
 62
          15
100
AcDbLine
 10
-4739.301418087074
 20
-2260.202057308072
 30
0.0
 11
-4738.464100269102
 21
-2252.748943940379
 31
0.0
  0
LINE
  5
1C6
100
AcDbEntity
  8
WHITE
  6
CONTINUOUS
 62
           7
100
AcDbLine
 10
-4739.569491093858
 20
-2253.631050013675
 30
0.0
 11
-4737.336643579267
 21
-2233.756081033156
 31
0.0
  0
LINE
  5
1C7
100
AcDbEntity
  8
WHITE
  6
CONTINUOUS
 62
           7
100
AcDbLine
 10
-4741.556987991909
 20
-2253.407765262215
 30
0.0
 11
-4739.324140477318
 21
-2233.532796281697
 31
0.0
  0
LINE
  5
1C8
100
AcDbEntity
  8
WHITE
  6
CONTINUOUS
 62
           7
100
AcDbLine
 10
-4741.556987991909
 20
-2253.407765262215
 30
0.0
 11
-4742.439094065207
 21
-2252.302374437461
 31
0.0
  0
LINE
  5
1C9
100
AcDbEntity
  8
WHITE
  6
CONTINUOUS
 62
           7
100
AcDbLine
 10
-4738.464100269102
 20
-2252.748943940379
 30
0.0
 11
-4739.569491093858
 21
-2253.631050013675
 31
0.0
  0
LINE
  5
1CA
100
AcDbEntity
  8
WHITE
  6
CONTINUOUS
 62
           7
100
AcDbLine
 10
-4737.336643579267
 20
-2233.756081033156
 30
0.0
 11
-4736.45453750597
 21
-2234.861471857912
 31
0.0
  0
LINE
  5
1CB
100
AcDbEntity
  8
WHITE
  6
CONTINUOUS
 62
           7
100
AcDbLine
 10
-4739.324140477318
 20
-2233.532796281697
 30
0.0
 11
-4740.429531302074
 21
-2234.414902354994
 31
0.0
  0
LINE
  5
1CC
100
AcDbEntity
  8
WHITE
  6
CONTINUOUS
 62
           7
100
AcDbLine
 10
-4741.880882186559
 20
-2247.333632192331
 30
0.0
 11
-4742.439094065207
 21
-2252.302374437461
 31
0.0
  0
LINE
  5
1CD
100
AcDbEntity
  8
WHITE
  6
CONTINUOUS
 62
           7
100
AcDbLine
 10
-4741.556987991909
 20
-2253.407765262215
 30
0.0
 11
-4739.569491093858
 21
-2253.631050013675
 31
0.0
  0
LINE
  5
1CE
100
AcDbEntity
  8
WHITE
  6
CONTINUOUS
 62
          15
100
AcDbLine
 10
-4738.464100269102
 20
-2252.748943940379
 30
0.0
 11
-4736.45453750597
 21
-2234.861471857912
 31
0.0
  0
LINE
  5
1CF
100
AcDbEntity
  8
WHITE
  6
CONTINUOUS
 62
           7
100
AcDbLine
 10
-4737.336643579267
 20
-2233.756081033156
 30
0.0
 11
-4739.324140477318
 21
-2233.532796281697
 31
0.0
  0
LINE
  5
1D0
100
AcDbEntity
  8
WHITE
  6
CONTINUOUS
 62
          15
100
AcDbLine
 10
-4690.898539481831
 20
-2232.432265398047
 30
0.0
 11
-4690.401665257318
 21
-2232.488086585912
 31
0.0
  0
LINE
  5
1D1
100
AcDbEntity
  8
WHITE
  6
CONTINUOUS
 62
          15
100
AcDbLine
 10
-4706.368494562139
 20
-2240.254061215715
 30
0.0
 11
-4701.896626541522
 21
-2240.756451906499
 31
0.0
  0
LINE
  5
1D2
100
AcDbEntity
  8
WHITE
  6
CONTINUOUS
 62
           7
100
AcDbLine
 10
-4718.593137154741
 20
-2254.887492048004
 30
0.0
 11
-4726.862227849605
 21
-2253.958503498434
 31
0.0
  0
LINE
  5
1D3
100
AcDbEntity
  8
WHITE
  6
CONTINUOUS
 62
           7
100
AcDbLine
 10
-4726.862227849605
 20
-2253.958503498434
 30
0.0
 11
-4726.096000097129
 21
-2247.138175324231
 31
0.0
  0
LINE
  5
1D4
100
AcDbEntity
  8
WHITE
  6
CONTINUOUS
 62
           7
100
AcDbLine
 10
-4726.096000097129
 20
-2247.138175324231
 30
0.0
 11
-4717.826909402265
 21
-2248.067163873801
 31
0.0
  0
LINE
  5
1D5
100
AcDbEntity
  8
WHITE
  6
CONTINUOUS
 62
           7
100
AcDbLine
 10
-4717.826909402265
 20
-2248.067163873801
 30
0.0
 11
-4718.593137154741
 21
-2254.887492048004
 31
0.0
  0
ARC
  5
1D6
100
AcDbEntity
  8
WHITE
  6
CONTINUOUS
 62
          15
100
AcDbCircle
 10
-4662.325578991717
 20
-2228.900137310003
 30
0.0
 40
2.25
100
AcDbArc
 50
173.59
 51
353.589999999999
  0
ARC
  5
1D7
100
AcDbEntity
  8
WHITE
  6
CONTINUOUS
 62
          15
100
AcDbCircle
 10
-4662.325578991717
 20
-2228.900137310003
 30
0.0
 40
2.25
100
AcDbArc
 50
353.589999999999
 51
173.59
  0
ARC
  5
1D8
100
AcDbEntity
  8
WHITE
  6
CONTINUOUS
 62
          15
100
AcDbCircle
 10
-4715.700607333338
 20
-2246.249683916297
 30
0.0
 40
8.604407030244
100
AcDbArc
 50
353.589999999999
 51
17.59198532828
  0
ARC
  5
1D9
100
AcDbEntity
  8
WHITE
  6
CONTINUOUS
 62
          15
100
AcDbCircle
 10
-4710.151027744836
 20
-2252.156176907871
 30
0.0
 40
2.430106011614
100
AcDbArc
 50
353.589999999999
 51
39.655478142734
  0
ARC
  5
1DA
100
AcDbEntity
  8
WHITE
  6
CONTINUOUS
 62
          15
100
AcDbCircle
 10
-4708.978782799675
 20
-2241.721818193099
 30
0.0
 40
2.430106011614
100
AcDbArc
 50
353.589999999999
 51
39.655478142734
  0
ARC
  5
1DB
100
AcDbEntity
  8
WHITE
  6
CONTINUOUS
 62
          15
100
AcDbCircle
 10
-4710.151027744836
 20
-2252.156176907871
 30
0.0
 40
2.430106011614
100
AcDbArc
 50
307.524521857251
 51
353.589999999999
  0
ARC
  5
1DC
100
AcDbEntity
  8
WHITE
  6
CONTINUOUS
 62
          15
100
AcDbCircle
 10
-4708.978782799675
 20
-2241.721818193099
 30
0.0
 40
2.430106011613
100
AcDbArc
 50
307.524521857281
 51
353.589999999999
  0
ARC
  5
1DD
100
AcDbEntity
  8
WHITE
  6
CONTINUOUS
 62
          15
100
AcDbCircle
 10
-4715.700607333338
 20
-2246.249683916297
 30
0.0
 40
8.604407030244
100
AcDbArc
 50
329.588014671731
 51
353.589999999999
  0
CIRCLE
  5
1DE
100
AcDbEntity
  8
WHITE
  6
CONTINUOUS
 62
          15
100
AcDbCircle
 10
-4635.985072101095
 20
-2272.110988918657
 30
0.0
 40
2.25
  0
CIRCLE
  5
1DF
100
AcDbEntity
  8
WHITE
  6
CONTINUOUS
 62
          15
100
AcDbCircle
 10
-4656.85378953064
 20
-2269.766499028336
 30
0.0
 40
2.25
  0
CIRCLE
  5
1E0
100
AcDbEntity
  8
WHITE
  6
CONTINUOUS
 62
          15
100
AcDbCircle
 10
-4621.581892581653
 20
-2233.477474714915
 30
0.0
 40
2.25
  0
ARC
  5
1E1
100
AcDbEntity
  8
WHITE
  6
CONTINUOUS
 62
          15
100
AcDbCircle
 10
-4704.628571613081
 20
-2233.849470283707
 30
0.0
 40
0.5
100
AcDbArc
 50
90.739821982564
 51
173.59
  0
ARC
  5
1E2
100
AcDbEntity
  8
WHITE
  6
CONTINUOUS
 62
          15
100
AcDbCircle
 10
-4705.199912955963
 20
-2238.935080202372
 30
0.0
 40
0.5
100
AcDbArc
 50
173.59
 51
256.44017801742
  0
ARC
  5
1E3
100
AcDbEntity
  8
WHITE
  6
CONTINUOUS
 62
          15
100
AcDbCircle
 10
-4704.425785919411
 20
-2231.918841774724
 30
0.0
 40
1.0
100
AcDbArc
 50
83.59
 51
173.59
  0
ARC
  5
1E4
100
AcDbEntity
  8
WHITE
  6
CONTINUOUS
 62
          15
100
AcDbCircle
 10
-4707.886699567028
 20
-2262.725043694528
 30
0.0
 40
1.0
100
AcDbArc
 50
173.59
 51
263.59
  0
ARC
  5
1E5
100
AcDbEntity
  8
WHITE
  6
CONTINUOUS
 62
          15
100
AcDbCircle
 10
-4715.652017671667
 20
-2291.53823225001
 30
0.0
 40
1.500000000001
100
AcDbArc
 50
263.59
 51
353.589999999999
  0
ARC
  5
1E6
100
AcDbEntity
  8
WHITE
  6
CONTINUOUS
 62
          15
100
AcDbCircle
 10
-4740.495728897315
 20
-2288.747172856771
 30
0.0
 40
1.5
100
AcDbArc
 50
173.59
 51
263.59
  0
ARC
  5
1E7
100
AcDbEntity
  8
WHITE
  6
CONTINUOUS
 62
          15
100
AcDbCircle
 10
-4750.969359401142
 20
-2274.488734510678
 30
0.0
 40
1.5
100
AcDbArc
 50
83.59
 51
173.59
  0
ARC
  5
1E8
100
AcDbEntity
  8
WHITE
  6
CONTINUOUS
 62
          15
100
AcDbCircle
 10
-4752.643995037086
 20
-2289.394961246067
 30
0.0
 40
1.5
100
AcDbArc
 50
173.59
 51
263.59
  0
ARC
  5
1E9
100
AcDbEntity
  8
WHITE
  6
CONTINUOUS
 62
          15
100
AcDbCircle
 10
-4734.404976363317
 20
-2234.532311837307
 30
0.0
 40
2.0
100
AcDbArc
 50
85.59
 51
173.59
  0
TEXT
  5
1EA
100
AcDbEntity
  8
WHITE
  6
CONTINUOUS
 62
           7
100
AcDbText
 10
-4725.366870457069
 20
-2252.536342239166
 30
0.0
 40
4.0
  1
14
 50
-6.41
 41
0.955
  7
TXT
100
AcDbText
  0
ENDSEC
  0
SECTION
  2
OBJECTS
  0
DICTIONARY
  5
19
100
AcDbDictionary
  3
ACAD_GROUP
350
1A
  3
ACAD_MLINESTYLE
350
1B
  0
DICTIONARY
  5
1A
102
{ACAD_REACTORS
330
19
102
}
100
AcDbDictionary
  0
DICTIONARY
  5
1B
102
{ACAD_REACTORS
330
19
102
}
100
AcDbDictionary
  3
STANDARD
350
1C
  0
MLINESTYLE
  5
1C
102
{ACAD_REACTORS
330
1B
102
}
100
AcDbMlineStyle
  2
STANDARD
 70
           0
  3

 62
           0
 51
90.0
 52
90.0
 71
           2
 49
0.5
 62
         256
  6
BYLAYER
 49
-0.5
 62
         256
  6
BYLAYER
  0
ENDSEC
  0
EOF
