  0
SECTION
  2
HEADER
  9
$ACADVER
  1
AC1012
  9
$DWGCODEPAGE
  3
dos850
  9
$INSBASE
 10
0.0
 20
0.0
 30
0.0
  9
$EXTMIN
 10
-5085.0302536774
 20
-3229.94557682245
 30
0.0
  9
$EXTMAX
 10
-4466.45959063806
 20
-2707.43287785764
 30
0.0
  9
$LIMMIN
 10
-5085.0302536774
 20
-3229.94557682245
  9
$LIMMAX
 10
-4466.45959063806
 20
-2707.43287785764
  9
$ORTHOMODE
 70
           0
  9
$REGENMODE
 70
           1
  9
$FILLMODE
 70
           1
  9
$QTEXTMODE
 70
           0
  9
$MIRRTEXT
 70
           1
  9
$DRAGMODE
 70
           2
  9
$LTSCALE
 40
5.0
  9
$OSMODE
 70
           0
  9
$ATTMODE
 70
           1
  9
$TEXTSIZE
 40
0.2
  9
$TRACEWID
 40
0.05
  9
$TEXTSTYLE
  7
TXT
  9
$CLAYER
  8
0
  9
$CELTYPE
  6
CONTINUOUS
  9
$CECOLOR
 62
         256
  9
$CELTSCALE
 40
1.0
  9
$DELOBJ
 70
           1
  9
$DISPSILH
 70
           0
  9
$DIMSCALE
 40
1.0
  9
$DIMASZ
 40
3.5
  9
$DIMEXO
 40
0.0625
  9
$DIMDLI
 40
0.38
  9
$DIMRND
 40
0.0
  9
$DIMDLE
 40
0.0
  9
$DIMEXE
 40
0.18
  9
$DIMTP
 40
0.0
  9
$DIMTM
 40
0.0
  9
$DIMTXT
 40
3.5
  9
$DIMCEN
 40
0.09
  9
$DIMTSZ
 40
0.0
  9
$DIMTOL
 70
           0
  9
$DIMLIM
 70
           0
  9
$DIMTIH
 70
           1
  9
$DIMTOH
 70
           1
  9
$DIMSE1
 70
           0
  9
$DIMSE2
 70
           0
  9
$DIMTAD
 70
           0
  9
$DIMZIN
 70
           0
  9
$DIMBLK
  1

  9
$DIMASO
 70
           1
  9
$DIMSHO
 70
           1
  9
$DIMPOST
  1

  9
$DIMAPOST
  1

  9
$DIMALT
 70
           0
  9
$DIMALTD
 70
           2
  9
$DIMALTF
 40
25.4
  9
$DIMLFAC
 40
1.0
  9
$DIMTOFL
 70
           0
  9
$DIMTVP
 40
0.0
  9
$DIMTIX
 70
           0
  9
$DIMSOXD
 70
           0
  9
$DIMSAH
 70
           0
  9
$DIMBLK1
  1

  9
$DIMBLK2
  1

  9
$DIMSTYLE
  2
STANDARD
  9
$DIMCLRD
 70
           0
  9
$DIMCLRE
 70
           0
  9
$DIMCLRT
 70
           0
  9
$DIMTFAC
 40
1.0
  9
$DIMGAP
 40
0.09
  9
$DIMJUST
 70
           0
  9
$DIMSD1
 70
           0
  9
$DIMSD2
 70
           0
  9
$DIMTOLJ
 70
           1
  9
$DIMTZIN
 70
           0
  9
$DIMALTZ
 70
           0
  9
$DIMALTTZ
 70
           0
  9
$DIMFIT
 70
           3
  9
$DIMUPT
 70
           0
  9
$DIMUNIT
 70
           2
  9
$DIMDEC
 70
           4
  9
$DIMTDEC
 70
           4
  9
$DIMALTU
 70
           2
  9
$DIMALTTD
 70
           2
  9
$DIMTXSTY
  7
TXT
  9
$DIMAUNIT
 70
           0
  9
$LUNITS
 70
           2
  9
$LUPREC
 70
           2
  9
$SKETCHINC
 40
0.1
  9
$FILLETRAD
 40
0.0
  9
$AUNITS
 70
           0
  9
$AUPREC
 70
           2
  9
$MENU
  1
acad
  9
$ELEVATION
 40
0.0
  9
$PELEVATION
 40
0.0
  9
$THICKNESS
 40
0.0
  9
$LIMCHECK
 70
           0
  9
$BLIPMODE
 70
           1
  9
$CHAMFERA
 40
0.0
  9
$CHAMFERB
 40
0.0
  9
$CHAMFERC
 40
0.0
  9
$CHAMFERD
 40
0.0
  9
$SKPOLY
 70
           0
  9
$TDCREATE
 40
0.000000000
  9
$TDUPDATE
 40
0.000000000
  9
$TDINDWG
 40
0.0000000000
  9
$TDUSRTIMER
 40
0.0000000000
  9
$USRTIMER
 70
           1
  9
$ANGBASE
 50
0.0
  9
$ANGDIR
 70
           0
  9
$PDMODE
 70
           2
  9
$PDSIZE
 40
0.5
  9
$PLINEWID
 40
0.0
  9
$COORDS
 70
           0
  9
$SPLFRAME
 70
           0
  9
$SPLINETYPE
 70
           6
  9
$SPLINESEGS
 70
           8
  9
$ATTDIA
 70
           0
  9
$ATTREQ
 70
           1
  9
$HANDLING
 70
           1
  9
$HANDSEED
  5
21F
  9
$SURFTAB1
 70
           6
  9
$SURFTAB2
 70
           6
  9
$SURFTYPE
 70
           6
  9
$SURFU
 70
           6
  9
$SURFV
 70
           6
  9
$UCSNAME
  2

  9
$UCSORG
 10
0.0
 20
0.0
 30
0.0
  9
$UCSXDIR
 10
1.0
 20
0.0
 30
0.0
  9
$UCSYDIR
 10
0.0
 20
1.0
 30
0.0
  9
$PUCSNAME
  2

  9
$PUCSORG
 10
0.0
 20
0.0
 30
0.0
  9
$PUCSXDIR
 10
1.0
 20
0.0
 30
0.0
  9
$PUCSYDIR
 10
0.0
 20
1.0
 30
0.0
  9
$USERI1
 70
           0
  9
$USERI2
 70
           0
  9
$USERI3
 70
           0
  9
$USERI4
 70
           0
  9
$USERI5
 70
           0
  9
$USERR1
 40
0.0
  9
$USERR2
 40
0.0
  9
$USERR3
 40
0.0
  9
$USERR4
 40
0.0
  9
$USERR5
 40
0.0
  9
$WORLDVIEW
 70
           1
  9
$SHADEDGE
 70
           3
  9
$SHADEDIF
 70
          70
  9
$TILEMODE
 70
           1
  9
$MAXACTVP
 70
          16
  9
$PINSBASE
 10
0.0
 20
0.0
 30
0.0
  9
$PLIMCHECK
 70
           0
  9
$PEXTMIN
 10
1.000000000000E+20
 20
1.000000000000E+20
 30
1.000000000000E+20
  9
$PEXTMAX
 10
-1.000000000000E+20
 20
-1.000000000000E+20
 30
-1.000000000000E+20
  9
$PLIMMIN
 10
0.0
 20
0.0
  9
$PLIMMAX
 10
12.0
 20
9.0
  9
$UNITMODE
 70
           0
  9
$VISRETAIN
 70
           0
  9
$PLINEGEN
 70
           1
  9
$PSLTSCALE
 70
           0
  9
$TREEDEPTH
 70
        3020
  9
$PICKSTYLE
 70
           1
  9
$CMLSTYLE
  2
STANDARD
  9
$CMLJUST
 70
           0
  9
$CMLSCALE
 40
1.0
  9
$SAVEIMAGES
 70
           0
  0
ENDSEC
  0
SECTION
  2
CLASSES
  0
CLASS
  1
LWPOLYLINE
  2
AcDbPolyline
  3
"AutoCAD"
 90
        0
280
           0
281
           1
  0
CLASS
  1
IMAGE
  2
AcDbRasterImage
  3
ISM
 90
      127
280
           0
281
           1
  0
CLASS
  1
OLE2FRAME
  2
AcDbOle2Frame
  3
""
 90
        0
280
           0
281
           1
  0
CLASS
  1
HATCH
  2
AcDbHatch
  3
"ACAD_SEDONA"
 90
        0
280
           0
281
           1
  0
CLASS
  1
DICTIONARYVAR
  2
AcDbDictionaryVar
  3
"AutoCAD"
 90
        0
280
           0
281
           0
  0
CLASS
  1
RASTERVARIABLES
  2
AcDbRasterVariables
  3
ISM
 90
        0
280
           0
281
           0
  0
CLASS
  1
IMAGEDEF
  2
AcDbRasterImageDef
  3
ISM
 90
        0
280
           0
281
           0
  0
CLASS
  1
IMAGEDEF_REACTOR
  2
AcDbRasterImageDefReactor
  3
ISM
 90
        1
280
           0
281
           0
  0
CLASS
  1
IDBUFFER
  2
AcDbIdBuffer
  3
"Acad"
 90
        0
280
           0
281
           0
  0
CLASS
  1
SPATIAL_FILTER
  2
AcDbSpatialFilter
  3
"Acad"
 90
        0
280
           0
281
           0
  0
CLASS
  1
XRECORD
  2
AcDbXrecord
  3
"<Built In>"
 90
        0
280
           0
281
           0
  0
ENDSEC
  0
SECTION
  2
TABLES
  0
TABLE
  2
VPORT
  5
7
100
AcDbSymbolTable
 70
           1
  0
VPORT
  5
15
100
AcDbSymbolTableRecord
100
AcDbViewportTableRecord
  2
*ACTIVE
 70
           0
 10
0.0
 20
0.0
 11
1.0
 21
1.0
 12
6.591288
 22
4.579184
 13
0.0
 23
0.0
 14
1.0
 24
1.0
 15
0.0
 25
0.0
 16
0.0
 26
0.0
 36
1.0
 17
0.0
 27
0.0
 37
0.0
 40
9.158369
 41
0.688564
 42
50.0
 43
0.0
 44
0.0
 50
0.0
 51
0.0
 71
           0
 72
         100
 73
           1
 74
           1
 75
           0
 76
           0
 77
           0
 78
           0
  0
ENDTAB
  0
TABLE
  2
LTYPE
  5
4
100
AcDbSymbolTable
 70
           5
  0
LTYPE
  5
11
100
AcDbSymbolTableRecord
100
AcDbLinetypeTableRecord
  2
BYBLOCK
 70
           0
  3

 72
          65
 73
           0
 40
0.0
  0
LTYPE
  5
12
100
AcDbSymbolTableRecord
100
AcDbLinetypeTableRecord
  2
BYLAYER
 70
           0
  3

 72
          65
 73
           0
 40
0.0
  0
LTYPE
  5
13
100
AcDbSymbolTableRecord
100
AcDbLinetypeTableRecord
  2
CONTINUOUS
 70
           0
  3
Solid line
 72
          65
 73
           0
 40
0.0
  0
LTYPE
  5
1D
100
AcDbSymbolTableRecord
100
AcDbLinetypeTableRecord
  2
GESTRICHELT
 70
           0
  3

 72
          65
 73
           2
 40
0.75
 49
0.5
 74
           0
 49
-0.25
 74
           0
  0
LTYPE
  5
1E
100
AcDbSymbolTableRecord
100
AcDbLinetypeTableRecord
  2
STRICHPUNKT
 70
           0
  3

 72
          65
 73
           4
 40
1.0
 49
0.5
 74
           0
 49
-0.25
 74
           0
 49
0.0
 74
           0
 49
-0.25
 74
           0
  0
ENDTAB
  0
TABLE
  2
LAYER
  5
2
100
AcDbSymbolTable
 70
           3
  0
LAYER
  5
14
100
AcDbSymbolTableRecord
100
AcDbLayerTableRecord
  2
0
 70
           0
 62
           7
  6
CONTINUOUS
  0
LAYER
  5
20
100
AcDbSymbolTableRecord
100
AcDbLayerTableRecord
  2
BLACK
 70
           0
 62
           7
  6
CONTINUOUS
  0
LAYER
  5
21
100
AcDbSymbolTableRecord
100
AcDbLayerTableRecord
  2
WHITE
 70
           0
 62
           7
  6
CONTINUOUS
  0
ENDTAB
  0
TABLE
  2
STYLE
  5
3
100
AcDbSymbolTable
 70
           2
  0
STYLE
  5
17
100
AcDbSymbolTableRecord
100
AcDbTextStyleTableRecord
  2
TXT
 70
           0
 40
3.5
 41
1.0
 50
0.0
 71
           0
 42
3.5
  3
TXT
  4

  0
STYLE
  5
1F
100
AcDbSymbolTableRecord
100
AcDbTextStyleTableRecord
  2
GOTHICG
 70
           0
 40
3.5
 41
1.0
 50
0.0
 71
           0
 42
3.5
  3
GOTHICG
  4

  0
ENDTAB
  0
TABLE
  2
VIEW
  5
5
100
AcDbSymbolTable
 70
           0
  0
ENDTAB
  0
TABLE
  2
UCS
  5
6
100
AcDbSymbolTable
 70
           0
  0
ENDTAB
  0
TABLE
  2
APPID
  5
8
100
AcDbSymbolTable
 70
           2
  0
APPID
  5
16
100
AcDbSymbolTableRecord
100
AcDbRegAppTableRecord
  2
ACAD
 70
           0
  0
APPID
  5
22
100
AcDbSymbolTableRecord
100
AcDbRegAppTableRecord
  2
MegaCADPntStyle
 70
           0
  0
ENDTAB
  0
TABLE
  2
DIMSTYLE
  5
9
100
AcDbSymbolTable
 70
           1
  0
DIMSTYLE
105
18
100
AcDbSymbolTableRecord
100
AcDbDimStyleTableRecord
  2
STANDARD
 70
           0
  3

  4

  5

  6

  7

 40
1.0
 41
0.18
 42
0.0625
 43
0.38
 44
0.18
 45
0.0
 46
0.0
 47
0.0
 48
0.0
140
0.18
141
0.09
142
0.0
143
25.4
144
1.0
145
0.0
146
1.0
147
0.09
 71
           0
 72
           0
 73
           1
 74
           1
 75
           0
 76
           0
 77
           0
 78
           0
170
           0
171
           2
172
           0
173
           0
174
           0
175
           0
176
           0
177
           0
178
           0
270
           2
271
           4
272
           4
273
           2
274
           2
340
17
275
           0
280
           0
281
           0
282
           0
283
           1
284
           0
285
           0
286
           0
287
           0
288
           0
  0
ENDTAB
  0
TABLE
  2
BLOCK_RECORD
  5
1
100
AcDbSymbolTable
 70
           2
  0
BLOCK_RECORD
  5
A
100
AcDbSymbolTableRecord
100
AcDbBlockTableRecord
  2
*MODEL_SPACE
  0
BLOCK_RECORD
  5
B
100
AcDbSymbolTableRecord
100
AcDbBlockTableRecord
  2
*PAPER_SPACE
  0
BLOCK_RECORD
  5
23
100
AcDbSymbolTableRecord
100
AcDbBlockTableRecord
  2
ELIPPSE
  0
BLOCK_RECORD
  5
24
100
AcDbSymbolTableRecord
100
AcDbBlockTableRecord
  2
MAK1
  0
ENDTAB
  0
ENDSEC
  0
SECTION
  2
BLOCKS
  0
BLOCK
  5
D
100
AcDbEntity
  8
0
100
AcDbBlockBegin
  2
*MODEL_SPACE
 70
           0
 10
0.0
 20
0.0
 30
0.0
  3
*MODEL_SPACE
  1

  0
ENDBLK
  5
E
100
AcDbEntity
  8
0
100
AcDbBlockEnd
  0
BLOCK
  5
F
100
AcDbEntity
 67
           1
  8
0
100
AcDbBlockBegin
  2
*PAPER_SPACE
 70
           0
 10
0.0
 20
0.0
 30
0.0
  3
*PAPER_SPACE
  1

  0
ENDBLK
  5
10
100
AcDbEntity
 67
           1
  8
0
100
AcDbBlockEnd
  0
BLOCK
  5
1EE
100
AcDbEntity
  8
0
100
AcDbBlockBegin
  2
ELIPPSE
 70
          64
 10
0.0
 20
0.0
 30
0.0
  3
ELIPPSE
  1

  0
CIRCLE
  5
1EF
100
AcDbEntity
  8
0
  6
BYBLOCK
 62
           0
100
AcDbCircle
 10
0.0
 20
0.0
 30
0.0
 40
1.0
  0
ENDBLK
  5
1F0
100
AcDbEntity
  8
0
  6
BYBLOCK
 62
           0
100
AcDbBlockEnd
  0
BLOCK
  5
1F1
100
AcDbEntity
  8
0
100
AcDbBlockBegin
  2
MAK1
 70
          64
 10
0.0
 20
0.0
 30
0.0
  3
MAK1
  1

  0
LINE
  5
1F2
100
AcDbEntity
  8
WHITE
  6
CONTINUOUS
 62
           2
100
AcDbLine
 10
-15.506932297429
 20
611.597948837689
 30
0.0
 11
-15.596491646588
 21
611.687508186849
 31
0.0
  0
LINE
  5
1F3
100
AcDbEntity
  8
WHITE
  6
CONTINUOUS
 62
           2
100
AcDbLine
 10
-14.446272125649
 20
611.597948837689
 30
0.0
 11
-15.596491646588
 21
612.748168358628
 31
0.0
  0
LINE
  5
1F4
100
AcDbEntity
  8
WHITE
  6
CONTINUOUS
 62
           2
100
AcDbLine
 10
-13.596491646588
 20
611.808828530408
 30
0.0
 11
-15.596491646588
 21
613.808828530408
 31
0.0
  0
LINE
  5
1F5
100
AcDbEntity
  8
WHITE
  6
CONTINUOUS
 62
           2
100
AcDbLine
 10
-13.596491646589
 20
612.869488702187
 30
0.0
 11
-15.596491646589
 21
614.869488702187
 31
0.0
  0
LINE
  5
1F6
100
AcDbEntity
  8
WHITE
  6
CONTINUOUS
 62
           2
100
AcDbLine
 10
-13.596491646589
 20
613.930148873968
 30
0.0
 11
-15.596491646587
 21
615.930148873968
 31
0.0
  0
LINE
  5
1F7
100
AcDbEntity
  8
WHITE
  6
CONTINUOUS
 62
           2
100
AcDbLine
 10
-13.596491646588
 20
614.990809045748
 30
0.0
 11
-15.596491646589
 21
616.990809045747
 31
0.0
  0
LINE
  5
1F8
100
AcDbEntity
  8
WHITE
  6
CONTINUOUS
 62
           2
100
AcDbLine
 10
-13.596491646588
 20
616.051469217527
 30
0.0
 11
-15.596491646588
 21
618.051469217527
 31
0.0
  0
LINE
  5
1F9
100
AcDbEntity
  8
WHITE
  6
CONTINUOUS
 62
           2
100
AcDbLine
 10
-13.596491646588
 20
617.112129389307
 30
0.0
 11
-15.596491646588
 21
619.112129389307
 31
0.0
  0
LINE
  5
1FA
100
AcDbEntity
  8
WHITE
  6
CONTINUOUS
 62
           2
100
AcDbLine
 10
-13.596491646589
 20
618.172789561087
 30
0.0
 11
-15.596491646588
 21
620.172789561087
 31
0.0
  0
LINE
  5
1FB
100
AcDbEntity
  8
WHITE
  6
CONTINUOUS
 62
           2
100
AcDbLine
 10
-13.596491646588
 20
619.233449732867
 30
0.0
 11
-15.596491646589
 21
621.233449732866
 31
0.0
  0
LINE
  5
1FC
100
AcDbEntity
  8
WHITE
  6
CONTINUOUS
 62
           2
100
AcDbLine
 10
-13.596491646589
 20
620.294109904646
 30
0.0
 11
-15.596491646588
 21
622.294109904647
 31
0.0
  0
LINE
  5
1FD
100
AcDbEntity
  8
WHITE
  6
CONTINUOUS
 62
           2
100
AcDbLine
 10
-13.596491646588
 20
621.354770076426
 30
0.0
 11
-15.596491646587
 21
623.354770076426
 31
0.0
  0
LINE
  5
1FE
100
AcDbEntity
  8
WHITE
  6
CONTINUOUS
 62
           2
100
AcDbLine
 10
-13.596491646588
 20
622.415430248207
 30
0.0
 11
-15.596491646589
 21
624.415430248206
 31
0.0
  0
LINE
  5
1FF
100
AcDbEntity
  8
WHITE
  6
CONTINUOUS
 62
           2
100
AcDbLine
 10
-13.596491646588
 20
623.476090419986
 30
0.0
 11
-15.596491646588
 21
625.476090419986
 31
0.0
  0
LINE
  5
200
100
AcDbEntity
  8
WHITE
  6
CONTINUOUS
 62
           2
100
AcDbLine
 10
-13.596491646588
 20
624.536750591766
 30
0.0
 11
-15.596491646588
 21
626.536750591765
 31
0.0
  0
LINE
  5
201
100
AcDbEntity
  8
WHITE
  6
CONTINUOUS
 62
           2
100
AcDbLine
 10
-13.596491646589
 20
625.597410763545
 30
0.0
 11
-15.596491646589
 21
627.597410763545
 31
0.0
  0
LINE
  5
202
100
AcDbEntity
  8
WHITE
  6
CONTINUOUS
 62
           2
100
AcDbLine
 10
-13.596491646588
 20
626.658070935325
 30
0.0
 11
-15.596491646589
 21
628.658070935325
 31
0.0
  0
LINE
  5
203
100
AcDbEntity
  8
WHITE
  6
CONTINUOUS
 62
           2
100
AcDbLine
 10
-13.596491646589
 20
627.718731107105
 30
0.0
 11
-15.596491646588
 21
629.718731107104
 31
0.0
  0
LINE
  5
204
100
AcDbEntity
  8
WHITE
  6
CONTINUOUS
 62
           2
100
AcDbLine
 10
-13.596491646588
 20
628.779391278884
 30
0.0
 11
-15.596491646587
 21
630.779391278885
 31
0.0
  0
LINE
  5
205
100
AcDbEntity
  8
WHITE
  6
CONTINUOUS
 62
           2
100
AcDbLine
 10
-13.596491646588
 20
629.840051450665
 30
0.0
 11
-15.354389033612
 21
631.597948837688
 31
0.0
  0
LINE
  5
206
100
AcDbEntity
  8
WHITE
  6
CONTINUOUS
 62
           2
100
AcDbLine
 10
-13.596491646588
 20
630.900711622444
 30
0.0
 11
-14.293728861832
 21
631.597948837689
 31
0.0
  0
LINE
  5
207
100
AcDbEntity
  8
WHITE
  6
CONTINUOUS
 62
           2
100
AcDbLine
 10
-15.596491646589
 20
631.406213139101
 30
0.0
 11
-15.404755948002
 21
631.597948837689
 31
0.0
  0
LINE
  5
208
100
AcDbEntity
  8
WHITE
  6
CONTINUOUS
 62
           2
100
AcDbLine
 10
-15.596491646589
 20
630.345552967321
 30
0.0
 11
-14.344095776221
 21
631.597948837688
 31
0.0
  0
LINE
  5
209
100
AcDbEntity
  8
WHITE
  6
CONTINUOUS
 62
           2
100
AcDbLine
 10
-15.596491646588
 20
629.284892795542
 30
0.0
 11
-13.596491646588
 21
631.284892795542
 31
0.0
  0
LINE
  5
20A
100
AcDbEntity
  8
WHITE
  6
CONTINUOUS
 62
           2
100
AcDbLine
 10
-15.596491646588
 20
628.224232623762
 30
0.0
 11
-13.596491646588
 21
630.224232623762
 31
0.0
  0
LINE
  5
20B
100
AcDbEntity
  8
WHITE
  6
CONTINUOUS
 62
           2
100
AcDbLine
 10
-15.596491646588
 20
627.163572451982
 30
0.0
 11
-13.596491646589
 21
629.163572451982
 31
0.0
  0
LINE
  5
20C
100
AcDbEntity
  8
WHITE
  6
CONTINUOUS
 62
           2
100
AcDbLine
 10
-15.596491646588
 20
626.102912280202
 30
0.0
 11
-13.596491646588
 21
628.102912280202
 31
0.0
  0
LINE
  5
20D
100
AcDbEntity
  8
WHITE
  6
CONTINUOUS
 62
           2
100
AcDbLine
 10
-15.596491646587
 20
625.042252108422
 30
0.0
 11
-13.596491646588
 21
627.042252108422
 31
0.0
  0
LINE
  5
20E
100
AcDbEntity
  8
WHITE
  6
CONTINUOUS
 62
           2
100
AcDbLine
 10
-15.596491646589
 20
623.981591936642
 30
0.0
 11
-13.596491646589
 21
625.981591936643
 31
0.0
  0
LINE
  5
20F
100
AcDbEntity
  8
WHITE
  6
CONTINUOUS
 62
           2
100
AcDbLine
 10
-15.596491646589
 20
622.920931764862
 30
0.0
 11
-13.596491646589
 21
624.920931764863
 31
0.0
  0
LINE
  5
210
100
AcDbEntity
  8
WHITE
  6
CONTINUOUS
 62
           2
100
AcDbLine
 10
-15.596491646588
 20
621.860271593083
 30
0.0
 11
-13.596491646588
 21
623.860271593082
 31
0.0
  0
LINE
  5
211
100
AcDbEntity
  8
WHITE
  6
CONTINUOUS
 62
           2
100
AcDbLine
 10
-15.596491646588
 20
620.799611421303
 30
0.0
 11
-13.596491646588
 21
622.799611421303
 31
0.0
  0
LINE
  5
212
100
AcDbEntity
  8
WHITE
  6
CONTINUOUS
 62
           2
100
AcDbLine
 10
-15.596491646588
 20
619.738951249524
 30
0.0
 11
-13.596491646589
 21
621.738951249523
 31
0.0
  0
LINE
  5
213
100
AcDbEntity
  8
WHITE
  6
CONTINUOUS
 62
           2
100
AcDbLine
 10
-15.596491646588
 20
618.678291077744
 30
0.0
 11
-13.596491646588
 21
620.678291077744
 31
0.0
  0
LINE
  5
214
100
AcDbEntity
  8
WHITE
  6
CONTINUOUS
 62
           2
100
AcDbLine
 10
-15.596491646587
 20
617.617630905964
 30
0.0
 11
-13.596491646589
 21
619.617630905964
 31
0.0
  0
LINE
  5
215
100
AcDbEntity
  8
WHITE
  6
CONTINUOUS
 62
           2
100
AcDbLine
 10
-15.596491646589
 20
616.556970734183
 30
0.0
 11
-13.596491646589
 21
618.556970734184
 31
0.0
  0
LINE
  5
216
100
AcDbEntity
  8
WHITE
  6
CONTINUOUS
 62
           2
100
AcDbLine
 10
-15.596491646588
 20
615.496310562404
 30
0.0
 11
-13.596491646589
 21
617.496310562405
 31
0.0
  0
LINE
  5
217
100
AcDbEntity
  8
WHITE
  6
CONTINUOUS
 62
           2
100
AcDbLine
 10
-15.596491646588
 20
614.435650390625
 30
0.0
 11
-13.596491646588
 21
616.435650390624
 31
0.0
  0
LINE
  5
218
100
AcDbEntity
  8
WHITE
  6
CONTINUOUS
 62
           2
100
AcDbLine
 10
-15.596491646588
 20
613.374990218845
 30
0.0
 11
-13.596491646588
 21
615.374990218845
 31
0.0
  0
LINE
  5
219
100
AcDbEntity
  8
WHITE
  6
CONTINUOUS
 62
           2
100
AcDbLine
 10
-15.596491646588
 20
612.314330047065
 30
0.0
 11
-13.596491646589
 21
614.314330047065
 31
0.0
  0
LINE
  5
21A
100
AcDbEntity
  8
WHITE
  6
CONTINUOUS
 62
           2
100
AcDbLine
 10
-15.252212684185
 20
611.597948837688
 30
0.0
 11
-13.596491646587
 21
613.253669875285
 31
0.0
  0
LINE
  5
21B
100
AcDbEntity
  8
WHITE
  6
CONTINUOUS
 62
           2
100
AcDbLine
 10
-14.191552512405
 20
611.597948837689
 30
0.0
 11
-13.596491646589
 21
612.193009703506
 31
0.0
  0
ENDBLK
  5
21C
100
AcDbEntity
  8
0
  6
BYBLOCK
 62
           0
100
AcDbBlockEnd
  0
ENDSEC
  0
SECTION
  2
ENTITIES
  0
INSERT
  5
25
100
AcDbEntity
  8
0
  6
CONTINUOUS
 62
           7
100
AcDbBlockReference
  2
MAK1
 10
-4785.802450955267
 20
-3566.070153690328
 30
0.0
 50
353.589999999999
  0
LINE
  5
26
100
AcDbEntity
  8
0
  6
CONTINUOUS
 62
          15
100
AcDbLine
 10
-5078.0302536774
 20
-2707.43287785764
 30
0.0
 11
-4727.70923959872
 21
-2707.43287785764
 31
0.0
  0
LINE
  5
27
100
AcDbEntity
  8
0
  6
CONTINUOUS
 62
          15
100
AcDbLine
 10
-4727.70923959872
 20
-3008.689288340045
 30
0.0
 11
-4727.70923959872
 21
-3229.94557682245
 31
0.0
  0
LINE
  5
28
100
AcDbEntity
  8
0
  6
GESTRICHELT
 62
          15
100
AcDbLine
 10
-4727.70923959872
 20
-2911.666833267023
 30
0.0
 11
-4727.70923959872
 21
-3008.689288340045
 31
0.0
  0
LINE
  5
29
100
AcDbEntity
  8
0
  6
CONTINUOUS
 62
          15
100
AcDbLine
 10
-4727.70923959872
 20
-2707.43287785764
 30
0.0
 11
-4727.70923959872
 21
-2911.666833267023
 31
0.0
  0
LINE
  5
2A
100
AcDbEntity
  8
0
  6
CONTINUOUS
 62
          15
100
AcDbLine
 10
-4727.70923959872
 20
-3229.94557682245
 30
0.0
 11
-5078.0302536774
 21
-3229.94557682245
 31
0.0
  0
LINE
  5
2B
100
AcDbEntity
  8
0
  6
CONTINUOUS
 62
          15
100
AcDbLine
 10
-5078.0302536774
 20
-2943.689227340045
 30
0.0
 11
-5078.0302536774
 21
-2707.43287785764
 31
0.0
  0
LINE
  5
2C
100
AcDbEntity
  8
0
  6
GESTRICHELT
 62
          15
100
AcDbLine
 10
-5078.0302536774
 20
-2993.689227340045
 30
0.0
 11
-5078.0302536774
 21
-2943.689227340045
 31
0.0
  0
LINE
  5
2D
100
AcDbEntity
  8
0
  6
CONTINUOUS
 62
          15
100
AcDbLine
 10
-5078.0302536774
 20
-3229.94557682245
 30
0.0
 11
-5078.0302536774
 21
-2993.689227340045
 31
0.0
  0
LINE
  5
2E
100
AcDbEntity
  8
0
  6
STRICHPUNKT
 62
          15
100
AcDbLine
 10
-4902.86974663806
 20
-2707.43287785764
 30
0.0
 11
-4902.86974663806
 21
-3229.94557682245
 31
0.0
  0
LINE
  5
2F
100
AcDbEntity
  8
0
  6
GESTRICHELT
 62
          15
100
AcDbLine
 10
-5078.0302536774
 20
-2968.689227340045
 30
0.0
 11
-4727.70923959872
 21
-2968.689227340045
 31
0.0
  0
LINE
  5
30
100
AcDbEntity
  8
WHITE
  6
GESTRICHELT
 62
          15
100
AcDbLine
 10
-4876.286172387964
 20
-2993.689213905254
 30
0.0
 11
-4881.71405716306
 21
-2993.689213396787
 31
0.0
  0
CIRCLE
  5
31
100
AcDbEntity
  8
0
  6
CONTINUOUS
 62
          15
100
AcDbCircle
 10
-4902.86974663806
 20
-2968.689227340045
 30
0.0
 40
15.25
  0
LINE
  5
32
100
AcDbEntity
  8
0
  6
GESTRICHELT
 62
          15
100
AcDbLine
 10
-4720.70923959872
 20
-2943.689227340045
 30
0.0
 11
-4720.70923959872
 21
-2993.689227340045
 31
0.0
  0
LINE
  5
33
100
AcDbEntity
  8
0
  6
CONTINUOUS
 62
          15
100
AcDbLine
 10
-5085.0302536774
 20
-2993.689227340045
 30
0.0
 11
-5085.0302536774
 21
-2943.689227340045
 31
0.0
  0
LINE
  5
34
100
AcDbEntity
  8
0
  6
GESTRICHELT
 62
          15
100
AcDbLine
 10
-4962.86974663806
 20
-2993.689227340045
 30
0.0
 11
-4720.70923959872
 21
-2993.689227340045
 31
0.0
  0
LINE
  5
35
100
AcDbEntity
  8
0
  6
CONTINUOUS
 62
          15
100
AcDbLine
 10
-5085.0302536774
 20
-2993.689227340045
 30
0.0
 11
-4962.86974663806
 21
-2993.689227340045
 31
0.0
  0
LINE
  5
36
100
AcDbEntity
  8
0
  6
GESTRICHELT
 62
          15
100
AcDbLine
 10
-4962.86974663806
 20
-2943.689227340045
 30
0.0
 11
-4720.70923959872
 21
-2943.689227340045
 31
0.0
  0
LINE
  5
37
100
AcDbEntity
  8
0
  6
CONTINUOUS
 62
          15
100
AcDbLine
 10
-5085.0302536774
 20
-2943.689227340045
 30
0.0
 11
-4962.86974663806
 21
-2943.689227340045
 31
0.0
  0
TEXT
  5
38
100
AcDbEntity
  8
0
  6
CONTINUOUS
 62
          15
100
AcDbText
 10
-5013.363134214445
 20
-3164.36880563759
 30
0.0
 40
3.5
  1
400-730
 41
0.900000010218
  7
GOTHICG
100
AcDbText
  0
ARC
  5
39
100
AcDbEntity
  8
0
  6
GESTRICHELT
 62
          15
100
AcDbCircle
 10
-4902.86974663806
 20
-2968.689227340045
 30
0.0
 40
22.5
100
AcDbArc
 50
75.931192584764
 51
221.039680347967
  0
CIRCLE
  5
3A
100
AcDbEntity
  8
0
  6
CONTINUOUS
 62
          15
100
AcDbCircle
 10
-4506.45959063806
 20
-2968.689227340045
 30
0.0
 40
6.25
  0
LINE
  5
3B
100
AcDbEntity
  8
0
  6
GESTRICHELT
 62
          15
100
AcDbLine
 10
-4773.247724679866
 20
-2928.689224954775
 30
0.0
 11
-4962.86974663806
 21
-2928.689302687819
 31
0.0
  0
LINE
  5
3C
100
AcDbEntity
  8
0
  6
CONTINUOUS
 62
          15
100
AcDbLine
 10
-4764.607721143875
 20
-2928.689221412919
 30
0.0
 11
-4773.247724679866
 21
-2928.689224954775
 31
0.0
  0
LINE
  5
3D
100
AcDbEntity
  8
0
  6
GESTRICHELT
 62
          15
100
AcDbLine
 10
-4580.669222045775
 20
-2928.68914600976
 30
0.0
 11
-4764.607721143875
 21
-2928.689221412919
 31
0.0
  0
LINE
  5
3E
100
AcDbEntity
  8
0
  6
CONTINUOUS
 62
          15
100
AcDbLine
 10
-4466.45959063806
 20
-2928.68909919103
 30
0.0
 11
-4580.669222045775
 21
-2928.68914600976
 31
0.0
  0
LINE
  5
3F
100
AcDbEntity
  8
0
  6
CONTINUOUS
 62
          15
100
AcDbLine
 10
-4962.86974663806
 20
-3008.689288340045
 30
0.0
 11
-4466.45959063806
 21
-3008.689288340045
 31
0.0
  0
LINE
  5
40
100
AcDbEntity
  8
0
  6
CONTINUOUS
 62
          15
100
AcDbLine
 10
-4466.45959063806
 20
-3008.689288340045
 30
0.0
 11
-4466.45959063806
 21
-2928.68909919103
 31
0.0
  0
LINE
  5
41
100
AcDbEntity
  8
0
  6
CONTINUOUS
 62
          15
100
AcDbLine
 10
-4962.86974663806
 20
-2934.031990297729
 30
0.0
 11
-4962.86974663806
 21
-3008.689288340045
 31
0.0
  0
LINE
  5
42
100
AcDbEntity
  8
0
  6
GESTRICHELT
 62
          15
100
AcDbLine
 10
-4962.86974663806
 20
-2928.689302687819
 30
0.0
 11
-4962.86974663806
 21
-2934.031990297729
 31
0.0
  0
LINE
  5
43
100
AcDbEntity
  8
WHITE
  6
CONTINUOUS
 62
          15
100
AcDbLine
 10
-4938.571199272848
 20
-2936.279570922071
 30
0.0
 11
-4938.57863908798
 21
-2936.515868796057
 31
0.0
  0
LINE
  5
44
100
AcDbEntity
  8
BLACK
  6
GESTRICHELT
 62
          15
100
AcDbLine
 10
-4529.319703603325
 20
-2966.156155158786
 30
0.0
 11
-4527.086856088734
 21
-2946.281186178267
 31
0.0
  0
LINE
  5
45
100
AcDbEntity
  8
BLACK
  6
GESTRICHELT
 62
          15
100
AcDbLine
 10
-4527.086856088734
 20
-2946.281186178267
 30
0.0
 11
-4531.061849884838
 21
-2945.834616675349
 31
0.0
  0
LINE
  5
46
100
AcDbEntity
  8
BLACK
  6
CONTINUOUS
 62
          15
100
AcDbLine
 10
-4529.722141376083
 20
-2933.909635287038
 30
0.0
 11
-4559.137095467249
 21
-2930.605020965442
 31
0.0
  0
LINE
  5
47
100
AcDbEntity
  8
BLACK
  6
CONTINUOUS
 62
          15
100
AcDbLine
 10
-4559.137095467249
 20
-2930.605020965442
 30
0.0
 11
-4559.192916655115
 21
-2931.101895189955
 31
0.0
  0
LINE
  5
48
100
AcDbEntity
  8
BLACK
  6
CONTINUOUS
 62
          15
100
AcDbLine
 10
-4559.192916655115
 20
-2931.101895189955
 30
0.0
 11
-4705.075188972123
 21
-2914.712794432854
 31
0.0
  0
LINE
  5
49
100
AcDbEntity
  8
BLACK
  6
CONTINUOUS
 62
          15
100
AcDbLine
 10
-4705.075188972123
 20
-2914.712794432854
 30
0.0
 11
-4705.019367784258
 21
-2914.21592020834
 31
0.0
  0
LINE
  5
4A
100
AcDbEntity
  8
BLACK
  6
CONTINUOUS
 62
          15
100
AcDbLine
 10
-4705.019367784258
 20
-2914.21592020834
 30
0.0
 11
-4734.434321875426
 21
-2910.911305886745
 31
0.0
  0
LINE
  5
4B
100
AcDbEntity
  8
BLACK
  6
CONTINUOUS
 62
          15
100
AcDbLine
 10
-4734.434321875426
 20
-2910.911305886745
 30
0.0
 11
-4735.77403038418
 21
-2922.836287275056
 31
0.0
  0
LINE
  5
4C
100
AcDbEntity
  8
BLACK
  6
CONTINUOUS
 62
          15
100
AcDbLine
 10
-4735.77403038418
 20
-2922.836287275056
 30
0.0
 11
-4747.202137547979
 21
-2921.552399954166
 31
0.0
  0
LINE
  5
4D
100
AcDbEntity
  8
BLACK
  6
CONTINUOUS
 62
          15
100
AcDbLine
 10
-4747.202137547979
 20
-2921.552399954166
 30
0.0
 11
-4747.313779923708
 21
-2922.546148403192
 31
0.0
  0
LINE
  5
4E
100
AcDbEntity
  8
BLACK
  6
CONTINUOUS
 62
          15
100
AcDbLine
 10
-4747.313779923708
 20
-2922.546148403192
 30
0.0
 11
-4763.710629332637
 21
-2920.704049203654
 31
0.0
  0
LINE
  5
4F
100
AcDbEntity
  8
BLACK
  6
CONTINUOUS
 62
          15
100
AcDbLine
 10
-4763.710629332637
 20
-2920.704049203654
 30
0.0
 11
-4767.95303961036
 21
-2958.46649026664
 31
0.0
  0
LINE
  5
50
100
AcDbEntity
  8
BLACK
  6
CONTINUOUS
 62
          15
100
AcDbLine
 10
-4767.95303961036
 20
-2958.46649026664
 30
0.0
 11
-4751.556190201432
 21
-2960.308589466178
 31
0.0
  0
LINE
  5
51
100
AcDbEntity
  8
BLACK
  6
CONTINUOUS
 62
          15
100
AcDbLine
 10
-4751.556190201432
 20
-2960.308589466178
 30
0.0
 11
-4751.667832577163
 21
-2961.302337915203
 31
0.0
  0
LINE
  5
52
100
AcDbEntity
  8
BLACK
  6
CONTINUOUS
 62
          15
100
AcDbLine
 10
-4751.667832577163
 20
-2961.302337915203
 30
0.0
 11
-4740.239725413364
 21
-2962.586225236094
 31
0.0
  0
LINE
  5
53
100
AcDbEntity
  8
BLACK
  6
CONTINUOUS
 62
          15
100
AcDbLine
 10
-4740.239725413364
 20
-2962.586225236094
 30
0.0
 11
-4741.579433922119
 21
-2974.511206624405
 31
0.0
  0
LINE
  5
54
100
AcDbEntity
  8
BLACK
  6
GESTRICHELT
 62
          15
100
AcDbLine
 10
-4731.64194943186
 20
-2975.627630381701
 30
0.0
 11
-4712.164479830951
 21
-2977.815820946
 31
0.0
  0
LINE
  5
55
100
AcDbEntity
  8
BLACK
  6
CONTINUOUS
 62
          15
100
AcDbLine
 10
-4741.579433922119
 20
-2974.511206624405
 30
0.0
 11
-4731.64194943186
 21
-2975.627630381701
 31
0.0
  0
LINE
  5
56
100
AcDbEntity
  8
BLACK
  6
GESTRICHELT
 62
          15
100
AcDbLine
 10
-4712.164479830951
 20
-2977.815820946
 30
0.0
 11
-4712.108658643087
 21
-2977.318946721488
 31
0.0
  0
LINE
  5
57
100
AcDbEntity
  8
BLACK
  6
CONTINUOUS
 62
          15
100
AcDbLine
 10
-4703.761171671269
 20
-2978.256742677615
 30
0.0
 11
-4566.226386326078
 21
-2993.708047478589
 31
0.0
  0
LINE
  5
58
100
AcDbEntity
  8
BLACK
  6
GESTRICHELT
 62
          15
100
AcDbLine
 10
-4712.108658643087
 20
-2977.318946721488
 30
0.0
 11
-4703.761171671269
 21
-2978.256742677615
 31
0.0
  0
LINE
  5
59
100
AcDbEntity
  8
BLACK
  6
CONTINUOUS
 62
          15
100
AcDbLine
 10
-4566.226386326078
 20
-2993.708047478589
 30
0.0
 11
-4566.282207513943
 21
-2994.204921703102
 31
0.0
  0
LINE
  5
5A
100
AcDbEntity
  8
BLACK
  6
CONTINUOUS
 62
          15
100
AcDbLine
 10
-4566.282207513943
 20
-2994.204921703102
 30
0.0
 11
-4536.867253422775
 21
-2997.509536024697
 31
0.0
  0
LINE
  5
5B
100
AcDbEntity
  8
BLACK
  6
GESTRICHELT
 62
          15
100
AcDbLine
 10
-4535.527544914021
 20
-2985.584554636387
 30
0.0
 11
-4531.552551117917
 21
-2986.031124139304
 31
0.0
  0
LINE
  5
5C
100
AcDbEntity
  8
BLACK
  6
GESTRICHELT
 62
          15
100
AcDbLine
 10
-4531.552551117917
 20
-2986.031124139304
 30
0.0
 11
-4529.319703603325
 21
-2966.156155158786
 31
0.0
  0
LINE
  5
5D
100
AcDbEntity
  8
BLACK
  6
CONTINUOUS
 62
          15
100
AcDbLine
 10
-4559.192916655115
 20
-2931.101895189955
 30
0.0
 11
-4566.226386326078
 21
-2993.708047478589
 31
0.0
  0
LINE
  5
5E
100
AcDbEntity
  8
BLACK
  6
GESTRICHELT
 62
          15
100
AcDbLine
 10
-4707.588347588568
 20
-2937.082861899867
 30
0.0
 11
-4712.108658643087
 21
-2977.318946721488
 31
0.0
  0
LINE
  5
5F
100
AcDbEntity
  8
BLACK
  6
CONTINUOUS
 62
          15
100
AcDbLine
 10
-4705.075188972123
 20
-2914.712794432854
 30
0.0
 11
-4707.588347588568
 21
-2937.082861899867
 31
0.0
  0
LINE
  5
60
100
AcDbEntity
  8
BLACK
  6
CONTINUOUS
 62
          15
100
AcDbLine
 10
-4735.77403038418
 20
-2922.836287275056
 30
0.0
 11
-4740.239725413364
 21
-2962.586225236094
 31
0.0
  0
LINE
  5
61
100
AcDbEntity
  8
BLACK
  6
CONTINUOUS
 62
          15
100
AcDbLine
 10
-4747.202137547979
 20
-2921.552399954166
 30
0.0
 11
-4751.667832577163
 21
-2961.302337915203
 31
0.0
  0
LINE
  5
62
100
AcDbEntity
  8
BLACK
  6
GESTRICHELT
 62
          15
100
AcDbLine
 10
-4880.655037764878
 20
-2918.635163875903
 30
0.0
 11
-4905.047189918983
 21
-2915.894834753064
 31
0.0
  0
LINE
  5
63
100
AcDbEntity
  8
BLACK
  6
CONTINUOUS
 62
          15
100
AcDbLine
 10
-4874.161587498103
 20
-2919.364668626502
 30
0.0
 11
-4880.655037764878
 21
-2918.635163875903
 31
0.0
  0
LINE
  5
64
100
AcDbEntity
  8
BLACK
  6
GESTRICHELT
 62
          15
100
AcDbLine
 10
-4882.441315776551
 20
-2934.535139060318
 30
0.0
 11
-4906.833467930657
 21
-2931.794809937479
 31
0.0
  0
LINE
  5
65
100
AcDbEntity
  8
BLACK
  6
CONTINUOUS
 62
          15
100
AcDbLine
 10
-4875.947865509776
 20
-2935.264643810916
 30
0.0
 11
-4882.441315776551
 21
-2934.535139060318
 31
0.0
  0
LINE
  5
66
100
AcDbEntity
  8
BLACK
  6
GESTRICHELT
 62
          15
100
AcDbLine
 10
-4906.064264482537
 20
-2916.706500301042
 30
0.0
 11
-4905.047189918983
 21
-2915.894834753064
 31
0.0
  0
LINE
  5
67
100
AcDbEntity
  8
BLACK
  6
GESTRICHELT
 62
          15
100
AcDbLine
 10
-4907.645089263002
 20
-2930.777700089684
 30
0.0
 11
-4906.833467930657
 21
-2931.794809937479
 31
0.0
  0
LINE
  5
68
100
AcDbEntity
  8
BLACK
  6
GESTRICHELT
 62
          15
100
AcDbLine
 10
-4906.064264482537
 20
-2916.706500301042
 30
0.0
 11
-4907.645089263002
 21
-2930.777700089684
 31
0.0
  0
LINE
  5
69
100
AcDbEntity
  8
BLACK
  6
CONTINUOUS
 62
          15
100
AcDbLine
 10
-4880.757764380482
 20
-2919.549551573789
 30
0.0
 11
-4874.264314113707
 21
-2920.279056324388
 31
0.0
  0
LINE
  5
6A
100
AcDbEntity
  8
BLACK
  6
GESTRICHELT
 62
          15
100
AcDbLine
 10
-4906.064264482537
 20
-2916.706500301042
 30
0.0
 11
-4880.757764380482
 21
-2919.549551573789
 31
0.0
  0
LINE
  5
6B
100
AcDbEntity
  8
BLACK
  6
CONTINUOUS
 62
          15
100
AcDbLine
 10
-4882.338589160947
 20
-2933.620751362431
 30
0.0
 11
-4875.845138894172
 21
-2934.350256113029
 31
0.0
  0
LINE
  5
6C
100
AcDbEntity
  8
BLACK
  6
GESTRICHELT
 62
          15
100
AcDbLine
 10
-4907.645089263002
 20
-2930.777700089684
 30
0.0
 11
-4882.338589160947
 21
-2933.620751362431
 31
0.0
  0
LINE
  5
6D
100
AcDbEntity
  8
BLACK
  6
GESTRICHELT
 62
          15
100
AcDbLine
 10
-4905.047189918983
 20
-2915.894834753064
 30
0.0
 11
-4906.833467930657
 21
-2931.794809937479
 31
0.0
  0
LINE
  5
6E
100
AcDbEntity
  8
BLACK
  6
CONTINUOUS
 62
          15
100
AcDbLine
 10
-4764.715410714203
 20
-2929.647785244888
 30
0.0
 11
-4873.938302746643
 21
-2917.377171728449
 31
0.0
  0
LINE
  5
6F
100
AcDbEntity
  8
BLACK
  6
CONTINUOUS
 62
          15
100
AcDbLine
 10
-4873.938302746643
 20
-2917.377171728449
 30
0.0
 11
-4876.171150261235
 21
-2937.252140708969
 31
0.0
  0
LINE
  5
70
100
AcDbEntity
  8
BLACK
  6
CONTINUOUS
 62
          15
100
AcDbLine
 10
-4876.171150261235
 20
-2937.252140708969
 30
0.0
 11
-4766.948258228795
 21
-2949.522754225406
 31
0.0
  0
LINE
  5
71
100
AcDbEntity
  8
BLACK
  6
CONTINUOUS
 62
          15
100
AcDbLine
 10
-4874.466613447799
 20
-2922.079758326476
 30
0.0
 11
-4867.841620475132
 21
-2922.824041203482
 31
0.0
  0
LINE
  5
72
100
AcDbEntity
  8
BLACK
  6
CONTINUOUS
 62
          15
100
AcDbLine
 10
-4875.642839560079
 20
-2932.549554110941
 30
0.0
 11
-4869.017846587411
 21
-2933.293836987946
 31
0.0
  0
LINE
  5
73
100
AcDbEntity
  8
BLACK
  6
CONTINUOUS
 62
          15
100
AcDbLine
 10
-4867.841620475132
 20
-2922.824041203482
 30
0.0
 11
-4869.017846587411
 21
-2933.293836987946
 31
0.0
  0
LINE
  5
74
100
AcDbEntity
  8
BLACK
  6
CONTINUOUS
 62
          15
100
AcDbLine
 10
-4874.466613447799
 20
-2922.079758326476
 30
0.0
 11
-4869.017846587411
 21
-2933.293836987946
 31
0.0
  0
LINE
  5
75
100
AcDbEntity
  8
BLACK
  6
CONTINUOUS
 62
          15
100
AcDbLine
 10
-4867.841620475132
 20
-2922.824041203482
 30
0.0
 11
-4875.642839560079
 21
-2932.549554110941
 31
0.0
  0
CIRCLE
  5
76
100
AcDbEntity
  8
BLACK
  6
GESTRICHELT
 62
          15
100
AcDbCircle
 10
-4725.04335980611
 20
-2952.721111332509
 30
0.0
 40
5.7225
  0
ARC
  5
77
100
AcDbEntity
  8
BLACK
  6
GESTRICHELT
 62
          15
100
AcDbCircle
 10
-4725.04335980611
 20
-2952.721111332509
 30
0.0
 40
6.5785
100
AcDbArc
 50
103.59
 51
13.59
  0
CIRCLE
  5
78
100
AcDbEntity
  8
BLACK
  6
CONTINUOUS
 62
          15
100
AcDbCircle
 10
-4546.258215492091
 20
-2955.699730578933
 30
0.0
 40
5.7225
  0
ARC
  5
79
100
AcDbEntity
  8
BLACK
  6
CONTINUOUS
 62
          15
100
AcDbCircle
 10
-4546.258215492091
 20
-2955.699730578933
 30
0.0
 40
6.57849
100
AcDbArc
 50
103.59
 51
13.59
  0
LINE
  5
7A
100
AcDbEntity
  8
BLACK
  6
GESTRICHELT
 62
          15
100
AcDbLine
 10
-4718.804599757928
 20
-2936.217849108896
 30
0.0
 11
-4722.050352610577
 21
-2938.807969048195
 31
0.0
  0
LINE
  5
7B
100
AcDbEntity
  8
BLACK
  6
CONTINUOUS
 62
          15
100
AcDbLine
 10
-4712.744399990632
 20
-2931.381792586419
 30
0.0
 11
-4718.804599757928
 21
-2936.217849108896
 31
0.0
  0
LINE
  5
7C
100
AcDbEntity
  8
BLACK
  6
GESTRICHELT
 62
          15
100
AcDbLine
 10
-4720.997549918904
 20
-2936.048725776916
 30
0.0
 11
-4722.986008104641
 21
-2937.635530687799
 31
0.0
  0
LINE
  5
7D
100
AcDbEntity
  8
BLACK
  6
CONTINUOUS
 62
          15
100
AcDbLine
 10
-4713.680049902578
 20
-2930.209304538601
 30
0.0
 11
-4720.997549918904
 21
-2936.048725776916
 31
0.0
  0
ARC
  5
7E
100
AcDbEntity
  8
BLACK
  6
CONTINUOUS
 62
          15
100
AcDbCircle
 10
-4717.86520181479
 20
-2934.50864176214
 30
0.0
 40
6.0
100
AcDbArc
 50
338.368688099555
 51
192.811311900445
  0
ARC
  5
7F
100
AcDbEntity
  8
BLACK
  6
GESTRICHELT
 62
          15
100
AcDbCircle
 10
-4717.86520181479
 20
-2934.50864176214
 30
0.0
 40
6.0
100
AcDbArc
 50
192.811311900445
 51
338.368688099555
  0
LINE
  5
80
100
AcDbEntity
  8
BLACK
  6
CONTINUOUS
 62
          15
100
AcDbLine
 10
-4548.315269069025
 20
-2970.785344716356
 30
0.0
 11
-4557.621525395623
 21
-2978.211537372842
 31
0.0
  0
LINE
  5
81
100
AcDbEntity
  8
BLACK
  6
CONTINUOUS
 62
          15
100
AcDbLine
 10
-4549.251222687624
 20
-2969.612872863248
 30
0.0
 11
-4558.557473432104
 21
-2977.03901583231
 31
0.0
  0
CIRCLE
  5
82
100
AcDbEntity
  8
BLACK
  6
CONTINUOUS
 62
          15
100
AcDbCircle
 10
-4553.436373483411
 20
-2973.912200149302
 30
0.0
 40
6.0
  0
LINE
  5
83
100
AcDbEntity
  8
BLACK
  6
CONTINUOUS
 62
          15
100
AcDbLine
 10
-4880.490492435005
 20
-2912.760005253838
 30
0.0
 11
-4883.971096377719
 21
-2912.368977832845
 31
0.0
  0
LINE
  5
84
100
AcDbEntity
  8
BLACK
  6
CONTINUOUS
 62
          15
100
AcDbLine
 10
-4887.451700320432
 20
-2911.977950411853
 30
0.0
 11
-4883.971096377719
 21
-2912.368977832845
 31
0.0
  0
LINE
  5
85
100
AcDbEntity
  8
BLACK
  6
CONTINUOUS
 62
          15
100
AcDbLine
 10
-4890.545712464451
 20
-2939.518297428778
 30
0.0
 11
-4887.065108521738
 21
-2939.909324849771
 31
0.0
  0
LINE
  5
86
100
AcDbEntity
  8
BLACK
  6
CONTINUOUS
 62
          15
100
AcDbLine
 10
-4883.584504579025
 20
-2940.300352270764
 30
0.0
 11
-4887.065108521738
 21
-2939.909324849771
 31
0.0
  0
LINE
  5
87
100
AcDbEntity
  8
BLACK
  6
CONTINUOUS
 62
          15
100
AcDbLine
 10
-4881.263994354586
 20
-2919.645082070585
 30
0.0
 11
-4884.7445982973
 21
-2919.254054649593
 31
0.0
  0
LINE
  5
88
100
AcDbEntity
  8
BLACK
  6
CONTINUOUS
 62
          15
100
AcDbLine
 10
-4888.225202240014
 20
-2918.8630272286
 30
0.0
 11
-4884.7445982973
 21
-2919.254054649593
 31
0.0
  0
LINE
  5
89
100
AcDbEntity
  8
BLACK
  6
CONTINUOUS
 62
          15
100
AcDbLine
 10
-4889.77221054487
 20
-2932.633220612031
 30
0.0
 11
-4886.291606602157
 21
-2933.024248033024
 31
0.0
  0
LINE
  5
8A
100
AcDbEntity
  8
BLACK
  6
CONTINUOUS
 62
          15
100
AcDbLine
 10
-4882.811002659443
 20
-2933.415275454017
 30
0.0
 11
-4886.291606602157
 21
-2933.024248033024
 31
0.0
  0
ARC
  5
8B
100
AcDbEntity
  8
BLACK
  6
CONTINUOUS
 62
          15
100
AcDbCircle
 10
-4930.224162050624
 20
-2921.116662291648
 30
0.0
 40
48.982200000031
100
AcDbArc
 50
354.449437000001
 51
1.721609999997
  0
ARC
  5
8C
100
AcDbEntity
  8
BLACK
  6
CONTINUOUS
 62
          15
100
AcDbCircle
 10
-4840.812042848872
 20
-2931.161640390963
 30
0.0
 40
48.982199999991
100
AcDbArc
 50
165.458000000003
 51
172.731000000004
  0
ARC
  5
8D
100
AcDbEntity
  8
BLACK
  6
CONTINUOUS
 62
          15
100
AcDbCircle
 10
-4840.812042848873
 20
-2931.16164039097
 30
0.0
 40
48.982199999991
100
AcDbArc
 50
174.448999999995
 51
181.721999999996
  0
ARC
  5
8E
100
AcDbEntity
  8
BLACK
  6
CONTINUOUS
 62
          15
100
AcDbCircle
 10
-4930.224162050623
 20
-2921.116662291643
 30
0.0
 40
48.982200000031
100
AcDbArc
 50
345.458390000002
 51
352.730562999997
  0
LINE
  5
8F
100
AcDbEntity
  8
BLACK
  6
CONTINUOUS
 62
          15
100
AcDbLine
 10
-4881.471618063882
 20
-2925.854424487053
 30
0.0
 11
-4881.548176770715
 21
-2926.58515146811
 31
0.0
  0
LINE
  5
90
100
AcDbEntity
  8
BLACK
  6
CONTINUOUS
 62
          15
100
AcDbLine
 10
-4889.400538188969
 20
-2924.963652299582
 30
0.0
 11
-4889.488028128742
 21
-2925.693151214506
 31
0.0
  0
LINE
  5
91
100
AcDbEntity
  8
BLACK
  6
CONTINUOUS
 62
          15
100
AcDbLine
 10
-4889.564586835575
 20
-2926.423878195562
 30
0.0
 11
-4889.488028128742
 21
-2925.693151214506
 31
0.0
  0
LINE
  5
92
100
AcDbEntity
  8
BLACK
  6
CONTINUOUS
 62
          15
100
AcDbLine
 10
-4881.635666710487
 20
-2927.314650383034
 30
0.0
 11
-4881.548176770715
 21
-2926.58515146811
 31
0.0
  0
ARC
  5
93
100
AcDbEntity
  8
BLACK
  6
CONTINUOUS
 62
          15
100
AcDbCircle
 10
-4893.109293612046
 20
-2914.828342628104
 30
0.0
 40
12.801499999978
100
AcDbArc
 50
337.871499999983
 51
353.59000000001
  0
ARC
  5
94
100
AcDbEntity
  8
BLACK
  6
CONTINUOUS
 62
          15
100
AcDbCircle
 10
-4875.606362429435
 20
-2916.794704257518
 30
0.0
 40
12.787200000002
100
AcDbArc
 50
173.59
 51
189.308999999996
  0
ARC
  5
95
100
AcDbEntity
  8
BLACK
  6
CONTINUOUS
 62
          15
100
AcDbCircle
 10
-4877.926871537438
 20
-2937.449964520217
 30
0.0
 40
12.801500000013
100
AcDbArc
 50
157.871000000002
 51
173.589999999986
  0
ARC
  5
96
100
AcDbEntity
  8
BLACK
  6
CONTINUOUS
 62
          15
100
AcDbCircle
 10
-4895.429802720113
 20
-2935.483602890794
 30
0.0
 40
12.78720000003
100
AcDbArc
 50
353.590000000019
 51
9.308499999982
  0
ARC
  5
97
100
AcDbEntity
  8
BLACK
  6
CONTINUOUS
 62
          15
100
AcDbCircle
 10
-4893.109293612099
 20
-2914.828342628099
 30
0.0
 40
12.78720000003
100
AcDbArc
 50
353.590000000019
 51
9.308499999982
  0
ARC
  5
98
100
AcDbEntity
  8
BLACK
  6
CONTINUOUS
 62
          15
100
AcDbCircle
 10
-4875.606362429424
 20
-2916.794704257523
 30
0.0
 40
12.801500000013
100
AcDbArc
 50
157.871000000002
 51
173.589999999986
  0
ARC
  5
99
100
AcDbEntity
  8
BLACK
  6
CONTINUOUS
 62
          15
100
AcDbCircle
 10
-4877.926871537448
 20
-2937.449964520213
 30
0.0
 40
12.787200000002
100
AcDbArc
 50
173.59
 51
189.308999999996
  0
ARC
  5
9A
100
AcDbEntity
  8
BLACK
  6
CONTINUOUS
 62
          15
100
AcDbCircle
 10
-4895.42980272006
 20
-2935.483602890797
 30
0.0
 40
12.801499999978
100
AcDbArc
 50
337.871499999983
 51
353.59000000001
  0
LINE
  5
9B
100
AcDbEntity
  8
BLACK
  6
CONTINUOUS
 62
          15
100
AcDbLine
 10
-4880.387922216707
 20
-2916.257521336763
 30
0.0
 11
-4881.548176770715
 21
-2926.58515146811
 31
0.0
  0
LINE
  5
9C
100
AcDbEntity
  8
BLACK
  6
CONTINUOUS
 62
          15
100
AcDbLine
 10
-4888.327773574735
 20
-2915.365521083159
 30
0.0
 11
-4889.488028128742
 21
-2925.693151214506
 31
0.0
  0
LINE
  5
9D
100
AcDbEntity
  8
BLACK
  6
CONTINUOUS
 62
          15
100
AcDbLine
 10
-4890.648282682749
 20
-2936.020781345852
 30
0.0
 11
-4889.488028128742
 21
-2925.693151214506
 31
0.0
  0
LINE
  5
9E
100
AcDbEntity
  8
BLACK
  6
CONTINUOUS
 62
          15
100
AcDbLine
 10
-4882.708431324722
 20
-2936.912781599457
 30
0.0
 11
-4881.548176770715
 21
-2926.58515146811
 31
0.0
  0
LINE
  5
9F
100
AcDbEntity
  8
0
  6
CONTINUOUS
 62
          15
100
AcDbLine
 10
-4529.718192528237
 20
-2933.874485896886
 30
0.0
 11
-4536.86330457493
 21
-2997.474386634547
 31
0.0
  0
LINE
  5
A0
100
AcDbEntity
  8
0
  6
CONTINUOUS
 62
          15
100
AcDbLine
 10
-4529.178161692269
 20
-2991.767782703698
 30
0.0
 11
-4529.660302962509
 21
-2996.0594070657
 31
0.0
  0
LINE
  5
A1
100
AcDbEntity
  8
0
  6
CONTINUOUS
 62
          15
100
AcDbLine
 10
-4523.00881627465
 20
-2936.853352585205
 30
0.0
 11
-4523.49095754489
 21
-2941.144976947209
 31
0.0
  0
LINE
  5
A2
100
AcDbEntity
  8
0
  6
CONTINUOUS
 62
          15
100
AcDbLine
 10
-4523.49095754489
 20
-2941.144976947209
 30
0.0
 11
-4524.496323856346
 21
-2950.09391955241
 31
0.0
  0
LINE
  5
A3
100
AcDbEntity
  8
0
  6
CONTINUOUS
 62
          15
100
AcDbLine
 10
-4528.172795380813
 20
-2982.818840098495
 30
0.0
 11
-4529.178161692269
 21
-2991.767782703698
 31
0.0
  0
LINE
  5
A4
100
AcDbEntity
  8
WHITE
  6
CONTINUOUS
 62
          15
100
AcDbLine
 10
-4531.801585951544
 20
-2997.83020100833
 30
0.0
 11
-4536.859456147438
 21
-2997.440131103654
 31
0.0
  0
LINE
  5
A5
100
AcDbEntity
  8
WHITE
  6
CONTINUOUS
 62
          15
100
AcDbLine
 10
-4524.703801798841
 20
-2934.651574190552
 30
0.0
 11
-4529.722141376083
 21
-2933.909635287038
 31
0.0
  0
LINE
  5
A6
100
AcDbEntity
  8
0
  6
CONTINUOUS
 62
          15
100
AcDbLine
 10
-4528.076062461938
 20
-2991.852778111859
 30
0.0
 11
-4529.178161692269
 21
-2991.767782703698
 31
0.0
  0
LINE
  5
A7
100
AcDbEntity
  8
WHITE
  6
CONTINUOUS
 62
          15
100
AcDbLine
 10
-4519.854993666564
 20
-2944.609311458831
 30
0.0
 11
-4520.858256931142
 21
-2953.539534473377
 31
0.0
  0
LINE
  5
A8
100
AcDbEntity
  8
0
  6
CONTINUOUS
 62
          15
100
AcDbLine
 10
-4523.49095754489
 20
-2941.144976947209
 30
0.0
 11
-4522.397471952849
 21
-2941.306643866851
 31
0.0
  0
LINE
  5
A9
100
AcDbEntity
  8
WHITE
  6
CONTINUOUS
 62
          15
100
AcDbLine
 10
-4523.840368662158
 20
-2980.083836206055
 30
0.0
 11
-4523.86087471381
 21
-2980.266364183366
 31
0.0
  0
LINE
  5
AA
100
AcDbEntity
  8
0
  6
CONTINUOUS
 62
          15
100
AcDbLine
 10
-4504.911966551455
 20
-2956.78944332156
 30
0.0
 11
-4520.013983207651
 21
-2954.825353494624
 31
0.0
  0
LINE
  5
AB
100
AcDbEntity
  8
0
  6
CONTINUOUS
 62
          15
100
AcDbLine
 10
-4507.590975480775
 20
-2980.635773633333
 30
0.0
 11
-4522.752338142906
 21
-2979.199933057345
 31
0.0
  0
LINE
  5
AC
100
AcDbEntity
  8
0
  6
CONTINUOUS
 62
          15
100
AcDbLine
 10
-4520.660367051672
 20
-2954.465233505878
 30
0.0
 11
-4523.462515523863
 21
-2979.407650576305
 31
0.0
  0
LINE
  5
AD
100
AcDbEntity
  8
WHITE
  6
CONTINUOUS
 62
          15
100
AcDbLine
 10
-4522.766764306061
 20
-2952.300501640284
 30
0.0
 11
-4521.723036706285
 21
-2952.43624342944
 31
0.0
  0
LINE
  5
AE
100
AcDbEntity
  8
WHITE
  6
CONTINUOUS
 62
          15
100
AcDbLine
 10
-4520.858256931142
 20
-2953.539534473377
 30
0.0
 11
-4520.878762982793
 21
-2953.722062450688
 31
0.0
  0
LINE
  5
AF
100
AcDbEntity
  8
WHITE
  6
CONTINUOUS
 62
          15
100
AcDbLine
 10
-4523.86087471381
 20
-2980.266364183366
 30
0.0
 11
-4524.864137978388
 21
-2989.196587197913
 31
0.0
  0
LINE
  5
B0
100
AcDbEntity
  8
WHITE
  6
CONTINUOUS
 62
          15
100
AcDbLine
 10
-4524.948905233061
 20
-2981.150267332076
 30
0.0
 11
-4525.996734342306
 21
-2981.051033801074
 31
0.0
  0
ARC
  5
B1
100
AcDbEntity
  8
0
  6
CONTINUOUS
 62
          15
100
AcDbCircle
 10
-4506.45959063806
 20
-2968.689227340045
 30
0.0
 40
12.0
100
AcDbArc
 50
264.589999999997
 51
82.590000000002
  0
ARC
  5
B2
100
AcDbEntity
  8
WHITE
  6
CONTINUOUS
 62
          15
100
AcDbCircle
 10
-4524.996313172702
 20
-2936.630067833746
 30
0.0
 40
2.0
100
AcDbArc
 50
353.589999999999
 51
81.590000000022
  0
ARC
  5
B3
100
AcDbEntity
  8
WHITE
  6
CONTINUOUS
 62
          15
100
AcDbCircle
 10
-4522.836239013643
 20
-2944.274384331642
 30
0.0
 40
3.0
100
AcDbArc
 50
353.589999999999
 51
81.589999999985
  0
ARC
  5
B4
100
AcDbEntity
  8
WHITE
  6
CONTINUOUS
 62
          15
100
AcDbCircle
 10
-4527.845383325464
 20
-2988.861660070725
 30
0.0
 40
3.0
100
AcDbArc
 50
265.589999999994
 51
353.589999999999
  0
ARC
  5
B5
100
AcDbEntity
  8
WHITE
  6
CONTINUOUS
 62
          15
100
AcDbCircle
 10
-4531.647799860561
 20
-2995.836122314242
 30
0.0
 40
2.0
100
AcDbArc
 50
265.589999999977
 51
353.589999999999
  0
ARC
  5
B6
100
AcDbEntity
  8
WHITE
  6
CONTINUOUS
 62
          15
100
AcDbCircle
 10
-4521.852005380168
 20
-2953.427892097648
 30
0.0
 40
1.0
100
AcDbArc
 50
353.589999999999
 51
82.59000000007
  0
ARC
  5
B7
100
AcDbEntity
  8
WHITE
  6
CONTINUOUS
 62
          15
100
AcDbCircle
 10
-4522.508826958294
 20
-2950.317204303869
 30
0.0
 40
2.0
100
AcDbArc
 50
173.59
 51
262.59000000002
  0
ARC
  5
B8
100
AcDbEntity
  8
WHITE
  6
CONTINUOUS
 62
          15
100
AcDbCircle
 10
-4519.885014533767
 20
-2953.833704826417
 30
0.0
 40
1.000000000001
100
AcDbArc
 50
219.162995999259
 51
262.590000000031
  0
ARC
  5
B9
100
AcDbEntity
  8
WHITE
  6
CONTINUOUS
 62
          15
100
AcDbCircle
 10
-4519.885014533767
 20
-2953.833704826417
 30
0.0
 40
1.0
100
AcDbArc
 50
173.59
 51
219.162995999262
  0
ARC
  5
BA
100
AcDbEntity
  8
WHITE
  6
CONTINUOUS
 62
          15
100
AcDbCircle
 10
-4526.18529848276
 20
-2983.042124849954
 30
0.0
 40
1.999999999999
100
AcDbArc
 50
84.589999999927
 51
173.59
  0
ARC
  5
BB
100
AcDbEntity
  8
WHITE
  6
CONTINUOUS
 62
          15
100
AcDbCircle
 10
-4524.854623162835
 20
-2980.154721807636
 30
0.0
 40
1.0
100
AcDbArc
 50
264.58999999993
 51
353.589999999999
  0
ARC
  5
BC
100
AcDbEntity
  8
WHITE
  6
CONTINUOUS
 62
          15
100
AcDbCircle
 10
-4522.846620213132
 20
-2980.195478581785
 30
0.0
 40
1.0
100
AcDbArc
 50
128.017004000809
 51
173.59
  0
ARC
  5
BD
100
AcDbEntity
  8
WHITE
  6
CONTINUOUS
 62
          15
100
AcDbCircle
 10
-4522.846620213132
 20
-2980.195478581785
 30
0.0
 40
1.0
100
AcDbArc
 50
84.589999999969
 51
128.017004000808
  0
LINE
  5
BE
100
AcDbEntity
  8
WHITE
  6
CONTINUOUS
 62
          15
100
AcDbLine
 10
-4890.381167134579
 20
-2933.643138806714
 30
0.0
 11
-4890.291853233995
 21
-2932.848140047493
 31
0.0
  0
LINE
  5
BF
100
AcDbEntity
  8
WHITE
  6
CONTINUOUS
 62
          15
100
AcDbLine
 10
-4890.291853233995
 20
-2932.848140047493
 30
0.0
 11
-4888.684203023489
 21
-2918.538162381519
 31
0.0
  0
LINE
  5
C0
100
AcDbEntity
  8
WHITE
  6
CONTINUOUS
 62
          15
100
AcDbLine
 10
-4888.684203023489
 20
-2918.538162381519
 30
0.0
 11
-4888.594889122905
 21
-2917.743163622299
 31
0.0
  0
LINE
  5
C1
100
AcDbEntity
  8
WHITE
  6
CONTINUOUS
 62
          15
100
AcDbLine
 10
-4888.594889122905
 20
-2917.743163622299
 30
0.0
 11
-4888.103662669695
 21
-2913.370670446584
 31
0.0
  0
LINE
  5
C2
100
AcDbEntity
  8
WHITE
  6
CONTINUOUS
 62
          15
100
AcDbLine
 10
-4923.074256509245
 20
-2938.020570375574
 30
0.0
 11
-4921.346231361988
 21
-2938.214704849897
 31
0.0
  0
LINE
  5
C3
100
AcDbEntity
  8
WHITE
  6
CONTINUOUS
 62
          15
100
AcDbLine
 10
-4917.773675338642
 20
-2906.414754481067
 30
0.0
 11
-4919.501700485898
 21
-2906.220620006744
 31
0.0
  0
LINE
  5
C4
100
AcDbEntity
  8
WHITE
  6
CONTINUOUS
 62
          15
100
AcDbLine
 10
-4921.346231361988
 20
-2938.214704849897
 30
0.0
 11
-4916.316767055869
 21
-2938.779738530535
 31
0.0
  0
LINE
  5
C5
100
AcDbEntity
  8
WHITE
  6
CONTINUOUS
 62
          15
100
AcDbLine
 10
-4912.744211032523
 20
-2906.979788161706
 30
0.0
 11
-4917.773675338642
 21
-2906.414754481067
 31
0.0
  0
LINE
  5
C6
100
AcDbEntity
  8
WHITE
  6
CONTINUOUS
 62
          15
100
AcDbLine
 10
-4966.586692358833
 20
-2900.93087051425
 30
0.0
 11
-4919.501700485898
 21
-2906.220620006744
 31
0.0
  0
LINE
  5
C7
100
AcDbEntity
  8
WHITE
  6
CONTINUOUS
 62
          15
100
AcDbLine
 10
-4970.159248382179
 20
-2932.73082088308
 30
0.0
 11
-4923.074256509245
 21
-2938.020570375574
 31
0.0
  0
LINE
  5
C8
100
AcDbEntity
  8
WHITE
  6
CONTINUOUS
 62
          15
100
AcDbLine
 10
-4911.819654595442
 20
-2909.498755290244
 30
0.0
 11
-4914.856327215287
 21
-2936.528713103749
 31
0.0
  0
LINE
  5
C9
100
AcDbEntity
  8
WHITE
  6
CONTINUOUS
 62
          15
100
AcDbLine
 10
-4889.16218995765
 20
-2912.044201456878
 30
0.0
 11
-4892.766687233391
 21
-2911.639255276011
 31
0.0
  0
LINE
  5
CA
100
AcDbEntity
  8
WHITE
  6
CONTINUOUS
 62
          15
100
AcDbLine
 10
-4890.872393587789
 20
-2938.015631982428
 30
0.0
 11
-4890.381167134579
 21
-2933.643138806714
 31
0.0
  0
LINE
  5
CB
100
AcDbEntity
  8
WHITE
  6
CONTINUOUS
 62
          15
100
AcDbLine
 10
-4913.663829076456
 20
-2936.662683954624
 30
0.0
 11
-4911.225118862822
 21
-2936.936660132632
 31
0.0
  0
LINE
  5
CC
100
AcDbEntity
  8
WHITE
  6
CONTINUOUS
 62
          15
100
AcDbLine
 10
-4908.009818441809
 20
-2908.316704800686
 30
0.0
 11
-4908.188446242977
 21
-2909.906702319127
 31
0.0
  0
LINE
  5
CD
100
AcDbEntity
  8
WHITE
  6
CONTINUOUS
 62
          15
100
AcDbLine
 10
-4908.188446242977
 20
-2909.906702319127
 30
0.0
 11
-4910.627156456611
 21
-2909.632726141118
 31
0.0
  0
LINE
  5
CE
100
AcDbEntity
  8
WHITE
  6
CONTINUOUS
 62
          15
100
AcDbLine
 10
-4908.188446242977
 20
-2909.906702319127
 30
0.0
 11
-4911.225118862822
 21
-2936.936660132632
 31
0.0
  0
LINE
  5
CF
100
AcDbEntity
  8
WHITE
  6
CONTINUOUS
 62
          15
100
AcDbLine
 10
-4911.225118862822
 20
-2936.936660132632
 30
0.0
 11
-4911.403746663989
 21
-2938.526657651074
 31
0.0
  0
LINE
  5
D0
100
AcDbEntity
  8
WHITE
  6
CONTINUOUS
 62
          15
100
AcDbLine
 10
-4895.981987654403
 20
-2940.259210607959
 30
0.0
 11
-4895.803359853237
 21
-2938.669213089517
 31
0.0
  0
LINE
  5
D1
100
AcDbEntity
  8
WHITE
  6
CONTINUOUS
 62
          15
100
AcDbLine
 10
-4895.803359853237
 20
-2938.669213089517
 30
0.0
 11
-4892.198862577496
 21
-2939.074159270383
 31
0.0
  0
LINE
  5
D2
100
AcDbEntity
  8
WHITE
  6
CONTINUOUS
 62
          15
100
AcDbLine
 10
-4895.803359853237
 20
-2938.669213089517
 30
0.0
 11
-4892.766687233391
 21
-2911.639255276011
 31
0.0
  0
LINE
  5
D3
100
AcDbEntity
  8
WHITE
  6
CONTINUOUS
 62
          15
100
AcDbLine
 10
-4892.766687233391
 20
-2911.639255276011
 30
0.0
 11
-4892.588059432224
 21
-2910.04925775757
 31
0.0
  0
LINE
  5
D4
100
AcDbEntity
  8
WHITE
  6
CONTINUOUS
 62
          15
100
AcDbLine
 10
-4908.009818441809
 20
-2908.316704800686
 30
0.0
 11
-4892.588059432224
 21
-2910.04925775757
 31
0.0
  0
LINE
  5
D5
100
AcDbEntity
  8
WHITE
  6
CONTINUOUS
 62
          15
100
AcDbLine
 10
-4911.403746663989
 20
-2938.526657651074
 30
0.0
 11
-4895.981987654403
 21
-2940.259210607959
 31
0.0
  0
ARC
  5
D6
100
AcDbEntity
  8
WHITE
  6
CONTINUOUS
 62
          15
100
AcDbCircle
 10
-4942.178038081696
 20
-2919.773707622792
 30
0.0
 40
27.821476415486
100
AcDbArc
 50
318.483694434248
 51
28.696305565753
  0
ARC
  5
D7
100
AcDbEntity
  8
WHITE
  6
CONTINUOUS
 62
          15
100
AcDbCircle
 10
-4929.073195106741
 20
-2921.245967332702
 30
0.0
 40
39.547005383793
100
AcDbArc
 50
149.72507458395
 51
197.45492541605
  0
ARC
  5
D8
100
AcDbEntity
  8
WHITE
  6
CONTINUOUS
 62
          15
100
AcDbCircle
 10
-4943.128369250222
 20
-2919.666942948604
 30
0.0
 40
30.022213997861
100
AcDbArc
 50
141.385772496028
 51
205.794227503972
  0
ARC
  5
D9
100
AcDbEntity
  8
WHITE
  6
CONTINUOUS
 62
          15
100
AcDbCircle
 10
-4912.878181883398
 20
-2908.172286300537
 30
0.0
 40
1.2
100
AcDbArc
 50
353.589999999999
 51
83.59
  0
ARC
  5
DA
100
AcDbEntity
  8
WHITE
  6
CONTINUOUS
 62
          15
100
AcDbCircle
 10
-4910.493185605736
 20
-2908.440228002287
 30
0.0
 40
1.2
100
AcDbArc
 50
173.59
 51
263.589999999999
  0
ARC
  5
DB
100
AcDbEntity
  8
WHITE
  6
CONTINUOUS
 62
          15
100
AcDbCircle
 10
-4889.296160808526
 20
-2913.236699595709
 30
0.0
 40
1.2
100
AcDbArc
 50
353.589999999999
 51
83.59
  0
ARC
  5
DC
100
AcDbEntity
  8
WHITE
  6
CONTINUOUS
 62
          15
100
AcDbCircle
 10
-4892.064891726619
 20
-2937.881661131552
 30
0.0
 40
1.2
100
AcDbArc
 50
263.589999999999
 51
353.589999999999
  0
ARC
  5
DD
100
AcDbEntity
  8
WHITE
  6
CONTINUOUS
 62
          15
100
AcDbCircle
 10
-4913.797799927332
 20
-2937.855182093455
 30
0.0
 40
1.2
100
AcDbArc
 50
83.59
 51
173.59
  0
ARC
  5
DE
100
AcDbEntity
  8
WHITE
  6
CONTINUOUS
 62
          15
100
AcDbCircle
 10
-4916.182796204994
 20
-2937.587240391704
 30
0.0
 40
1.2
100
AcDbArc
 50
263.589999999999
 51
353.589999999999
  0
LINE
  5
DF
100
AcDbEntity
  8
WHITE
  6
CONTINUOUS
 62
          15
100
AcDbLine
 10
-4696.781347543129
 20
-2942.567788991285
 30
0.0
 11
-4693.305009701481
 21
-2943.406223644729
 31
0.0
  0
LINE
  5
E0
100
AcDbEntity
  8
WHITE
  6
CONTINUOUS
 62
          15
100
AcDbLine
 10
-4696.931142044723
 20
-2939.979974242431
 30
0.0
 11
-4697.1609915283
 21
-2942.025904977251
 31
0.0
  0
LINE
  5
E1
100
AcDbEntity
  8
WHITE
  6
CONTINUOUS
 62
          15
100
AcDbLine
 10
-4696.099231946239
 20
-2936.496157927935
 30
0.0
 11
-4692.523513071374
 21
-2936.449984501548
 31
0.0
  0
LINE
  5
E2
100
AcDbEntity
  8
WHITE
  6
CONTINUOUS
 62
          15
100
AcDbLine
 10
-4696.819499668995
 20
-2938.986225793405
 30
0.0
 11
-4696.589650185418
 21
-2936.940295058586
 31
0.0
  0
LINE
  5
E3
100
AcDbEntity
  8
WHITE
  6
CONTINUOUS
 62
          15
100
AcDbLine
 10
-4695.354741771114
 20
-2940.157074465147
 30
0.0
 11
-4696.931142044723
 21
-2939.979974242431
 31
0.0
  0
LINE
  5
E4
100
AcDbEntity
  8
WHITE
  6
CONTINUOUS
 62
          15
100
AcDbLine
 10
-4695.298920583249
 20
-2939.660200240635
 30
0.0
 11
-4695.354741771114
 21
-2940.157074465147
 31
0.0
  0
LINE
  5
E5
100
AcDbEntity
  8
WHITE
  6
CONTINUOUS
 62
          15
100
AcDbLine
 10
-4695.243099395384
 20
-2939.163326016121
 30
0.0
 11
-4695.298920583249
 21
-2939.660200240635
 31
0.0
  0
LINE
  5
E6
100
AcDbEntity
  8
WHITE
  6
CONTINUOUS
 62
          15
100
AcDbLine
 10
-4696.819499668995
 20
-2938.986225793405
 30
0.0
 11
-4695.243099395384
 21
-2939.163326016121
 31
0.0
  0
LINE
  5
E7
100
AcDbEntity
  8
WHITE
  6
CONTINUOUS
 62
          15
100
AcDbLine
 10
-4692.300228319915
 20
-2934.462487603495
 30
0.0
 11
-4681.865869605143
 21
-2935.634732548655
 31
0.0
  0
LINE
  5
E8
100
AcDbEntity
  8
WHITE
  6
CONTINUOUS
 62
          15
100
AcDbLine
 10
-4692.300228319915
 20
-2934.462487603495
 30
0.0
 11
-4693.360830889345
 21
-2943.903097869242
 31
0.0
  0
LINE
  5
E9
100
AcDbEntity
  8
WHITE
  6
CONTINUOUS
 62
          15
100
AcDbLine
 10
-4685.974309031991
 20
-2972.204675472811
 30
0.0
 11
-4677.527447215271
 21
-2973.153635666512
 31
0.0
  0
LINE
  5
EA
100
AcDbEntity
  8
WHITE
  6
CONTINUOUS
 62
          15
100
AcDbLine
 10
-4677.527447215271
 20
-2973.153635666512
 30
0.0
 11
-4677.471626027405
 21
-2972.656761442
 31
0.0
  0
LINE
  5
EB
100
AcDbEntity
  8
WHITE
  6
CONTINUOUS
 62
          15
100
AcDbLine
 10
-4677.471626027405
 20
-2972.656761442
 30
0.0
 11
-4672.28025555598
 21
-2926.447458562293
 31
0.0
  0
LINE
  5
EC
100
AcDbEntity
  8
WHITE
  6
CONTINUOUS
 62
          15
100
AcDbLine
 10
-4671.286507106955
 20
-2926.559100938023
 30
0.0
 11
-4671.342328294819
 21
-2927.055975162536
 31
0.0
  0
LINE
  5
ED
100
AcDbEntity
  8
WHITE
  6
CONTINUOUS
 62
          15
100
AcDbLine
 10
-4671.342328294819
 20
-2927.055975162536
 30
0.0
 11
-4672.336076743844
 21
-2926.944332786806
 31
0.0
  0
LINE
  5
EE
100
AcDbEntity
  8
WHITE
  6
CONTINUOUS
 62
          15
100
AcDbLine
 10
-4671.342328294819
 20
-2927.055975162536
 30
0.0
 11
-4676.47787757838
 21
-2972.768403817729
 31
0.0
  0
LINE
  5
EF
100
AcDbEntity
  8
WHITE
  6
CONTINUOUS
 62
          15
100
AcDbLine
 10
-4676.47787757838
 20
-2972.768403817729
 30
0.0
 11
-4677.471626027405
 21
-2972.656761442
 31
0.0
  0
LINE
  5
F0
100
AcDbEntity
  8
WHITE
  6
CONTINUOUS
 62
          15
100
AcDbLine
 10
-4682.362743829655
 20
-2935.578911360791
 30
0.0
 11
-4681.223991597213
 21
-2925.442677180727
 31
0.0
  0
LINE
  5
F1
100
AcDbEntity
  8
WHITE
  6
CONTINUOUS
 62
          15
100
AcDbLine
 10
-4672.28025555598
 20
-2926.447458562293
 30
0.0
 11
-4681.223991597213
 21
-2925.442677180727
 31
0.0
  0
LINE
  5
F2
100
AcDbEntity
  8
WHITE
  6
CONTINUOUS
 62
          15
100
AcDbLine
 10
-4594.767876531958
 20
-2935.1555638692
 30
0.0
 11
-4671.286507106955
 21
-2926.559100938023
 31
0.0
  0
LINE
  5
F3
100
AcDbEntity
  8
WHITE
  6
CONTINUOUS
 62
          15
100
AcDbLine
 10
-4682.362743829655
 20
-2935.578911360791
 30
0.0
 11
-4681.865869605143
 21
-2935.634732548655
 31
0.0
  0
LINE
  5
F4
100
AcDbEntity
  8
WHITE
  6
CONTINUOUS
 62
          15
100
AcDbLine
 10
-4681.865869605143
 20
-2935.634732548655
 30
0.0
 11
-4685.974309031991
 21
-2972.204675472811
 31
0.0
  0
LINE
  5
F5
100
AcDbEntity
  8
WHITE
  6
CONTINUOUS
 62
          15
100
AcDbLine
 10
-4600.015068191247
 20
-2981.861740973419
 30
0.0
 11
-4594.767876531958
 21
-2935.1555638692
 31
0.0
  0
LINE
  5
F6
100
AcDbEntity
  8
WHITE
  6
CONTINUOUS
 62
          15
100
AcDbLine
 10
-4676.533698766245
 20
-2973.265278042242
 30
0.0
 11
-4600.015068191247
 21
-2981.861740973419
 31
0.0
  0
LINE
  5
F7
100
AcDbEntity
  8
WHITE
  6
CONTINUOUS
 62
          15
100
AcDbLine
 10
-4676.47787757838
 20
-2972.768403817729
 30
0.0
 11
-4676.533698766245
 21
-2973.265278042242
 31
0.0
  0
LINE
  5
F8
100
AcDbEntity
  8
WHITE
  6
CONTINUOUS
 62
          15
100
AcDbLine
 10
-4699.20031801265
 20
-2955.574125679026
 30
0.0
 11
-4698.61419554007
 21
-2950.35694632164
 31
0.0
  0
LINE
  5
F9
100
AcDbEntity
  8
WHITE
  6
CONTINUOUS
 62
          15
100
AcDbLine
 10
-4700.344652363878
 20
-2965.760047281542
 30
0.0
 11
-4696.883738716261
 21
-2934.953845361738
 31
0.0
  0
LINE
  5
FA
100
AcDbEntity
  8
WHITE
  6
CONTINUOUS
 62
          15
100
AcDbLine
 10
-4695.778347891506
 20
-2934.071739288441
 30
0.0
 11
-4692.300228319915
 21
-2934.462487603495
 31
0.0
  0
LINE
  5
FB
100
AcDbEntity
  8
WHITE
  6
CONTINUOUS
 62
          15
100
AcDbLine
 10
-4699.462546290582
 20
-2966.865438106298
 30
0.0
 11
-4685.550068004219
 21
-2968.428431366512
 31
0.0
  0
LINE
  5
FC
100
AcDbEntity
  8
WHITE
  6
CONTINUOUS
 62
           1
100
AcDbLine
 10
-4726.204309208666
 20
-2972.012098774438
 30
0.0
 11
-4708.316837126198
 21
-2974.021661537571
 31
0.0
  0
LINE
  5
FD
100
AcDbEntity
  8
WHITE
  6
CONTINUOUS
 62
           1
100
AcDbLine
 10
-4708.316837126198
 20
-2974.021661537571
 30
0.0
 11
-4708.846100770176
 21
-2973.358427042719
 31
0.0
  0
LINE
  5
FE
100
AcDbEntity
  8
WHITE
  6
CONTINUOUS
 62
           1
100
AcDbLine
 10
-4708.846100770176
 20
-2973.358427042719
 30
0.0
 11
-4708.182866275323
 21
-2972.829163398741
 31
0.0
  0
LINE
  5
FF
100
AcDbEntity
  8
WHITE
  6
CONTINUOUS
 62
           1
100
AcDbLine
 10
-4708.182866275323
 20
-2972.829163398741
 30
0.0
 11
-4726.07033835779
 21
-2970.819600635608
 31
0.0
  0
LINE
  5
100
100
AcDbEntity
  8
WHITE
  6
CONTINUOUS
 62
           1
100
AcDbLine
 10
-4726.07033835779
 20
-2970.819600635608
 30
0.0
 11
-4725.541074713812
 21
-2971.482835130462
 31
0.0
  0
LINE
  5
101
100
AcDbEntity
  8
WHITE
  6
CONTINUOUS
 62
           1
100
AcDbLine
 10
-4725.541074713812
 20
-2971.482835130462
 30
0.0
 11
-4726.204309208666
 21
-2972.012098774438
 31
0.0
  0
LINE
  5
102
100
AcDbEntity
  8
WHITE
  6
CONTINUOUS
 62
           1
100
AcDbLine
 10
-4725.541074713812
 20
-2971.482835130462
 30
0.0
 11
-4708.846100770176
 21
-2973.358427042719
 31
0.0
  0
LINE
  5
103
100
AcDbEntity
  8
WHITE
  6
CONTINUOUS
 62
           1
100
AcDbLine
 10
-4725.764359465271
 20
-2973.470332028514
 30
0.0
 11
-4726.29362310925
 21
-2972.80709753366
 31
0.0
  0
LINE
  5
104
100
AcDbEntity
  8
WHITE
  6
CONTINUOUS
 62
           1
100
AcDbLine
 10
-4726.29362310925
 20
-2972.80709753366
 30
0.0
 11
-4708.406151026782
 21
-2974.816660296793
 31
0.0
  0
LINE
  5
105
100
AcDbEntity
  8
WHITE
  6
CONTINUOUS
 62
           1
100
AcDbLine
 10
-4708.406151026782
 20
-2974.816660296793
 30
0.0
 11
-4709.069385521635
 21
-2975.345923940771
 31
0.0
  0
LINE
  5
106
100
AcDbEntity
  8
WHITE
  6
CONTINUOUS
 62
           1
100
AcDbLine
 10
-4709.069385521635
 20
-2975.345923940771
 30
0.0
 11
-4708.540121877658
 21
-2976.009158435623
 31
0.0
  0
LINE
  5
107
100
AcDbEntity
  8
WHITE
  6
CONTINUOUS
 62
           1
100
AcDbLine
 10
-4708.540121877658
 20
-2976.009158435623
 30
0.0
 11
-4726.427593960125
 21
-2973.99959567249
 31
0.0
  0
LINE
  5
108
100
AcDbEntity
  8
WHITE
  6
CONTINUOUS
 62
           1
100
AcDbLine
 10
-4726.427593960125
 20
-2973.99959567249
 30
0.0
 11
-4725.764359465271
 21
-2973.470332028514
 31
0.0
  0
LINE
  5
109
100
AcDbEntity
  8
WHITE
  6
CONTINUOUS
 62
           1
100
AcDbLine
 10
-4709.069385521635
 20
-2975.345923940771
 30
0.0
 11
-4725.764359465271
 21
-2973.470332028514
 31
0.0
  0
LINE
  5
10A
100
AcDbEntity
  8
WHITE
  6
CONTINUOUS
 62
           1
100
AcDbLine
 10
-4725.98764421673
 20
-2975.457828926565
 30
0.0
 11
-4726.516907860709
 21
-2974.794594431712
 31
0.0
  0
LINE
  5
10B
100
AcDbEntity
  8
WHITE
  6
CONTINUOUS
 62
           1
100
AcDbLine
 10
-4726.516907860709
 20
-2974.794594431712
 30
0.0
 11
-4708.629435778242
 21
-2976.804157194845
 31
0.0
  0
LINE
  5
10C
100
AcDbEntity
  8
WHITE
  6
CONTINUOUS
 62
           1
100
AcDbLine
 10
-4708.629435778242
 20
-2976.804157194845
 30
0.0
 11
-4709.292670273095
 21
-2977.333420838822
 31
0.0
  0
LINE
  5
10D
100
AcDbEntity
  8
WHITE
  6
CONTINUOUS
 62
           1
100
AcDbLine
 10
-4709.292670273095
 20
-2977.333420838822
 30
0.0
 11
-4708.763406629118
 21
-2977.996655333675
 31
0.0
  0
LINE
  5
10E
100
AcDbEntity
  8
WHITE
  6
CONTINUOUS
 62
           1
100
AcDbLine
 10
-4708.763406629118
 20
-2977.996655333675
 30
0.0
 11
-4726.650878711584
 21
-2975.987092570542
 31
0.0
  0
LINE
  5
10F
100
AcDbEntity
  8
WHITE
  6
CONTINUOUS
 62
           1
100
AcDbLine
 10
-4726.650878711584
 20
-2975.987092570542
 30
0.0
 11
-4725.98764421673
 21
-2975.457828926565
 31
0.0
  0
LINE
  5
110
100
AcDbEntity
  8
WHITE
  6
CONTINUOUS
 62
           1
100
AcDbLine
 10
-4726.210928968189
 20
-2977.445325824617
 30
0.0
 11
-4726.740192612167
 21
-2976.782091329764
 31
0.0
  0
LINE
  5
111
100
AcDbEntity
  8
WHITE
  6
CONTINUOUS
 62
           1
100
AcDbLine
 10
-4726.740192612167
 20
-2976.782091329764
 30
0.0
 11
-4720.685363519669
 21
-2977.462319314206
 31
0.0
  0
LINE
  5
112
100
AcDbEntity
  8
WHITE
  6
CONTINUOUS
 62
           1
100
AcDbLine
 10
-4708.852720529701
 20
-2978.791654092896
 30
0.0
 11
-4709.515955024554
 21
-2979.320917736874
 31
0.0
  0
LINE
  5
113
100
AcDbEntity
  8
WHITE
  6
CONTINUOUS
 62
           1
100
AcDbLine
 10
-4709.515955024554
 20
-2979.320917736874
 30
0.0
 11
-4708.986691380576
 21
-2979.984152231727
 31
0.0
  0
LINE
  5
114
100
AcDbEntity
  8
WHITE
  6
CONTINUOUS
 62
           1
100
AcDbLine
 10
-4708.986691380576
 20
-2979.984152231727
 30
0.0
 11
-4715.041520473073
 21
-2979.303924247285
 31
0.0
  0
LINE
  5
115
100
AcDbEntity
  8
WHITE
  6
CONTINUOUS
 62
           1
100
AcDbLine
 10
-4726.874163463042
 20
-2977.974589468594
 30
0.0
 11
-4726.210928968189
 21
-2977.445325824617
 31
0.0
  0
LINE
  5
116
100
AcDbEntity
  8
WHITE
  6
CONTINUOUS
 62
           1
100
AcDbLine
 10
-4726.434213719649
 20
-2979.432822722668
 30
0.0
 11
-4726.963477363626
 21
-2978.769588227816
 31
0.0
  0
LINE
  5
117
100
AcDbEntity
  8
WHITE
  6
CONTINUOUS
 62
           1
100
AcDbLine
 10
-4726.963477363626
 20
-2978.769588227816
 30
0.0
 11
-4721.650199361437
 21
-2979.366506874237
 31
0.0
  0
LINE
  5
118
100
AcDbEntity
  8
WHITE
  6
CONTINUOUS
 62
           1
100
AcDbLine
 10
-4709.07600528116
 20
-2980.779150990948
 30
0.0
 11
-4709.739239776012
 21
-2981.308414634925
 31
0.0
  0
LINE
  5
119
100
AcDbEntity
  8
WHITE
  6
CONTINUOUS
 62
           1
100
AcDbLine
 10
-4726.210928968189
 20
-2977.445325824617
 30
0.0
 11
-4720.156099875692
 21
-2978.125553809059
 31
0.0
  0
LINE
  5
11A
100
AcDbEntity
  8
WHITE
  6
CONTINUOUS
 62
           1
100
AcDbLine
 10
-4725.98764421673
 20
-2975.457828926565
 30
0.0
 11
-4709.292670273095
 21
-2977.333420838822
 31
0.0
  0
LINE
  5
11B
100
AcDbEntity
  8
WHITE
  6
CONTINUOUS
 62
           1
100
AcDbLine
 10
-4720.819334370544
 20
-2978.654817453036
 30
0.0
 11
-4720.156099875692
 21
-2978.125553809059
 31
0.0
  0
LINE
  5
11C
100
AcDbEntity
  8
WHITE
  6
CONTINUOUS
 62
           1
100
AcDbLine
 10
-4720.819334370544
 20
-2978.654817453036
 30
0.0
 11
-4726.874163463042
 21
-2977.974589468594
 31
0.0
  0
LINE
  5
11D
100
AcDbEntity
  8
WHITE
  6
CONTINUOUS
 62
           1
100
AcDbLine
 10
-4720.156099875692
 20
-2978.125553809059
 30
0.0
 11
-4720.685363519669
 21
-2977.462319314206
 31
0.0
  0
LINE
  5
11E
100
AcDbEntity
  8
WHITE
  6
CONTINUOUS
 62
           1
100
AcDbLine
 10
-4721.650199361437
 20
-2979.366506874237
 30
0.0
 11
-4721.120935717459
 21
-2980.02974136909
 31
0.0
  0
LINE
  5
11F
100
AcDbEntity
  8
WHITE
  6
CONTINUOUS
 62
           1
100
AcDbLine
 10
-4715.052517778202
 20
-2980.711495988503
 30
0.0
 11
-4714.389283283348
 21
-2980.182232344526
 31
0.0
  0
LINE
  5
120
100
AcDbEntity
  8
WHITE
  6
CONTINUOUS
 62
           1
100
AcDbLine
 10
-4714.389283283348
 20
-2980.182232344526
 30
0.0
 11
-4709.07600528116
 21
-2980.779150990948
 31
0.0
  0
LINE
  5
121
100
AcDbEntity
  8
WHITE
  6
CONTINUOUS
 62
           1
100
AcDbLine
 10
-4715.041520473073
 20
-2979.303924247285
 30
0.0
 11
-4715.570784117052
 21
-2978.640689752433
 31
0.0
  0
LINE
  5
122
100
AcDbEntity
  8
WHITE
  6
CONTINUOUS
 62
           1
100
AcDbLine
 10
-4715.570784117052
 20
-2978.640689752433
 30
0.0
 11
-4709.515955024554
 21
-2979.320917736874
 31
0.0
  0
LINE
  5
123
100
AcDbEntity
  8
WHITE
  6
CONTINUOUS
 62
           1
100
AcDbLine
 10
-4715.570784117052
 20
-2978.640689752433
 30
0.0
 11
-4714.907549622198
 21
-2978.111426108455
 31
0.0
  0
LINE
  5
124
100
AcDbEntity
  8
WHITE
  6
CONTINUOUS
 62
           1
100
AcDbLine
 10
-4714.907549622198
 20
-2978.111426108455
 30
0.0
 11
-4708.852720529701
 21
-2978.791654092896
 31
0.0
  0
LINE
  5
125
100
AcDbEntity
  8
WHITE
  6
CONTINUOUS
 62
           1
100
AcDbLine
 10
-4726.740192612167
 20
-2976.782091329764
 30
0.0
 11
-4726.874163463042
 21
-2977.974589468594
 31
0.0
  0
LINE
  5
126
100
AcDbEntity
  8
WHITE
  6
CONTINUOUS
 62
           1
100
AcDbLine
 10
-4726.650878711584
 20
-2975.987092570542
 30
0.0
 11
-4726.516907860709
 21
-2974.794594431712
 31
0.0
  0
LINE
  5
127
100
AcDbEntity
  8
WHITE
  6
CONTINUOUS
 62
           1
100
AcDbLine
 10
-4726.427593960125
 20
-2973.99959567249
 30
0.0
 11
-4726.29362310925
 21
-2972.80709753366
 31
0.0
  0
LINE
  5
128
100
AcDbEntity
  8
WHITE
  6
CONTINUOUS
 62
           1
100
AcDbLine
 10
-4726.204309208666
 20
-2972.012098774438
 30
0.0
 11
-4726.07033835779
 21
-2970.819600635608
 31
0.0
  0
LINE
  5
129
100
AcDbEntity
  8
WHITE
  6
CONTINUOUS
 62
           1
100
AcDbLine
 10
-4726.963477363626
 20
-2978.769588227816
 30
0.0
 11
-4727.030462789065
 21
-2979.36583729723
 31
0.0
  0
LINE
  5
12A
100
AcDbEntity
  8
WHITE
  6
CONTINUOUS
 62
           1
100
AcDbLine
 10
-4709.142990706598
 20
-2981.375400060363
 30
0.0
 11
-4709.07600528116
 21
-2980.779150990948
 31
0.0
  0
LINE
  5
12B
100
AcDbEntity
  8
WHITE
  6
CONTINUOUS
 62
           1
100
AcDbLine
 10
-4708.986691380576
 20
-2979.984152231727
 30
0.0
 11
-4708.852720529701
 21
-2978.791654092896
 31
0.0
  0
LINE
  5
12C
100
AcDbEntity
  8
WHITE
  6
CONTINUOUS
 62
           1
100
AcDbLine
 10
-4708.763406629118
 20
-2977.996655333675
 30
0.0
 11
-4708.629435778242
 21
-2976.804157194845
 31
0.0
  0
LINE
  5
12D
100
AcDbEntity
  8
WHITE
  6
CONTINUOUS
 62
           1
100
AcDbLine
 10
-4708.540121877658
 20
-2976.009158435623
 30
0.0
 11
-4708.406151026782
 21
-2974.816660296793
 31
0.0
  0
LINE
  5
12E
100
AcDbEntity
  8
WHITE
  6
CONTINUOUS
 62
           1
100
AcDbLine
 10
-4708.316837126198
 20
-2974.021661537571
 30
0.0
 11
-4708.182866275323
 21
-2972.829163398741
 31
0.0
  0
LINE
  5
12F
100
AcDbEntity
  8
WHITE
  6
CONTINUOUS
 62
           1
100
AcDbLine
 10
-4710.103115137872
 20
-2989.921636721986
 30
0.0
 11
-4709.969144286997
 21
-2988.729138583156
 31
0.0
  0
LINE
  5
130
100
AcDbEntity
  8
WHITE
  6
CONTINUOUS
 62
           1
100
AcDbLine
 10
-4709.879830386413
 20
-2987.934139823934
 30
0.0
 11
-4709.745859535537
 21
-2986.741641685104
 31
0.0
  0
LINE
  5
131
100
AcDbEntity
  8
WHITE
  6
CONTINUOUS
 62
           1
100
AcDbLine
 10
-4709.656545634954
 20
-2985.946642925882
 30
0.0
 11
-4709.522574784078
 21
-2984.754144787052
 31
0.0
  0
LINE
  5
132
100
AcDbEntity
  8
WHITE
  6
CONTINUOUS
 62
           1
100
AcDbLine
 10
-4709.433260883494
 20
-2983.95914602783
 30
0.0
 11
-4709.299290032619
 21
-2982.766647889
 31
0.0
  0
LINE
  5
133
100
AcDbEntity
  8
WHITE
  6
CONTINUOUS
 62
           1
100
AcDbLine
 10
-4709.209976132035
 20
-2981.971649129778
 30
0.0
 11
-4709.142990706598
 21
-2981.375400060363
 31
0.0
  0
LINE
  5
134
100
AcDbEntity
  8
WHITE
  6
CONTINUOUS
 62
           1
100
AcDbLine
 10
-4727.030462789065
 20
-2979.36583729723
 30
0.0
 11
-4727.097448214502
 21
-2979.962086366646
 31
0.0
  0
LINE
  5
135
100
AcDbEntity
  8
WHITE
  6
CONTINUOUS
 62
           1
100
AcDbLine
 10
-4727.990587220339
 20
-2987.912073958853
 30
0.0
 11
-4727.856616369463
 21
-2986.719575820024
 31
0.0
  0
LINE
  5
136
100
AcDbEntity
  8
WHITE
  6
CONTINUOUS
 62
           1
100
AcDbLine
 10
-4727.767302468879
 20
-2985.924577060802
 30
0.0
 11
-4727.633331618004
 21
-2984.732078921972
 31
0.0
  0
LINE
  5
137
100
AcDbEntity
  8
WHITE
  6
CONTINUOUS
 62
           1
100
AcDbLine
 10
-4727.544017717421
 20
-2983.93708016275
 30
0.0
 11
-4727.410046866546
 21
-2982.74458202392
 31
0.0
  0
LINE
  5
138
100
AcDbEntity
  8
WHITE
  6
CONTINUOUS
 62
           1
100
AcDbLine
 10
-4727.186762115086
 20
-2980.757085125868
 30
0.0
 11
-4727.320732965962
 21
-2981.949583264698
 31
0.0
  0
LINE
  5
139
100
AcDbEntity
  8
WHITE
  6
CONTINUOUS
 62
           1
100
AcDbLine
 10
-4709.433260883494
 20
-2983.95914602783
 30
0.0
 11
-4715.488089975991
 21
-2983.278918043389
 31
0.0
  0
LINE
  5
13A
100
AcDbEntity
  8
WHITE
  6
CONTINUOUS
 62
           1
100
AcDbLine
 10
-4715.488089975991
 20
-2983.278918043389
 30
0.0
 11
-4716.017353619969
 21
-2982.615683548535
 31
0.0
  0
LINE
  5
13B
100
AcDbEntity
  8
WHITE
  6
CONTINUOUS
 62
           1
100
AcDbLine
 10
-4709.962524527472
 20
-2983.295911532977
 30
0.0
 11
-4716.017353619969
 21
-2982.615683548535
 31
0.0
  0
LINE
  5
13C
100
AcDbEntity
  8
WHITE
  6
CONTINUOUS
 62
           1
100
AcDbLine
 10
-4716.017353619969
 20
-2982.615683548535
 30
0.0
 11
-4715.354119125115
 21
-2982.086419904559
 31
0.0
  0
LINE
  5
13D
100
AcDbEntity
  8
WHITE
  6
CONTINUOUS
 62
           1
100
AcDbLine
 10
-4709.209976132035
 20
-2981.971649129778
 30
0.0
 11
-4714.523254134224
 21
-2981.374730483356
 31
0.0
  0
LINE
  5
13E
100
AcDbEntity
  8
WHITE
  6
CONTINUOUS
 62
           1
100
AcDbLine
 10
-4714.523254134224
 20
-2981.374730483356
 30
0.0
 11
-4715.052517778202
 21
-2980.711495988503
 31
0.0
  0
LINE
  5
13F
100
AcDbEntity
  8
WHITE
  6
CONTINUOUS
 62
           1
100
AcDbLine
 10
-4726.434213719649
 20
-2979.432822722668
 30
0.0
 11
-4721.120935717459
 21
-2980.02974136909
 31
0.0
  0
LINE
  5
140
100
AcDbEntity
  8
WHITE
  6
CONTINUOUS
 62
           1
100
AcDbLine
 10
-4721.120935717459
 20
-2980.02974136909
 30
0.0
 11
-4721.784170212312
 21
-2980.559005013067
 31
0.0
  0
LINE
  5
141
100
AcDbEntity
  8
WHITE
  6
CONTINUOUS
 62
           1
100
AcDbLine
 10
-4721.265903873464
 20
-2982.62981124914
 30
0.0
 11
-4720.602669378611
 21
-2982.100547605162
 31
0.0
  0
LINE
  5
142
100
AcDbEntity
  8
WHITE
  6
CONTINUOUS
 62
           1
100
AcDbLine
 10
-4727.186762115086
 20
-2980.757085125868
 30
0.0
 11
-4721.131933022588
 21
-2981.43731311031
 31
0.0
  0
LINE
  5
143
100
AcDbEntity
  8
WHITE
  6
CONTINUOUS
 62
           1
100
AcDbLine
 10
-4720.602669378611
 20
-2982.100547605162
 30
0.0
 11
-4721.131933022588
 21
-2981.43731311031
 31
0.0
  0
LINE
  5
144
100
AcDbEntity
  8
WHITE
  6
CONTINUOUS
 62
           1
100
AcDbLine
 10
-4710.185809278931
 20
-2985.283408431029
 30
0.0
 11
-4726.880783222567
 21
-2983.407816518772
 31
0.0
  0
LINE
  5
145
100
AcDbEntity
  8
WHITE
  6
CONTINUOUS
 62
           1
100
AcDbLine
 10
-4720.602669378611
 20
-2982.100547605162
 30
0.0
 11
-4726.657498471108
 21
-2981.42031962072
 31
0.0
  0
LINE
  5
146
100
AcDbEntity
  8
WHITE
  6
CONTINUOUS
 62
           1
100
AcDbLine
 10
-4715.052517778202
 20
-2980.711495988503
 30
0.0
 11
-4709.739239776012
 21
-2981.308414634925
 31
0.0
  0
LINE
  5
147
100
AcDbEntity
  8
WHITE
  6
CONTINUOUS
 62
           1
100
AcDbLine
 10
-4709.739239776012
 20
-2981.308414634925
 30
0.0
 11
-4709.209976132035
 21
-2981.971649129778
 31
0.0
  0
LINE
  5
148
100
AcDbEntity
  8
WHITE
  6
CONTINUOUS
 62
           1
100
AcDbLine
 10
-4721.784170212312
 20
-2980.559005013067
 30
0.0
 11
-4727.097448214502
 21
-2979.962086366646
 31
0.0
  0
LINE
  5
149
100
AcDbEntity
  8
WHITE
  6
CONTINUOUS
 62
           1
100
AcDbLine
 10
-4727.097448214502
 20
-2979.962086366646
 30
0.0
 11
-4726.434213719649
 21
-2979.432822722668
 31
0.0
  0
LINE
  5
14A
100
AcDbEntity
  8
WHITE
  6
CONTINUOUS
 62
           1
100
AcDbLine
 10
-4726.657498471108
 20
-2981.42031962072
 30
0.0
 11
-4727.186762115086
 21
-2980.757085125868
 31
0.0
  0
LINE
  5
14B
100
AcDbEntity
  8
WHITE
  6
CONTINUOUS
 62
           1
100
AcDbLine
 10
-4715.354119125115
 20
-2982.086419904559
 30
0.0
 11
-4709.299290032619
 21
-2982.766647889
 31
0.0
  0
LINE
  5
14C
100
AcDbEntity
  8
WHITE
  6
CONTINUOUS
 62
           1
100
AcDbLine
 10
-4709.299290032619
 20
-2982.766647889
 30
0.0
 11
-4709.962524527472
 21
-2983.295911532977
 31
0.0
  0
LINE
  5
14D
100
AcDbEntity
  8
WHITE
  6
CONTINUOUS
 62
           1
100
AcDbLine
 10
-4709.962524527472
 20
-2983.295911532977
 30
0.0
 11
-4709.433260883494
 21
-2983.95914602783
 31
0.0
  0
LINE
  5
14E
100
AcDbEntity
  8
WHITE
  6
CONTINUOUS
 62
           1
100
AcDbLine
 10
-4721.265903873464
 20
-2982.62981124914
 30
0.0
 11
-4727.320732965962
 21
-2981.949583264698
 31
0.0
  0
LINE
  5
14F
100
AcDbEntity
  8
WHITE
  6
CONTINUOUS
 62
           1
100
AcDbLine
 10
-4727.320732965962
 20
-2981.949583264698
 30
0.0
 11
-4726.657498471108
 21
-2981.42031962072
 31
0.0
  0
LINE
  5
150
100
AcDbEntity
  8
WHITE
  6
CONTINUOUS
 62
           1
100
AcDbLine
 10
-4726.880783222567
 20
-2983.407816518772
 30
0.0
 11
-4727.410046866546
 21
-2982.74458202392
 31
0.0
  0
LINE
  5
151
100
AcDbEntity
  8
WHITE
  6
CONTINUOUS
 62
           1
100
AcDbLine
 10
-4727.410046866546
 20
-2982.74458202392
 30
0.0
 11
-4709.522574784078
 21
-2984.754144787052
 31
0.0
  0
LINE
  5
152
100
AcDbEntity
  8
WHITE
  6
CONTINUOUS
 62
           1
100
AcDbLine
 10
-4709.522574784078
 20
-2984.754144787052
 30
0.0
 11
-4710.185809278931
 21
-2985.283408431029
 31
0.0
  0
LINE
  5
153
100
AcDbEntity
  8
WHITE
  6
CONTINUOUS
 62
           1
100
AcDbLine
 10
-4710.185809278931
 20
-2985.283408431029
 30
0.0
 11
-4709.656545634954
 21
-2985.946642925882
 31
0.0
  0
LINE
  5
154
100
AcDbEntity
  8
WHITE
  6
CONTINUOUS
 62
           1
100
AcDbLine
 10
-4709.656545634954
 20
-2985.946642925882
 30
0.0
 11
-4727.544017717421
 21
-2983.93708016275
 31
0.0
  0
LINE
  5
155
100
AcDbEntity
  8
WHITE
  6
CONTINUOUS
 62
           1
100
AcDbLine
 10
-4727.544017717421
 20
-2983.93708016275
 30
0.0
 11
-4726.880783222567
 21
-2983.407816518772
 31
0.0
  0
LINE
  5
156
100
AcDbEntity
  8
WHITE
  6
CONTINUOUS
 62
           1
100
AcDbLine
 10
-4727.104067974025
 20
-2985.395313416824
 30
0.0
 11
-4710.40909403039
 21
-2987.270905329081
 31
0.0
  0
LINE
  5
157
100
AcDbEntity
  8
WHITE
  6
CONTINUOUS
 62
           1
100
AcDbLine
 10
-4727.104067974025
 20
-2985.395313416824
 30
0.0
 11
-4727.633331618004
 21
-2984.732078921972
 31
0.0
  0
LINE
  5
158
100
AcDbEntity
  8
WHITE
  6
CONTINUOUS
 62
           1
100
AcDbLine
 10
-4727.633331618004
 20
-2984.732078921972
 30
0.0
 11
-4709.745859535537
 21
-2986.741641685104
 31
0.0
  0
LINE
  5
159
100
AcDbEntity
  8
WHITE
  6
CONTINUOUS
 62
           1
100
AcDbLine
 10
-4709.745859535537
 20
-2986.741641685104
 30
0.0
 11
-4710.40909403039
 21
-2987.270905329081
 31
0.0
  0
LINE
  5
15A
100
AcDbEntity
  8
WHITE
  6
CONTINUOUS
 62
           1
100
AcDbLine
 10
-4710.40909403039
 20
-2987.270905329081
 30
0.0
 11
-4709.879830386413
 21
-2987.934139823934
 31
0.0
  0
LINE
  5
15B
100
AcDbEntity
  8
WHITE
  6
CONTINUOUS
 62
           1
100
AcDbLine
 10
-4709.879830386413
 20
-2987.934139823934
 30
0.0
 11
-4727.767302468879
 21
-2985.924577060802
 31
0.0
  0
LINE
  5
15C
100
AcDbEntity
  8
WHITE
  6
CONTINUOUS
 62
           1
100
AcDbLine
 10
-4727.767302468879
 20
-2985.924577060802
 30
0.0
 11
-4727.104067974025
 21
-2985.395313416824
 31
0.0
  0
LINE
  5
15D
100
AcDbEntity
  8
WHITE
  6
CONTINUOUS
 62
           1
100
AcDbLine
 10
-4710.632378781849
 20
-2989.258402227133
 30
0.0
 11
-4727.327352725485
 21
-2987.382810314876
 31
0.0
  0
LINE
  5
15E
100
AcDbEntity
  8
WHITE
  6
CONTINUOUS
 62
           1
100
AcDbLine
 10
-4727.856616369463
 20
-2986.719575820024
 30
0.0
 11
-4727.327352725485
 21
-2987.382810314876
 31
0.0
  0
LINE
  5
15F
100
AcDbEntity
  8
WHITE
  6
CONTINUOUS
 62
           1
100
AcDbLine
 10
-4727.327352725485
 20
-2987.382810314876
 30
0.0
 11
-4727.990587220339
 21
-2987.912073958853
 31
0.0
  0
LINE
  5
160
100
AcDbEntity
  8
WHITE
  6
CONTINUOUS
 62
           1
100
AcDbLine
 10
-4727.990587220339
 20
-2987.912073958853
 30
0.0
 11
-4710.103115137872
 21
-2989.921636721986
 31
0.0
  0
LINE
  5
161
100
AcDbEntity
  8
WHITE
  6
CONTINUOUS
 62
           1
100
AcDbLine
 10
-4710.103115137872
 20
-2989.921636721986
 30
0.0
 11
-4710.632378781849
 21
-2989.258402227133
 31
0.0
  0
LINE
  5
162
100
AcDbEntity
  8
WHITE
  6
CONTINUOUS
 62
           1
100
AcDbLine
 10
-4710.632378781849
 20
-2989.258402227133
 30
0.0
 11
-4709.969144286997
 21
-2988.729138583156
 31
0.0
  0
LINE
  5
163
100
AcDbEntity
  8
WHITE
  6
CONTINUOUS
 62
           1
100
AcDbLine
 10
-4709.969144286997
 20
-2988.729138583156
 30
0.0
 11
-4727.856616369463
 21
-2986.719575820024
 31
0.0
  0
LINE
  5
164
100
AcDbEntity
  8
WHITE
  6
CONTINUOUS
 62
          15
100
AcDbLine
 10
-4754.158391799851
 20
-2989.830836560457
 30
0.0
 11
-4753.260950155376
 21
-2988.614021016568
 31
0.0
  0
LINE
  5
165
100
AcDbEntity
  8
WHITE
  6
CONTINUOUS
 62
          15
100
AcDbLine
 10
-4749.043464907729
 20
-2989.087833149923
 30
0.0
 11
-4753.260950155376
 21
-2988.614021016568
 31
0.0
  0
LINE
  5
166
100
AcDbEntity
  8
WHITE
  6
CONTINUOUS
 62
          15
100
AcDbLine
 10
-4753.260950155376
 20
-2988.614021016568
 30
0.0
 11
-4753.719837858875
 21
-2985.927190692911
 31
0.0
  0
LINE
  5
167
100
AcDbEntity
  8
WHITE
  6
CONTINUOUS
 62
          15
100
AcDbLine
 10
-4753.273268355955
 20
-2981.952196896808
 30
0.0
 11
-4752.229642064489
 21
-2979.434166063738
 31
0.0
  0
LINE
  5
168
100
AcDbEntity
  8
WHITE
  6
CONTINUOUS
 62
          15
100
AcDbLine
 10
-4748.012156816842
 20
-2979.907978197093
 30
0.0
 11
-4752.229642064489
 21
-2979.434166063738
 31
0.0
  0
LINE
  5
169
100
AcDbEntity
  8
WHITE
  6
CONTINUOUS
 62
          15
100
AcDbLine
 10
-4752.229642064489
 20
-2979.434166063738
 30
0.0
 11
-4752.834714414979
 21
-2978.048551029264
 31
0.0
  0
LINE
  5
16A
100
AcDbEntity
  8
WHITE
  6
CONTINUOUS
 62
          15
100
AcDbLine
 10
-4753.776604200819
 20
-2993.203948492983
 30
0.0
 11
-4754.381676551309
 21
-2991.818333458509
 31
0.0
  0
LINE
  5
16B
100
AcDbEntity
  8
WHITE
  6
CONTINUOUS
 62
          15
100
AcDbLine
 10
-4747.496502771399
 20
-2975.318050720677
 30
0.0
 11
-4751.713988019044
 21
-2974.844238587321
 31
0.0
  0
LINE
  5
16C
100
AcDbEntity
  8
WHITE
  6
CONTINUOUS
 62
          15
100
AcDbLine
 10
-4752.611429663521
 20
-2976.061054131212
 30
0.0
 11
-4751.713988019044
 21
-2974.844238587321
 31
0.0
  0
LINE
  5
16D
100
AcDbEntity
  8
WHITE
  6
CONTINUOUS
 62
          15
100
AcDbLine
 10
-4749.559118953173
 20
-2993.677760626339
 30
0.0
 11
-4749.41293430618
 21
-2992.376545337157
 31
0.0
  0
LINE
  5
16E
100
AcDbEntity
  8
WHITE
  6
CONTINUOUS
 62
          15
100
AcDbLine
 10
-4754.158391799851
 20
-2989.830836560457
 30
0.0
 11
-4754.381676551309
 21
-2991.818333458509
 31
0.0
  0
LINE
  5
16F
100
AcDbEntity
  8
WHITE
  6
CONTINUOUS
 62
          15
100
AcDbLine
 10
-4749.41293430618
 20
-2992.376545337157
 30
0.0
 11
-4754.381676551309
 21
-2991.818333458509
 31
0.0
  0
LINE
  5
170
100
AcDbEntity
  8
WHITE
  6
CONTINUOUS
 62
          15
100
AcDbLine
 10
-4749.41293430618
 20
-2992.376545337157
 30
0.0
 11
-4749.189649554721
 21
-2990.389048439105
 31
0.0
  0
LINE
  5
171
100
AcDbEntity
  8
WHITE
  6
CONTINUOUS
 62
          15
100
AcDbLine
 10
-4753.719837858875
 20
-2985.927190692911
 30
0.0
 11
-4754.158391799851
 21
-2989.830836560457
 31
0.0
  0
LINE
  5
172
100
AcDbEntity
  8
WHITE
  6
CONTINUOUS
 62
          15
100
AcDbLine
 10
-4749.189649554721
 20
-2990.389048439105
 30
0.0
 11
-4754.158391799851
 21
-2989.830836560457
 31
0.0
  0
LINE
  5
173
100
AcDbEntity
  8
WHITE
  6
CONTINUOUS
 62
          15
100
AcDbLine
 10
-4749.189649554721
 20
-2990.389048439105
 30
0.0
 11
-4749.043464907729
 21
-2989.087833149923
 31
0.0
  0
LINE
  5
174
100
AcDbEntity
  8
WHITE
  6
CONTINUOUS
 62
          15
100
AcDbLine
 10
-4749.043464907729
 20
-2989.087833149923
 30
0.0
 11
-4748.751095613745
 21
-2986.485402571559
 31
0.0
  0
LINE
  5
175
100
AcDbEntity
  8
WHITE
  6
CONTINUOUS
 62
          15
100
AcDbLine
 10
-4753.273268355955
 20
-2981.952196896808
 30
0.0
 11
-4753.719837858875
 21
-2985.927190692911
 31
0.0
  0
LINE
  5
176
100
AcDbEntity
  8
WHITE
  6
CONTINUOUS
 62
          15
100
AcDbLine
 10
-4748.751095613745
 20
-2986.485402571559
 30
0.0
 11
-4753.719837858875
 21
-2985.927190692911
 31
0.0
  0
LINE
  5
177
100
AcDbEntity
  8
WHITE
  6
CONTINUOUS
 62
          15
100
AcDbLine
 10
-4748.751095613745
 20
-2986.485402571559
 30
0.0
 11
-4748.304526110826
 21
-2982.510408775456
 31
0.0
  0
LINE
  5
178
100
AcDbEntity
  8
WHITE
  6
CONTINUOUS
 62
          15
100
AcDbLine
 10
-4752.834714414979
 20
-2978.048551029264
 30
0.0
 11
-4753.273268355955
 21
-2981.952196896808
 31
0.0
  0
LINE
  5
179
100
AcDbEntity
  8
WHITE
  6
CONTINUOUS
 62
          15
100
AcDbLine
 10
-4748.304526110826
 20
-2982.510408775456
 30
0.0
 11
-4753.273268355955
 21
-2981.952196896808
 31
0.0
  0
LINE
  5
17A
100
AcDbEntity
  8
WHITE
  6
CONTINUOUS
 62
          15
100
AcDbLine
 10
-4748.304526110826
 20
-2982.510408775456
 30
0.0
 11
-4748.012156816842
 21
-2979.907978197093
 31
0.0
  0
LINE
  5
17B
100
AcDbEntity
  8
WHITE
  6
CONTINUOUS
 62
          15
100
AcDbLine
 10
-4748.012156816842
 20
-2979.907978197093
 30
0.0
 11
-4747.86597216985
 21
-2978.606762907912
 31
0.0
  0
LINE
  5
17C
100
AcDbEntity
  8
WHITE
  6
CONTINUOUS
 62
          15
100
AcDbLine
 10
-4752.611429663521
 20
-2976.061054131212
 30
0.0
 11
-4752.834714414979
 21
-2978.048551029264
 31
0.0
  0
LINE
  5
17D
100
AcDbEntity
  8
WHITE
  6
CONTINUOUS
 62
          15
100
AcDbLine
 10
-4747.86597216985
 20
-2978.606762907912
 30
0.0
 11
-4752.834714414979
 21
-2978.048551029264
 31
0.0
  0
LINE
  5
17E
100
AcDbEntity
  8
WHITE
  6
CONTINUOUS
 62
          15
100
AcDbLine
 10
-4747.86597216985
 20
-2978.606762907912
 30
0.0
 11
-4747.642687418391
 21
-2976.61926600986
 31
0.0
  0
LINE
  5
17F
100
AcDbEntity
  8
WHITE
  6
CONTINUOUS
 62
          15
100
AcDbLine
 10
-4752.611429663521
 20
-2976.061054131212
 30
0.0
 11
-4747.642687418391
 21
-2976.61926600986
 31
0.0
  0
LINE
  5
180
100
AcDbEntity
  8
WHITE
  6
CONTINUOUS
 62
          15
100
AcDbLine
 10
-4753.776604200819
 20
-2993.203948492983
 30
0.0
 11
-4749.559118953173
 21
-2993.677760626339
 31
0.0
  0
LINE
  5
181
100
AcDbEntity
  8
WHITE
  6
CONTINUOUS
 62
          15
100
AcDbLine
 10
-4747.642687418391
 20
-2976.61926600986
 30
0.0
 11
-4747.496502771399
 21
-2975.318050720677
 31
0.0
  0
LINE
  5
182
100
AcDbEntity
  8
WHITE
  6
CONTINUOUS
 62
          15
100
AcDbLine
 10
-4698.61419554007
 20
-2950.35694632164
 30
0.0
 11
-4698.02807306749
 21
-2945.139766964254
 31
0.0
  0
LINE
  5
183
100
AcDbEntity
  8
WHITE
  6
CONTINUOUS
 62
          15
100
AcDbLine
 10
-4700.495566528662
 20
-2953.667602329636
 30
0.0
 11
-4700.886314843716
 21
-2957.145721901228
 31
0.0
  0
LINE
  5
184
100
AcDbEntity
  8
WHITE
  6
CONTINUOUS
 62
          15
100
AcDbLine
 10
-4700.886314843716
 20
-2957.145721901228
 30
0.0
 11
-4700.135052289475
 21
-2957.230122270792
 31
0.0
  0
LINE
  5
185
100
AcDbEntity
  8
WHITE
  6
CONTINUOUS
 62
          15
100
AcDbLine
 10
-4699.714069898555
 20
-2946.711363186455
 30
0.0
 11
-4700.495566528662
 21
-2953.667602329636
 31
0.0
  0
LINE
  5
186
100
AcDbEntity
  8
WHITE
  6
CONTINUOUS
 62
          15
100
AcDbLine
 10
-4700.495566528662
 20
-2953.667602329636
 30
0.0
 11
-4699.744303974421
 21
-2953.752002699201
 31
0.0
  0
LINE
  5
187
100
AcDbEntity
  8
WHITE
  6
CONTINUOUS
 62
          15
100
AcDbLine
 10
-4699.323321583502
 20
-2943.233243614865
 30
0.0
 11
-4699.714069898555
 21
-2946.711363186455
 31
0.0
  0
LINE
  5
188
100
AcDbEntity
  8
WHITE
  6
CONTINUOUS
 62
          15
100
AcDbLine
 10
-4699.714069898555
 20
-2946.711363186455
 30
0.0
 11
-4698.962807344314
 21
-2946.795763556019
 31
0.0
  0
LINE
  5
189
100
AcDbEntity
  8
WHITE
  6
CONTINUOUS
 62
          15
100
AcDbLine
 10
-4698.709288516989
 20
-2937.767627145222
 30
0.0
 11
-4699.323321583502
 21
-2943.233243614865
 31
0.0
  0
LINE
  5
18A
100
AcDbEntity
  8
WHITE
  6
CONTINUOUS
 62
          15
100
AcDbLine
 10
-4699.323321583502
 20
-2943.233243614865
 30
0.0
 11
-4698.57205902926
 21
-2943.31764398443
 31
0.0
  0
LINE
  5
18B
100
AcDbEntity
  8
WHITE
  6
CONTINUOUS
 62
          15
100
AcDbLine
 10
-4744.0916499861
 20
-2978.958539583367
 30
0.0
 11
-4745.431358494854
 21
-2990.883520971679
 31
0.0
  0
LINE
  5
18C
100
AcDbEntity
  8
WHITE
  6
CONTINUOUS
 62
           2
100
AcDbLine
 10
-4745.431358494854
 20
-2990.883520971679
 30
0.0
 11
-4749.197665116662
 21
-2990.460396367664
 31
0.0
  0
LINE
  5
18D
100
AcDbEntity
  8
WHITE
  6
CONTINUOUS
 62
          15
100
AcDbLine
 10
-4743.98000761037
 20
-2977.96479113434
 30
0.0
 11
-4744.0916499861
 21
-2978.958539583367
 31
0.0
  0
LINE
  5
18E
100
AcDbEntity
  8
WHITE
  6
CONTINUOUS
 62
           2
100
AcDbLine
 10
-4744.0916499861
 20
-2978.958539583367
 30
0.0
 11
-4747.857956607908
 21
-2978.535414979352
 31
0.0
  0
LINE
  5
18F
100
AcDbEntity
  8
WHITE
  6
CONTINUOUS
 62
          15
100
AcDbLine
 10
-4745.431358494854
 20
-2990.883520971679
 30
0.0
 11
-4745.543000870584
 21
-2991.877269420705
 31
0.0
  0
LINE
  5
190
100
AcDbEntity
  8
WHITE
  6
CONTINUOUS
 62
          15
100
AcDbLine
 10
-4749.309307492393
 20
-2991.45414481669
 30
0.0
 11
-4745.543000870584
 21
-2991.877269420705
 31
0.0
  0
LINE
  5
191
100
AcDbEntity
  8
WHITE
  6
CONTINUOUS
 62
          15
100
AcDbLine
 10
-4743.924186422506
 20
-2977.467916909828
 30
0.0
 11
-4743.98000761037
 21
-2977.96479113434
 31
0.0
  0
LINE
  5
192
100
AcDbEntity
  8
WHITE
  6
CONTINUOUS
 62
          15
100
AcDbLine
 10
-4747.746314232179
 20
-2977.541666530326
 30
0.0
 11
-4743.98000761037
 21
-2977.96479113434
 31
0.0
  0
LINE
  5
193
100
AcDbEntity
  8
WHITE
  6
CONTINUOUS
 62
          15
100
AcDbLine
 10
-4707.283685583086
 20
-2996.175500886293
 30
0.0
 11
-4726.200580078858
 21
-2994.050287966461
 31
0.0
  0
LINE
  5
194
100
AcDbEntity
  8
WHITE
  6
CONTINUOUS
 62
          15
100
AcDbLine
 10
-4726.200580078858
 20
-2994.050287966461
 30
0.0
 11
-4733.841304233732
 21
-2995.204474827512
 31
0.0
  0
LINE
  5
195
100
AcDbEntity
  8
WHITE
  6
CONTINUOUS
 62
          15
100
AcDbLine
 10
-4702.058559788877
 20
-2967.580080615999
 30
0.0
 11
-4702.55543401339
 21
-2967.524259428135
 31
0.0
  0
LINE
  5
196
100
AcDbEntity
  8
WHITE
  6
CONTINUOUS
 62
          15
100
AcDbLine
 10
-4705.625599345953
 20
-2994.852341776348
 30
0.0
 11
-4702.55543401339
 21
-2967.524259428135
 31
0.0
  0
LINE
  5
197
100
AcDbEntity
  8
WHITE
  6
CONTINUOUS
 62
          15
100
AcDbLine
 10
-4732.127396808734
 20
-2993.384441493054
 30
0.0
 11
-4726.200580078858
 21
-2994.050287966461
 31
0.0
  0
LINE
  5
198
100
AcDbEntity
  8
WHITE
  6
CONTINUOUS
 62
          15
100
AcDbLine
 10
-4702.55543401339
 20
-2967.524259428135
 30
0.0
 11
-4730.380390586115
 21
-2964.398272907707
 31
0.0
  0
LINE
  5
199
100
AcDbEntity
  8
WHITE
  6
CONTINUOUS
 62
          15
100
AcDbLine
 10
-4733.450555918678
 20
-2991.72635525592
 30
0.0
 11
-4730.380390586115
 21
-2964.398272907707
 31
0.0
  0
LINE
  5
19A
100
AcDbEntity
  8
WHITE
  6
CONTINUOUS
 62
          15
100
AcDbLine
 10
-4744.275662948505
 20
-2994.032229882351
 30
0.0
 11
-4733.841304233732
 21
-2995.204474827512
 31
0.0
  0
LINE
  5
19B
100
AcDbEntity
  8
WHITE
  6
CONTINUOUS
 62
          15
100
AcDbLine
 10
-4745.543000870584
 20
-2991.877269420705
 30
0.0
 11
-4745.59882205845
 21
-2992.374143645217
 31
0.0
  0
LINE
  5
19C
100
AcDbEntity
  8
WHITE
  6
CONTINUOUS
 62
          15
100
AcDbLine
 10
-4742.266100185372
 20
-2976.144757799883
 30
0.0
 11
-4731.8317414706
 21
-2977.317002745044
 31
0.0
  0
LINE
  5
19D
100
AcDbEntity
  8
WHITE
  6
CONTINUOUS
 62
          15
100
AcDbLine
 10
-4701.946917413146
 20
-2966.586332166974
 30
0.0
 11
-4702.058559788877
 21
-2967.580080615999
 31
0.0
  0
LINE
  5
19E
100
AcDbEntity
  8
WHITE
  6
CONTINUOUS
 62
          15
100
AcDbLine
 10
-4730.380390586115
 20
-2964.398272907707
 30
0.0
 11
-4730.877264810628
 21
-2964.342451719841
 31
0.0
  0
LINE
  5
19F
100
AcDbEntity
  8
WHITE
  6
CONTINUOUS
 62
          15
100
AcDbLine
 10
-4730.877264810628
 20
-2964.342451719841
 30
0.0
 11
-4730.765622434898
 21
-2963.348703270816
 31
0.0
  0
LINE
  5
1A0
100
AcDbEntity
  8
WHITE
  6
CONTINUOUS
 62
          15
100
AcDbLine
 10
-4701.946917413146
 20
-2966.586332166974
 30
0.0
 11
-4730.765622434898
 21
-2963.348703270816
 31
0.0
  0
LINE
  5
1A1
100
AcDbEntity
  8
WHITE
  6
CONTINUOUS
 62
           7
100
AcDbLine
 10
-4727.856677609193
 20
-2937.455673048592
 30
0.0
 11
-4727.918741853795
 21
-2938.008117820655
 31
0.0
  0
LINE
  5
1A2
100
AcDbEntity
  8
WHITE
  6
CONTINUOUS
 62
          15
100
AcDbLine
 10
-4725.71539462016
 20
-2935.684879105962
 30
0.0
 11
-4698.709288516989
 21
-2937.767627145222
 31
0.0
  0
LINE
  5
1A3
100
AcDbEntity
  8
WHITE
  6
CONTINUOUS
 62
           7
100
AcDbLine
 10
-4734.171371419814
 20
-2948.878013105805
 30
0.0
 11
-4734.11555023195
 21
-2948.381138881292
 31
0.0
  0
LINE
  5
1A4
100
AcDbEntity
  8
WHITE
  6
CONTINUOUS
 62
           1
100
AcDbLine
 10
-4731.642755341797
 20
-2948.658944292208
 30
0.0
 11
-4734.11555023195
 21
-2948.381138881292
 31
0.0
  0
LINE
  5
1A5
100
AcDbEntity
  8
WHITE
  6
CONTINUOUS
 62
           7
100
AcDbLine
 10
-4734.11555023195
 20
-2948.381138881292
 30
0.0
 11
-4733.668980729031
 21
-2944.406145085189
 31
0.0
  0
LINE
  5
1A6
100
AcDbEntity
  8
WHITE
  6
CONTINUOUS
 62
           1
100
AcDbLine
 10
-4731.196185838879
 20
-2944.683950496105
 30
0.0
 11
-4733.668980729031
 21
-2944.406145085189
 31
0.0
  0
LINE
  5
1A7
100
AcDbEntity
  8
WHITE
  6
CONTINUOUS
 62
           7
100
AcDbLine
 10
-4734.227192607679
 20
-2949.374887330319
 30
0.0
 11
-4734.171371419814
 21
-2948.878013105805
 31
0.0
  0
LINE
  5
1A8
100
AcDbEntity
  8
WHITE
  6
CONTINUOUS
 62
           1
100
AcDbLine
 10
-4731.698576529661
 20
-2949.155818516721
 30
0.0
 11
-4734.171371419814
 21
-2948.878013105805
 31
0.0
  0
LINE
  5
1A9
100
AcDbEntity
  8
WHITE
  6
CONTINUOUS
 62
           7
100
AcDbLine
 10
-4733.668980729031
 20
-2944.406145085189
 30
0.0
 11
-4733.613159541166
 21
-2943.909270860675
 31
0.0
  0
LINE
  5
1AA
100
AcDbEntity
  8
WHITE
  6
CONTINUOUS
 62
           1
100
AcDbLine
 10
-4731.140364651013
 20
-2944.187076271591
 30
0.0
 11
-4733.613159541166
 21
-2943.909270860675
 31
0.0
  0
LINE
  5
1AB
100
AcDbEntity
  8
WHITE
  6
CONTINUOUS
 62
           7
100
AcDbLine
 10
-4732.563589904275
 20
-2943.524039011893
 30
0.0
 11
-4733.233444158654
 21
-2949.486529706048
 31
0.0
  0
LINE
  5
1AC
100
AcDbEntity
  8
WHITE
  6
CONTINUOUS
 62
           2
100
AcDbLine
 10
-4733.233444158654
 20
-2949.486529706048
 30
0.0
 11
-4734.227192607679
 21
-2949.374887330319
 31
0.0
  0
LINE
  5
1AD
100
AcDbEntity
  8
WHITE
  6
CONTINUOUS
 62
           7
100
AcDbLine
 10
-4732.451947528546
 20
-2942.530290562866
 30
0.0
 11
-4732.563589904275
 21
-2943.524039011893
 31
0.0
  0
LINE
  5
1AE
100
AcDbEntity
  8
WHITE
  6
CONTINUOUS
 62
           2
100
AcDbLine
 10
-4732.563589904275
 20
-2943.524039011893
 30
0.0
 11
-4733.557338353301
 21
-2943.412396636163
 31
0.0
  0
LINE
  5
1AF
100
AcDbEntity
  8
WHITE
  6
CONTINUOUS
 62
           7
100
AcDbLine
 10
-4733.233444158654
 20
-2949.486529706048
 30
0.0
 11
-4733.345086534382
 21
-2950.480278155074
 31
0.0
  0
LINE
  5
1B0
100
AcDbEntity
  8
WHITE
  6
CONTINUOUS
 62
           7
100
AcDbLine
 10
-4733.345086534382
 20
-2950.480278155074
 30
0.0
 11
-4734.227192607679
 21
-2949.374887330319
 31
0.0
  0
LINE
  5
1B1
100
AcDbEntity
  8
WHITE
  6
CONTINUOUS
 62
           7
100
AcDbLine
 10
-4733.613159541166
 20
-2943.909270860675
 30
0.0
 11
-4733.557338353301
 21
-2943.412396636163
 31
0.0
  0
LINE
  5
1B2
100
AcDbEntity
  8
WHITE
  6
CONTINUOUS
 62
           7
100
AcDbLine
 10
-4731.893735649898
 20
-2937.561548317737
 30
0.0
 11
-4732.451947528546
 21
-2942.530290562866
 31
0.0
  0
LINE
  5
1B3
100
AcDbEntity
  8
WHITE
  6
CONTINUOUS
 62
           7
100
AcDbLine
 10
-4733.557338353301
 20
-2943.412396636163
 30
0.0
 11
-4732.451947528546
 21
-2942.530290562866
 31
0.0
  0
LINE
  5
1B4
100
AcDbEntity
  8
WHITE
  6
CONTINUOUS
 62
          15
100
AcDbLine
 10
-4700.886314843716
 20
-2957.145721901228
 30
0.0
 11
-4701.946917413146
 21
-2966.586332166974
 31
0.0
  0
LINE
  5
1B5
100
AcDbEntity
  8
WHITE
  6
CONTINUOUS
 62
          15
100
AcDbLine
 10
-4730.765622434898
 20
-2963.348703270816
 30
0.0
 11
-4729.928304616927
 21
-2955.895589903122
 31
0.0
  0
LINE
  5
1B6
100
AcDbEntity
  8
WHITE
  6
CONTINUOUS
 62
           7
100
AcDbLine
 10
-4731.033695441683
 20
-2956.777695976418
 30
0.0
 11
-4728.800847927091
 21
-2936.9027269959
 31
0.0
  0
LINE
  5
1B7
100
AcDbEntity
  8
WHITE
  6
CONTINUOUS
 62
           7
100
AcDbLine
 10
-4733.021192339735
 20
-2956.55441122496
 30
0.0
 11
-4730.788344825143
 21
-2936.679442244441
 31
0.0
  0
LINE
  5
1B8
100
AcDbEntity
  8
WHITE
  6
CONTINUOUS
 62
           7
100
AcDbLine
 10
-4733.021192339735
 20
-2956.55441122496
 30
0.0
 11
-4733.90329841303
 21
-2955.449020400204
 31
0.0
  0
LINE
  5
1B9
100
AcDbEntity
  8
WHITE
  6
CONTINUOUS
 62
           7
100
AcDbLine
 10
-4729.928304616927
 20
-2955.895589903122
 30
0.0
 11
-4731.033695441683
 21
-2956.777695976418
 31
0.0
  0
LINE
  5
1BA
100
AcDbEntity
  8
WHITE
  6
CONTINUOUS
 62
           7
100
AcDbLine
 10
-4728.800847927091
 20
-2936.9027269959
 30
0.0
 11
-4727.918741853795
 21
-2938.008117820655
 31
0.0
  0
LINE
  5
1BB
100
AcDbEntity
  8
WHITE
  6
CONTINUOUS
 62
           7
100
AcDbLine
 10
-4730.788344825143
 20
-2936.679442244441
 30
0.0
 11
-4731.893735649898
 21
-2937.561548317737
 31
0.0
  0
LINE
  5
1BC
100
AcDbEntity
  8
WHITE
  6
CONTINUOUS
 62
           7
100
AcDbLine
 10
-4733.345086534382
 20
-2950.480278155074
 30
0.0
 11
-4733.90329841303
 21
-2955.449020400204
 31
0.0
  0
LINE
  5
1BD
100
AcDbEntity
  8
WHITE
  6
CONTINUOUS
 62
           7
100
AcDbLine
 10
-4733.021192339735
 20
-2956.55441122496
 30
0.0
 11
-4731.033695441683
 21
-2956.777695976418
 31
0.0
  0
LINE
  5
1BE
100
AcDbEntity
  8
WHITE
  6
CONTINUOUS
 62
          15
100
AcDbLine
 10
-4729.928304616927
 20
-2955.895589903122
 30
0.0
 11
-4727.918741853795
 21
-2938.008117820655
 31
0.0
  0
LINE
  5
1BF
100
AcDbEntity
  8
WHITE
  6
CONTINUOUS
 62
           7
100
AcDbLine
 10
-4728.800847927091
 20
-2936.9027269959
 30
0.0
 11
-4730.788344825143
 21
-2936.679442244441
 31
0.0
  0
LINE
  5
1C0
100
AcDbEntity
  8
WHITE
  6
CONTINUOUS
 62
          15
100
AcDbLine
 10
-4682.362743829655
 20
-2935.578911360791
 30
0.0
 11
-4681.865869605143
 21
-2935.634732548655
 31
0.0
  0
LINE
  5
1C1
100
AcDbEntity
  8
WHITE
  6
CONTINUOUS
 62
          15
100
AcDbLine
 10
-4697.832698909962
 20
-2943.40070717846
 30
0.0
 11
-4693.360830889345
 21
-2943.903097869242
 31
0.0
  0
LINE
  5
1C2
100
AcDbEntity
  8
WHITE
  6
CONTINUOUS
 62
           7
100
AcDbLine
 10
-4710.057341502565
 20
-2958.034138010748
 30
0.0
 11
-4718.326432197429
 21
-2957.105149461178
 31
0.0
  0
LINE
  5
1C3
100
AcDbEntity
  8
WHITE
  6
CONTINUOUS
 62
           7
100
AcDbLine
 10
-4718.326432197429
 20
-2957.105149461178
 30
0.0
 11
-4717.560204444953
 21
-2950.284821286975
 31
0.0
  0
LINE
  5
1C4
100
AcDbEntity
  8
WHITE
  6
CONTINUOUS
 62
           7
100
AcDbLine
 10
-4717.560204444953
 20
-2950.284821286975
 30
0.0
 11
-4709.291113750089
 21
-2951.213809836545
 31
0.0
  0
LINE
  5
1C5
100
AcDbEntity
  8
WHITE
  6
CONTINUOUS
 62
           7
100
AcDbLine
 10
-4709.291113750089
 20
-2951.213809836545
 30
0.0
 11
-4710.057341502565
 21
-2958.034138010748
 31
0.0
  0
ARC
  5
1C6
100
AcDbEntity
  8
WHITE
  6
CONTINUOUS
 62
          15
100
AcDbCircle
 10
-4653.789783339541
 20
-2932.046783272746
 30
0.0
 40
2.25
100
AcDbArc
 50
173.59
 51
353.589999999999
  0
ARC
  5
1C7
100
AcDbEntity
  8
WHITE
  6
CONTINUOUS
 62
          15
100
AcDbCircle
 10
-4653.789783339541
 20
-2932.046783272746
 30
0.0
 40
2.25
100
AcDbArc
 50
353.589999999999
 51
173.59
  0
ARC
  5
1C8
100
AcDbEntity
  8
WHITE
  6
CONTINUOUS
 62
          15
100
AcDbCircle
 10
-4707.164811681163
 20
-2949.39632987904
 30
0.0
 40
8.604407030244
100
AcDbArc
 50
353.589999999999
 51
17.59198532828
  0
ARC
  5
1C9
100
AcDbEntity
  8
WHITE
  6
CONTINUOUS
 62
          15
100
AcDbCircle
 10
-4701.615232092659
 20
-2955.302822870615
 30
0.0
 40
2.430106011614
100
AcDbArc
 50
353.589999999999
 51
39.655478142734
  0
ARC
  5
1CA
100
AcDbEntity
  8
WHITE
  6
CONTINUOUS
 62
          15
100
AcDbCircle
 10
-4700.4429871475
 20
-2944.868464155843
 30
0.0
 40
2.430106011614
100
AcDbArc
 50
353.589999999999
 51
39.655478142734
  0
ARC
  5
1CB
100
AcDbEntity
  8
WHITE
  6
CONTINUOUS
 62
          15
100
AcDbCircle
 10
-4701.615232092659
 20
-2955.302822870615
 30
0.0
 40
2.430106011614
100
AcDbArc
 50
307.524521857251
 51
353.589999999999
  0
ARC
  5
1CC
100
AcDbEntity
  8
WHITE
  6
CONTINUOUS
 62
          15
100
AcDbCircle
 10
-4700.4429871475
 20
-2944.868464155843
 30
0.0
 40
2.430106011613
100
AcDbArc
 50
307.524521857281
 51
353.589999999999
  0
ARC
  5
1CD
100
AcDbEntity
  8
WHITE
  6
CONTINUOUS
 62
          15
100
AcDbCircle
 10
-4707.164811681163
 20
-2949.39632987904
 30
0.0
 40
8.604407030244
100
AcDbArc
 50
329.588014671731
 51
353.589999999999
  0
CIRCLE
  5
1CE
100
AcDbEntity
  8
WHITE
  6
CONTINUOUS
 62
          15
100
AcDbCircle
 10
-4627.449276448921
 20
-2975.257634881401
 30
0.0
 40
2.25
  0
CIRCLE
  5
1CF
100
AcDbEntity
  8
WHITE
  6
CONTINUOUS
 62
          15
100
AcDbCircle
 10
-4648.317993878465
 20
-2972.91314499108
 30
0.0
 40
2.25
  0
CIRCLE
  5
1D0
100
AcDbEntity
  8
WHITE
  6
CONTINUOUS
 62
          15
100
AcDbCircle
 10
-4613.046096929477
 20
-2936.624120677659
 30
0.0
 40
2.25
  0
ARC
  5
1D1
100
AcDbEntity
  8
WHITE
  6
CONTINUOUS
 62
          15
100
AcDbCircle
 10
-4696.092775960905
 20
-2936.996116246451
 30
0.0
 40
0.5
100
AcDbArc
 50
90.739821982564
 51
173.59
  0
ARC
  5
1D2
100
AcDbEntity
  8
WHITE
  6
CONTINUOUS
 62
          15
100
AcDbCircle
 10
-4696.664117303787
 20
-2942.081726165115
 30
0.0
 40
0.5
100
AcDbArc
 50
173.59
 51
256.44017801742
  0
ARC
  5
1D3
100
AcDbEntity
  8
WHITE
  6
CONTINUOUS
 62
          15
100
AcDbCircle
 10
-4695.889990267235
 20
-2935.065487737468
 30
0.0
 40
1.0
100
AcDbArc
 50
83.59
 51
173.59
  0
ARC
  5
1D4
100
AcDbEntity
  8
WHITE
  6
CONTINUOUS
 62
          15
100
AcDbCircle
 10
-4699.350903914852
 20
-2965.871689657272
 30
0.0
 40
1.0
100
AcDbArc
 50
173.59
 51
263.59
  0
ARC
  5
1D5
100
AcDbEntity
  8
WHITE
  6
CONTINUOUS
 62
          15
100
AcDbCircle
 10
-4707.116222019491
 20
-2994.684878212753
 30
0.0
 40
1.500000000001
100
AcDbArc
 50
263.59
 51
353.589999999999
  0
ARC
  5
1D6
100
AcDbEntity
  8
WHITE
  6
CONTINUOUS
 62
          15
100
AcDbCircle
 10
-4731.95993324514
 20
-2991.893818819514
 30
0.0
 40
1.5
100
AcDbArc
 50
173.59
 51
263.59
  0
ARC
  5
1D7
100
AcDbEntity
  8
WHITE
  6
CONTINUOUS
 62
          15
100
AcDbCircle
 10
-4742.433563748967
 20
-2977.635380473422
 30
0.0
 40
1.5
100
AcDbArc
 50
83.59
 51
173.59
  0
ARC
  5
1D8
100
AcDbEntity
  8
WHITE
  6
CONTINUOUS
 62
          15
100
AcDbCircle
 10
-4744.10819938491
 20
-2992.541607208812
 30
0.0
 40
1.5
100
AcDbArc
 50
173.59
 51
263.59
  0
ARC
  5
1D9
100
AcDbEntity
  8
WHITE
  6
CONTINUOUS
 62
          15
100
AcDbCircle
 10
-4725.869180711141
 20
-2937.678957800051
 30
0.0
 40
2.0
100
AcDbArc
 50
85.59
 51
173.59
  0
TEXT
  5
1DA
100
AcDbEntity
  8
WHITE
  6
CONTINUOUS
 62
           7
100
AcDbText
 10
-4716.831074804893
 20
-2955.682988201909
 30
0.0
 40
4.0
  1
14
 50
-6.41
 41
0.955
  7
TXT
100
AcDbText
  0
LINE
  5
1DB
100
AcDbEntity
  8
WHITE
  6
GESTRICHELT
 62
          15
100
AcDbLine
 10
-4942.114172993914
 20
-2904.696063642663
 30
0.0
 11
-4937.715135136038
 21
-2909.089898608842
 31
0.0
  0
ARC
  5
1DC
100
AcDbEntity
  8
WHITE
  6
CONTINUOUS
 62
          15
100
AcDbCircle
 10
-4902.86974663806
 20
-2968.689227340045
 30
0.0
 40
22.5
100
AcDbArc
 50
221.039680999999
 51
75.931192584764
  0
LINE
  5
1DD
100
AcDbEntity
  8
WHITE
  6
GESTRICHELT
 62
          15
100
AcDbLine
 10
-4963.335035212093
 20
-2933.49748509427
 30
0.0
 11
-4966.862910335442
 21
-2929.444800984192
 31
0.0
  0
LINE
  5
1DE
100
AcDbEntity
  8
WHITE
  6
CONTINUOUS
 62
          15
100
AcDbLine
 10
-4919.840485456126
 20
-2983.462312223308
 30
0.0
 11
-4963.335035212093
 21
-2933.49748509427
 31
0.0
  0
ARC
  5
1DF
100
AcDbEntity
  8
WHITE
  6
GESTRICHELT
 62
          15
100
AcDbCircle
 10
-4956.256308617644
 20
-2918.838199266394
 30
0.0
 40
15.0
100
AcDbArc
 50
135.0
 51
225.0
  0
LINE
  5
1E0
100
AcDbEntity
  8
WHITE
  6
GESTRICHELT
 62
          15
100
AcDbLine
 10
-4966.862910335442
 20
-2908.231597548595
 30
0.0
 11
-4963.32737642951
 21
-2904.696063642663
 31
0.0
  0
ARC
  5
1E1
100
AcDbEntity
  8
WHITE
  6
GESTRICHELT
 62
          15
100
AcDbCircle
 10
-4952.720774711712
 20
-2915.302665360461
 30
0.0
 40
15.0
100
AcDbArc
 50
115.494701449333
 51
135.0
  0
ARC
  5
1E2
100
AcDbEntity
  8
WHITE
  6
CONTINUOUS
 62
          15
100
AcDbCircle
 10
-4952.720774711712
 20
-2915.302665360461
 30
0.0
 40
15.0
100
AcDbArc
 50
51.68529855067
 51
115.494701449333
  0
ARC
  5
1E3
100
AcDbEntity
  8
WHITE
  6
GESTRICHELT
 62
          15
100
AcDbCircle
 10
-4952.720774711712
 20
-2915.302665360461
 30
0.0
 40
15.0
100
AcDbArc
 50
45.0
 51
51.68529855067
  0
CIRCLE
  5
1E4
100
AcDbEntity
  8
WHITE
  6
CONTINUOUS
 62
          15
100
AcDbCircle
 10
-4953.074328102305
 20
-2918.4846458758
 30
0.0
 40
8.25
  0
POLYLINE
  5
1E5
100
AcDbEntity
  8
0
  6
GESTRICHELT
 62
          15
100
AcDb2dPolyline
 66
           1
 10
0.0
 20
0.0
 30
0.0
  0
VERTEX
  5
1E6
100
AcDbEntity
  8
0
  6
GESTRICHELT
 62
          15
100
AcDbVertex
100
AcDb2dVertex
 10
-4937.715135136038
 20
-2909.089898608842
 30
0.0
  0
VERTEX
  5
1E7
100
AcDbEntity
  8
0
  6
GESTRICHELT
 62
          15
100
AcDbVertex
100
AcDb2dVertex
 10
-4924.795752182415
 20
-2937.827169453088
 30
0.0
  0
SEQEND
  5
1E8
100
AcDbEntity
  8
0
  6
GESTRICHELT
 62
          15
  0
POLYLINE
  5
1E9
100
AcDbEntity
  8
0
  6
CONTINUOUS
 62
          15
100
AcDb2dPolyline
 66
           1
 10
0.0
 20
0.0
 30
0.0
  0
VERTEX
  5
1EA
100
AcDbEntity
  8
0
  6
CONTINUOUS
 62
          15
100
AcDbVertex
100
AcDb2dVertex
 10
-4924.795752182415
 20
-2937.827169453088
 30
0.0
  0
VERTEX
  5
1EB
100
AcDbEntity
  8
0
  6
CONTINUOUS
 62
          15
100
AcDbVertex
100
AcDb2dVertex
 10
-4924.251032195894
 20
-2939.038819099445
 30
0.0
  0
VERTEX
  5
1EC
100
AcDbEntity
  8
0
  6
CONTINUOUS
 62
          15
100
AcDbVertex
100
AcDb2dVertex
 10
-4897.400289937271
 20
-2946.864126116953
 30
0.0
  0
SEQEND
  5
1ED
100
AcDbEntity
  8
0
  6
CONTINUOUS
 62
          15
  0
ENDSEC
  0
SECTION
  2
OBJECTS
  0
DICTIONARY
  5
19
100
AcDbDictionary
  3
ACAD_GROUP
350
1A
  3
ACAD_MLINESTYLE
350
1B
  0
DICTIONARY
  5
1A
102
{ACAD_REACTORS
330
19
102
}
100
AcDbDictionary
  0
DICTIONARY
  5
1B
102
{ACAD_REACTORS
330
19
102
}
100
AcDbDictionary
  3
STANDARD
350
1C
  0
MLINESTYLE
  5
1C
102
{ACAD_REACTORS
330
1B
102
}
100
AcDbMlineStyle
  2
STANDARD
 70
           0
  3

 62
           0
 51
90.0
 52
90.0
 71
           2
 49
0.5
 62
         256
  6
BYLAYER
 49
-0.5
 62
         256
  6
BYLAYER
  0
ENDSEC
  0
EOF
