  0
SECTION
  2
HEADER
  9
$ACADVER
  1
AC1012
  9
$DWGCODEPAGE
  3
dos850
  9
$INSBASE
 10
0.0
 20
0.0
 30
0.0
  9
$EXTMIN
 10
-5090.967897983818
 20
-3902.13726170858
 30
0.0
  9
$EXTMAX
 10
-4422.057741983819
 20
-3402.13726170858
 30
0.0
  9
$LIMMIN
 10
-5090.967897983818
 20
-3902.13726170858
  9
$LIMMAX
 10
-4422.057741983819
 20
-3402.13726170858
  9
$ORTHOMODE
 70
           0
  9
$REGENMODE
 70
           1
  9
$FILLMODE
 70
           1
  9
$QTEXTMODE
 70
           0
  9
$MIRRTEXT
 70
           1
  9
$DRAGMODE
 70
           2
  9
$LTSCALE
 40
5.0
  9
$OSMODE
 70
           0
  9
$ATTMODE
 70
           1
  9
$TEXTSIZE
 40
0.2
  9
$TRACEWID
 40
0.05
  9
$TEXTSTYLE
  7
TXT
  9
$CLAYER
  8
0
  9
$CELTYPE
  6
CONTINUOUS
  9
$CECOLOR
 62
         256
  9
$CELTSCALE
 40
1.0
  9
$DELOBJ
 70
           1
  9
$DISPSILH
 70
           0
  9
$DIMSCALE
 40
1.0
  9
$DIMASZ
 40
3.5
  9
$DIMEXO
 40
0.0625
  9
$DIMDLI
 40
0.38
  9
$DIMRND
 40
0.0
  9
$DIMDLE
 40
0.0
  9
$DIMEXE
 40
0.18
  9
$DIMTP
 40
0.0
  9
$DIMTM
 40
0.0
  9
$DIMTXT
 40
3.5
  9
$DIMCEN
 40
0.09
  9
$DIMTSZ
 40
0.0
  9
$DIMTOL
 70
           0
  9
$DIMLIM
 70
           0
  9
$DIMTIH
 70
           1
  9
$DIMTOH
 70
           1
  9
$DIMSE1
 70
           0
  9
$DIMSE2
 70
           0
  9
$DIMTAD
 70
           0
  9
$DIMZIN
 70
           0
  9
$DIMBLK
  1

  9
$DIMASO
 70
           1
  9
$DIMSHO
 70
           1
  9
$DIMPOST
  1

  9
$DIMAPOST
  1

  9
$DIMALT
 70
           0
  9
$DIMALTD
 70
           2
  9
$DIMALTF
 40
25.4
  9
$DIMLFAC
 40
1.0
  9
$DIMTOFL
 70
           0
  9
$DIMTVP
 40
0.0
  9
$DIMTIX
 70
           0
  9
$DIMSOXD
 70
           0
  9
$DIMSAH
 70
           0
  9
$DIMBLK1
  1

  9
$DIMBLK2
  1

  9
$DIMSTYLE
  2
STANDARD
  9
$DIMCLRD
 70
           0
  9
$DIMCLRE
 70
           0
  9
$DIMCLRT
 70
           0
  9
$DIMTFAC
 40
1.0
  9
$DIMGAP
 40
0.09
  9
$DIMJUST
 70
           0
  9
$DIMSD1
 70
           0
  9
$DIMSD2
 70
           0
  9
$DIMTOLJ
 70
           1
  9
$DIMTZIN
 70
           0
  9
$DIMALTZ
 70
           0
  9
$DIMALTTZ
 70
           0
  9
$DIMFIT
 70
           3
  9
$DIMUPT
 70
           0
  9
$DIMUNIT
 70
           2
  9
$DIMDEC
 70
           4
  9
$DIMTDEC
 70
           4
  9
$DIMALTU
 70
           2
  9
$DIMALTTD
 70
           2
  9
$DIMTXSTY
  7
TXT
  9
$DIMAUNIT
 70
           0
  9
$LUNITS
 70
           2
  9
$LUPREC
 70
           2
  9
$SKETCHINC
 40
0.1
  9
$FILLETRAD
 40
0.0
  9
$AUNITS
 70
           0
  9
$AUPREC
 70
           2
  9
$MENU
  1
acad
  9
$ELEVATION
 40
0.0
  9
$PELEVATION
 40
0.0
  9
$THICKNESS
 40
0.0
  9
$LIMCHECK
 70
           0
  9
$BLIPMODE
 70
           1
  9
$CHAMFERA
 40
0.0
  9
$CHAMFERB
 40
0.0
  9
$CHAMFERC
 40
0.0
  9
$CHAMFERD
 40
0.0
  9
$SKPOLY
 70
           0
  9
$TDCREATE
 40
0.000000000
  9
$TDUPDATE
 40
0.000000000
  9
$TDINDWG
 40
0.0000000000
  9
$TDUSRTIMER
 40
0.0000000000
  9
$USRTIMER
 70
           1
  9
$ANGBASE
 50
0.0
  9
$ANGDIR
 70
           0
  9
$PDMODE
 70
           2
  9
$PDSIZE
 40
0.5
  9
$PLINEWID
 40
0.0
  9
$COORDS
 70
           0
  9
$SPLFRAME
 70
           0
  9
$SPLINETYPE
 70
           6
  9
$SPLINESEGS
 70
           8
  9
$ATTDIA
 70
           0
  9
$ATTREQ
 70
           1
  9
$HANDLING
 70
           1
  9
$HANDSEED
  5
21E
  9
$SURFTAB1
 70
           6
  9
$SURFTAB2
 70
           6
  9
$SURFTYPE
 70
           6
  9
$SURFU
 70
           6
  9
$SURFV
 70
           6
  9
$UCSNAME
  2

  9
$UCSORG
 10
0.0
 20
0.0
 30
0.0
  9
$UCSXDIR
 10
1.0
 20
0.0
 30
0.0
  9
$UCSYDIR
 10
0.0
 20
1.0
 30
0.0
  9
$PUCSNAME
  2

  9
$PUCSORG
 10
0.0
 20
0.0
 30
0.0
  9
$PUCSXDIR
 10
1.0
 20
0.0
 30
0.0
  9
$PUCSYDIR
 10
0.0
 20
1.0
 30
0.0
  9
$USERI1
 70
           0
  9
$USERI2
 70
           0
  9
$USERI3
 70
           0
  9
$USERI4
 70
           0
  9
$USERI5
 70
           0
  9
$USERR1
 40
0.0
  9
$USERR2
 40
0.0
  9
$USERR3
 40
0.0
  9
$USERR4
 40
0.0
  9
$USERR5
 40
0.0
  9
$WORLDVIEW
 70
           1
  9
$SHADEDGE
 70
           3
  9
$SHADEDIF
 70
          70
  9
$TILEMODE
 70
           1
  9
$MAXACTVP
 70
          16
  9
$PINSBASE
 10
0.0
 20
0.0
 30
0.0
  9
$PLIMCHECK
 70
           0
  9
$PEXTMIN
 10
1.000000000000E+20
 20
1.000000000000E+20
 30
1.000000000000E+20
  9
$PEXTMAX
 10
-1.000000000000E+20
 20
-1.000000000000E+20
 30
-1.000000000000E+20
  9
$PLIMMIN
 10
0.0
 20
0.0
  9
$PLIMMAX
 10
12.0
 20
9.0
  9
$UNITMODE
 70
           0
  9
$VISRETAIN
 70
           0
  9
$PLINEGEN
 70
           1
  9
$PSLTSCALE
 70
           0
  9
$TREEDEPTH
 70
        3020
  9
$PICKSTYLE
 70
           1
  9
$CMLSTYLE
  2
STANDARD
  9
$CMLJUST
 70
           0
  9
$CMLSCALE
 40
1.0
  9
$SAVEIMAGES
 70
           0
  0
ENDSEC
  0
SECTION
  2
CLASSES
  0
CLASS
  1
LWPOLYLINE
  2
AcDbPolyline
  3
"AutoCAD"
 90
        0
280
           0
281
           1
  0
CLASS
  1
IMAGE
  2
AcDbRasterImage
  3
ISM
 90
      127
280
           0
281
           1
  0
CLASS
  1
OLE2FRAME
  2
AcDbOle2Frame
  3
""
 90
        0
280
           0
281
           1
  0
CLASS
  1
HATCH
  2
AcDbHatch
  3
"ACAD_SEDONA"
 90
        0
280
           0
281
           1
  0
CLASS
  1
DICTIONARYVAR
  2
AcDbDictionaryVar
  3
"AutoCAD"
 90
        0
280
           0
281
           0
  0
CLASS
  1
RASTERVARIABLES
  2
AcDbRasterVariables
  3
ISM
 90
        0
280
           0
281
           0
  0
CLASS
  1
IMAGEDEF
  2
AcDbRasterImageDef
  3
ISM
 90
        0
280
           0
281
           0
  0
CLASS
  1
IMAGEDEF_REACTOR
  2
AcDbRasterImageDefReactor
  3
ISM
 90
        1
280
           0
281
           0
  0
CLASS
  1
IDBUFFER
  2
AcDbIdBuffer
  3
"Acad"
 90
        0
280
           0
281
           0
  0
CLASS
  1
SPATIAL_FILTER
  2
AcDbSpatialFilter
  3
"Acad"
 90
        0
280
           0
281
           0
  0
CLASS
  1
XRECORD
  2
AcDbXrecord
  3
"<Built In>"
 90
        0
280
           0
281
           0
  0
ENDSEC
  0
SECTION
  2
TABLES
  0
TABLE
  2
VPORT
  5
7
100
AcDbSymbolTable
 70
           1
  0
VPORT
  5
15
100
AcDbSymbolTableRecord
100
AcDbViewportTableRecord
  2
*ACTIVE
 70
           0
 10
0.0
 20
0.0
 11
1.0
 21
1.0
 12
6.591288
 22
4.579184
 13
0.0
 23
0.0
 14
1.0
 24
1.0
 15
0.0
 25
0.0
 16
0.0
 26
0.0
 36
1.0
 17
0.0
 27
0.0
 37
0.0
 40
9.158369
 41
0.688564
 42
50.0
 43
0.0
 44
0.0
 50
0.0
 51
0.0
 71
           0
 72
         100
 73
           1
 74
           1
 75
           0
 76
           0
 77
           0
 78
           0
  0
ENDTAB
  0
TABLE
  2
LTYPE
  5
4
100
AcDbSymbolTable
 70
           5
  0
LTYPE
  5
11
100
AcDbSymbolTableRecord
100
AcDbLinetypeTableRecord
  2
BYBLOCK
 70
           0
  3

 72
          65
 73
           0
 40
0.0
  0
LTYPE
  5
12
100
AcDbSymbolTableRecord
100
AcDbLinetypeTableRecord
  2
BYLAYER
 70
           0
  3

 72
          65
 73
           0
 40
0.0
  0
LTYPE
  5
13
100
AcDbSymbolTableRecord
100
AcDbLinetypeTableRecord
  2
CONTINUOUS
 70
           0
  3
Solid line
 72
          65
 73
           0
 40
0.0
  0
LTYPE
  5
1D
100
AcDbSymbolTableRecord
100
AcDbLinetypeTableRecord
  2
GESTRICHELT
 70
           0
  3

 72
          65
 73
           2
 40
0.75
 49
0.5
 74
           0
 49
-0.25
 74
           0
  0
LTYPE
  5
1E
100
AcDbSymbolTableRecord
100
AcDbLinetypeTableRecord
  2
STRICHPUNKT
 70
           0
  3

 72
          65
 73
           4
 40
1.0
 49
0.5
 74
           0
 49
-0.25
 74
           0
 49
0.0
 74
           0
 49
-0.25
 74
           0
  0
ENDTAB
  0
TABLE
  2
LAYER
  5
2
100
AcDbSymbolTable
 70
           3
  0
LAYER
  5
14
100
AcDbSymbolTableRecord
100
AcDbLayerTableRecord
  2
0
 70
           0
 62
           7
  6
CONTINUOUS
  0
LAYER
  5
20
100
AcDbSymbolTableRecord
100
AcDbLayerTableRecord
  2
BLACK
 70
           0
 62
           7
  6
CONTINUOUS
  0
LAYER
  5
21
100
AcDbSymbolTableRecord
100
AcDbLayerTableRecord
  2
WHITE
 70
           0
 62
           7
  6
CONTINUOUS
  0
ENDTAB
  0
TABLE
  2
STYLE
  5
3
100
AcDbSymbolTable
 70
           2
  0
STYLE
  5
17
100
AcDbSymbolTableRecord
100
AcDbTextStyleTableRecord
  2
TXT
 70
           0
 40
3.5
 41
1.0
 50
0.0
 71
           0
 42
3.5
  3
TXT
  4

  0
STYLE
  5
1F
100
AcDbSymbolTableRecord
100
AcDbTextStyleTableRecord
  2
GOTHICG
 70
           0
 40
3.5
 41
1.0
 50
0.0
 71
           0
 42
3.5
  3
GOTHICG
  4

  0
ENDTAB
  0
TABLE
  2
VIEW
  5
5
100
AcDbSymbolTable
 70
           0
  0
ENDTAB
  0
TABLE
  2
UCS
  5
6
100
AcDbSymbolTable
 70
           0
  0
ENDTAB
  0
TABLE
  2
APPID
  5
8
100
AcDbSymbolTable
 70
           2
  0
APPID
  5
16
100
AcDbSymbolTableRecord
100
AcDbRegAppTableRecord
  2
ACAD
 70
           0
  0
APPID
  5
22
100
AcDbSymbolTableRecord
100
AcDbRegAppTableRecord
  2
MegaCADPntStyle
 70
           0
  0
ENDTAB
  0
TABLE
  2
DIMSTYLE
  5
9
100
AcDbSymbolTable
 70
           1
  0
DIMSTYLE
105
18
100
AcDbSymbolTableRecord
100
AcDbDimStyleTableRecord
  2
STANDARD
 70
           0
  3

  4

  5

  6

  7

 40
1.0
 41
0.18
 42
0.0625
 43
0.38
 44
0.18
 45
0.0
 46
0.0
 47
0.0
 48
0.0
140
0.18
141
0.09
142
0.0
143
25.4
144
1.0
145
0.0
146
1.0
147
0.09
 71
           0
 72
           0
 73
           1
 74
           1
 75
           0
 76
           0
 77
           0
 78
           0
170
           0
171
           2
172
           0
173
           0
174
           0
175
           0
176
           0
177
           0
178
           0
270
           2
271
           4
272
           4
273
           2
274
           2
340
17
275
           0
280
           0
281
           0
282
           0
283
           1
284
           0
285
           0
286
           0
287
           0
288
           0
  0
ENDTAB
  0
TABLE
  2
BLOCK_RECORD
  5
1
100
AcDbSymbolTable
 70
           2
  0
BLOCK_RECORD
  5
A
100
AcDbSymbolTableRecord
100
AcDbBlockTableRecord
  2
*MODEL_SPACE
  0
BLOCK_RECORD
  5
B
100
AcDbSymbolTableRecord
100
AcDbBlockTableRecord
  2
*PAPER_SPACE
  0
BLOCK_RECORD
  5
23
100
AcDbSymbolTableRecord
100
AcDbBlockTableRecord
  2
ELIPPSE
  0
BLOCK_RECORD
  5
24
100
AcDbSymbolTableRecord
100
AcDbBlockTableRecord
  2
MAK1
  0
ENDTAB
  0
ENDSEC
  0
SECTION
  2
BLOCKS
  0
BLOCK
  5
D
100
AcDbEntity
  8
0
100
AcDbBlockBegin
  2
*MODEL_SPACE
 70
           0
 10
0.0
 20
0.0
 30
0.0
  3
*MODEL_SPACE
  1

  0
ENDBLK
  5
E
100
AcDbEntity
  8
0
100
AcDbBlockEnd
  0
BLOCK
  5
F
100
AcDbEntity
 67
           1
  8
0
100
AcDbBlockBegin
  2
*PAPER_SPACE
 70
           0
 10
0.0
 20
0.0
 30
0.0
  3
*PAPER_SPACE
  1

  0
ENDBLK
  5
10
100
AcDbEntity
 67
           1
  8
0
100
AcDbBlockEnd
  0
BLOCK
  5
1ED
100
AcDbEntity
  8
0
100
AcDbBlockBegin
  2
ELIPPSE
 70
          64
 10
0.0
 20
0.0
 30
0.0
  3
ELIPPSE
  1

  0
CIRCLE
  5
1EE
100
AcDbEntity
  8
0
  6
BYBLOCK
 62
           0
100
AcDbCircle
 10
0.0
 20
0.0
 30
0.0
 40
1.0
  0
ENDBLK
  5
1EF
100
AcDbEntity
  8
0
  6
BYBLOCK
 62
           0
100
AcDbBlockEnd
  0
BLOCK
  5
1F0
100
AcDbEntity
  8
0
100
AcDbBlockBegin
  2
MAK1
 70
          64
 10
0.0
 20
0.0
 30
0.0
  3
MAK1
  1

  0
LINE
  5
1F1
100
AcDbEntity
  8
WHITE
  6
CONTINUOUS
 62
           2
100
AcDbLine
 10
-15.50693229743
 20
611.597948837689
 30
0.0
 11
-15.596491646589
 21
611.687508186849
 31
0.0
  0
LINE
  5
1F2
100
AcDbEntity
  8
WHITE
  6
CONTINUOUS
 62
           2
100
AcDbLine
 10
-14.44627212565
 20
611.59794883769
 30
0.0
 11
-15.596491646589
 21
612.748168358629
 31
0.0
  0
LINE
  5
1F3
100
AcDbEntity
  8
WHITE
  6
CONTINUOUS
 62
           2
100
AcDbLine
 10
-13.59649164659
 20
611.808828530408
 30
0.0
 11
-15.596491646589
 21
613.808828530408
 31
0.0
  0
LINE
  5
1F4
100
AcDbEntity
  8
WHITE
  6
CONTINUOUS
 62
           2
100
AcDbLine
 10
-13.596491646588
 20
612.869488702188
 30
0.0
 11
-15.596491646588
 21
614.869488702188
 31
0.0
  0
LINE
  5
1F5
100
AcDbEntity
  8
WHITE
  6
CONTINUOUS
 62
           2
100
AcDbLine
 10
-13.596491646589
 20
613.930148873967
 30
0.0
 11
-15.596491646589
 21
615.930148873968
 31
0.0
  0
LINE
  5
1F6
100
AcDbEntity
  8
WHITE
  6
CONTINUOUS
 62
           2
100
AcDbLine
 10
-13.596491646589
 20
614.990809045748
 30
0.0
 11
-15.596491646589
 21
616.990809045747
 31
0.0
  0
LINE
  5
1F7
100
AcDbEntity
  8
WHITE
  6
CONTINUOUS
 62
           2
100
AcDbLine
 10
-13.596491646589
 20
616.051469217528
 30
0.0
 11
-15.596491646589
 21
618.051469217528
 31
0.0
  0
LINE
  5
1F8
100
AcDbEntity
  8
WHITE
  6
CONTINUOUS
 62
           2
100
AcDbLine
 10
-13.596491646589
 20
617.112129389307
 30
0.0
 11
-15.596491646589
 21
619.112129389307
 31
0.0
  0
LINE
  5
1F9
100
AcDbEntity
  8
WHITE
  6
CONTINUOUS
 62
           2
100
AcDbLine
 10
-13.59649164659
 20
618.172789561087
 30
0.0
 11
-15.596491646588
 21
620.172789561087
 31
0.0
  0
LINE
  5
1FA
100
AcDbEntity
  8
WHITE
  6
CONTINUOUS
 62
           2
100
AcDbLine
 10
-13.59649164659
 20
619.233449732867
 30
0.0
 11
-15.596491646589
 21
621.233449732867
 31
0.0
  0
LINE
  5
1FB
100
AcDbEntity
  8
WHITE
  6
CONTINUOUS
 62
           2
100
AcDbLine
 10
-13.596491646588
 20
620.294109904647
 30
0.0
 11
-15.596491646588
 21
622.294109904647
 31
0.0
  0
LINE
  5
1FC
100
AcDbEntity
  8
WHITE
  6
CONTINUOUS
 62
           2
100
AcDbLine
 10
-13.59649164659
 20
621.354770076427
 30
0.0
 11
-15.596491646589
 21
623.354770076427
 31
0.0
  0
LINE
  5
1FD
100
AcDbEntity
  8
WHITE
  6
CONTINUOUS
 62
           2
100
AcDbLine
 10
-13.596491646589
 20
622.415430248207
 30
0.0
 11
-15.596491646589
 21
624.415430248207
 31
0.0
  0
LINE
  5
1FE
100
AcDbEntity
  8
WHITE
  6
CONTINUOUS
 62
           2
100
AcDbLine
 10
-13.596491646589
 20
623.476090419987
 30
0.0
 11
-15.596491646589
 21
625.476090419987
 31
0.0
  0
LINE
  5
1FF
100
AcDbEntity
  8
WHITE
  6
CONTINUOUS
 62
           2
100
AcDbLine
 10
-13.596491646589
 20
624.536750591767
 30
0.0
 11
-15.596491646589
 21
626.536750591767
 31
0.0
  0
LINE
  5
200
100
AcDbEntity
  8
WHITE
  6
CONTINUOUS
 62
           2
100
AcDbLine
 10
-13.59649164659
 20
625.597410763546
 30
0.0
 11
-15.596491646588
 21
627.597410763546
 31
0.0
  0
LINE
  5
201
100
AcDbEntity
  8
WHITE
  6
CONTINUOUS
 62
           2
100
AcDbLine
 10
-13.596491646589
 20
626.658070935326
 30
0.0
 11
-15.596491646589
 21
628.658070935325
 31
0.0
  0
LINE
  5
202
100
AcDbEntity
  8
WHITE
  6
CONTINUOUS
 62
           2
100
AcDbLine
 10
-13.596491646588
 20
627.718731107105
 30
0.0
 11
-15.596491646588
 21
629.718731107105
 31
0.0
  0
LINE
  5
203
100
AcDbEntity
  8
WHITE
  6
CONTINUOUS
 62
           2
100
AcDbLine
 10
-13.59649164659
 20
628.779391278885
 30
0.0
 11
-15.596491646589
 21
630.779391278886
 31
0.0
  0
LINE
  5
204
100
AcDbEntity
  8
WHITE
  6
CONTINUOUS
 62
           2
100
AcDbLine
 10
-13.596491646589
 20
629.840051450666
 30
0.0
 11
-15.354389033613
 21
631.597948837689
 31
0.0
  0
LINE
  5
205
100
AcDbEntity
  8
WHITE
  6
CONTINUOUS
 62
           2
100
AcDbLine
 10
-13.596491646589
 20
630.900711622445
 30
0.0
 11
-14.293728861833
 21
631.597948837689
 31
0.0
  0
LINE
  5
206
100
AcDbEntity
  8
WHITE
  6
CONTINUOUS
 62
           2
100
AcDbLine
 10
-15.596491646589
 20
631.406213139101
 30
0.0
 11
-15.404755948002
 21
631.597948837689
 31
0.0
  0
LINE
  5
207
100
AcDbEntity
  8
WHITE
  6
CONTINUOUS
 62
           2
100
AcDbLine
 10
-15.596491646589
 20
630.345552967321
 30
0.0
 11
-14.344095776223
 21
631.597948837689
 31
0.0
  0
LINE
  5
208
100
AcDbEntity
  8
WHITE
  6
CONTINUOUS
 62
           2
100
AcDbLine
 10
-15.596491646589
 20
629.284892795542
 30
0.0
 11
-13.596491646589
 21
631.284892795542
 31
0.0
  0
LINE
  5
209
100
AcDbEntity
  8
WHITE
  6
CONTINUOUS
 62
           2
100
AcDbLine
 10
-15.596491646589
 20
628.224232623762
 30
0.0
 11
-13.596491646589
 21
630.224232623762
 31
0.0
  0
LINE
  5
20A
100
AcDbEntity
  8
WHITE
  6
CONTINUOUS
 62
           2
100
AcDbLine
 10
-15.59649164659
 20
627.163572451983
 30
0.0
 11
-13.596491646589
 21
629.163572451982
 31
0.0
  0
LINE
  5
20B
100
AcDbEntity
  8
WHITE
  6
CONTINUOUS
 62
           2
100
AcDbLine
 10
-15.596491646588
 20
626.102912280203
 30
0.0
 11
-13.596491646589
 21
628.102912280203
 31
0.0
  0
LINE
  5
20C
100
AcDbEntity
  8
WHITE
  6
CONTINUOUS
 62
           2
100
AcDbLine
 10
-15.596491646589
 20
625.042252108423
 30
0.0
 11
-13.596491646588
 21
627.042252108423
 31
0.0
  0
LINE
  5
20D
100
AcDbEntity
  8
WHITE
  6
CONTINUOUS
 62
           2
100
AcDbLine
 10
-15.596491646588
 20
623.981591936643
 30
0.0
 11
-13.596491646589
 21
625.981591936643
 31
0.0
  0
LINE
  5
20E
100
AcDbEntity
  8
WHITE
  6
CONTINUOUS
 62
           2
100
AcDbLine
 10
-15.596491646588
 20
622.920931764863
 30
0.0
 11
-13.59649164659
 21
624.920931764864
 31
0.0
  0
LINE
  5
20F
100
AcDbEntity
  8
WHITE
  6
CONTINUOUS
 62
           2
100
AcDbLine
 10
-15.596491646589
 20
621.860271593084
 30
0.0
 11
-13.596491646589
 21
623.860271593083
 31
0.0
  0
LINE
  5
210
100
AcDbEntity
  8
WHITE
  6
CONTINUOUS
 62
           2
100
AcDbLine
 10
-15.596491646589
 20
620.799611421304
 30
0.0
 11
-13.596491646589
 21
622.799611421304
 31
0.0
  0
LINE
  5
211
100
AcDbEntity
  8
WHITE
  6
CONTINUOUS
 62
           2
100
AcDbLine
 10
-15.59649164659
 20
619.738951249524
 30
0.0
 11
-13.596491646589
 21
621.738951249524
 31
0.0
  0
LINE
  5
212
100
AcDbEntity
  8
WHITE
  6
CONTINUOUS
 62
           2
100
AcDbLine
 10
-15.596491646588
 20
618.678291077745
 30
0.0
 11
-13.596491646589
 21
620.678291077744
 31
0.0
  0
LINE
  5
213
100
AcDbEntity
  8
WHITE
  6
CONTINUOUS
 62
           2
100
AcDbLine
 10
-15.596491646589
 20
617.617630905965
 30
0.0
 11
-13.596491646588
 21
619.617630905965
 31
0.0
  0
LINE
  5
214
100
AcDbEntity
  8
WHITE
  6
CONTINUOUS
 62
           2
100
AcDbLine
 10
-15.596491646588
 20
616.556970734185
 30
0.0
 11
-13.59649164659
 21
618.556970734185
 31
0.0
  0
LINE
  5
215
100
AcDbEntity
  8
WHITE
  6
CONTINUOUS
 62
           2
100
AcDbLine
 10
-15.596491646589
 20
615.496310562405
 30
0.0
 11
-13.59649164659
 21
617.496310562406
 31
0.0
  0
LINE
  5
216
100
AcDbEntity
  8
WHITE
  6
CONTINUOUS
 62
           2
100
AcDbLine
 10
-15.596491646589
 20
614.435650390625
 30
0.0
 11
-13.596491646589
 21
616.435650390625
 31
0.0
  0
LINE
  5
217
100
AcDbEntity
  8
WHITE
  6
CONTINUOUS
 62
           2
100
AcDbLine
 10
-15.596491646589
 20
613.374990218846
 30
0.0
 11
-13.596491646589
 21
615.374990218845
 31
0.0
  0
LINE
  5
218
100
AcDbEntity
  8
WHITE
  6
CONTINUOUS
 62
           2
100
AcDbLine
 10
-15.59649164659
 20
612.314330047066
 30
0.0
 11
-13.596491646589
 21
614.314330047066
 31
0.0
  0
LINE
  5
219
100
AcDbEntity
  8
WHITE
  6
CONTINUOUS
 62
           2
100
AcDbLine
 10
-15.252212684186
 20
611.597948837689
 30
0.0
 11
-13.596491646589
 21
613.253669875286
 31
0.0
  0
LINE
  5
21A
100
AcDbEntity
  8
WHITE
  6
CONTINUOUS
 62
           2
100
AcDbLine
 10
-14.191552512407
 20
611.597948837689
 30
0.0
 11
-13.596491646588
 21
612.193009703507
 31
0.0
  0
ENDBLK
  5
21B
100
AcDbEntity
  8
0
  6
BYBLOCK
 62
           0
100
AcDbBlockEnd
  0
ENDSEC
  0
SECTION
  2
ENTITIES
  0
INSERT
  5
25
100
AcDbEntity
  8
0
  6
CONTINUOUS
 62
           7
100
AcDbBlockReference
  2
MAK1
 10
-4741.400602301024
 20
-4249.518188058864
 30
0.0
 50
353.589999999999
  0
LINE
  5
26
100
AcDbEntity
  8
0
  6
CONTINUOUS
 62
          15
100
AcDbLine
 10
-5083.967897983818
 20
-3402.13726170858
 30
0.0
 11
-4632.967897983818
 21
-3402.13726170858
 31
0.0
  0
LINE
  5
27
100
AcDbEntity
  8
0
  6
CONTINUOUS
 62
          15
100
AcDbLine
 10
-4632.967897983818
 20
-3692.13732270858
 30
0.0
 11
-4632.967897983818
 21
-3902.13726170858
 31
0.0
  0
LINE
  5
28
100
AcDbEntity
  8
0
  6
GESTRICHELT
 62
          15
100
AcDbLine
 10
-4632.967897983818
 20
-3601.273388530006
 30
0.0
 11
-4632.967897983818
 21
-3692.13732270858
 31
0.0
  0
LINE
  5
29
100
AcDbEntity
  8
0
  6
CONTINUOUS
 62
          15
100
AcDbLine
 10
-4632.967897983818
 20
-3402.13726170858
 30
0.0
 11
-4632.967897983818
 21
-3601.273388530006
 31
0.0
  0
LINE
  5
2A
100
AcDbEntity
  8
0
  6
CONTINUOUS
 62
          15
100
AcDbLine
 10
-4632.967897983818
 20
-3902.13726170858
 30
0.0
 11
-5083.967897983818
 21
-3902.13726170858
 31
0.0
  0
LINE
  5
2B
100
AcDbEntity
  8
0
  6
CONTINUOUS
 62
          15
100
AcDbLine
 10
-5083.967897983818
 20
-3627.13726170858
 30
0.0
 11
-5083.967897983818
 21
-3402.13726170858
 31
0.0
  0
LINE
  5
2C
100
AcDbEntity
  8
0
  6
GESTRICHELT
 62
          15
100
AcDbLine
 10
-5083.967897983818
 20
-3677.13726170858
 30
0.0
 11
-5083.967897983818
 21
-3627.13726170858
 31
0.0
  0
LINE
  5
2D
100
AcDbEntity
  8
0
  6
CONTINUOUS
 62
          15
100
AcDbLine
 10
-5083.967897983818
 20
-3902.13726170858
 30
0.0
 11
-5083.967897983818
 21
-3677.13726170858
 31
0.0
  0
LINE
  5
2E
100
AcDbEntity
  8
0
  6
STRICHPUNKT
 62
          15
100
AcDbLine
 10
-4858.467897983818
 20
-3402.13726170858
 30
0.0
 11
-4858.467897983818
 21
-3902.13726170858
 31
0.0
  0
LINE
  5
2F
100
AcDbEntity
  8
0
  6
GESTRICHELT
 62
          15
100
AcDbLine
 10
-5083.967897983818
 20
-3652.13726170858
 30
0.0
 11
-4632.967897983818
 21
-3652.13726170858
 31
0.0
  0
CIRCLE
  5
30
100
AcDbEntity
  8
0
  6
CONTINUOUS
 62
          15
100
AcDbCircle
 10
-4858.467897983818
 20
-3652.13726170858
 30
0.0
 40
15.25
  0
LINE
  5
31
100
AcDbEntity
  8
0
  6
CONTINUOUS
 62
          15
100
AcDbLine
 10
-5090.967897983818
 20
-3677.13726170858
 30
0.0
 11
-5090.967897983818
 21
-3627.13726170858
 31
0.0
  0
LINE
  5
32
100
AcDbEntity
  8
0
  6
GESTRICHELT
 62
          15
100
AcDbLine
 10
-4625.967897983818
 20
-3627.13726170858
 30
0.0
 11
-4625.967897983818
 21
-3677.13726170858
 31
0.0
  0
LINE
  5
33
100
AcDbEntity
  8
0
  6
GESTRICHELT
 62
          15
100
AcDbLine
 10
-4918.467897983818
 20
-3677.13726170858
 30
0.0
 11
-4625.967897983818
 21
-3677.13726170858
 31
0.0
  0
LINE
  5
34
100
AcDbEntity
  8
0
  6
CONTINUOUS
 62
          15
100
AcDbLine
 10
-5090.967897983818
 20
-3677.13726170858
 30
0.0
 11
-4918.467897983818
 21
-3677.13726170858
 31
0.0
  0
LINE
  5
35
100
AcDbEntity
  8
0
  6
GESTRICHELT
 62
          15
100
AcDbLine
 10
-4918.467897983818
 20
-3627.13726170858
 30
0.0
 11
-4625.967897983818
 21
-3627.13726170858
 31
0.0
  0
LINE
  5
36
100
AcDbEntity
  8
0
  6
CONTINUOUS
 62
          15
100
AcDbLine
 10
-5090.967897983818
 20
-3627.13726170858
 30
0.0
 11
-4918.467897983818
 21
-3627.13726170858
 31
0.0
  0
TEXT
  5
37
100
AcDbEntity
  8
0
  6
CONTINUOUS
 62
          15
100
AcDbText
 10
-4997.464954620605
 20
-3832.09234857887
 30
0.0
 40
3.5
  1
450-730
 41
0.900000010218
  7
GOTHICG
100
AcDbText
  0
ARC
  5
38
100
AcDbEntity
  8
0
  6
GESTRICHELT
 62
          15
100
AcDbCircle
 10
-4858.467897983818
 20
-3652.13726170858
 30
0.0
 40
22.5
100
AcDbArc
 50
75.931192584764
 51
221.039680347967
  0
CIRCLE
  5
39
100
AcDbEntity
  8
0
  6
CONTINUOUS
 62
          15
100
AcDbCircle
 10
-4462.057741983819
 20
-3652.13726170858
 30
0.0
 40
6.25
  0
LINE
  5
3A
100
AcDbEntity
  8
0
  6
GESTRICHELT
 62
          15
100
AcDbLine
 10
-4728.845876025624
 20
-3612.13725932331
 30
0.0
 11
-4918.467897983818
 21
-3612.137337056355
 31
0.0
  0
LINE
  5
3B
100
AcDbEntity
  8
0
  6
CONTINUOUS
 62
          15
100
AcDbLine
 10
-4720.205872489634
 20
-3612.137255781454
 30
0.0
 11
-4728.845876025624
 21
-3612.13725932331
 31
0.0
  0
LINE
  5
3C
100
AcDbEntity
  8
0
  6
GESTRICHELT
 62
          15
100
AcDbLine
 10
-4536.267373391534
 20
-3612.137180378295
 30
0.0
 11
-4720.205872489634
 21
-3612.137255781454
 31
0.0
  0
LINE
  5
3D
100
AcDbEntity
  8
0
  6
CONTINUOUS
 62
          15
100
AcDbLine
 10
-4422.057741983819
 20
-3612.137133559565
 30
0.0
 11
-4536.267373391534
 21
-3612.137180378295
 31
0.0
  0
LINE
  5
3E
100
AcDbEntity
  8
0
  6
CONTINUOUS
 62
          15
100
AcDbLine
 10
-4918.467897983818
 20
-3692.13732270858
 30
0.0
 11
-4422.057741983819
 21
-3692.13732270858
 31
0.0
  0
LINE
  5
3F
100
AcDbEntity
  8
0
  6
CONTINUOUS
 62
          15
100
AcDbLine
 10
-4422.057741983819
 20
-3692.13732270858
 30
0.0
 11
-4422.057741983819
 21
-3612.137133559565
 31
0.0
  0
LINE
  5
40
100
AcDbEntity
  8
0
  6
CONTINUOUS
 62
          15
100
AcDbLine
 10
-4918.467897983818
 20
-3617.480024666264
 30
0.0
 11
-4918.467897983818
 21
-3692.13732270858
 31
0.0
  0
LINE
  5
41
100
AcDbEntity
  8
0
  6
GESTRICHELT
 62
          15
100
AcDbLine
 10
-4918.467897983818
 20
-3612.137337056355
 30
0.0
 11
-4918.467897983818
 21
-3617.480024666264
 31
0.0
  0
LINE
  5
42
100
AcDbEntity
  8
WHITE
  6
CONTINUOUS
 62
          15
100
AcDbLine
 10
-4894.169350618607
 20
-3619.727605290607
 30
0.0
 11
-4894.176790433739
 21
-3619.963903164593
 31
0.0
  0
LINE
  5
43
100
AcDbEntity
  8
BLACK
  6
GESTRICHELT
 62
          15
100
AcDbLine
 10
-4484.917854949084
 20
-3649.604189527322
 30
0.0
 11
-4482.685007434492
 21
-3629.729220546803
 31
0.0
  0
LINE
  5
44
100
AcDbEntity
  8
BLACK
  6
GESTRICHELT
 62
          15
100
AcDbLine
 10
-4482.685007434492
 20
-3629.729220546803
 30
0.0
 11
-4486.660001230595
 21
-3629.282651043884
 31
0.0
  0
LINE
  5
45
100
AcDbEntity
  8
BLACK
  6
CONTINUOUS
 62
          15
100
AcDbLine
 10
-4485.320292721841
 20
-3617.357669655573
 30
0.0
 11
-4514.735246813008
 21
-3614.053055333977
 31
0.0
  0
LINE
  5
46
100
AcDbEntity
  8
BLACK
  6
CONTINUOUS
 62
          15
100
AcDbLine
 10
-4514.735246813008
 20
-3614.053055333977
 30
0.0
 11
-4514.791068000874
 21
-3614.54992955849
 31
0.0
  0
LINE
  5
47
100
AcDbEntity
  8
BLACK
  6
CONTINUOUS
 62
          15
100
AcDbLine
 10
-4514.791068000874
 20
-3614.54992955849
 30
0.0
 11
-4660.673340317881
 21
-3598.160828801389
 31
0.0
  0
LINE
  5
48
100
AcDbEntity
  8
BLACK
  6
CONTINUOUS
 62
          15
100
AcDbLine
 10
-4660.673340317881
 20
-3598.160828801389
 30
0.0
 11
-4660.617519130015
 21
-3597.663954576875
 31
0.0
  0
LINE
  5
49
100
AcDbEntity
  8
BLACK
  6
CONTINUOUS
 62
          15
100
AcDbLine
 10
-4660.617519130015
 20
-3597.663954576875
 30
0.0
 11
-4690.032473221184
 21
-3594.35934025528
 31
0.0
  0
LINE
  5
4A
100
AcDbEntity
  8
BLACK
  6
CONTINUOUS
 62
          15
100
AcDbLine
 10
-4690.032473221184
 20
-3594.35934025528
 30
0.0
 11
-4691.372181729939
 21
-3606.284321643592
 31
0.0
  0
LINE
  5
4B
100
AcDbEntity
  8
BLACK
  6
CONTINUOUS
 62
          15
100
AcDbLine
 10
-4691.372181729939
 20
-3606.284321643592
 30
0.0
 11
-4702.800288893737
 21
-3605.000434322702
 31
0.0
  0
LINE
  5
4C
100
AcDbEntity
  8
BLACK
  6
CONTINUOUS
 62
          15
100
AcDbLine
 10
-4702.800288893737
 20
-3605.000434322702
 30
0.0
 11
-4702.911931269468
 21
-3605.994182771727
 31
0.0
  0
LINE
  5
4D
100
AcDbEntity
  8
BLACK
  6
CONTINUOUS
 62
          15
100
AcDbLine
 10
-4702.911931269468
 20
-3605.994182771727
 30
0.0
 11
-4719.308780678395
 21
-3604.152083572189
 31
0.0
  0
LINE
  5
4E
100
AcDbEntity
  8
BLACK
  6
CONTINUOUS
 62
          15
100
AcDbLine
 10
-4719.308780678395
 20
-3604.152083572189
 30
0.0
 11
-4723.551190956119
 21
-3641.914524635175
 31
0.0
  0
LINE
  5
4F
100
AcDbEntity
  8
BLACK
  6
CONTINUOUS
 62
          15
100
AcDbLine
 10
-4723.551190956119
 20
-3641.914524635175
 30
0.0
 11
-4707.154341547191
 21
-3643.756623834713
 31
0.0
  0
LINE
  5
50
100
AcDbEntity
  8
BLACK
  6
CONTINUOUS
 62
          15
100
AcDbLine
 10
-4707.154341547191
 20
-3643.756623834713
 30
0.0
 11
-4707.26598392292
 21
-3644.750372283739
 31
0.0
  0
LINE
  5
51
100
AcDbEntity
  8
BLACK
  6
CONTINUOUS
 62
          15
100
AcDbLine
 10
-4707.26598392292
 20
-3644.750372283739
 30
0.0
 11
-4695.837876759122
 21
-3646.034259604629
 31
0.0
  0
LINE
  5
52
100
AcDbEntity
  8
BLACK
  6
CONTINUOUS
 62
          15
100
AcDbLine
 10
-4695.837876759122
 20
-3646.034259604629
 30
0.0
 11
-4697.177585267877
 21
-3657.959240992941
 31
0.0
  0
LINE
  5
53
100
AcDbEntity
  8
BLACK
  6
GESTRICHELT
 62
          15
100
AcDbLine
 10
-4687.240100777618
 20
-3659.075664750236
 30
0.0
 11
-4667.762631176709
 21
-3661.263855314536
 31
0.0
  0
LINE
  5
54
100
AcDbEntity
  8
BLACK
  6
CONTINUOUS
 62
          15
100
AcDbLine
 10
-4697.177585267877
 20
-3657.959240992941
 30
0.0
 11
-4687.240100777618
 21
-3659.075664750236
 31
0.0
  0
LINE
  5
55
100
AcDbEntity
  8
BLACK
  6
GESTRICHELT
 62
          15
100
AcDbLine
 10
-4667.762631176709
 20
-3661.263855314536
 30
0.0
 11
-4667.706809988844
 21
-3660.766981090023
 31
0.0
  0
LINE
  5
56
100
AcDbEntity
  8
BLACK
  6
CONTINUOUS
 62
          15
100
AcDbLine
 10
-4659.359323017026
 20
-3661.704777046151
 30
0.0
 11
-4521.824537671837
 21
-3677.156081847125
 31
0.0
  0
LINE
  5
57
100
AcDbEntity
  8
BLACK
  6
GESTRICHELT
 62
          15
100
AcDbLine
 10
-4667.706809988844
 20
-3660.766981090023
 30
0.0
 11
-4659.359323017026
 21
-3661.704777046151
 31
0.0
  0
LINE
  5
58
100
AcDbEntity
  8
BLACK
  6
CONTINUOUS
 62
          15
100
AcDbLine
 10
-4521.824537671837
 20
-3677.156081847125
 30
0.0
 11
-4521.880358859701
 21
-3677.652956071638
 31
0.0
  0
LINE
  5
59
100
AcDbEntity
  8
BLACK
  6
CONTINUOUS
 62
          15
100
AcDbLine
 10
-4521.880358859701
 20
-3677.652956071638
 30
0.0
 11
-4492.465404768534
 21
-3680.957570393233
 31
0.0
  0
LINE
  5
5A
100
AcDbEntity
  8
BLACK
  6
GESTRICHELT
 62
          15
100
AcDbLine
 10
-4491.125696259779
 20
-3669.032589004922
 30
0.0
 11
-4487.150702463676
 21
-3669.47915850784
 31
0.0
  0
LINE
  5
5B
100
AcDbEntity
  8
BLACK
  6
GESTRICHELT
 62
          15
100
AcDbLine
 10
-4487.150702463676
 20
-3669.47915850784
 30
0.0
 11
-4484.917854949084
 21
-3649.604189527322
 31
0.0
  0
LINE
  5
5C
100
AcDbEntity
  8
BLACK
  6
CONTINUOUS
 62
          15
100
AcDbLine
 10
-4514.791068000874
 20
-3614.54992955849
 30
0.0
 11
-4521.824537671837
 21
-3677.156081847125
 31
0.0
  0
LINE
  5
5D
100
AcDbEntity
  8
BLACK
  6
GESTRICHELT
 62
          15
100
AcDbLine
 10
-4663.186498934326
 20
-3620.530896268403
 30
0.0
 11
-4667.706809988844
 21
-3660.766981090023
 31
0.0
  0
LINE
  5
5E
100
AcDbEntity
  8
BLACK
  6
CONTINUOUS
 62
          15
100
AcDbLine
 10
-4660.673340317881
 20
-3598.160828801389
 30
0.0
 11
-4663.186498934326
 21
-3620.530896268403
 31
0.0
  0
LINE
  5
5F
100
AcDbEntity
  8
BLACK
  6
CONTINUOUS
 62
          15
100
AcDbLine
 10
-4691.372181729939
 20
-3606.284321643592
 30
0.0
 11
-4695.837876759122
 21
-3646.034259604629
 31
0.0
  0
LINE
  5
60
100
AcDbEntity
  8
BLACK
  6
CONTINUOUS
 62
          15
100
AcDbLine
 10
-4702.800288893737
 20
-3605.000434322702
 30
0.0
 11
-4707.26598392292
 21
-3644.750372283739
 31
0.0
  0
LINE
  5
61
100
AcDbEntity
  8
BLACK
  6
GESTRICHELT
 62
          15
100
AcDbLine
 10
-4836.253189110636
 20
-3602.083198244438
 30
0.0
 11
-4860.645341264742
 21
-3599.342869121599
 31
0.0
  0
LINE
  5
62
100
AcDbEntity
  8
BLACK
  6
CONTINUOUS
 62
          15
100
AcDbLine
 10
-4829.759738843861
 20
-3602.812702995037
 30
0.0
 11
-4836.253189110636
 21
-3602.083198244438
 31
0.0
  0
LINE
  5
63
100
AcDbEntity
  8
BLACK
  6
GESTRICHELT
 62
          15
100
AcDbLine
 10
-4838.039467122309
 20
-3617.983173428853
 30
0.0
 11
-4862.431619276415
 21
-3615.242844306014
 31
0.0
  0
LINE
  5
64
100
AcDbEntity
  8
BLACK
  6
CONTINUOUS
 62
          15
100
AcDbLine
 10
-4831.546016855534
 20
-3618.712678179452
 30
0.0
 11
-4838.039467122309
 21
-3617.983173428853
 31
0.0
  0
LINE
  5
65
100
AcDbEntity
  8
BLACK
  6
GESTRICHELT
 62
          15
100
AcDbLine
 10
-4861.662415828295
 20
-3600.154534669577
 30
0.0
 11
-4860.645341264742
 21
-3599.342869121599
 31
0.0
  0
LINE
  5
66
100
AcDbEntity
  8
BLACK
  6
GESTRICHELT
 62
          15
100
AcDbLine
 10
-4863.24324060876
 20
-3614.225734458219
 30
0.0
 11
-4862.431619276415
 21
-3615.242844306014
 31
0.0
  0
LINE
  5
67
100
AcDbEntity
  8
BLACK
  6
GESTRICHELT
 62
          15
100
AcDbLine
 10
-4861.662415828295
 20
-3600.154534669577
 30
0.0
 11
-4863.24324060876
 21
-3614.225734458219
 31
0.0
  0
LINE
  5
68
100
AcDbEntity
  8
BLACK
  6
CONTINUOUS
 62
          15
100
AcDbLine
 10
-4836.35591572624
 20
-3602.997585942324
 30
0.0
 11
-4829.862465459465
 21
-3603.727090692923
 31
0.0
  0
LINE
  5
69
100
AcDbEntity
  8
BLACK
  6
GESTRICHELT
 62
          15
100
AcDbLine
 10
-4861.662415828295
 20
-3600.154534669577
 30
0.0
 11
-4836.35591572624
 21
-3602.997585942324
 31
0.0
  0
LINE
  5
6A
100
AcDbEntity
  8
BLACK
  6
CONTINUOUS
 62
          15
100
AcDbLine
 10
-4837.936740506705
 20
-3617.068785730966
 30
0.0
 11
-4831.44329023993
 21
-3617.798290481565
 31
0.0
  0
LINE
  5
6B
100
AcDbEntity
  8
BLACK
  6
GESTRICHELT
 62
          15
100
AcDbLine
 10
-4863.24324060876
 20
-3614.225734458219
 30
0.0
 11
-4837.936740506705
 21
-3617.068785730966
 31
0.0
  0
LINE
  5
6C
100
AcDbEntity
  8
BLACK
  6
GESTRICHELT
 62
          15
100
AcDbLine
 10
-4860.645341264742
 20
-3599.342869121599
 30
0.0
 11
-4862.431619276415
 21
-3615.242844306014
 31
0.0
  0
LINE
  5
6D
100
AcDbEntity
  8
BLACK
  6
CONTINUOUS
 62
          15
100
AcDbLine
 10
-4720.313562059961
 20
-3613.095819613423
 30
0.0
 11
-4829.536454092401
 21
-3600.825206096985
 31
0.0
  0
LINE
  5
6E
100
AcDbEntity
  8
BLACK
  6
CONTINUOUS
 62
          15
100
AcDbLine
 10
-4829.536454092401
 20
-3600.825206096985
 30
0.0
 11
-4831.769301606993
 21
-3620.700175077504
 31
0.0
  0
LINE
  5
6F
100
AcDbEntity
  8
BLACK
  6
CONTINUOUS
 62
          15
100
AcDbLine
 10
-4831.769301606993
 20
-3620.700175077504
 30
0.0
 11
-4722.546409574553
 21
-3632.970788593941
 31
0.0
  0
LINE
  5
70
100
AcDbEntity
  8
BLACK
  6
CONTINUOUS
 62
          15
100
AcDbLine
 10
-4830.064764793558
 20
-3605.527792695012
 30
0.0
 11
-4823.43977182089
 21
-3606.272075572017
 31
0.0
  0
LINE
  5
71
100
AcDbEntity
  8
BLACK
  6
CONTINUOUS
 62
          15
100
AcDbLine
 10
-4831.240990905837
 20
-3615.997588479476
 30
0.0
 11
-4824.615997933169
 21
-3616.741871356482
 31
0.0
  0
LINE
  5
72
100
AcDbEntity
  8
BLACK
  6
CONTINUOUS
 62
          15
100
AcDbLine
 10
-4823.43977182089
 20
-3606.272075572017
 30
0.0
 11
-4824.615997933169
 21
-3616.741871356482
 31
0.0
  0
LINE
  5
73
100
AcDbEntity
  8
BLACK
  6
CONTINUOUS
 62
          15
100
AcDbLine
 10
-4830.064764793558
 20
-3605.527792695012
 30
0.0
 11
-4824.615997933169
 21
-3616.741871356482
 31
0.0
  0
LINE
  5
74
100
AcDbEntity
  8
BLACK
  6
CONTINUOUS
 62
          15
100
AcDbLine
 10
-4823.43977182089
 20
-3606.272075572017
 30
0.0
 11
-4831.240990905837
 21
-3615.997588479476
 31
0.0
  0
CIRCLE
  5
75
100
AcDbEntity
  8
BLACK
  6
GESTRICHELT
 62
          15
100
AcDbCircle
 10
-4680.641511151869
 20
-3636.169145701044
 30
0.0
 40
5.7225
  0
ARC
  5
76
100
AcDbEntity
  8
BLACK
  6
GESTRICHELT
 62
          15
100
AcDbCircle
 10
-4680.641511151869
 20
-3636.169145701044
 30
0.0
 40
6.5785
100
AcDbArc
 50
103.59
 51
13.59
  0
CIRCLE
  5
77
100
AcDbEntity
  8
BLACK
  6
CONTINUOUS
 62
          15
100
AcDbCircle
 10
-4501.856366837849
 20
-3639.147764947469
 30
0.0
 40
5.7225
  0
ARC
  5
78
100
AcDbEntity
  8
BLACK
  6
CONTINUOUS
 62
          15
100
AcDbCircle
 10
-4501.856366837849
 20
-3639.147764947469
 30
0.0
 40
6.57849
100
AcDbArc
 50
103.59
 51
13.59
  0
LINE
  5
79
100
AcDbEntity
  8
BLACK
  6
GESTRICHELT
 62
          15
100
AcDbLine
 10
-4674.402751103686
 20
-3619.665883477431
 30
0.0
 11
-4677.648503956336
 21
-3622.25600341673
 31
0.0
  0
LINE
  5
7A
100
AcDbEntity
  8
BLACK
  6
CONTINUOUS
 62
          15
100
AcDbLine
 10
-4668.34255133639
 20
-3614.829826954955
 30
0.0
 11
-4674.402751103686
 21
-3619.665883477431
 31
0.0
  0
LINE
  5
7B
100
AcDbEntity
  8
BLACK
  6
GESTRICHELT
 62
          15
100
AcDbLine
 10
-4676.595701264663
 20
-3619.496760145451
 30
0.0
 11
-4678.5841594504
 21
-3621.083565056335
 31
0.0
  0
LINE
  5
7C
100
AcDbEntity
  8
BLACK
  6
CONTINUOUS
 62
          15
100
AcDbLine
 10
-4669.278201248335
 20
-3613.657338907136
 30
0.0
 11
-4676.595701264663
 21
-3619.496760145451
 31
0.0
  0
ARC
  5
7D
100
AcDbEntity
  8
BLACK
  6
CONTINUOUS
 62
          15
100
AcDbCircle
 10
-4673.463353160547
 20
-3617.956676130676
 30
0.0
 40
6.0
100
AcDbArc
 50
338.368688099555
 51
192.811311900445
  0
ARC
  5
7E
100
AcDbEntity
  8
BLACK
  6
GESTRICHELT
 62
          15
100
AcDbCircle
 10
-4673.463353160547
 20
-3617.956676130676
 30
0.0
 40
6.0
100
AcDbArc
 50
192.811311900445
 51
338.368688099555
  0
LINE
  5
7F
100
AcDbEntity
  8
BLACK
  6
CONTINUOUS
 62
          15
100
AcDbLine
 10
-4503.913420414783
 20
-3654.233379084891
 30
0.0
 11
-4513.219676741382
 21
-3661.659571741377
 31
0.0
  0
LINE
  5
80
100
AcDbEntity
  8
BLACK
  6
CONTINUOUS
 62
          15
100
AcDbLine
 10
-4504.849374033382
 20
-3653.060907231783
 30
0.0
 11
-4514.155624777863
 21
-3660.487050200846
 31
0.0
  0
CIRCLE
  5
81
100
AcDbEntity
  8
BLACK
  6
CONTINUOUS
 62
          15
100
AcDbCircle
 10
-4509.03452482917
 20
-3657.360234517837
 30
0.0
 40
6.0
  0
LINE
  5
82
100
AcDbEntity
  8
BLACK
  6
CONTINUOUS
 62
          15
100
AcDbLine
 10
-4836.088643780763
 20
-3596.208039622374
 30
0.0
 11
-4839.569247723477
 21
-3595.817012201381
 31
0.0
  0
LINE
  5
83
100
AcDbEntity
  8
BLACK
  6
CONTINUOUS
 62
          15
100
AcDbLine
 10
-4843.04985166619
 20
-3595.425984780388
 30
0.0
 11
-4839.569247723477
 21
-3595.817012201381
 31
0.0
  0
LINE
  5
84
100
AcDbEntity
  8
BLACK
  6
CONTINUOUS
 62
          15
100
AcDbLine
 10
-4846.143863810209
 20
-3622.966331797313
 30
0.0
 11
-4842.663259867496
 21
-3623.357359218306
 31
0.0
  0
LINE
  5
85
100
AcDbEntity
  8
BLACK
  6
CONTINUOUS
 62
          15
100
AcDbLine
 10
-4839.182655924783
 20
-3623.748386639299
 30
0.0
 11
-4842.663259867496
 21
-3623.357359218306
 31
0.0
  0
LINE
  5
86
100
AcDbEntity
  8
BLACK
  6
CONTINUOUS
 62
          15
100
AcDbLine
 10
-4836.862145700344
 20
-3603.093116439121
 30
0.0
 11
-4840.342749643059
 21
-3602.702089018128
 31
0.0
  0
LINE
  5
87
100
AcDbEntity
  8
BLACK
  6
CONTINUOUS
 62
          15
100
AcDbLine
 10
-4843.823353585772
 20
-3602.311061597135
 30
0.0
 11
-4840.342749643059
 21
-3602.702089018128
 31
0.0
  0
LINE
  5
88
100
AcDbEntity
  8
BLACK
  6
CONTINUOUS
 62
          15
100
AcDbLine
 10
-4845.370361890628
 20
-3616.081254980566
 30
0.0
 11
-4841.889757947915
 21
-3616.472282401559
 31
0.0
  0
LINE
  5
89
100
AcDbEntity
  8
BLACK
  6
CONTINUOUS
 62
          15
100
AcDbLine
 10
-4838.409154005201
 20
-3616.863309822552
 30
0.0
 11
-4841.889757947915
 21
-3616.472282401559
 31
0.0
  0
ARC
  5
8A
100
AcDbEntity
  8
BLACK
  6
CONTINUOUS
 62
          15
100
AcDbCircle
 10
-4885.822313396382
 20
-3604.564696660183
 30
0.0
 40
48.982200000031
100
AcDbArc
 50
354.449437000001
 51
1.721609999997
  0
ARC
  5
8B
100
AcDbEntity
  8
BLACK
  6
CONTINUOUS
 62
          15
100
AcDbCircle
 10
-4796.41019419463
 20
-3614.609674759498
 30
0.0
 40
48.982199999991
100
AcDbArc
 50
165.458000000003
 51
172.731000000004
  0
ARC
  5
8C
100
AcDbEntity
  8
BLACK
  6
CONTINUOUS
 62
          15
100
AcDbCircle
 10
-4796.410194194631
 20
-3614.609674759505
 30
0.0
 40
48.982199999991
100
AcDbArc
 50
174.448999999995
 51
181.721999999996
  0
ARC
  5
8D
100
AcDbEntity
  8
BLACK
  6
CONTINUOUS
 62
          15
100
AcDbCircle
 10
-4885.822313396381
 20
-3604.564696660179
 30
0.0
 40
48.982200000031
100
AcDbArc
 50
345.458390000002
 51
352.730562999997
  0
LINE
  5
8E
100
AcDbEntity
  8
BLACK
  6
CONTINUOUS
 62
          15
100
AcDbLine
 10
-4837.06976940964
 20
-3609.302458855589
 30
0.0
 11
-4837.146328116473
 21
-3610.033185836646
 31
0.0
  0
LINE
  5
8F
100
AcDbEntity
  8
BLACK
  6
CONTINUOUS
 62
          15
100
AcDbLine
 10
-4844.998689534727
 20
-3608.411686668118
 30
0.0
 11
-4845.086179474501
 21
-3609.141185583042
 31
0.0
  0
LINE
  5
90
100
AcDbEntity
  8
BLACK
  6
CONTINUOUS
 62
          15
100
AcDbLine
 10
-4845.162738181333
 20
-3609.871912564098
 30
0.0
 11
-4845.086179474501
 21
-3609.141185583042
 31
0.0
  0
LINE
  5
91
100
AcDbEntity
  8
BLACK
  6
CONTINUOUS
 62
          15
100
AcDbLine
 10
-4837.233818056245
 20
-3610.762684751569
 30
0.0
 11
-4837.146328116473
 21
-3610.033185836646
 31
0.0
  0
ARC
  5
92
100
AcDbEntity
  8
BLACK
  6
CONTINUOUS
 62
          15
100
AcDbCircle
 10
-4848.707444957804
 20
-3598.276376996639
 30
0.0
 40
12.801499999978
100
AcDbArc
 50
337.871499999983
 51
353.59000000001
  0
ARC
  5
93
100
AcDbEntity
  8
BLACK
  6
CONTINUOUS
 62
          15
100
AcDbCircle
 10
-4831.204513775193
 20
-3600.242738626054
 30
0.0
 40
12.787200000002
100
AcDbArc
 50
173.59
 51
189.308999999996
  0
ARC
  5
94
100
AcDbEntity
  8
BLACK
  6
CONTINUOUS
 62
          15
100
AcDbCircle
 10
-4833.525022883197
 20
-3620.897998888753
 30
0.0
 40
12.801500000013
100
AcDbArc
 50
157.871000000002
 51
173.589999999986
  0
ARC
  5
95
100
AcDbEntity
  8
BLACK
  6
CONTINUOUS
 62
          15
100
AcDbCircle
 10
-4851.027954065871
 20
-3618.931637259329
 30
0.0
 40
12.78720000003
100
AcDbArc
 50
353.590000000019
 51
9.308499999982
  0
ARC
  5
96
100
AcDbEntity
  8
BLACK
  6
CONTINUOUS
 62
          15
100
AcDbCircle
 10
-4848.707444957857
 20
-3598.276376996635
 30
0.0
 40
12.78720000003
100
AcDbArc
 50
353.590000000019
 51
9.308499999982
  0
ARC
  5
97
100
AcDbEntity
  8
BLACK
  6
CONTINUOUS
 62
          15
100
AcDbCircle
 10
-4831.204513775182
 20
-3600.242738626058
 30
0.0
 40
12.801500000013
100
AcDbArc
 50
157.871000000002
 51
173.589999999986
  0
ARC
  5
98
100
AcDbEntity
  8
BLACK
  6
CONTINUOUS
 62
          15
100
AcDbCircle
 10
-4833.525022883207
 20
-3620.897998888748
 30
0.0
 40
12.787200000002
100
AcDbArc
 50
173.59
 51
189.308999999996
  0
ARC
  5
99
100
AcDbEntity
  8
BLACK
  6
CONTINUOUS
 62
          15
100
AcDbCircle
 10
-4851.027954065818
 20
-3618.931637259333
 30
0.0
 40
12.801499999978
100
AcDbArc
 50
337.871499999983
 51
353.59000000001
  0
LINE
  5
9A
100
AcDbEntity
  8
BLACK
  6
CONTINUOUS
 62
          15
100
AcDbLine
 10
-4835.986073562465
 20
-3599.705555705299
 30
0.0
 11
-4837.146328116473
 21
-3610.033185836646
 31
0.0
  0
LINE
  5
9B
100
AcDbEntity
  8
BLACK
  6
CONTINUOUS
 62
          15
100
AcDbLine
 10
-4843.925924920493
 20
-3598.813555451694
 30
0.0
 11
-4845.086179474501
 21
-3609.141185583042
 31
0.0
  0
LINE
  5
9C
100
AcDbEntity
  8
BLACK
  6
CONTINUOUS
 62
          15
100
AcDbLine
 10
-4846.246434028507
 20
-3619.468815714388
 30
0.0
 11
-4845.086179474501
 21
-3609.141185583042
 31
0.0
  0
LINE
  5
9D
100
AcDbEntity
  8
BLACK
  6
CONTINUOUS
 62
          15
100
AcDbLine
 10
-4838.30658267048
 20
-3620.360815967992
 30
0.0
 11
-4837.146328116473
 21
-3610.033185836646
 31
0.0
  0
LINE
  5
9E
100
AcDbEntity
  8
0
  6
CONTINUOUS
 62
          15
100
AcDbLine
 10
-4485.316343873996
 20
-3617.322520265422
 30
0.0
 11
-4492.461455920688
 21
-3680.922421003082
 31
0.0
  0
LINE
  5
9F
100
AcDbEntity
  8
0
  6
CONTINUOUS
 62
          15
100
AcDbLine
 10
-4484.776313038027
 20
-3675.215817072234
 30
0.0
 11
-4485.258454308268
 21
-3679.507441434236
 31
0.0
  0
LINE
  5
A0
100
AcDbEntity
  8
0
  6
CONTINUOUS
 62
          15
100
AcDbLine
 10
-4478.606967620408
 20
-3620.301386953741
 30
0.0
 11
-4479.089108890648
 21
-3624.593011315745
 31
0.0
  0
LINE
  5
A1
100
AcDbEntity
  8
0
  6
CONTINUOUS
 62
          15
100
AcDbLine
 10
-4479.089108890648
 20
-3624.593011315745
 30
0.0
 11
-4480.094475202104
 21
-3633.541953920946
 31
0.0
  0
LINE
  5
A2
100
AcDbEntity
  8
0
  6
CONTINUOUS
 62
          15
100
AcDbLine
 10
-4483.77094672657
 20
-3666.26687446703
 30
0.0
 11
-4484.776313038027
 21
-3675.215817072234
 31
0.0
  0
LINE
  5
A3
100
AcDbEntity
  8
WHITE
  6
CONTINUOUS
 62
          15
100
AcDbLine
 10
-4487.399737297302
 20
-3681.278235376866
 30
0.0
 11
-4492.457607493197
 21
-3680.88816547219
 31
0.0
  0
LINE
  5
A4
100
AcDbEntity
  8
WHITE
  6
CONTINUOUS
 62
          15
100
AcDbLine
 10
-4480.301953144599
 20
-3618.099608559087
 30
0.0
 11
-4485.320292721841
 21
-3617.357669655573
 31
0.0
  0
LINE
  5
A5
100
AcDbEntity
  8
0
  6
CONTINUOUS
 62
          15
100
AcDbLine
 10
-4483.674213807695
 20
-3675.300812480394
 30
0.0
 11
-4484.776313038027
 21
-3675.215817072234
 31
0.0
  0
LINE
  5
A6
100
AcDbEntity
  8
WHITE
  6
CONTINUOUS
 62
          15
100
AcDbLine
 10
-4475.453145012323
 20
-3628.057345827366
 30
0.0
 11
-4476.456408276901
 21
-3636.987568841913
 31
0.0
  0
LINE
  5
A7
100
AcDbEntity
  8
0
  6
CONTINUOUS
 62
          15
100
AcDbLine
 10
-4479.089108890648
 20
-3624.593011315745
 30
0.0
 11
-4477.995623298608
 21
-3624.754678235386
 31
0.0
  0
LINE
  5
A8
100
AcDbEntity
  8
WHITE
  6
CONTINUOUS
 62
          15
100
AcDbLine
 10
-4479.438520007916
 20
-3663.531870574591
 30
0.0
 11
-4479.459026059567
 21
-3663.714398551901
 31
0.0
  0
LINE
  5
A9
100
AcDbEntity
  8
0
  6
CONTINUOUS
 62
          15
100
AcDbLine
 10
-4460.510117897214
 20
-3640.237477690096
 30
0.0
 11
-4475.612134553409
 21
-3638.273387863159
 31
0.0
  0
LINE
  5
AA
100
AcDbEntity
  8
0
  6
CONTINUOUS
 62
          15
100
AcDbLine
 10
-4463.189126826534
 20
-3664.083808001868
 30
0.0
 11
-4478.350489488664
 21
-3662.64796742588
 31
0.0
  0
LINE
  5
AB
100
AcDbEntity
  8
0
  6
CONTINUOUS
 62
          15
100
AcDbLine
 10
-4476.25851839743
 20
-3637.913267874413
 30
0.0
 11
-4479.060666869622
 21
-3662.855684944841
 31
0.0
  0
LINE
  5
AC
100
AcDbEntity
  8
WHITE
  6
CONTINUOUS
 62
          15
100
AcDbLine
 10
-4478.36491565182
 20
-3635.748536008819
 30
0.0
 11
-4477.321188052043
 21
-3635.884277797976
 31
0.0
  0
LINE
  5
AD
100
AcDbEntity
  8
WHITE
  6
CONTINUOUS
 62
          15
100
AcDbLine
 10
-4476.456408276901
 20
-3636.987568841913
 30
0.0
 11
-4476.476914328552
 21
-3637.170096819223
 31
0.0
  0
LINE
  5
AE
100
AcDbEntity
  8
WHITE
  6
CONTINUOUS
 62
          15
100
AcDbLine
 10
-4479.459026059567
 20
-3663.714398551901
 30
0.0
 11
-4480.462289324145
 21
-3672.644621566449
 31
0.0
  0
LINE
  5
AF
100
AcDbEntity
  8
WHITE
  6
CONTINUOUS
 62
          15
100
AcDbLine
 10
-4480.54705657882
 20
-3664.598301700612
 30
0.0
 11
-4481.594885688064
 21
-3664.49906816961
 31
0.0
  0
ARC
  5
B0
100
AcDbEntity
  8
0
  6
CONTINUOUS
 62
          15
100
AcDbCircle
 10
-4462.057741983819
 20
-3652.13726170858
 30
0.0
 40
12.0
100
AcDbArc
 50
264.589999999997
 51
82.590000000002
  0
ARC
  5
B1
100
AcDbEntity
  8
WHITE
  6
CONTINUOUS
 62
          15
100
AcDbCircle
 10
-4480.594464518459
 20
-3620.078102202282
 30
0.0
 40
2.0
100
AcDbArc
 50
353.589999999999
 51
81.590000000022
  0
ARC
  5
B2
100
AcDbEntity
  8
WHITE
  6
CONTINUOUS
 62
          15
100
AcDbCircle
 10
-4478.4343903594
 20
-3627.722418700177
 30
0.0
 40
3.0
100
AcDbArc
 50
353.589999999999
 51
81.589999999985
  0
ARC
  5
B3
100
AcDbEntity
  8
WHITE
  6
CONTINUOUS
 62
          15
100
AcDbCircle
 10
-4483.443534671224
 20
-3672.309694439261
 30
0.0
 40
3.0
100
AcDbArc
 50
265.589999999994
 51
353.589999999999
  0
ARC
  5
B4
100
AcDbEntity
  8
WHITE
  6
CONTINUOUS
 62
          15
100
AcDbCircle
 10
-4487.24595120632
 20
-3679.284156682777
 30
0.0
 40
2.0
100
AcDbArc
 50
265.589999999977
 51
353.589999999999
  0
ARC
  5
B5
100
AcDbEntity
  8
WHITE
  6
CONTINUOUS
 62
          15
100
AcDbCircle
 10
-4477.450156725927
 20
-3636.875926466184
 30
0.0
 40
1.0
100
AcDbArc
 50
353.589999999999
 51
82.59000000007
  0
ARC
  5
B6
100
AcDbEntity
  8
WHITE
  6
CONTINUOUS
 62
          15
100
AcDbCircle
 10
-4478.106978304052
 20
-3633.765238672404
 30
0.0
 40
2.0
100
AcDbArc
 50
173.59
 51
262.59000000002
  0
ARC
  5
B7
100
AcDbEntity
  8
WHITE
  6
CONTINUOUS
 62
          15
100
AcDbCircle
 10
-4475.483165879526
 20
-3637.281739194953
 30
0.0
 40
1.000000000001
100
AcDbArc
 50
219.162995999259
 51
262.590000000031
  0
ARC
  5
B8
100
AcDbEntity
  8
WHITE
  6
CONTINUOUS
 62
          15
100
AcDbCircle
 10
-4475.483165879526
 20
-3637.281739194953
 30
0.0
 40
1.0
100
AcDbArc
 50
173.59
 51
219.162995999262
  0
ARC
  5
B9
100
AcDbEntity
  8
WHITE
  6
CONTINUOUS
 62
          15
100
AcDbCircle
 10
-4481.783449828519
 20
-3666.490159218489
 30
0.0
 40
1.999999999999
100
AcDbArc
 50
84.589999999927
 51
173.59
  0
ARC
  5
BA
100
AcDbEntity
  8
WHITE
  6
CONTINUOUS
 62
          15
100
AcDbCircle
 10
-4480.452774508593
 20
-3663.602756176171
 30
0.0
 40
1.0
100
AcDbArc
 50
264.58999999993
 51
353.589999999999
  0
ARC
  5
BB
100
AcDbEntity
  8
WHITE
  6
CONTINUOUS
 62
          15
100
AcDbCircle
 10
-4478.44477155889
 20
-3663.64351295032
 30
0.0
 40
1.0
100
AcDbArc
 50
128.017004000809
 51
173.59
  0
ARC
  5
BC
100
AcDbEntity
  8
WHITE
  6
CONTINUOUS
 62
          15
100
AcDbCircle
 10
-4478.44477155889
 20
-3663.64351295032
 30
0.0
 40
1.0
100
AcDbArc
 50
84.589999999969
 51
128.017004000808
  0
LINE
  5
BD
100
AcDbEntity
  8
WHITE
  6
CONTINUOUS
 62
          15
100
AcDbLine
 10
-4845.979318480338
 20
-3617.091173175249
 30
0.0
 11
-4845.890004579754
 21
-3616.296174416028
 31
0.0
  0
LINE
  5
BE
100
AcDbEntity
  8
WHITE
  6
CONTINUOUS
 62
          15
100
AcDbLine
 10
-4845.890004579754
 20
-3616.296174416028
 30
0.0
 11
-4844.282354369248
 21
-3601.986196750054
 31
0.0
  0
LINE
  5
BF
100
AcDbEntity
  8
WHITE
  6
CONTINUOUS
 62
          15
100
AcDbLine
 10
-4844.282354369248
 20
-3601.986196750054
 30
0.0
 11
-4844.193040468664
 21
-3601.191197990834
 31
0.0
  0
LINE
  5
C0
100
AcDbEntity
  8
WHITE
  6
CONTINUOUS
 62
          15
100
AcDbLine
 10
-4844.193040468664
 20
-3601.191197990834
 30
0.0
 11
-4843.701814015453
 21
-3596.81870481512
 31
0.0
  0
LINE
  5
C1
100
AcDbEntity
  8
WHITE
  6
CONTINUOUS
 62
          15
100
AcDbLine
 10
-4878.672407855003
 20
-3621.46860474411
 30
0.0
 11
-4876.944382707746
 21
-3621.662739218432
 31
0.0
  0
LINE
  5
C2
100
AcDbEntity
  8
WHITE
  6
CONTINUOUS
 62
          15
100
AcDbLine
 10
-4873.3718266844
 20
-3589.862788849603
 30
0.0
 11
-4875.099851831657
 21
-3589.66865437528
 31
0.0
  0
LINE
  5
C3
100
AcDbEntity
  8
WHITE
  6
CONTINUOUS
 62
          15
100
AcDbLine
 10
-4876.944382707746
 20
-3621.662739218432
 30
0.0
 11
-4871.914918401627
 21
-3622.227772899071
 31
0.0
  0
LINE
  5
C4
100
AcDbEntity
  8
WHITE
  6
CONTINUOUS
 62
          15
100
AcDbLine
 10
-4868.342362378281
 20
-3590.427822530241
 30
0.0
 11
-4873.3718266844
 21
-3589.862788849603
 31
0.0
  0
LINE
  5
C5
100
AcDbEntity
  8
WHITE
  6
CONTINUOUS
 62
          15
100
AcDbLine
 10
-4922.184843704591
 20
-3584.378904882785
 30
0.0
 11
-4875.099851831657
 21
-3589.66865437528
 31
0.0
  0
LINE
  5
C6
100
AcDbEntity
  8
WHITE
  6
CONTINUOUS
 62
          15
100
AcDbLine
 10
-4925.757399727937
 20
-3616.178855251615
 30
0.0
 11
-4878.672407855003
 21
-3621.46860474411
 31
0.0
  0
LINE
  5
C7
100
AcDbEntity
  8
WHITE
  6
CONTINUOUS
 62
          15
100
AcDbLine
 10
-4867.417805941201
 20
-3592.946789658779
 30
0.0
 11
-4870.454478561045
 21
-3619.976747472284
 31
0.0
  0
LINE
  5
C8
100
AcDbEntity
  8
WHITE
  6
CONTINUOUS
 62
          15
100
AcDbLine
 10
-4844.760341303409
 20
-3595.492235825413
 30
0.0
 11
-4848.364838579149
 21
-3595.087289644547
 31
0.0
  0
LINE
  5
C9
100
AcDbEntity
  8
WHITE
  6
CONTINUOUS
 62
          15
100
AcDbLine
 10
-4846.470544933547
 20
-3621.463666350963
 30
0.0
 11
-4845.979318480338
 21
-3617.091173175249
 31
0.0
  0
LINE
  5
CA
100
AcDbEntity
  8
WHITE
  6
CONTINUOUS
 62
          15
100
AcDbLine
 10
-4869.261980422214
 20
-3620.110718323159
 30
0.0
 11
-4866.82327020858
 21
-3620.384694501168
 31
0.0
  0
LINE
  5
CB
100
AcDbEntity
  8
WHITE
  6
CONTINUOUS
 62
          15
100
AcDbLine
 10
-4863.607969787568
 20
-3591.764739169221
 30
0.0
 11
-4863.786597588735
 21
-3593.354736687662
 31
0.0
  0
LINE
  5
CC
100
AcDbEntity
  8
WHITE
  6
CONTINUOUS
 62
          15
100
AcDbLine
 10
-4863.786597588735
 20
-3593.354736687662
 30
0.0
 11
-4866.22530780237
 21
-3593.080760509654
 31
0.0
  0
LINE
  5
CD
100
AcDbEntity
  8
WHITE
  6
CONTINUOUS
 62
          15
100
AcDbLine
 10
-4863.786597588735
 20
-3593.354736687662
 30
0.0
 11
-4866.82327020858
 21
-3620.384694501168
 31
0.0
  0
LINE
  5
CE
100
AcDbEntity
  8
WHITE
  6
CONTINUOUS
 62
          15
100
AcDbLine
 10
-4866.82327020858
 20
-3620.384694501168
 30
0.0
 11
-4867.001898009748
 21
-3621.97469201961
 31
0.0
  0
LINE
  5
CF
100
AcDbEntity
  8
WHITE
  6
CONTINUOUS
 62
          15
100
AcDbLine
 10
-4851.580139000162
 20
-3623.707244976494
 30
0.0
 11
-4851.401511198995
 21
-3622.117247458052
 31
0.0
  0
LINE
  5
D0
100
AcDbEntity
  8
WHITE
  6
CONTINUOUS
 62
          15
100
AcDbLine
 10
-4851.401511198995
 20
-3622.117247458052
 30
0.0
 11
-4847.797013923254
 21
-3622.522193638919
 31
0.0
  0
LINE
  5
D1
100
AcDbEntity
  8
WHITE
  6
CONTINUOUS
 62
          15
100
AcDbLine
 10
-4851.401511198995
 20
-3622.117247458052
 30
0.0
 11
-4848.364838579149
 21
-3595.087289644547
 31
0.0
  0
LINE
  5
D2
100
AcDbEntity
  8
WHITE
  6
CONTINUOUS
 62
          15
100
AcDbLine
 10
-4848.364838579149
 20
-3595.087289644547
 30
0.0
 11
-4848.186210777983
 21
-3593.497292126106
 31
0.0
  0
LINE
  5
D3
100
AcDbEntity
  8
WHITE
  6
CONTINUOUS
 62
          15
100
AcDbLine
 10
-4863.607969787568
 20
-3591.764739169221
 30
0.0
 11
-4848.186210777983
 21
-3593.497292126106
 31
0.0
  0
LINE
  5
D4
100
AcDbEntity
  8
WHITE
  6
CONTINUOUS
 62
          15
100
AcDbLine
 10
-4867.001898009748
 20
-3621.97469201961
 30
0.0
 11
-4851.580139000162
 21
-3623.707244976494
 31
0.0
  0
ARC
  5
D5
100
AcDbEntity
  8
WHITE
  6
CONTINUOUS
 62
          15
100
AcDbCircle
 10
-4897.776189427455
 20
-3603.221741991327
 30
0.0
 40
27.821476415486
100
AcDbArc
 50
318.483694434248
 51
28.696305565753
  0
ARC
  5
D6
100
AcDbEntity
  8
WHITE
  6
CONTINUOUS
 62
          15
100
AcDbCircle
 10
-4884.671346452499
 20
-3604.694001701237
 30
0.0
 40
39.547005383793
100
AcDbArc
 50
149.72507458395
 51
197.45492541605
  0
ARC
  5
D7
100
AcDbEntity
  8
WHITE
  6
CONTINUOUS
 62
          15
100
AcDbCircle
 10
-4898.72652059598
 20
-3603.11497731714
 30
0.0
 40
30.022213997861
100
AcDbArc
 50
141.385772496028
 51
205.794227503972
  0
ARC
  5
D8
100
AcDbEntity
  8
WHITE
  6
CONTINUOUS
 62
          15
100
AcDbCircle
 10
-4868.476333229156
 20
-3591.620320669072
 30
0.0
 40
1.2
100
AcDbArc
 50
353.589999999999
 51
83.59
  0
ARC
  5
D9
100
AcDbEntity
  8
WHITE
  6
CONTINUOUS
 62
          15
100
AcDbCircle
 10
-4866.091336951494
 20
-3591.888262370823
 30
0.0
 40
1.2
100
AcDbArc
 50
173.59
 51
263.589999999999
  0
ARC
  5
DA
100
AcDbEntity
  8
WHITE
  6
CONTINUOUS
 62
          15
100
AcDbCircle
 10
-4844.894312154284
 20
-3596.684733964244
 30
0.0
 40
1.2
100
AcDbArc
 50
353.589999999999
 51
83.59
  0
ARC
  5
DB
100
AcDbEntity
  8
WHITE
  6
CONTINUOUS
 62
          15
100
AcDbCircle
 10
-4847.663043072377
 20
-3621.329695500087
 30
0.0
 40
1.2
100
AcDbArc
 50
263.589999999999
 51
353.589999999999
  0
ARC
  5
DC
100
AcDbEntity
  8
WHITE
  6
CONTINUOUS
 62
          15
100
AcDbCircle
 10
-4869.39595127309
 20
-3621.30321646199
 30
0.0
 40
1.2
100
AcDbArc
 50
83.59
 51
173.59
  0
ARC
  5
DD
100
AcDbEntity
  8
WHITE
  6
CONTINUOUS
 62
          15
100
AcDbCircle
 10
-4871.780947550752
 20
-3621.03527476024
 30
0.0
 40
1.2
100
AcDbArc
 50
263.589999999999
 51
353.589999999999
  0
LINE
  5
DE
100
AcDbEntity
  8
WHITE
  6
CONTINUOUS
 62
          15
100
AcDbLine
 10
-4652.379498888888
 20
-3626.01582335982
 30
0.0
 11
-4648.903161047239
 21
-3626.854258013265
 31
0.0
  0
LINE
  5
DF
100
AcDbEntity
  8
WHITE
  6
CONTINUOUS
 62
          15
100
AcDbLine
 10
-4652.529293390482
 20
-3623.428008610966
 30
0.0
 11
-4652.759142874058
 21
-3625.473939345786
 31
0.0
  0
LINE
  5
E0
100
AcDbEntity
  8
WHITE
  6
CONTINUOUS
 62
          15
100
AcDbLine
 10
-4651.697383291998
 20
-3619.94419229647
 30
0.0
 11
-4648.121664417133
 21
-3619.898018870083
 31
0.0
  0
LINE
  5
E1
100
AcDbEntity
  8
WHITE
  6
CONTINUOUS
 62
          15
100
AcDbLine
 10
-4652.417651014752
 20
-3622.434260161941
 30
0.0
 11
-4652.187801531176
 21
-3620.388329427121
 31
0.0
  0
LINE
  5
E2
100
AcDbEntity
  8
WHITE
  6
CONTINUOUS
 62
          15
100
AcDbLine
 10
-4650.952893116872
 20
-3623.605108833682
 30
0.0
 11
-4652.529293390482
 21
-3623.428008610966
 31
0.0
  0
LINE
  5
E3
100
AcDbEntity
  8
WHITE
  6
CONTINUOUS
 62
          15
100
AcDbLine
 10
-4650.897071929007
 20
-3623.10823460917
 30
0.0
 11
-4650.952893116872
 21
-3623.605108833682
 31
0.0
  0
LINE
  5
E4
100
AcDbEntity
  8
WHITE
  6
CONTINUOUS
 62
          15
100
AcDbLine
 10
-4650.841250741143
 20
-3622.611360384657
 30
0.0
 11
-4650.897071929007
 21
-3623.10823460917
 31
0.0
  0
LINE
  5
E5
100
AcDbEntity
  8
WHITE
  6
CONTINUOUS
 62
          15
100
AcDbLine
 10
-4652.417651014752
 20
-3622.434260161941
 30
0.0
 11
-4650.841250741143
 21
-3622.611360384657
 31
0.0
  0
LINE
  5
E6
100
AcDbEntity
  8
WHITE
  6
CONTINUOUS
 62
          15
100
AcDbLine
 10
-4647.898379665673
 20
-3617.910521972031
 30
0.0
 11
-4637.464020950901
 21
-3619.082766917191
 31
0.0
  0
LINE
  5
E7
100
AcDbEntity
  8
WHITE
  6
CONTINUOUS
 62
          15
100
AcDbLine
 10
-4647.898379665673
 20
-3617.910521972031
 30
0.0
 11
-4648.958982235105
 21
-3627.351132237778
 31
0.0
  0
LINE
  5
E8
100
AcDbEntity
  8
WHITE
  6
CONTINUOUS
 62
          15
100
AcDbLine
 10
-4641.572460377749
 20
-3655.652709841347
 30
0.0
 11
-4633.125598561028
 21
-3656.601670035048
 31
0.0
  0
LINE
  5
E9
100
AcDbEntity
  8
WHITE
  6
CONTINUOUS
 62
          15
100
AcDbLine
 10
-4633.125598561028
 20
-3656.601670035048
 30
0.0
 11
-4633.069777373164
 21
-3656.104795810535
 31
0.0
  0
LINE
  5
EA
100
AcDbEntity
  8
WHITE
  6
CONTINUOUS
 62
          15
100
AcDbLine
 10
-4633.069777373164
 20
-3656.104795810535
 30
0.0
 11
-4627.878406901738
 21
-3609.895492930829
 31
0.0
  0
LINE
  5
EB
100
AcDbEntity
  8
WHITE
  6
CONTINUOUS
 62
          15
100
AcDbLine
 10
-4626.884658452713
 20
-3610.007135306558
 30
0.0
 11
-4626.940479640578
 21
-3610.504009531071
 31
0.0
  0
LINE
  5
EC
100
AcDbEntity
  8
WHITE
  6
CONTINUOUS
 62
          15
100
AcDbLine
 10
-4626.940479640578
 20
-3610.504009531071
 30
0.0
 11
-4627.934228089604
 21
-3610.392367155342
 31
0.0
  0
LINE
  5
ED
100
AcDbEntity
  8
WHITE
  6
CONTINUOUS
 62
          15
100
AcDbLine
 10
-4626.940479640578
 20
-3610.504009531071
 30
0.0
 11
-4632.076028924138
 21
-3656.216438186264
 31
0.0
  0
LINE
  5
EE
100
AcDbEntity
  8
WHITE
  6
CONTINUOUS
 62
          15
100
AcDbLine
 10
-4632.076028924138
 20
-3656.216438186264
 30
0.0
 11
-4633.069777373164
 21
-3656.104795810535
 31
0.0
  0
LINE
  5
EF
100
AcDbEntity
  8
WHITE
  6
CONTINUOUS
 62
          15
100
AcDbLine
 10
-4637.960895175414
 20
-3619.026945729327
 30
0.0
 11
-4636.822142942972
 21
-3608.890711549263
 31
0.0
  0
LINE
  5
F0
100
AcDbEntity
  8
WHITE
  6
CONTINUOUS
 62
          15
100
AcDbLine
 10
-4627.878406901738
 20
-3609.895492930829
 30
0.0
 11
-4636.822142942972
 21
-3608.890711549263
 31
0.0
  0
LINE
  5
F1
100
AcDbEntity
  8
WHITE
  6
CONTINUOUS
 62
          15
100
AcDbLine
 10
-4550.366027877715
 20
-3618.603598237736
 30
0.0
 11
-4626.884658452713
 21
-3610.007135306558
 31
0.0
  0
LINE
  5
F2
100
AcDbEntity
  8
WHITE
  6
CONTINUOUS
 62
          15
100
AcDbLine
 10
-4637.960895175414
 20
-3619.026945729327
 30
0.0
 11
-4637.464020950901
 21
-3619.082766917191
 31
0.0
  0
LINE
  5
F3
100
AcDbEntity
  8
WHITE
  6
CONTINUOUS
 62
          15
100
AcDbLine
 10
-4637.464020950901
 20
-3619.082766917191
 30
0.0
 11
-4641.572460377749
 21
-3655.652709841347
 31
0.0
  0
LINE
  5
F4
100
AcDbEntity
  8
WHITE
  6
CONTINUOUS
 62
          15
100
AcDbLine
 10
-4555.613219537006
 20
-3665.309775341955
 30
0.0
 11
-4550.366027877715
 21
-3618.603598237736
 31
0.0
  0
LINE
  5
F5
100
AcDbEntity
  8
WHITE
  6
CONTINUOUS
 62
          15
100
AcDbLine
 10
-4632.131850112002
 20
-3656.713312410777
 30
0.0
 11
-4555.613219537006
 21
-3665.309775341955
 31
0.0
  0
LINE
  5
F6
100
AcDbEntity
  8
WHITE
  6
CONTINUOUS
 62
          15
100
AcDbLine
 10
-4632.076028924138
 20
-3656.216438186264
 30
0.0
 11
-4632.131850112002
 21
-3656.713312410777
 31
0.0
  0
LINE
  5
F7
100
AcDbEntity
  8
WHITE
  6
CONTINUOUS
 62
          15
100
AcDbLine
 10
-4654.798469358408
 20
-3639.022160047561
 30
0.0
 11
-4654.212346885828
 21
-3633.804980690176
 31
0.0
  0
LINE
  5
F8
100
AcDbEntity
  8
WHITE
  6
CONTINUOUS
 62
          15
100
AcDbLine
 10
-4655.942803709637
 20
-3649.208081650077
 30
0.0
 11
-4652.481890062019
 21
-3618.401879730274
 31
0.0
  0
LINE
  5
F9
100
AcDbEntity
  8
WHITE
  6
CONTINUOUS
 62
          15
100
AcDbLine
 10
-4651.376499237264
 20
-3617.519773656977
 30
0.0
 11
-4647.898379665673
 21
-3617.910521972031
 31
0.0
  0
LINE
  5
FA
100
AcDbEntity
  8
WHITE
  6
CONTINUOUS
 62
          15
100
AcDbLine
 10
-4655.06069763634
 20
-3650.313472474833
 30
0.0
 11
-4641.148219349976
 21
-3651.876465735047
 31
0.0
  0
LINE
  5
FB
100
AcDbEntity
  8
WHITE
  6
CONTINUOUS
 62
           1
100
AcDbLine
 10
-4681.802460554423
 20
-3655.460133142974
 30
0.0
 11
-4663.914988471957
 21
-3657.469695906106
 31
0.0
  0
LINE
  5
FC
100
AcDbEntity
  8
WHITE
  6
CONTINUOUS
 62
           1
100
AcDbLine
 10
-4663.914988471957
 20
-3657.469695906106
 30
0.0
 11
-4664.444252115934
 21
-3656.806461411254
 31
0.0
  0
LINE
  5
FD
100
AcDbEntity
  8
WHITE
  6
CONTINUOUS
 62
           1
100
AcDbLine
 10
-4664.444252115934
 20
-3656.806461411254
 30
0.0
 11
-4663.781017621081
 21
-3656.277197767276
 31
0.0
  0
LINE
  5
FE
100
AcDbEntity
  8
WHITE
  6
CONTINUOUS
 62
           1
100
AcDbLine
 10
-4663.781017621081
 20
-3656.277197767276
 30
0.0
 11
-4681.668489703548
 21
-3654.267635004144
 31
0.0
  0
LINE
  5
FF
100
AcDbEntity
  8
WHITE
  6
CONTINUOUS
 62
           1
100
AcDbLine
 10
-4681.668489703548
 20
-3654.267635004144
 30
0.0
 11
-4681.13922605957
 21
-3654.930869498997
 31
0.0
  0
LINE
  5
100
100
AcDbEntity
  8
WHITE
  6
CONTINUOUS
 62
           1
100
AcDbLine
 10
-4681.13922605957
 20
-3654.930869498997
 30
0.0
 11
-4681.802460554423
 21
-3655.460133142974
 31
0.0
  0
LINE
  5
101
100
AcDbEntity
  8
WHITE
  6
CONTINUOUS
 62
           1
100
AcDbLine
 10
-4681.13922605957
 20
-3654.930869498997
 30
0.0
 11
-4664.444252115934
 21
-3656.806461411254
 31
0.0
  0
LINE
  5
102
100
AcDbEntity
  8
WHITE
  6
CONTINUOUS
 62
           1
100
AcDbLine
 10
-4681.362510811029
 20
-3656.918366397049
 30
0.0
 11
-4681.891774455007
 21
-3656.255131902195
 31
0.0
  0
LINE
  5
103
100
AcDbEntity
  8
WHITE
  6
CONTINUOUS
 62
           1
100
AcDbLine
 10
-4681.891774455007
 20
-3656.255131902195
 30
0.0
 11
-4664.004302372541
 21
-3658.264694665328
 31
0.0
  0
LINE
  5
104
100
AcDbEntity
  8
WHITE
  6
CONTINUOUS
 62
           1
100
AcDbLine
 10
-4664.004302372541
 20
-3658.264694665328
 30
0.0
 11
-4664.667536867393
 21
-3658.793958309306
 31
0.0
  0
LINE
  5
105
100
AcDbEntity
  8
WHITE
  6
CONTINUOUS
 62
           1
100
AcDbLine
 10
-4664.667536867393
 20
-3658.793958309306
 30
0.0
 11
-4664.138273223416
 21
-3659.457192804158
 31
0.0
  0
LINE
  5
106
100
AcDbEntity
  8
WHITE
  6
CONTINUOUS
 62
           1
100
AcDbLine
 10
-4664.138273223416
 20
-3659.457192804158
 30
0.0
 11
-4682.025745305883
 21
-3657.447630041026
 31
0.0
  0
LINE
  5
107
100
AcDbEntity
  8
WHITE
  6
CONTINUOUS
 62
           1
100
AcDbLine
 10
-4682.025745305883
 20
-3657.447630041026
 30
0.0
 11
-4681.362510811029
 21
-3656.918366397049
 31
0.0
  0
LINE
  5
108
100
AcDbEntity
  8
WHITE
  6
CONTINUOUS
 62
           1
100
AcDbLine
 10
-4664.667536867393
 20
-3658.793958309306
 30
0.0
 11
-4681.362510811029
 21
-3656.918366397049
 31
0.0
  0
LINE
  5
109
100
AcDbEntity
  8
WHITE
  6
CONTINUOUS
 62
           1
100
AcDbLine
 10
-4681.585795562489
 20
-3658.905863295101
 30
0.0
 11
-4682.115059206467
 21
-3658.242628800248
 31
0.0
  0
LINE
  5
10A
100
AcDbEntity
  8
WHITE
  6
CONTINUOUS
 62
           1
100
AcDbLine
 10
-4682.115059206467
 20
-3658.242628800248
 30
0.0
 11
-4664.227587124
 21
-3660.25219156338
 31
0.0
  0
LINE
  5
10B
100
AcDbEntity
  8
WHITE
  6
CONTINUOUS
 62
           1
100
AcDbLine
 10
-4664.227587124
 20
-3660.25219156338
 30
0.0
 11
-4664.890821618852
 21
-3660.781455207358
 31
0.0
  0
LINE
  5
10C
100
AcDbEntity
  8
WHITE
  6
CONTINUOUS
 62
           1
100
AcDbLine
 10
-4664.890821618852
 20
-3660.781455207358
 30
0.0
 11
-4664.361557974875
 21
-3661.44468970221
 31
0.0
  0
LINE
  5
10D
100
AcDbEntity
  8
WHITE
  6
CONTINUOUS
 62
           1
100
AcDbLine
 10
-4664.361557974875
 20
-3661.44468970221
 30
0.0
 11
-4682.249030057343
 21
-3659.435126939078
 31
0.0
  0
LINE
  5
10E
100
AcDbEntity
  8
WHITE
  6
CONTINUOUS
 62
           1
100
AcDbLine
 10
-4682.249030057343
 20
-3659.435126939078
 30
0.0
 11
-4681.585795562489
 21
-3658.905863295101
 31
0.0
  0
LINE
  5
10F
100
AcDbEntity
  8
WHITE
  6
CONTINUOUS
 62
           1
100
AcDbLine
 10
-4681.809080313948
 20
-3660.893360193153
 30
0.0
 11
-4682.338343957926
 21
-3660.2301256983
 31
0.0
  0
LINE
  5
110
100
AcDbEntity
  8
WHITE
  6
CONTINUOUS
 62
           1
100
AcDbLine
 10
-4682.338343957926
 20
-3660.2301256983
 30
0.0
 11
-4676.283514865428
 21
-3660.910353682741
 31
0.0
  0
LINE
  5
111
100
AcDbEntity
  8
WHITE
  6
CONTINUOUS
 62
           1
100
AcDbLine
 10
-4664.450871875459
 20
-3662.239688461432
 30
0.0
 11
-4665.114106370312
 21
-3662.768952105409
 31
0.0
  0
LINE
  5
112
100
AcDbEntity
  8
WHITE
  6
CONTINUOUS
 62
           1
100
AcDbLine
 10
-4665.114106370312
 20
-3662.768952105409
 30
0.0
 11
-4664.584842726334
 21
-3663.432186600262
 31
0.0
  0
LINE
  5
113
100
AcDbEntity
  8
WHITE
  6
CONTINUOUS
 62
           1
100
AcDbLine
 10
-4664.584842726334
 20
-3663.432186600262
 30
0.0
 11
-4670.639671818831
 21
-3662.75195861582
 31
0.0
  0
LINE
  5
114
100
AcDbEntity
  8
WHITE
  6
CONTINUOUS
 62
           1
100
AcDbLine
 10
-4682.472314808802
 20
-3661.42262383713
 30
0.0
 11
-4681.809080313948
 21
-3660.893360193153
 31
0.0
  0
LINE
  5
115
100
AcDbEntity
  8
WHITE
  6
CONTINUOUS
 62
           1
100
AcDbLine
 10
-4682.032365065406
 20
-3662.880857091204
 30
0.0
 11
-4682.561628709385
 21
-3662.217622596351
 31
0.0
  0
LINE
  5
116
100
AcDbEntity
  8
WHITE
  6
CONTINUOUS
 62
           1
100
AcDbLine
 10
-4682.561628709385
 20
-3662.217622596351
 30
0.0
 11
-4677.248350707196
 21
-3662.814541242773
 31
0.0
  0
LINE
  5
117
100
AcDbEntity
  8
WHITE
  6
CONTINUOUS
 62
           1
100
AcDbLine
 10
-4664.674156626918
 20
-3664.227185359483
 30
0.0
 11
-4665.337391121771
 21
-3664.756449003461
 31
0.0
  0
LINE
  5
118
100
AcDbEntity
  8
WHITE
  6
CONTINUOUS
 62
           1
100
AcDbLine
 10
-4681.809080313948
 20
-3660.893360193153
 30
0.0
 11
-4675.75425122145
 21
-3661.573588177594
 31
0.0
  0
LINE
  5
119
100
AcDbEntity
  8
WHITE
  6
CONTINUOUS
 62
           1
100
AcDbLine
 10
-4681.585795562489
 20
-3658.905863295101
 30
0.0
 11
-4664.890821618852
 21
-3660.781455207358
 31
0.0
  0
LINE
  5
11A
100
AcDbEntity
  8
WHITE
  6
CONTINUOUS
 62
           1
100
AcDbLine
 10
-4676.417485716303
 20
-3662.102851821571
 30
0.0
 11
-4675.75425122145
 21
-3661.573588177594
 31
0.0
  0
LINE
  5
11B
100
AcDbEntity
  8
WHITE
  6
CONTINUOUS
 62
           1
100
AcDbLine
 10
-4676.417485716303
 20
-3662.102851821571
 30
0.0
 11
-4682.472314808802
 21
-3661.42262383713
 31
0.0
  0
LINE
  5
11C
100
AcDbEntity
  8
WHITE
  6
CONTINUOUS
 62
           1
100
AcDbLine
 10
-4675.75425122145
 20
-3661.573588177594
 30
0.0
 11
-4676.283514865428
 21
-3660.910353682741
 31
0.0
  0
LINE
  5
11D
100
AcDbEntity
  8
WHITE
  6
CONTINUOUS
 62
           1
100
AcDbLine
 10
-4677.248350707196
 20
-3662.814541242773
 30
0.0
 11
-4676.719087063219
 21
-3663.477775737626
 31
0.0
  0
LINE
  5
11E
100
AcDbEntity
  8
WHITE
  6
CONTINUOUS
 62
           1
100
AcDbLine
 10
-4670.650669123961
 20
-3664.159530357039
 30
0.0
 11
-4669.987434629107
 21
-3663.630266713062
 31
0.0
  0
LINE
  5
11F
100
AcDbEntity
  8
WHITE
  6
CONTINUOUS
 62
           1
100
AcDbLine
 10
-4669.987434629107
 20
-3663.630266713062
 30
0.0
 11
-4664.674156626918
 21
-3664.227185359483
 31
0.0
  0
LINE
  5
120
100
AcDbEntity
  8
WHITE
  6
CONTINUOUS
 62
           1
100
AcDbLine
 10
-4670.639671818831
 20
-3662.75195861582
 30
0.0
 11
-4671.168935462809
 21
-3662.088724120968
 31
0.0
  0
LINE
  5
121
100
AcDbEntity
  8
WHITE
  6
CONTINUOUS
 62
           1
100
AcDbLine
 10
-4671.168935462809
 20
-3662.088724120968
 30
0.0
 11
-4665.114106370312
 21
-3662.768952105409
 31
0.0
  0
LINE
  5
122
100
AcDbEntity
  8
WHITE
  6
CONTINUOUS
 62
           1
100
AcDbLine
 10
-4671.168935462809
 20
-3662.088724120968
 30
0.0
 11
-4670.505700967955
 21
-3661.55946047699
 31
0.0
  0
LINE
  5
123
100
AcDbEntity
  8
WHITE
  6
CONTINUOUS
 62
           1
100
AcDbLine
 10
-4670.505700967955
 20
-3661.55946047699
 30
0.0
 11
-4664.450871875459
 21
-3662.239688461432
 31
0.0
  0
LINE
  5
124
100
AcDbEntity
  8
WHITE
  6
CONTINUOUS
 62
           1
100
AcDbLine
 10
-4682.338343957926
 20
-3660.2301256983
 30
0.0
 11
-4682.472314808802
 21
-3661.42262383713
 31
0.0
  0
LINE
  5
125
100
AcDbEntity
  8
WHITE
  6
CONTINUOUS
 62
           1
100
AcDbLine
 10
-4682.249030057343
 20
-3659.435126939078
 30
0.0
 11
-4682.115059206467
 21
-3658.242628800248
 31
0.0
  0
LINE
  5
126
100
AcDbEntity
  8
WHITE
  6
CONTINUOUS
 62
           1
100
AcDbLine
 10
-4682.025745305883
 20
-3657.447630041026
 30
0.0
 11
-4681.891774455007
 21
-3656.255131902195
 31
0.0
  0
LINE
  5
127
100
AcDbEntity
  8
WHITE
  6
CONTINUOUS
 62
           1
100
AcDbLine
 10
-4681.802460554423
 20
-3655.460133142974
 30
0.0
 11
-4681.668489703548
 21
-3654.267635004144
 31
0.0
  0
LINE
  5
128
100
AcDbEntity
  8
WHITE
  6
CONTINUOUS
 62
           1
100
AcDbLine
 10
-4682.561628709385
 20
-3662.217622596351
 30
0.0
 11
-4682.628614134823
 21
-3662.813871665766
 31
0.0
  0
LINE
  5
129
100
AcDbEntity
  8
WHITE
  6
CONTINUOUS
 62
           1
100
AcDbLine
 10
-4664.741142052356
 20
-3664.823434428898
 30
0.0
 11
-4664.674156626918
 21
-3664.227185359483
 31
0.0
  0
LINE
  5
12A
100
AcDbEntity
  8
WHITE
  6
CONTINUOUS
 62
           1
100
AcDbLine
 10
-4664.584842726334
 20
-3663.432186600262
 30
0.0
 11
-4664.450871875459
 21
-3662.239688461432
 31
0.0
  0
LINE
  5
12B
100
AcDbEntity
  8
WHITE
  6
CONTINUOUS
 62
           1
100
AcDbLine
 10
-4664.361557974875
 20
-3661.44468970221
 30
0.0
 11
-4664.227587124
 21
-3660.25219156338
 31
0.0
  0
LINE
  5
12C
100
AcDbEntity
  8
WHITE
  6
CONTINUOUS
 62
           1
100
AcDbLine
 10
-4664.138273223416
 20
-3659.457192804158
 30
0.0
 11
-4664.004302372541
 21
-3658.264694665328
 31
0.0
  0
LINE
  5
12D
100
AcDbEntity
  8
WHITE
  6
CONTINUOUS
 62
           1
100
AcDbLine
 10
-4663.914988471957
 20
-3657.469695906106
 30
0.0
 11
-4663.781017621081
 21
-3656.277197767276
 31
0.0
  0
LINE
  5
12E
100
AcDbEntity
  8
WHITE
  6
CONTINUOUS
 62
           1
100
AcDbLine
 10
-4665.70126648363
 20
-3673.369671090521
 30
0.0
 11
-4665.567295632754
 21
-3672.177172951691
 31
0.0
  0
LINE
  5
12F
100
AcDbEntity
  8
WHITE
  6
CONTINUOUS
 62
           1
100
AcDbLine
 10
-4665.477981732171
 20
-3671.382174192469
 30
0.0
 11
-4665.344010881296
 21
-3670.18967605364
 31
0.0
  0
LINE
  5
130
100
AcDbEntity
  8
WHITE
  6
CONTINUOUS
 62
           1
100
AcDbLine
 10
-4665.254696980712
 20
-3669.394677294418
 30
0.0
 11
-4665.120726129837
 21
-3668.202179155588
 31
0.0
  0
LINE
  5
131
100
AcDbEntity
  8
WHITE
  6
CONTINUOUS
 62
           1
100
AcDbLine
 10
-4665.031412229253
 20
-3667.407180396366
 30
0.0
 11
-4664.897441378377
 21
-3666.214682257536
 31
0.0
  0
LINE
  5
132
100
AcDbEntity
  8
WHITE
  6
CONTINUOUS
 62
           1
100
AcDbLine
 10
-4664.808127477793
 20
-3665.419683498314
 30
0.0
 11
-4664.741142052356
 21
-3664.823434428898
 31
0.0
  0
LINE
  5
133
100
AcDbEntity
  8
WHITE
  6
CONTINUOUS
 62
           1
100
AcDbLine
 10
-4682.628614134823
 20
-3662.813871665766
 30
0.0
 11
-4682.69559956026
 21
-3663.410120735181
 31
0.0
  0
LINE
  5
134
100
AcDbEntity
  8
WHITE
  6
CONTINUOUS
 62
           1
100
AcDbLine
 10
-4683.588738566097
 20
-3671.360108327389
 30
0.0
 11
-4683.454767715222
 21
-3670.167610188559
 31
0.0
  0
LINE
  5
135
100
AcDbEntity
  8
WHITE
  6
CONTINUOUS
 62
           1
100
AcDbLine
 10
-4683.365453814638
 20
-3669.372611429337
 30
0.0
 11
-4683.231482963763
 21
-3668.180113290507
 31
0.0
  0
LINE
  5
136
100
AcDbEntity
  8
WHITE
  6
CONTINUOUS
 62
           1
100
AcDbLine
 10
-4683.142169063179
 20
-3667.385114531285
 30
0.0
 11
-4683.008198212303
 21
-3666.192616392455
 31
0.0
  0
LINE
  5
137
100
AcDbEntity
  8
WHITE
  6
CONTINUOUS
 62
           1
100
AcDbLine
 10
-4682.784913460844
 20
-3664.205119494403
 30
0.0
 11
-4682.918884311719
 21
-3665.397617633233
 31
0.0
  0
LINE
  5
138
100
AcDbEntity
  8
WHITE
  6
CONTINUOUS
 62
           1
100
AcDbLine
 10
-4665.031412229253
 20
-3667.407180396366
 30
0.0
 11
-4671.086241321749
 21
-3666.726952411924
 31
0.0
  0
LINE
  5
139
100
AcDbEntity
  8
WHITE
  6
CONTINUOUS
 62
           1
100
AcDbLine
 10
-4671.086241321749
 20
-3666.726952411924
 30
0.0
 11
-4671.615504965727
 21
-3666.06371791707
 31
0.0
  0
LINE
  5
13A
100
AcDbEntity
  8
WHITE
  6
CONTINUOUS
 62
           1
100
AcDbLine
 10
-4665.56067587323
 20
-3666.743945901513
 30
0.0
 11
-4671.615504965727
 21
-3666.06371791707
 31
0.0
  0
LINE
  5
13B
100
AcDbEntity
  8
WHITE
  6
CONTINUOUS
 62
           1
100
AcDbLine
 10
-4671.615504965727
 20
-3666.06371791707
 30
0.0
 11
-4670.952270470874
 21
-3665.534454273094
 31
0.0
  0
LINE
  5
13C
100
AcDbEntity
  8
WHITE
  6
CONTINUOUS
 62
           1
100
AcDbLine
 10
-4664.808127477793
 20
-3665.419683498314
 30
0.0
 11
-4670.121405479982
 21
-3664.822764851892
 31
0.0
  0
LINE
  5
13D
100
AcDbEntity
  8
WHITE
  6
CONTINUOUS
 62
           1
100
AcDbLine
 10
-4670.121405479982
 20
-3664.822764851892
 30
0.0
 11
-4670.650669123961
 21
-3664.159530357039
 31
0.0
  0
LINE
  5
13E
100
AcDbEntity
  8
WHITE
  6
CONTINUOUS
 62
           1
100
AcDbLine
 10
-4682.032365065406
 20
-3662.880857091204
 30
0.0
 11
-4676.719087063219
 21
-3663.477775737626
 31
0.0
  0
LINE
  5
13F
100
AcDbEntity
  8
WHITE
  6
CONTINUOUS
 62
           1
100
AcDbLine
 10
-4676.719087063219
 20
-3663.477775737626
 30
0.0
 11
-4677.382321558071
 21
-3664.007039381603
 31
0.0
  0
LINE
  5
140
100
AcDbEntity
  8
WHITE
  6
CONTINUOUS
 62
           1
100
AcDbLine
 10
-4676.864055219221
 20
-3666.077845617675
 30
0.0
 11
-4676.200820724369
 21
-3665.548581973697
 31
0.0
  0
LINE
  5
141
100
AcDbEntity
  8
WHITE
  6
CONTINUOUS
 62
           1
100
AcDbLine
 10
-4682.784913460844
 20
-3664.205119494403
 30
0.0
 11
-4676.730084368346
 21
-3664.885347478845
 31
0.0
  0
LINE
  5
142
100
AcDbEntity
  8
WHITE
  6
CONTINUOUS
 62
           1
100
AcDbLine
 10
-4676.200820724369
 20
-3665.548581973697
 30
0.0
 11
-4676.730084368346
 21
-3664.885347478845
 31
0.0
  0
LINE
  5
143
100
AcDbEntity
  8
WHITE
  6
CONTINUOUS
 62
           1
100
AcDbLine
 10
-4665.783960624689
 20
-3668.731442799564
 30
0.0
 11
-4682.478934568325
 21
-3666.855850887307
 31
0.0
  0
LINE
  5
144
100
AcDbEntity
  8
WHITE
  6
CONTINUOUS
 62
           1
100
AcDbLine
 10
-4676.200820724369
 20
-3665.548581973697
 30
0.0
 11
-4682.255649816866
 21
-3664.868353989256
 31
0.0
  0
LINE
  5
145
100
AcDbEntity
  8
WHITE
  6
CONTINUOUS
 62
           1
100
AcDbLine
 10
-4670.650669123961
 20
-3664.159530357039
 30
0.0
 11
-4665.337391121771
 21
-3664.756449003461
 31
0.0
  0
LINE
  5
146
100
AcDbEntity
  8
WHITE
  6
CONTINUOUS
 62
           1
100
AcDbLine
 10
-4665.337391121771
 20
-3664.756449003461
 30
0.0
 11
-4664.808127477793
 21
-3665.419683498314
 31
0.0
  0
LINE
  5
147
100
AcDbEntity
  8
WHITE
  6
CONTINUOUS
 62
           1
100
AcDbLine
 10
-4677.382321558071
 20
-3664.007039381603
 30
0.0
 11
-4682.69559956026
 21
-3663.410120735181
 31
0.0
  0
LINE
  5
148
100
AcDbEntity
  8
WHITE
  6
CONTINUOUS
 62
           1
100
AcDbLine
 10
-4682.69559956026
 20
-3663.410120735181
 30
0.0
 11
-4682.032365065406
 21
-3662.880857091204
 31
0.0
  0
LINE
  5
149
100
AcDbEntity
  8
WHITE
  6
CONTINUOUS
 62
           1
100
AcDbLine
 10
-4682.255649816866
 20
-3664.868353989256
 30
0.0
 11
-4682.784913460844
 21
-3664.205119494403
 31
0.0
  0
LINE
  5
14A
100
AcDbEntity
  8
WHITE
  6
CONTINUOUS
 62
           1
100
AcDbLine
 10
-4670.952270470874
 20
-3665.534454273094
 30
0.0
 11
-4664.897441378377
 21
-3666.214682257536
 31
0.0
  0
LINE
  5
14B
100
AcDbEntity
  8
WHITE
  6
CONTINUOUS
 62
           1
100
AcDbLine
 10
-4664.897441378377
 20
-3666.214682257536
 30
0.0
 11
-4665.56067587323
 21
-3666.743945901513
 31
0.0
  0
LINE
  5
14C
100
AcDbEntity
  8
WHITE
  6
CONTINUOUS
 62
           1
100
AcDbLine
 10
-4665.56067587323
 20
-3666.743945901513
 30
0.0
 11
-4665.031412229253
 21
-3667.407180396366
 31
0.0
  0
LINE
  5
14D
100
AcDbEntity
  8
WHITE
  6
CONTINUOUS
 62
           1
100
AcDbLine
 10
-4676.864055219221
 20
-3666.077845617675
 30
0.0
 11
-4682.918884311719
 21
-3665.397617633233
 31
0.0
  0
LINE
  5
14E
100
AcDbEntity
  8
WHITE
  6
CONTINUOUS
 62
           1
100
AcDbLine
 10
-4682.918884311719
 20
-3665.397617633233
 30
0.0
 11
-4682.255649816866
 21
-3664.868353989256
 31
0.0
  0
LINE
  5
14F
100
AcDbEntity
  8
WHITE
  6
CONTINUOUS
 62
           1
100
AcDbLine
 10
-4682.478934568325
 20
-3666.855850887307
 30
0.0
 11
-4683.008198212303
 21
-3666.192616392455
 31
0.0
  0
LINE
  5
150
100
AcDbEntity
  8
WHITE
  6
CONTINUOUS
 62
           1
100
AcDbLine
 10
-4683.008198212303
 20
-3666.192616392455
 30
0.0
 11
-4665.120726129837
 21
-3668.202179155588
 31
0.0
  0
LINE
  5
151
100
AcDbEntity
  8
WHITE
  6
CONTINUOUS
 62
           1
100
AcDbLine
 10
-4665.120726129837
 20
-3668.202179155588
 30
0.0
 11
-4665.783960624689
 21
-3668.731442799564
 31
0.0
  0
LINE
  5
152
100
AcDbEntity
  8
WHITE
  6
CONTINUOUS
 62
           1
100
AcDbLine
 10
-4665.783960624689
 20
-3668.731442799564
 30
0.0
 11
-4665.254696980712
 21
-3669.394677294418
 31
0.0
  0
LINE
  5
153
100
AcDbEntity
  8
WHITE
  6
CONTINUOUS
 62
           1
100
AcDbLine
 10
-4665.254696980712
 20
-3669.394677294418
 30
0.0
 11
-4683.142169063179
 21
-3667.385114531285
 31
0.0
  0
LINE
  5
154
100
AcDbEntity
  8
WHITE
  6
CONTINUOUS
 62
           1
100
AcDbLine
 10
-4683.142169063179
 20
-3667.385114531285
 30
0.0
 11
-4682.478934568325
 21
-3666.855850887307
 31
0.0
  0
LINE
  5
155
100
AcDbEntity
  8
WHITE
  6
CONTINUOUS
 62
           1
100
AcDbLine
 10
-4682.702219319785
 20
-3668.843347785359
 30
0.0
 11
-4666.007245376148
 21
-3670.718939697616
 31
0.0
  0
LINE
  5
156
100
AcDbEntity
  8
WHITE
  6
CONTINUOUS
 62
           1
100
AcDbLine
 10
-4682.702219319785
 20
-3668.843347785359
 30
0.0
 11
-4683.231482963763
 21
-3668.180113290507
 31
0.0
  0
LINE
  5
157
100
AcDbEntity
  8
WHITE
  6
CONTINUOUS
 62
           1
100
AcDbLine
 10
-4683.231482963763
 20
-3668.180113290507
 30
0.0
 11
-4665.344010881296
 21
-3670.18967605364
 31
0.0
  0
LINE
  5
158
100
AcDbEntity
  8
WHITE
  6
CONTINUOUS
 62
           1
100
AcDbLine
 10
-4665.344010881296
 20
-3670.18967605364
 30
0.0
 11
-4666.007245376148
 21
-3670.718939697616
 31
0.0
  0
LINE
  5
159
100
AcDbEntity
  8
WHITE
  6
CONTINUOUS
 62
           1
100
AcDbLine
 10
-4666.007245376148
 20
-3670.718939697616
 30
0.0
 11
-4665.477981732171
 21
-3671.382174192469
 31
0.0
  0
LINE
  5
15A
100
AcDbEntity
  8
WHITE
  6
CONTINUOUS
 62
           1
100
AcDbLine
 10
-4665.477981732171
 20
-3671.382174192469
 30
0.0
 11
-4683.365453814638
 21
-3669.372611429337
 31
0.0
  0
LINE
  5
15B
100
AcDbEntity
  8
WHITE
  6
CONTINUOUS
 62
           1
100
AcDbLine
 10
-4683.365453814638
 20
-3669.372611429337
 30
0.0
 11
-4682.702219319785
 21
-3668.843347785359
 31
0.0
  0
LINE
  5
15C
100
AcDbEntity
  8
WHITE
  6
CONTINUOUS
 62
           1
100
AcDbLine
 10
-4666.230530127607
 20
-3672.706436595668
 30
0.0
 11
-4682.925504071243
 21
-3670.830844683411
 31
0.0
  0
LINE
  5
15D
100
AcDbEntity
  8
WHITE
  6
CONTINUOUS
 62
           1
100
AcDbLine
 10
-4683.454767715222
 20
-3670.167610188559
 30
0.0
 11
-4682.925504071243
 21
-3670.830844683411
 31
0.0
  0
LINE
  5
15E
100
AcDbEntity
  8
WHITE
  6
CONTINUOUS
 62
           1
100
AcDbLine
 10
-4682.925504071243
 20
-3670.830844683411
 30
0.0
 11
-4683.588738566097
 21
-3671.360108327389
 31
0.0
  0
LINE
  5
15F
100
AcDbEntity
  8
WHITE
  6
CONTINUOUS
 62
           1
100
AcDbLine
 10
-4683.588738566097
 20
-3671.360108327389
 30
0.0
 11
-4665.70126648363
 21
-3673.369671090521
 31
0.0
  0
LINE
  5
160
100
AcDbEntity
  8
WHITE
  6
CONTINUOUS
 62
           1
100
AcDbLine
 10
-4665.70126648363
 20
-3673.369671090521
 30
0.0
 11
-4666.230530127607
 21
-3672.706436595668
 31
0.0
  0
LINE
  5
161
100
AcDbEntity
  8
WHITE
  6
CONTINUOUS
 62
           1
100
AcDbLine
 10
-4666.230530127607
 20
-3672.706436595668
 30
0.0
 11
-4665.567295632754
 21
-3672.177172951691
 31
0.0
  0
LINE
  5
162
100
AcDbEntity
  8
WHITE
  6
CONTINUOUS
 62
           1
100
AcDbLine
 10
-4665.567295632754
 20
-3672.177172951691
 30
0.0
 11
-4683.454767715222
 21
-3670.167610188559
 31
0.0
  0
LINE
  5
163
100
AcDbEntity
  8
WHITE
  6
CONTINUOUS
 62
          15
100
AcDbLine
 10
-4709.756543145609
 20
-3673.278870928992
 30
0.0
 11
-4708.859101501133
 21
-3672.062055385104
 31
0.0
  0
LINE
  5
164
100
AcDbEntity
  8
WHITE
  6
CONTINUOUS
 62
          15
100
AcDbLine
 10
-4704.641616253488
 20
-3672.535867518458
 30
0.0
 11
-4708.859101501133
 21
-3672.062055385104
 31
0.0
  0
LINE
  5
165
100
AcDbEntity
  8
WHITE
  6
CONTINUOUS
 62
          15
100
AcDbLine
 10
-4708.859101501133
 20
-3672.062055385104
 30
0.0
 11
-4709.317989204632
 21
-3669.375225061447
 31
0.0
  0
LINE
  5
166
100
AcDbEntity
  8
WHITE
  6
CONTINUOUS
 62
          15
100
AcDbLine
 10
-4708.871419701714
 20
-3665.400231265343
 30
0.0
 11
-4707.827793410246
 21
-3662.882200432273
 31
0.0
  0
LINE
  5
167
100
AcDbEntity
  8
WHITE
  6
CONTINUOUS
 62
          15
100
AcDbLine
 10
-4703.610308162601
 20
-3663.356012565628
 30
0.0
 11
-4707.827793410246
 21
-3662.882200432273
 31
0.0
  0
LINE
  5
168
100
AcDbEntity
  8
WHITE
  6
CONTINUOUS
 62
          15
100
AcDbLine
 10
-4707.827793410246
 20
-3662.882200432273
 30
0.0
 11
-4708.432865760738
 21
-3661.4965853978
 31
0.0
  0
LINE
  5
169
100
AcDbEntity
  8
WHITE
  6
CONTINUOUS
 62
          15
100
AcDbLine
 10
-4709.374755546578
 20
-3676.651982861519
 30
0.0
 11
-4709.979827897068
 21
-3675.266367827044
 31
0.0
  0
LINE
  5
16A
100
AcDbEntity
  8
WHITE
  6
CONTINUOUS
 62
          15
100
AcDbLine
 10
-4703.094654117156
 20
-3658.766085089212
 30
0.0
 11
-4707.312139364803
 21
-3658.292272955856
 31
0.0
  0
LINE
  5
16B
100
AcDbEntity
  8
WHITE
  6
CONTINUOUS
 62
          15
100
AcDbLine
 10
-4708.209581009278
 20
-3659.509088499748
 30
0.0
 11
-4707.312139364803
 21
-3658.292272955856
 31
0.0
  0
LINE
  5
16C
100
AcDbEntity
  8
WHITE
  6
CONTINUOUS
 62
          15
100
AcDbLine
 10
-4705.157270298931
 20
-3677.125794994875
 30
0.0
 11
-4705.011085651939
 21
-3675.824579705692
 31
0.0
  0
LINE
  5
16D
100
AcDbEntity
  8
WHITE
  6
CONTINUOUS
 62
          15
100
AcDbLine
 10
-4709.756543145609
 20
-3673.278870928992
 30
0.0
 11
-4709.979827897068
 21
-3675.266367827044
 31
0.0
  0
LINE
  5
16E
100
AcDbEntity
  8
WHITE
  6
CONTINUOUS
 62
          15
100
AcDbLine
 10
-4705.011085651939
 20
-3675.824579705692
 30
0.0
 11
-4709.979827897068
 21
-3675.266367827044
 31
0.0
  0
LINE
  5
16F
100
AcDbEntity
  8
WHITE
  6
CONTINUOUS
 62
          15
100
AcDbLine
 10
-4705.011085651939
 20
-3675.824579705692
 30
0.0
 11
-4704.78780090048
 21
-3673.83708280764
 31
0.0
  0
LINE
  5
170
100
AcDbEntity
  8
WHITE
  6
CONTINUOUS
 62
          15
100
AcDbLine
 10
-4709.317989204632
 20
-3669.375225061447
 30
0.0
 11
-4709.756543145609
 21
-3673.278870928992
 31
0.0
  0
LINE
  5
171
100
AcDbEntity
  8
WHITE
  6
CONTINUOUS
 62
          15
100
AcDbLine
 10
-4704.78780090048
 20
-3673.83708280764
 30
0.0
 11
-4709.756543145609
 21
-3673.278870928992
 31
0.0
  0
LINE
  5
172
100
AcDbEntity
  8
WHITE
  6
CONTINUOUS
 62
          15
100
AcDbLine
 10
-4704.78780090048
 20
-3673.83708280764
 30
0.0
 11
-4704.641616253488
 21
-3672.535867518458
 31
0.0
  0
LINE
  5
173
100
AcDbEntity
  8
WHITE
  6
CONTINUOUS
 62
          15
100
AcDbLine
 10
-4704.641616253488
 20
-3672.535867518458
 30
0.0
 11
-4704.349246959503
 21
-3669.933436940095
 31
0.0
  0
LINE
  5
174
100
AcDbEntity
  8
WHITE
  6
CONTINUOUS
 62
          15
100
AcDbLine
 10
-4708.871419701714
 20
-3665.400231265343
 30
0.0
 11
-4709.317989204632
 21
-3669.375225061447
 31
0.0
  0
LINE
  5
175
100
AcDbEntity
  8
WHITE
  6
CONTINUOUS
 62
          15
100
AcDbLine
 10
-4704.349246959503
 20
-3669.933436940095
 30
0.0
 11
-4709.317989204632
 21
-3669.375225061447
 31
0.0
  0
LINE
  5
176
100
AcDbEntity
  8
WHITE
  6
CONTINUOUS
 62
          15
100
AcDbLine
 10
-4704.349246959503
 20
-3669.933436940095
 30
0.0
 11
-4703.902677456585
 21
-3665.958443143991
 31
0.0
  0
LINE
  5
177
100
AcDbEntity
  8
WHITE
  6
CONTINUOUS
 62
          15
100
AcDbLine
 10
-4708.432865760738
 20
-3661.4965853978
 30
0.0
 11
-4708.871419701714
 21
-3665.400231265343
 31
0.0
  0
LINE
  5
178
100
AcDbEntity
  8
WHITE
  6
CONTINUOUS
 62
          15
100
AcDbLine
 10
-4703.902677456585
 20
-3665.958443143991
 30
0.0
 11
-4708.871419701714
 21
-3665.400231265343
 31
0.0
  0
LINE
  5
179
100
AcDbEntity
  8
WHITE
  6
CONTINUOUS
 62
          15
100
AcDbLine
 10
-4703.902677456585
 20
-3665.958443143991
 30
0.0
 11
-4703.610308162601
 21
-3663.356012565628
 31
0.0
  0
LINE
  5
17A
100
AcDbEntity
  8
WHITE
  6
CONTINUOUS
 62
          15
100
AcDbLine
 10
-4703.610308162601
 20
-3663.356012565628
 30
0.0
 11
-4703.464123515609
 21
-3662.054797276448
 31
0.0
  0
LINE
  5
17B
100
AcDbEntity
  8
WHITE
  6
CONTINUOUS
 62
          15
100
AcDbLine
 10
-4708.209581009278
 20
-3659.509088499748
 30
0.0
 11
-4708.432865760738
 21
-3661.4965853978
 31
0.0
  0
LINE
  5
17C
100
AcDbEntity
  8
WHITE
  6
CONTINUOUS
 62
          15
100
AcDbLine
 10
-4703.464123515609
 20
-3662.054797276448
 30
0.0
 11
-4708.432865760738
 21
-3661.4965853978
 31
0.0
  0
LINE
  5
17D
100
AcDbEntity
  8
WHITE
  6
CONTINUOUS
 62
          15
100
AcDbLine
 10
-4703.464123515609
 20
-3662.054797276448
 30
0.0
 11
-4703.240838764149
 21
-3660.067300378395
 31
0.0
  0
LINE
  5
17E
100
AcDbEntity
  8
WHITE
  6
CONTINUOUS
 62
          15
100
AcDbLine
 10
-4708.209581009278
 20
-3659.509088499748
 30
0.0
 11
-4703.240838764149
 21
-3660.067300378395
 31
0.0
  0
LINE
  5
17F
100
AcDbEntity
  8
WHITE
  6
CONTINUOUS
 62
          15
100
AcDbLine
 10
-4709.374755546578
 20
-3676.651982861519
 30
0.0
 11
-4705.157270298931
 21
-3677.125794994875
 31
0.0
  0
LINE
  5
180
100
AcDbEntity
  8
WHITE
  6
CONTINUOUS
 62
          15
100
AcDbLine
 10
-4703.240838764149
 20
-3660.067300378395
 30
0.0
 11
-4703.094654117156
 21
-3658.766085089212
 31
0.0
  0
LINE
  5
181
100
AcDbEntity
  8
WHITE
  6
CONTINUOUS
 62
          15
100
AcDbLine
 10
-4654.212346885828
 20
-3633.804980690176
 30
0.0
 11
-4653.626224413248
 21
-3628.58780133279
 31
0.0
  0
LINE
  5
182
100
AcDbEntity
  8
WHITE
  6
CONTINUOUS
 62
          15
100
AcDbLine
 10
-4656.093717874421
 20
-3637.115636698172
 30
0.0
 11
-4656.484466189474
 21
-3640.593756269763
 31
0.0
  0
LINE
  5
183
100
AcDbEntity
  8
WHITE
  6
CONTINUOUS
 62
          15
100
AcDbLine
 10
-4656.484466189474
 20
-3640.593756269763
 30
0.0
 11
-4655.733203635233
 21
-3640.678156639328
 31
0.0
  0
LINE
  5
184
100
AcDbEntity
  8
WHITE
  6
CONTINUOUS
 62
          15
100
AcDbLine
 10
-4655.312221244313
 20
-3630.15939755499
 30
0.0
 11
-4656.093717874421
 21
-3637.115636698172
 31
0.0
  0
LINE
  5
185
100
AcDbEntity
  8
WHITE
  6
CONTINUOUS
 62
          15
100
AcDbLine
 10
-4656.093717874421
 20
-3637.115636698172
 30
0.0
 11
-4655.342455320179
 21
-3637.200037067737
 31
0.0
  0
LINE
  5
186
100
AcDbEntity
  8
WHITE
  6
CONTINUOUS
 62
          15
100
AcDbLine
 10
-4654.92147292926
 20
-3626.6812779834
 30
0.0
 11
-4655.312221244313
 21
-3630.15939755499
 31
0.0
  0
LINE
  5
187
100
AcDbEntity
  8
WHITE
  6
CONTINUOUS
 62
          15
100
AcDbLine
 10
-4655.312221244313
 20
-3630.15939755499
 30
0.0
 11
-4654.560958690072
 21
-3630.243797924555
 31
0.0
  0
LINE
  5
188
100
AcDbEntity
  8
WHITE
  6
CONTINUOUS
 62
          15
100
AcDbLine
 10
-4654.307439862747
 20
-3621.215661513757
 30
0.0
 11
-4654.92147292926
 21
-3626.6812779834
 31
0.0
  0
LINE
  5
189
100
AcDbEntity
  8
WHITE
  6
CONTINUOUS
 62
          15
100
AcDbLine
 10
-4654.92147292926
 20
-3626.6812779834
 30
0.0
 11
-4654.170210375019
 21
-3626.765678352965
 31
0.0
  0
LINE
  5
18A
100
AcDbEntity
  8
WHITE
  6
CONTINUOUS
 62
          15
100
AcDbLine
 10
-4699.689801331858
 20
-3662.406573951902
 30
0.0
 11
-4701.029509840613
 21
-3674.331555340214
 31
0.0
  0
LINE
  5
18B
100
AcDbEntity
  8
WHITE
  6
CONTINUOUS
 62
           2
100
AcDbLine
 10
-4701.029509840613
 20
-3674.331555340214
 30
0.0
 11
-4704.795816462422
 21
-3673.9084307362
 31
0.0
  0
LINE
  5
18C
100
AcDbEntity
  8
WHITE
  6
CONTINUOUS
 62
          15
100
AcDbLine
 10
-4699.578158956128
 20
-3661.412825502876
 30
0.0
 11
-4699.689801331858
 21
-3662.406573951902
 31
0.0
  0
LINE
  5
18D
100
AcDbEntity
  8
WHITE
  6
CONTINUOUS
 62
           2
100
AcDbLine
 10
-4699.689801331858
 20
-3662.406573951902
 30
0.0
 11
-4703.456107953666
 21
-3661.983449347887
 31
0.0
  0
LINE
  5
18E
100
AcDbEntity
  8
WHITE
  6
CONTINUOUS
 62
          15
100
AcDbLine
 10
-4701.029509840613
 20
-3674.331555340214
 30
0.0
 11
-4701.141152216343
 21
-3675.32530378924
 31
0.0
  0
LINE
  5
18F
100
AcDbEntity
  8
WHITE
  6
CONTINUOUS
 62
          15
100
AcDbLine
 10
-4704.907458838151
 20
-3674.902179185225
 30
0.0
 11
-4701.141152216343
 21
-3675.32530378924
 31
0.0
  0
LINE
  5
190
100
AcDbEntity
  8
WHITE
  6
CONTINUOUS
 62
          15
100
AcDbLine
 10
-4699.522337768263
 20
-3660.915951278363
 30
0.0
 11
-4699.578158956128
 21
-3661.412825502876
 31
0.0
  0
LINE
  5
191
100
AcDbEntity
  8
WHITE
  6
CONTINUOUS
 62
          15
100
AcDbLine
 10
-4703.344465577937
 20
-3660.989700898861
 30
0.0
 11
-4699.578158956128
 21
-3661.412825502876
 31
0.0
  0
LINE
  5
192
100
AcDbEntity
  8
WHITE
  6
CONTINUOUS
 62
          15
100
AcDbLine
 10
-4662.881836928844
 20
-3679.623535254829
 30
0.0
 11
-4681.798731424616
 21
-3677.498322334996
 31
0.0
  0
LINE
  5
193
100
AcDbEntity
  8
WHITE
  6
CONTINUOUS
 62
          15
100
AcDbLine
 10
-4681.798731424616
 20
-3677.498322334996
 30
0.0
 11
-4689.439455579491
 21
-3678.652509196047
 31
0.0
  0
LINE
  5
194
100
AcDbEntity
  8
WHITE
  6
CONTINUOUS
 62
          15
100
AcDbLine
 10
-4657.656711134634
 20
-3651.028114984535
 30
0.0
 11
-4658.153585359147
 21
-3650.97229379667
 31
0.0
  0
LINE
  5
195
100
AcDbEntity
  8
WHITE
  6
CONTINUOUS
 62
          15
100
AcDbLine
 10
-4661.22375069171
 20
-3678.300376144883
 30
0.0
 11
-4658.153585359147
 21
-3650.97229379667
 31
0.0
  0
LINE
  5
196
100
AcDbEntity
  8
WHITE
  6
CONTINUOUS
 62
          15
100
AcDbLine
 10
-4687.725548154493
 20
-3676.83247586159
 30
0.0
 11
-4681.798731424616
 21
-3677.498322334996
 31
0.0
  0
LINE
  5
197
100
AcDbEntity
  8
WHITE
  6
CONTINUOUS
 62
          15
100
AcDbLine
 10
-4658.153585359147
 20
-3650.97229379667
 30
0.0
 11
-4685.978541931874
 21
-3647.846307276242
 31
0.0
  0
LINE
  5
198
100
AcDbEntity
  8
WHITE
  6
CONTINUOUS
 62
          15
100
AcDbLine
 10
-4689.048707264437
 20
-3675.174389624455
 30
0.0
 11
-4685.978541931874
 21
-3647.846307276242
 31
0.0
  0
LINE
  5
199
100
AcDbEntity
  8
WHITE
  6
CONTINUOUS
 62
          15
100
AcDbLine
 10
-4699.873814294263
 20
-3677.480264250886
 30
0.0
 11
-4689.439455579491
 21
-3678.652509196047
 31
0.0
  0
LINE
  5
19A
100
AcDbEntity
  8
WHITE
  6
CONTINUOUS
 62
          15
100
AcDbLine
 10
-4701.141152216343
 20
-3675.32530378924
 30
0.0
 11
-4701.196973404207
 21
-3675.822178013752
 31
0.0
  0
LINE
  5
19B
100
AcDbEntity
  8
WHITE
  6
CONTINUOUS
 62
          15
100
AcDbLine
 10
-4697.86425153113
 20
-3659.592792168418
 30
0.0
 11
-4687.429892816358
 21
-3660.765037113579
 31
0.0
  0
LINE
  5
19C
100
AcDbEntity
  8
WHITE
  6
CONTINUOUS
 62
          15
100
AcDbLine
 10
-4657.545068758905
 20
-3650.034366535509
 30
0.0
 11
-4657.656711134634
 21
-3651.028114984535
 31
0.0
  0
LINE
  5
19D
100
AcDbEntity
  8
WHITE
  6
CONTINUOUS
 62
          15
100
AcDbLine
 10
-4685.978541931874
 20
-3647.846307276242
 30
0.0
 11
-4686.475416156387
 21
-3647.790486088377
 31
0.0
  0
LINE
  5
19E
100
AcDbEntity
  8
WHITE
  6
CONTINUOUS
 62
          15
100
AcDbLine
 10
-4686.475416156387
 20
-3647.790486088377
 30
0.0
 11
-4686.363773780657
 21
-3646.796737639351
 31
0.0
  0
LINE
  5
19F
100
AcDbEntity
  8
WHITE
  6
CONTINUOUS
 62
          15
100
AcDbLine
 10
-4657.545068758905
 20
-3650.034366535509
 30
0.0
 11
-4686.363773780657
 21
-3646.796737639351
 31
0.0
  0
LINE
  5
1A0
100
AcDbEntity
  8
WHITE
  6
CONTINUOUS
 62
           7
100
AcDbLine
 10
-4683.454828954951
 20
-3620.903707417127
 30
0.0
 11
-4683.516893199552
 21
-3621.456152189191
 31
0.0
  0
LINE
  5
1A1
100
AcDbEntity
  8
WHITE
  6
CONTINUOUS
 62
          15
100
AcDbLine
 10
-4681.313545965918
 20
-3619.132913474497
 30
0.0
 11
-4654.307439862747
 21
-3621.215661513757
 31
0.0
  0
LINE
  5
1A2
100
AcDbEntity
  8
WHITE
  6
CONTINUOUS
 62
           7
100
AcDbLine
 10
-4689.769522765572
 20
-3632.326047474341
 30
0.0
 11
-4689.713701577708
 21
-3631.829173249828
 31
0.0
  0
LINE
  5
1A3
100
AcDbEntity
  8
WHITE
  6
CONTINUOUS
 62
           1
100
AcDbLine
 10
-4687.240906687555
 20
-3632.106978660744
 30
0.0
 11
-4689.713701577708
 21
-3631.829173249828
 31
0.0
  0
LINE
  5
1A4
100
AcDbEntity
  8
WHITE
  6
CONTINUOUS
 62
           7
100
AcDbLine
 10
-4689.713701577708
 20
-3631.829173249828
 30
0.0
 11
-4689.26713207479
 21
-3627.854179453725
 31
0.0
  0
LINE
  5
1A5
100
AcDbEntity
  8
WHITE
  6
CONTINUOUS
 62
           1
100
AcDbLine
 10
-4686.794337184637
 20
-3628.13198486464
 30
0.0
 11
-4689.26713207479
 21
-3627.854179453725
 31
0.0
  0
LINE
  5
1A6
100
AcDbEntity
  8
WHITE
  6
CONTINUOUS
 62
           7
100
AcDbLine
 10
-4689.825343953437
 20
-3632.822921698854
 30
0.0
 11
-4689.769522765572
 21
-3632.326047474341
 31
0.0
  0
LINE
  5
1A7
100
AcDbEntity
  8
WHITE
  6
CONTINUOUS
 62
           1
100
AcDbLine
 10
-4687.29672787542
 20
-3632.603852885256
 30
0.0
 11
-4689.769522765572
 21
-3632.326047474341
 31
0.0
  0
LINE
  5
1A8
100
AcDbEntity
  8
WHITE
  6
CONTINUOUS
 62
           7
100
AcDbLine
 10
-4689.26713207479
 20
-3627.854179453725
 30
0.0
 11
-4689.211310886924
 21
-3627.357305229211
 31
0.0
  0
LINE
  5
1A9
100
AcDbEntity
  8
WHITE
  6
CONTINUOUS
 62
           1
100
AcDbLine
 10
-4686.738515996772
 20
-3627.635110640127
 30
0.0
 11
-4689.211310886924
 21
-3627.357305229211
 31
0.0
  0
LINE
  5
1AA
100
AcDbEntity
  8
WHITE
  6
CONTINUOUS
 62
           7
100
AcDbLine
 10
-4688.161741250034
 20
-3626.972073380428
 30
0.0
 11
-4688.831595504411
 21
-3632.934564074584
 31
0.0
  0
LINE
  5
1AB
100
AcDbEntity
  8
WHITE
  6
CONTINUOUS
 62
           2
100
AcDbLine
 10
-4688.831595504411
 20
-3632.934564074584
 30
0.0
 11
-4689.825343953437
 21
-3632.822921698854
 31
0.0
  0
LINE
  5
1AC
100
AcDbEntity
  8
WHITE
  6
CONTINUOUS
 62
           7
100
AcDbLine
 10
-4688.050098874304
 20
-3625.978324931402
 30
0.0
 11
-4688.161741250034
 21
-3626.972073380428
 31
0.0
  0
LINE
  5
1AD
100
AcDbEntity
  8
WHITE
  6
CONTINUOUS
 62
           2
100
AcDbLine
 10
-4688.161741250034
 20
-3626.972073380428
 30
0.0
 11
-4689.15548969906
 21
-3626.860431004699
 31
0.0
  0
LINE
  5
1AE
100
AcDbEntity
  8
WHITE
  6
CONTINUOUS
 62
           7
100
AcDbLine
 10
-4688.831595504411
 20
-3632.934564074584
 30
0.0
 11
-4688.943237880141
 21
-3633.928312523609
 31
0.0
  0
LINE
  5
1AF
100
AcDbEntity
  8
WHITE
  6
CONTINUOUS
 62
           7
100
AcDbLine
 10
-4688.943237880141
 20
-3633.928312523609
 30
0.0
 11
-4689.825343953437
 21
-3632.822921698854
 31
0.0
  0
LINE
  5
1B0
100
AcDbEntity
  8
WHITE
  6
CONTINUOUS
 62
           7
100
AcDbLine
 10
-4689.211310886924
 20
-3627.357305229211
 30
0.0
 11
-4689.15548969906
 21
-3626.860431004699
 31
0.0
  0
LINE
  5
1B1
100
AcDbEntity
  8
WHITE
  6
CONTINUOUS
 62
           7
100
AcDbLine
 10
-4687.491886995656
 20
-3621.009582686272
 30
0.0
 11
-4688.050098874304
 21
-3625.978324931402
 31
0.0
  0
LINE
  5
1B2
100
AcDbEntity
  8
WHITE
  6
CONTINUOUS
 62
           7
100
AcDbLine
 10
-4689.15548969906
 20
-3626.860431004699
 30
0.0
 11
-4688.050098874304
 21
-3625.978324931402
 31
0.0
  0
LINE
  5
1B3
100
AcDbEntity
  8
WHITE
  6
CONTINUOUS
 62
          15
100
AcDbLine
 10
-4656.484466189474
 20
-3640.593756269763
 30
0.0
 11
-4657.545068758905
 21
-3650.034366535509
 31
0.0
  0
LINE
  5
1B4
100
AcDbEntity
  8
WHITE
  6
CONTINUOUS
 62
          15
100
AcDbLine
 10
-4686.363773780657
 20
-3646.796737639351
 30
0.0
 11
-4685.526455962685
 21
-3639.343624271658
 31
0.0
  0
LINE
  5
1B5
100
AcDbEntity
  8
WHITE
  6
CONTINUOUS
 62
           7
100
AcDbLine
 10
-4686.631846787441
 20
-3640.225730344954
 30
0.0
 11
-4684.398999272849
 21
-3620.350761364436
 31
0.0
  0
LINE
  5
1B6
100
AcDbEntity
  8
WHITE
  6
CONTINUOUS
 62
           7
100
AcDbLine
 10
-4688.619343685492
 20
-3640.002445593495
 30
0.0
 11
-4686.386496170901
 21
-3620.127476612976
 31
0.0
  0
LINE
  5
1B7
100
AcDbEntity
  8
WHITE
  6
CONTINUOUS
 62
           7
100
AcDbLine
 10
-4688.619343685492
 20
-3640.002445593495
 30
0.0
 11
-4689.501449758789
 21
-3638.897054768739
 31
0.0
  0
LINE
  5
1B8
100
AcDbEntity
  8
WHITE
  6
CONTINUOUS
 62
           7
100
AcDbLine
 10
-4685.526455962685
 20
-3639.343624271658
 30
0.0
 11
-4686.631846787441
 21
-3640.225730344954
 31
0.0
  0
LINE
  5
1B9
100
AcDbEntity
  8
WHITE
  6
CONTINUOUS
 62
           7
100
AcDbLine
 10
-4684.398999272849
 20
-3620.350761364436
 30
0.0
 11
-4683.516893199552
 21
-3621.456152189191
 31
0.0
  0
LINE
  5
1BA
100
AcDbEntity
  8
WHITE
  6
CONTINUOUS
 62
           7
100
AcDbLine
 10
-4686.386496170901
 20
-3620.127476612976
 30
0.0
 11
-4687.491886995656
 21
-3621.009582686272
 31
0.0
  0
LINE
  5
1BB
100
AcDbEntity
  8
WHITE
  6
CONTINUOUS
 62
           7
100
AcDbLine
 10
-4688.943237880141
 20
-3633.928312523609
 30
0.0
 11
-4689.501449758789
 21
-3638.897054768739
 31
0.0
  0
LINE
  5
1BC
100
AcDbEntity
  8
WHITE
  6
CONTINUOUS
 62
           7
100
AcDbLine
 10
-4688.619343685492
 20
-3640.002445593495
 30
0.0
 11
-4686.631846787441
 21
-3640.225730344954
 31
0.0
  0
LINE
  5
1BD
100
AcDbEntity
  8
WHITE
  6
CONTINUOUS
 62
          15
100
AcDbLine
 10
-4685.526455962685
 20
-3639.343624271658
 30
0.0
 11
-4683.516893199552
 21
-3621.456152189191
 31
0.0
  0
LINE
  5
1BE
100
AcDbEntity
  8
WHITE
  6
CONTINUOUS
 62
           7
100
AcDbLine
 10
-4684.398999272849
 20
-3620.350761364436
 30
0.0
 11
-4686.386496170901
 21
-3620.127476612976
 31
0.0
  0
LINE
  5
1BF
100
AcDbEntity
  8
WHITE
  6
CONTINUOUS
 62
          15
100
AcDbLine
 10
-4637.960895175414
 20
-3619.026945729327
 30
0.0
 11
-4637.464020950901
 21
-3619.082766917191
 31
0.0
  0
LINE
  5
1C0
100
AcDbEntity
  8
WHITE
  6
CONTINUOUS
 62
          15
100
AcDbLine
 10
-4653.430850255722
 20
-3626.848741546995
 30
0.0
 11
-4648.958982235105
 21
-3627.351132237778
 31
0.0
  0
LINE
  5
1C1
100
AcDbEntity
  8
WHITE
  6
CONTINUOUS
 62
           7
100
AcDbLine
 10
-4665.655492848324
 20
-3641.482172379283
 30
0.0
 11
-4673.924583543188
 21
-3640.553183829713
 31
0.0
  0
LINE
  5
1C2
100
AcDbEntity
  8
WHITE
  6
CONTINUOUS
 62
           7
100
AcDbLine
 10
-4673.924583543188
 20
-3640.553183829713
 30
0.0
 11
-4673.158355790712
 21
-3633.732855655511
 31
0.0
  0
LINE
  5
1C3
100
AcDbEntity
  8
WHITE
  6
CONTINUOUS
 62
           7
100
AcDbLine
 10
-4673.158355790712
 20
-3633.732855655511
 30
0.0
 11
-4664.889265095848
 21
-3634.661844205081
 31
0.0
  0
LINE
  5
1C4
100
AcDbEntity
  8
WHITE
  6
CONTINUOUS
 62
           7
100
AcDbLine
 10
-4664.889265095848
 20
-3634.661844205081
 30
0.0
 11
-4665.655492848324
 21
-3641.482172379283
 31
0.0
  0
ARC
  5
1C5
100
AcDbEntity
  8
WHITE
  6
CONTINUOUS
 62
          15
100
AcDbCircle
 10
-4609.387934685299
 20
-3615.494817641281
 30
0.0
 40
2.25
100
AcDbArc
 50
173.59
 51
353.589999999999
  0
ARC
  5
1C6
100
AcDbEntity
  8
WHITE
  6
CONTINUOUS
 62
          15
100
AcDbCircle
 10
-4609.387934685299
 20
-3615.494817641281
 30
0.0
 40
2.25
100
AcDbArc
 50
353.589999999999
 51
173.59
  0
ARC
  5
1C7
100
AcDbEntity
  8
WHITE
  6
CONTINUOUS
 62
          15
100
AcDbCircle
 10
-4662.76296302692
 20
-3632.844364247575
 30
0.0
 40
8.604407030244
100
AcDbArc
 50
353.589999999999
 51
17.59198532828
  0
ARC
  5
1C8
100
AcDbEntity
  8
WHITE
  6
CONTINUOUS
 62
          15
100
AcDbCircle
 10
-4657.213383438419
 20
-3638.75085723915
 30
0.0
 40
2.430106011614
100
AcDbArc
 50
353.589999999999
 51
39.655478142734
  0
ARC
  5
1C9
100
AcDbEntity
  8
WHITE
  6
CONTINUOUS
 62
          15
100
AcDbCircle
 10
-4656.041138493258
 20
-3628.316498524379
 30
0.0
 40
2.430106011614
100
AcDbArc
 50
353.589999999999
 51
39.655478142734
  0
ARC
  5
1CA
100
AcDbEntity
  8
WHITE
  6
CONTINUOUS
 62
          15
100
AcDbCircle
 10
-4657.213383438419
 20
-3638.75085723915
 30
0.0
 40
2.430106011614
100
AcDbArc
 50
307.524521857251
 51
353.589999999999
  0
ARC
  5
1CB
100
AcDbEntity
  8
WHITE
  6
CONTINUOUS
 62
          15
100
AcDbCircle
 10
-4656.041138493258
 20
-3628.316498524379
 30
0.0
 40
2.430106011613
100
AcDbArc
 50
307.524521857281
 51
353.589999999999
  0
ARC
  5
1CC
100
AcDbEntity
  8
WHITE
  6
CONTINUOUS
 62
          15
100
AcDbCircle
 10
-4662.76296302692
 20
-3632.844364247575
 30
0.0
 40
8.604407030244
100
AcDbArc
 50
329.588014671731
 51
353.589999999999
  0
CIRCLE
  5
1CD
100
AcDbEntity
  8
WHITE
  6
CONTINUOUS
 62
          15
100
AcDbCircle
 10
-4583.047427794678
 20
-3658.705669249936
 30
0.0
 40
2.25
  0
CIRCLE
  5
1CE
100
AcDbEntity
  8
WHITE
  6
CONTINUOUS
 62
          15
100
AcDbCircle
 10
-4603.916145224222
 20
-3656.361179359615
 30
0.0
 40
2.25
  0
CIRCLE
  5
1CF
100
AcDbEntity
  8
WHITE
  6
CONTINUOUS
 62
          15
100
AcDbCircle
 10
-4568.644248275235
 20
-3620.072155046194
 30
0.0
 40
2.25
  0
ARC
  5
1D0
100
AcDbEntity
  8
WHITE
  6
CONTINUOUS
 62
          15
100
AcDbCircle
 10
-4651.690927306663
 20
-3620.444150614986
 30
0.0
 40
0.5
100
AcDbArc
 50
90.739821982564
 51
173.59
  0
ARC
  5
1D1
100
AcDbEntity
  8
WHITE
  6
CONTINUOUS
 62
          15
100
AcDbCircle
 10
-4652.262268649545
 20
-3625.529760533651
 30
0.0
 40
0.5
100
AcDbArc
 50
173.59
 51
256.44017801742
  0
ARC
  5
1D2
100
AcDbEntity
  8
WHITE
  6
CONTINUOUS
 62
          15
100
AcDbCircle
 10
-4651.488141612994
 20
-3618.513522106003
 30
0.0
 40
1.0
100
AcDbArc
 50
83.59
 51
173.59
  0
ARC
  5
1D3
100
AcDbEntity
  8
WHITE
  6
CONTINUOUS
 62
          15
100
AcDbCircle
 10
-4654.94905526061
 20
-3649.319724025807
 30
0.0
 40
1.0
100
AcDbArc
 50
173.59
 51
263.59
  0
ARC
  5
1D4
100
AcDbEntity
  8
WHITE
  6
CONTINUOUS
 62
          15
100
AcDbCircle
 10
-4662.714373365249
 20
-3678.132912581289
 30
0.0
 40
1.500000000001
100
AcDbArc
 50
263.59
 51
353.589999999999
  0
ARC
  5
1D5
100
AcDbEntity
  8
WHITE
  6
CONTINUOUS
 62
          15
100
AcDbCircle
 10
-4687.558084590897
 20
-3675.341853188049
 30
0.0
 40
1.5
100
AcDbArc
 50
173.59
 51
263.59
  0
ARC
  5
1D6
100
AcDbEntity
  8
WHITE
  6
CONTINUOUS
 62
          15
100
AcDbCircle
 10
-4698.031715094725
 20
-3661.083414841958
 30
0.0
 40
1.5
100
AcDbArc
 50
83.59
 51
173.59
  0
ARC
  5
1D7
100
AcDbEntity
  8
WHITE
  6
CONTINUOUS
 62
          15
100
AcDbCircle
 10
-4699.706350730668
 20
-3675.989641577347
 30
0.0
 40
1.5
100
AcDbArc
 50
173.59
 51
263.59
  0
ARC
  5
1D8
100
AcDbEntity
  8
WHITE
  6
CONTINUOUS
 62
          15
100
AcDbCircle
 10
-4681.467332056899
 20
-3621.126992168587
 30
0.0
 40
2.0
100
AcDbArc
 50
85.59
 51
173.59
  0
TEXT
  5
1D9
100
AcDbEntity
  8
WHITE
  6
CONTINUOUS
 62
           7
100
AcDbText
 10
-4672.429226150652
 20
-3639.131022570444
 30
0.0
 40
4.0
  1
14
 50
-6.41
 41
0.955
  7
TXT
100
AcDbText
  0
LINE
  5
1DA
100
AcDbEntity
  8
WHITE
  6
GESTRICHELT
 62
          15
100
AcDbLine
 10
-4897.712324339672
 20
-3588.144098011198
 30
0.0
 11
-4893.313286481796
 21
-3592.537932977377
 31
0.0
  0
ARC
  5
1DB
100
AcDbEntity
  8
WHITE
  6
CONTINUOUS
 62
          15
100
AcDbCircle
 10
-4858.467897983818
 20
-3652.13726170858
 30
0.0
 40
22.5
100
AcDbArc
 50
221.039680999999
 51
75.931192584764
  0
LINE
  5
1DC
100
AcDbEntity
  8
WHITE
  6
GESTRICHELT
 62
          15
100
AcDbLine
 10
-4918.933186557852
 20
-3616.945519462805
 30
0.0
 11
-4922.461061681201
 21
-3612.892835352727
 31
0.0
  0
LINE
  5
1DD
100
AcDbEntity
  8
WHITE
  6
CONTINUOUS
 62
          15
100
AcDbLine
 10
-4875.438636801884
 20
-3666.910346591844
 30
0.0
 11
-4918.933186557852
 21
-3616.945519462805
 31
0.0
  0
ARC
  5
1DE
100
AcDbEntity
  8
WHITE
  6
GESTRICHELT
 62
          15
100
AcDbCircle
 10
-4911.854459963402
 20
-3602.286233634929
 30
0.0
 40
15.0
100
AcDbArc
 50
135.0
 51
225.0
  0
LINE
  5
1DF
100
AcDbEntity
  8
WHITE
  6
GESTRICHELT
 62
          15
100
AcDbLine
 10
-4922.461061681201
 20
-3591.679631917131
 30
0.0
 11
-4918.925527775268
 21
-3588.144098011198
 31
0.0
  0
ARC
  5
1E0
100
AcDbEntity
  8
WHITE
  6
GESTRICHELT
 62
          15
100
AcDbCircle
 10
-4908.31892605747
 20
-3598.750699728996
 30
0.0
 40
15.0
100
AcDbArc
 50
115.494701449333
 51
135.0
  0
ARC
  5
1E1
100
AcDbEntity
  8
WHITE
  6
CONTINUOUS
 62
          15
100
AcDbCircle
 10
-4908.31892605747
 20
-3598.750699728996
 30
0.0
 40
15.0
100
AcDbArc
 50
51.68529855067
 51
115.494701449333
  0
ARC
  5
1E2
100
AcDbEntity
  8
WHITE
  6
GESTRICHELT
 62
          15
100
AcDbCircle
 10
-4908.31892605747
 20
-3598.750699728996
 30
0.0
 40
15.0
100
AcDbArc
 50
45.0
 51
51.68529855067
  0
CIRCLE
  5
1E3
100
AcDbEntity
  8
WHITE
  6
CONTINUOUS
 62
          15
100
AcDbCircle
 10
-4908.672479448063
 20
-3601.932680244336
 30
0.0
 40
8.25
  0
POLYLINE
  5
1E4
100
AcDbEntity
  8
0
  6
GESTRICHELT
 62
          15
100
AcDb2dPolyline
 66
           1
 10
0.0
 20
0.0
 30
0.0
  0
VERTEX
  5
1E5
100
AcDbEntity
  8
0
  6
GESTRICHELT
 62
          15
100
AcDbVertex
100
AcDb2dVertex
 10
-4893.313286481796
 20
-3592.537932977377
 30
0.0
  0
VERTEX
  5
1E6
100
AcDbEntity
  8
0
  6
GESTRICHELT
 62
          15
100
AcDbVertex
100
AcDb2dVertex
 10
-4880.393903528173
 20
-3621.275203821624
 30
0.0
  0
SEQEND
  5
1E7
100
AcDbEntity
  8
0
  6
GESTRICHELT
 62
          15
  0
POLYLINE
  5
1E8
100
AcDbEntity
  8
0
  6
CONTINUOUS
 62
          15
100
AcDb2dPolyline
 66
           1
 10
0.0
 20
0.0
 30
0.0
  0
VERTEX
  5
1E9
100
AcDbEntity
  8
0
  6
CONTINUOUS
 62
          15
100
AcDbVertex
100
AcDb2dVertex
 10
-4880.393903528173
 20
-3621.275203821624
 30
0.0
  0
VERTEX
  5
1EA
100
AcDbEntity
  8
0
  6
CONTINUOUS
 62
          15
100
AcDbVertex
100
AcDb2dVertex
 10
-4879.849183541653
 20
-3622.48685346798
 30
0.0
  0
VERTEX
  5
1EB
100
AcDbEntity
  8
0
  6
CONTINUOUS
 62
          15
100
AcDbVertex
100
AcDb2dVertex
 10
-4852.998441283029
 20
-3630.312160485489
 30
0.0
  0
SEQEND
  5
1EC
100
AcDbEntity
  8
0
  6
CONTINUOUS
 62
          15
  0
ENDSEC
  0
SECTION
  2
OBJECTS
  0
DICTIONARY
  5
19
100
AcDbDictionary
  3
ACAD_GROUP
350
1A
  3
ACAD_MLINESTYLE
350
1B
  0
DICTIONARY
  5
1A
102
{ACAD_REACTORS
330
19
102
}
100
AcDbDictionary
  0
DICTIONARY
  5
1B
102
{ACAD_REACTORS
330
19
102
}
100
AcDbDictionary
  3
STANDARD
350
1C
  0
MLINESTYLE
  5
1C
102
{ACAD_REACTORS
330
1B
102
}
100
AcDbMlineStyle
  2
STANDARD
 70
           0
  3

 62
           0
 51
90.0
 52
90.0
 71
           2
 49
0.5
 62
         256
  6
BYLAYER
 49
-0.5
 62
         256
  6
BYLAYER
  0
ENDSEC
  0
EOF
