  0
SECTION
  2
HEADER
  9
$ACADVER
  1
AC1012
  9
$DWGCODEPAGE
  3
dos850
  9
$INSBASE
 10
0.0
 20
0.0
 30
0.0
  9
$EXTMIN
 10
-5061.279676451727
 20
-4644.342800010867
 30
0.0
  9
$EXTMAX
 10
-4367.369520451728
 20
-4144.342800010867
 30
0.0
  9
$LIMMIN
 10
-5061.279676451727
 20
-4644.342800010867
  9
$LIMMAX
 10
-4367.369520451728
 20
-4144.342800010867
  9
$ORTHOMODE
 70
           0
  9
$REGENMODE
 70
           1
  9
$FILLMODE
 70
           1
  9
$QTEXTMODE
 70
           0
  9
$MIRRTEXT
 70
           1
  9
$DRAGMODE
 70
           2
  9
$LTSCALE
 40
5.0
  9
$OSMODE
 70
           0
  9
$ATTMODE
 70
           1
  9
$TEXTSIZE
 40
0.2
  9
$TRACEWID
 40
0.05
  9
$TEXTSTYLE
  7
TXT
  9
$CLAYER
  8
0
  9
$CELTYPE
  6
CONTINUOUS
  9
$CECOLOR
 62
         256
  9
$CELTSCALE
 40
1.0
  9
$DELOBJ
 70
           1
  9
$DISPSILH
 70
           0
  9
$DIMSCALE
 40
1.0
  9
$DIMASZ
 40
3.5
  9
$DIMEXO
 40
0.0625
  9
$DIMDLI
 40
0.38
  9
$DIMRND
 40
0.0
  9
$DIMDLE
 40
0.0
  9
$DIMEXE
 40
0.18
  9
$DIMTP
 40
0.0
  9
$DIMTM
 40
0.0
  9
$DIMTXT
 40
3.5
  9
$DIMCEN
 40
0.09
  9
$DIMTSZ
 40
0.0
  9
$DIMTOL
 70
           0
  9
$DIMLIM
 70
           0
  9
$DIMTIH
 70
           1
  9
$DIMTOH
 70
           1
  9
$DIMSE1
 70
           0
  9
$DIMSE2
 70
           0
  9
$DIMTAD
 70
           0
  9
$DIMZIN
 70
           0
  9
$DIMBLK
  1

  9
$DIMASO
 70
           1
  9
$DIMSHO
 70
           1
  9
$DIMPOST
  1

  9
$DIMAPOST
  1

  9
$DIMALT
 70
           0
  9
$DIMALTD
 70
           2
  9
$DIMALTF
 40
25.4
  9
$DIMLFAC
 40
1.0
  9
$DIMTOFL
 70
           0
  9
$DIMTVP
 40
0.0
  9
$DIMTIX
 70
           0
  9
$DIMSOXD
 70
           0
  9
$DIMSAH
 70
           0
  9
$DIMBLK1
  1

  9
$DIMBLK2
  1

  9
$DIMSTYLE
  2
STANDARD
  9
$DIMCLRD
 70
           0
  9
$DIMCLRE
 70
           0
  9
$DIMCLRT
 70
           0
  9
$DIMTFAC
 40
1.0
  9
$DIMGAP
 40
0.09
  9
$DIMJUST
 70
           0
  9
$DIMSD1
 70
           0
  9
$DIMSD2
 70
           0
  9
$DIMTOLJ
 70
           1
  9
$DIMTZIN
 70
           0
  9
$DIMALTZ
 70
           0
  9
$DIMALTTZ
 70
           0
  9
$DIMFIT
 70
           3
  9
$DIMUPT
 70
           0
  9
$DIMUNIT
 70
           2
  9
$DIMDEC
 70
           4
  9
$DIMTDEC
 70
           4
  9
$DIMALTU
 70
           2
  9
$DIMALTTD
 70
           2
  9
$DIMTXSTY
  7
TXT
  9
$DIMAUNIT
 70
           0
  9
$LUNITS
 70
           2
  9
$LUPREC
 70
           2
  9
$SKETCHINC
 40
0.1
  9
$FILLETRAD
 40
0.0
  9
$AUNITS
 70
           0
  9
$AUPREC
 70
           2
  9
$MENU
  1
acad
  9
$ELEVATION
 40
0.0
  9
$PELEVATION
 40
0.0
  9
$THICKNESS
 40
0.0
  9
$LIMCHECK
 70
           0
  9
$BLIPMODE
 70
           1
  9
$CHAMFERA
 40
0.0
  9
$CHAMFERB
 40
0.0
  9
$CHAMFERC
 40
0.0
  9
$CHAMFERD
 40
0.0
  9
$SKPOLY
 70
           0
  9
$TDCREATE
 40
0.000000000
  9
$TDUPDATE
 40
0.000000000
  9
$TDINDWG
 40
0.0000000000
  9
$TDUSRTIMER
 40
0.0000000000
  9
$USRTIMER
 70
           1
  9
$ANGBASE
 50
0.0
  9
$ANGDIR
 70
           0
  9
$PDMODE
 70
           2
  9
$PDSIZE
 40
0.5
  9
$PLINEWID
 40
0.0
  9
$COORDS
 70
           0
  9
$SPLFRAME
 70
           0
  9
$SPLINETYPE
 70
           6
  9
$SPLINESEGS
 70
           8
  9
$ATTDIA
 70
           0
  9
$ATTREQ
 70
           1
  9
$HANDLING
 70
           1
  9
$HANDSEED
  5
21E
  9
$SURFTAB1
 70
           6
  9
$SURFTAB2
 70
           6
  9
$SURFTYPE
 70
           6
  9
$SURFU
 70
           6
  9
$SURFV
 70
           6
  9
$UCSNAME
  2

  9
$UCSORG
 10
0.0
 20
0.0
 30
0.0
  9
$UCSXDIR
 10
1.0
 20
0.0
 30
0.0
  9
$UCSYDIR
 10
0.0
 20
1.0
 30
0.0
  9
$PUCSNAME
  2

  9
$PUCSORG
 10
0.0
 20
0.0
 30
0.0
  9
$PUCSXDIR
 10
1.0
 20
0.0
 30
0.0
  9
$PUCSYDIR
 10
0.0
 20
1.0
 30
0.0
  9
$USERI1
 70
           0
  9
$USERI2
 70
           0
  9
$USERI3
 70
           0
  9
$USERI4
 70
           0
  9
$USERI5
 70
           0
  9
$USERR1
 40
0.0
  9
$USERR2
 40
0.0
  9
$USERR3
 40
0.0
  9
$USERR4
 40
0.0
  9
$USERR5
 40
0.0
  9
$WORLDVIEW
 70
           1
  9
$SHADEDGE
 70
           3
  9
$SHADEDIF
 70
          70
  9
$TILEMODE
 70
           1
  9
$MAXACTVP
 70
          16
  9
$PINSBASE
 10
0.0
 20
0.0
 30
0.0
  9
$PLIMCHECK
 70
           0
  9
$PEXTMIN
 10
1.000000000000E+20
 20
1.000000000000E+20
 30
1.000000000000E+20
  9
$PEXTMAX
 10
-1.000000000000E+20
 20
-1.000000000000E+20
 30
-1.000000000000E+20
  9
$PLIMMIN
 10
0.0
 20
0.0
  9
$PLIMMAX
 10
12.0
 20
9.0
  9
$UNITMODE
 70
           0
  9
$VISRETAIN
 70
           0
  9
$PLINEGEN
 70
           1
  9
$PSLTSCALE
 70
           0
  9
$TREEDEPTH
 70
        3020
  9
$PICKSTYLE
 70
           1
  9
$CMLSTYLE
  2
STANDARD
  9
$CMLJUST
 70
           0
  9
$CMLSCALE
 40
1.0
  9
$SAVEIMAGES
 70
           0
  0
ENDSEC
  0
SECTION
  2
CLASSES
  0
CLASS
  1
LWPOLYLINE
  2
AcDbPolyline
  3
"AutoCAD"
 90
        0
280
           0
281
           1
  0
CLASS
  1
IMAGE
  2
AcDbRasterImage
  3
ISM
 90
      127
280
           0
281
           1
  0
CLASS
  1
OLE2FRAME
  2
AcDbOle2Frame
  3
""
 90
        0
280
           0
281
           1
  0
CLASS
  1
HATCH
  2
AcDbHatch
  3
"ACAD_SEDONA"
 90
        0
280
           0
281
           1
  0
CLASS
  1
DICTIONARYVAR
  2
AcDbDictionaryVar
  3
"AutoCAD"
 90
        0
280
           0
281
           0
  0
CLASS
  1
RASTERVARIABLES
  2
AcDbRasterVariables
  3
ISM
 90
        0
280
           0
281
           0
  0
CLASS
  1
IMAGEDEF
  2
AcDbRasterImageDef
  3
ISM
 90
        0
280
           0
281
           0
  0
CLASS
  1
IMAGEDEF_REACTOR
  2
AcDbRasterImageDefReactor
  3
ISM
 90
        1
280
           0
281
           0
  0
CLASS
  1
IDBUFFER
  2
AcDbIdBuffer
  3
"Acad"
 90
        0
280
           0
281
           0
  0
CLASS
  1
SPATIAL_FILTER
  2
AcDbSpatialFilter
  3
"Acad"
 90
        0
280
           0
281
           0
  0
CLASS
  1
XRECORD
  2
AcDbXrecord
  3
"<Built In>"
 90
        0
280
           0
281
           0
  0
ENDSEC
  0
SECTION
  2
TABLES
  0
TABLE
  2
VPORT
  5
7
100
AcDbSymbolTable
 70
           1
  0
VPORT
  5
15
100
AcDbSymbolTableRecord
100
AcDbViewportTableRecord
  2
*ACTIVE
 70
           0
 10
0.0
 20
0.0
 11
1.0
 21
1.0
 12
6.591288
 22
4.579184
 13
0.0
 23
0.0
 14
1.0
 24
1.0
 15
0.0
 25
0.0
 16
0.0
 26
0.0
 36
1.0
 17
0.0
 27
0.0
 37
0.0
 40
9.158369
 41
0.688564
 42
50.0
 43
0.0
 44
0.0
 50
0.0
 51
0.0
 71
           0
 72
         100
 73
           1
 74
           1
 75
           0
 76
           0
 77
           0
 78
           0
  0
ENDTAB
  0
TABLE
  2
LTYPE
  5
4
100
AcDbSymbolTable
 70
           5
  0
LTYPE
  5
11
100
AcDbSymbolTableRecord
100
AcDbLinetypeTableRecord
  2
BYBLOCK
 70
           0
  3

 72
          65
 73
           0
 40
0.0
  0
LTYPE
  5
12
100
AcDbSymbolTableRecord
100
AcDbLinetypeTableRecord
  2
BYLAYER
 70
           0
  3

 72
          65
 73
           0
 40
0.0
  0
LTYPE
  5
13
100
AcDbSymbolTableRecord
100
AcDbLinetypeTableRecord
  2
CONTINUOUS
 70
           0
  3
Solid line
 72
          65
 73
           0
 40
0.0
  0
LTYPE
  5
1D
100
AcDbSymbolTableRecord
100
AcDbLinetypeTableRecord
  2
GESTRICHELT
 70
           0
  3

 72
          65
 73
           2
 40
0.75
 49
0.5
 74
           0
 49
-0.25
 74
           0
  0
LTYPE
  5
1E
100
AcDbSymbolTableRecord
100
AcDbLinetypeTableRecord
  2
STRICHPUNKT
 70
           0
  3

 72
          65
 73
           4
 40
1.0
 49
0.5
 74
           0
 49
-0.25
 74
           0
 49
0.0
 74
           0
 49
-0.25
 74
           0
  0
ENDTAB
  0
TABLE
  2
LAYER
  5
2
100
AcDbSymbolTable
 70
           3
  0
LAYER
  5
14
100
AcDbSymbolTableRecord
100
AcDbLayerTableRecord
  2
0
 70
           0
 62
           7
  6
CONTINUOUS
  0
LAYER
  5
20
100
AcDbSymbolTableRecord
100
AcDbLayerTableRecord
  2
BLACK
 70
           0
 62
           7
  6
CONTINUOUS
  0
LAYER
  5
21
100
AcDbSymbolTableRecord
100
AcDbLayerTableRecord
  2
WHITE
 70
           0
 62
           7
  6
CONTINUOUS
  0
ENDTAB
  0
TABLE
  2
STYLE
  5
3
100
AcDbSymbolTable
 70
           2
  0
STYLE
  5
17
100
AcDbSymbolTableRecord
100
AcDbTextStyleTableRecord
  2
TXT
 70
           0
 40
3.5
 41
1.0
 50
0.0
 71
           0
 42
3.5
  3
TXT
  4

  0
STYLE
  5
1F
100
AcDbSymbolTableRecord
100
AcDbTextStyleTableRecord
  2
GOTHICG
 70
           0
 40
3.5
 41
1.0
 50
0.0
 71
           0
 42
3.5
  3
GOTHICG
  4

  0
ENDTAB
  0
TABLE
  2
VIEW
  5
5
100
AcDbSymbolTable
 70
           0
  0
ENDTAB
  0
TABLE
  2
UCS
  5
6
100
AcDbSymbolTable
 70
           0
  0
ENDTAB
  0
TABLE
  2
APPID
  5
8
100
AcDbSymbolTable
 70
           2
  0
APPID
  5
16
100
AcDbSymbolTableRecord
100
AcDbRegAppTableRecord
  2
ACAD
 70
           0
  0
APPID
  5
22
100
AcDbSymbolTableRecord
100
AcDbRegAppTableRecord
  2
MegaCADPntStyle
 70
           0
  0
ENDTAB
  0
TABLE
  2
DIMSTYLE
  5
9
100
AcDbSymbolTable
 70
           1
  0
DIMSTYLE
105
18
100
AcDbSymbolTableRecord
100
AcDbDimStyleTableRecord
  2
STANDARD
 70
           0
  3

  4

  5

  6

  7

 40
1.0
 41
0.18
 42
0.0625
 43
0.38
 44
0.18
 45
0.0
 46
0.0
 47
0.0
 48
0.0
140
0.18
141
0.09
142
0.0
143
25.4
144
1.0
145
0.0
146
1.0
147
0.09
 71
           0
 72
           0
 73
           1
 74
           1
 75
           0
 76
           0
 77
           0
 78
           0
170
           0
171
           2
172
           0
173
           0
174
           0
175
           0
176
           0
177
           0
178
           0
270
           2
271
           4
272
           4
273
           2
274
           2
340
17
275
           0
280
           0
281
           0
282
           0
283
           1
284
           0
285
           0
286
           0
287
           0
288
           0
  0
ENDTAB
  0
TABLE
  2
BLOCK_RECORD
  5
1
100
AcDbSymbolTable
 70
           2
  0
BLOCK_RECORD
  5
A
100
AcDbSymbolTableRecord
100
AcDbBlockTableRecord
  2
*MODEL_SPACE
  0
BLOCK_RECORD
  5
B
100
AcDbSymbolTableRecord
100
AcDbBlockTableRecord
  2
*PAPER_SPACE
  0
BLOCK_RECORD
  5
23
100
AcDbSymbolTableRecord
100
AcDbBlockTableRecord
  2
ELIPPSE
  0
BLOCK_RECORD
  5
24
100
AcDbSymbolTableRecord
100
AcDbBlockTableRecord
  2
MAK1
  0
ENDTAB
  0
ENDSEC
  0
SECTION
  2
BLOCKS
  0
BLOCK
  5
D
100
AcDbEntity
  8
0
100
AcDbBlockBegin
  2
*MODEL_SPACE
 70
           0
 10
0.0
 20
0.0
 30
0.0
  3
*MODEL_SPACE
  1

  0
ENDBLK
  5
E
100
AcDbEntity
  8
0
100
AcDbBlockEnd
  0
BLOCK
  5
F
100
AcDbEntity
 67
           1
  8
0
100
AcDbBlockBegin
  2
*PAPER_SPACE
 70
           0
 10
0.0
 20
0.0
 30
0.0
  3
*PAPER_SPACE
  1

  0
ENDBLK
  5
10
100
AcDbEntity
 67
           1
  8
0
100
AcDbBlockEnd
  0
BLOCK
  5
1ED
100
AcDbEntity
  8
0
100
AcDbBlockBegin
  2
ELIPPSE
 70
          64
 10
0.0
 20
0.0
 30
0.0
  3
ELIPPSE
  1

  0
CIRCLE
  5
1EE
100
AcDbEntity
  8
0
  6
BYBLOCK
 62
           0
100
AcDbCircle
 10
0.0
 20
0.0
 30
0.0
 40
1.0
  0
ENDBLK
  5
1EF
100
AcDbEntity
  8
0
  6
BYBLOCK
 62
           0
100
AcDbBlockEnd
  0
BLOCK
  5
1F0
100
AcDbEntity
  8
0
100
AcDbBlockBegin
  2
MAK1
 70
          64
 10
0.0
 20
0.0
 30
0.0
  3
MAK1
  1

  0
LINE
  5
1F1
100
AcDbEntity
  8
WHITE
  6
CONTINUOUS
 62
           2
100
AcDbLine
 10
-15.50693229743
 20
611.597948837689
 30
0.0
 11
-15.596491646589
 21
611.687508186849
 31
0.0
  0
LINE
  5
1F2
100
AcDbEntity
  8
WHITE
  6
CONTINUOUS
 62
           2
100
AcDbLine
 10
-14.446272125649
 20
611.597948837689
 30
0.0
 11
-15.596491646589
 21
612.748168358628
 31
0.0
  0
LINE
  5
1F3
100
AcDbEntity
  8
WHITE
  6
CONTINUOUS
 62
           2
100
AcDbLine
 10
-13.596491646589
 20
611.808828530408
 30
0.0
 11
-15.596491646589
 21
613.808828530407
 31
0.0
  0
LINE
  5
1F4
100
AcDbEntity
  8
WHITE
  6
CONTINUOUS
 62
           2
100
AcDbLine
 10
-13.596491646589
 20
612.869488702188
 30
0.0
 11
-15.596491646587
 21
614.869488702188
 31
0.0
  0
LINE
  5
1F5
100
AcDbEntity
  8
WHITE
  6
CONTINUOUS
 62
           2
100
AcDbLine
 10
-13.596491646589
 20
613.930148873967
 30
0.0
 11
-15.596491646589
 21
615.930148873968
 31
0.0
  0
LINE
  5
1F6
100
AcDbEntity
  8
WHITE
  6
CONTINUOUS
 62
           2
100
AcDbLine
 10
-13.596491646588
 20
614.990809045748
 30
0.0
 11
-15.596491646588
 21
616.990809045747
 31
0.0
  0
LINE
  5
1F7
100
AcDbEntity
  8
WHITE
  6
CONTINUOUS
 62
           2
100
AcDbLine
 10
-13.596491646589
 20
616.051469217527
 30
0.0
 11
-15.596491646588
 21
618.051469217527
 31
0.0
  0
LINE
  5
1F8
100
AcDbEntity
  8
WHITE
  6
CONTINUOUS
 62
           2
100
AcDbLine
 10
-13.596491646589
 20
617.112129389307
 30
0.0
 11
-15.596491646589
 21
619.112129389307
 31
0.0
  0
LINE
  5
1F9
100
AcDbEntity
  8
WHITE
  6
CONTINUOUS
 62
           2
100
AcDbLine
 10
-13.596491646589
 20
618.172789561087
 30
0.0
 11
-15.596491646589
 21
620.172789561087
 31
0.0
  0
LINE
  5
1FA
100
AcDbEntity
  8
WHITE
  6
CONTINUOUS
 62
           2
100
AcDbLine
 10
-13.596491646589
 20
619.233449732867
 30
0.0
 11
-15.596491646589
 21
621.233449732867
 31
0.0
  0
LINE
  5
1FB
100
AcDbEntity
  8
WHITE
  6
CONTINUOUS
 62
           2
100
AcDbLine
 10
-13.596491646589
 20
620.294109904647
 30
0.0
 11
-15.596491646587
 21
622.294109904647
 31
0.0
  0
LINE
  5
1FC
100
AcDbEntity
  8
WHITE
  6
CONTINUOUS
 62
           2
100
AcDbLine
 10
-13.596491646589
 20
621.354770076426
 30
0.0
 11
-15.596491646589
 21
623.354770076426
 31
0.0
  0
LINE
  5
1FD
100
AcDbEntity
  8
WHITE
  6
CONTINUOUS
 62
           2
100
AcDbLine
 10
-13.596491646588
 20
622.415430248206
 30
0.0
 11
-15.596491646588
 21
624.415430248206
 31
0.0
  0
LINE
  5
1FE
100
AcDbEntity
  8
WHITE
  6
CONTINUOUS
 62
           2
100
AcDbLine
 10
-13.596491646589
 20
623.476090419987
 30
0.0
 11
-15.596491646588
 21
625.476090419986
 31
0.0
  0
LINE
  5
1FF
100
AcDbEntity
  8
WHITE
  6
CONTINUOUS
 62
           2
100
AcDbLine
 10
-13.596491646589
 20
624.536750591766
 30
0.0
 11
-15.596491646589
 21
626.536750591766
 31
0.0
  0
LINE
  5
200
100
AcDbEntity
  8
WHITE
  6
CONTINUOUS
 62
           2
100
AcDbLine
 10
-13.596491646589
 20
625.597410763546
 30
0.0
 11
-15.596491646589
 21
627.597410763546
 31
0.0
  0
LINE
  5
201
100
AcDbEntity
  8
WHITE
  6
CONTINUOUS
 62
           2
100
AcDbLine
 10
-13.596491646589
 20
626.658070935325
 30
0.0
 11
-15.596491646588
 21
628.658070935325
 31
0.0
  0
LINE
  5
202
100
AcDbEntity
  8
WHITE
  6
CONTINUOUS
 62
           2
100
AcDbLine
 10
-13.596491646588
 20
627.718731107105
 30
0.0
 11
-15.596491646588
 21
629.718731107105
 31
0.0
  0
LINE
  5
203
100
AcDbEntity
  8
WHITE
  6
CONTINUOUS
 62
           2
100
AcDbLine
 10
-13.596491646589
 20
628.779391278885
 30
0.0
 11
-15.596491646589
 21
630.779391278885
 31
0.0
  0
LINE
  5
204
100
AcDbEntity
  8
WHITE
  6
CONTINUOUS
 62
           2
100
AcDbLine
 10
-13.596491646588
 20
629.840051450665
 30
0.0
 11
-15.354389033614
 21
631.597948837689
 31
0.0
  0
LINE
  5
205
100
AcDbEntity
  8
WHITE
  6
CONTINUOUS
 62
           2
100
AcDbLine
 10
-13.596491646589
 20
630.900711622445
 30
0.0
 11
-14.293728861832
 21
631.597948837689
 31
0.0
  0
LINE
  5
206
100
AcDbEntity
  8
WHITE
  6
CONTINUOUS
 62
           2
100
AcDbLine
 10
-15.596491646588
 20
631.4062131391
 30
0.0
 11
-15.404755948002
 21
631.597948837689
 31
0.0
  0
LINE
  5
207
100
AcDbEntity
  8
WHITE
  6
CONTINUOUS
 62
           2
100
AcDbLine
 10
-15.596491646589
 20
630.345552967321
 30
0.0
 11
-14.344095776222
 21
631.597948837688
 31
0.0
  0
LINE
  5
208
100
AcDbEntity
  8
WHITE
  6
CONTINUOUS
 62
           2
100
AcDbLine
 10
-15.596491646589
 20
629.284892795541
 30
0.0
 11
-13.596491646589
 21
631.284892795542
 31
0.0
  0
LINE
  5
209
100
AcDbEntity
  8
WHITE
  6
CONTINUOUS
 62
           2
100
AcDbLine
 10
-15.596491646588
 20
628.224232623762
 30
0.0
 11
-13.596491646589
 21
630.224232623762
 31
0.0
  0
LINE
  5
20A
100
AcDbEntity
  8
WHITE
  6
CONTINUOUS
 62
           2
100
AcDbLine
 10
-15.596491646589
 20
627.163572451982
 30
0.0
 11
-13.596491646588
 21
629.163572451981
 31
0.0
  0
LINE
  5
20B
100
AcDbEntity
  8
WHITE
  6
CONTINUOUS
 62
           2
100
AcDbLine
 10
-15.596491646588
 20
626.102912280202
 30
0.0
 11
-13.596491646589
 21
628.102912280202
 31
0.0
  0
LINE
  5
20C
100
AcDbEntity
  8
WHITE
  6
CONTINUOUS
 62
           2
100
AcDbLine
 10
-15.596491646589
 20
625.042252108423
 30
0.0
 11
-13.596491646588
 21
627.042252108423
 31
0.0
  0
LINE
  5
20D
100
AcDbEntity
  8
WHITE
  6
CONTINUOUS
 62
           2
100
AcDbLine
 10
-15.596491646588
 20
623.981591936643
 30
0.0
 11
-13.596491646589
 21
625.981591936643
 31
0.0
  0
LINE
  5
20E
100
AcDbEntity
  8
WHITE
  6
CONTINUOUS
 62
           2
100
AcDbLine
 10
-15.596491646589
 20
622.920931764863
 30
0.0
 11
-13.596491646589
 21
624.920931764864
 31
0.0
  0
LINE
  5
20F
100
AcDbEntity
  8
WHITE
  6
CONTINUOUS
 62
           2
100
AcDbLine
 10
-15.596491646589
 20
621.860271593083
 30
0.0
 11
-13.596491646589
 21
623.860271593082
 31
0.0
  0
LINE
  5
210
100
AcDbEntity
  8
WHITE
  6
CONTINUOUS
 62
           2
100
AcDbLine
 10
-15.596491646588
 20
620.799611421303
 30
0.0
 11
-13.596491646588
 21
622.799611421303
 31
0.0
  0
LINE
  5
211
100
AcDbEntity
  8
WHITE
  6
CONTINUOUS
 62
           2
100
AcDbLine
 10
-15.596491646589
 20
619.738951249523
 30
0.0
 11
-13.596491646588
 21
621.738951249523
 31
0.0
  0
LINE
  5
212
100
AcDbEntity
  8
WHITE
  6
CONTINUOUS
 62
           2
100
AcDbLine
 10
-15.596491646588
 20
618.678291077744
 30
0.0
 11
-13.596491646589
 21
620.678291077744
 31
0.0
  0
LINE
  5
213
100
AcDbEntity
  8
WHITE
  6
CONTINUOUS
 62
           2
100
AcDbLine
 10
-15.596491646588
 20
617.617630905964
 30
0.0
 11
-13.596491646589
 21
619.617630905965
 31
0.0
  0
LINE
  5
214
100
AcDbEntity
  8
WHITE
  6
CONTINUOUS
 62
           2
100
AcDbLine
 10
-15.596491646588
 20
616.556970734184
 30
0.0
 11
-13.596491646589
 21
618.556970734185
 31
0.0
  0
LINE
  5
215
100
AcDbEntity
  8
WHITE
  6
CONTINUOUS
 62
           2
100
AcDbLine
 10
-15.596491646589
 20
615.496310562405
 30
0.0
 11
-13.596491646589
 21
617.496310562405
 31
0.0
  0
LINE
  5
216
100
AcDbEntity
  8
WHITE
  6
CONTINUOUS
 62
           2
100
AcDbLine
 10
-15.596491646589
 20
614.435650390624
 30
0.0
 11
-13.596491646589
 21
616.435650390624
 31
0.0
  0
LINE
  5
217
100
AcDbEntity
  8
WHITE
  6
CONTINUOUS
 62
           2
100
AcDbLine
 10
-15.596491646588
 20
613.374990218845
 30
0.0
 11
-13.596491646588
 21
615.374990218845
 31
0.0
  0
LINE
  5
218
100
AcDbEntity
  8
WHITE
  6
CONTINUOUS
 62
           2
100
AcDbLine
 10
-15.596491646589
 20
612.314330047066
 30
0.0
 11
-13.596491646588
 21
614.314330047066
 31
0.0
  0
LINE
  5
219
100
AcDbEntity
  8
WHITE
  6
CONTINUOUS
 62
           2
100
AcDbLine
 10
-15.252212684185
 20
611.597948837689
 30
0.0
 11
-13.596491646589
 21
613.253669875286
 31
0.0
  0
LINE
  5
21A
100
AcDbEntity
  8
WHITE
  6
CONTINUOUS
 62
           2
100
AcDbLine
 10
-14.191552512406
 20
611.597948837689
 30
0.0
 11
-13.596491646589
 21
612.193009703506
 31
0.0
  0
ENDBLK
  5
21B
100
AcDbEntity
  8
0
  6
BYBLOCK
 62
           0
100
AcDbBlockEnd
  0
ENDSEC
  0
SECTION
  2
ENTITIES
  0
INSERT
  5
25
100
AcDbEntity
  8
0
  6
CONTINUOUS
 62
           7
100
AcDbBlockReference
  2
MAK1
 10
-4686.712380768933
 20
-4991.723726361151
 30
0.0
 50
353.589999999999
  0
LINE
  5
26
100
AcDbEntity
  8
0
  6
CONTINUOUS
 62
          15
100
AcDbLine
 10
-5054.279676451727
 20
-4144.342800010867
 30
0.0
 11
-4553.279676451727
 21
-4144.342800010867
 31
0.0
  0
LINE
  5
27
100
AcDbEntity
  8
0
  6
CONTINUOUS
 62
          15
100
AcDbLine
 10
-4553.279676451727
 20
-4434.342861010867
 30
0.0
 11
-4553.279676451727
 21
-4644.342800010867
 31
0.0
  0
LINE
  5
28
100
AcDbEntity
  8
0
  6
GESTRICHELT
 62
          15
100
AcDbLine
 10
-4553.279676451727
 20
-4346.287544441683
 30
0.0
 11
-4553.279676451727
 21
-4434.342861010867
 31
0.0
  0
LINE
  5
29
100
AcDbEntity
  8
0
  6
CONTINUOUS
 62
          15
100
AcDbLine
 10
-4553.279676451727
 20
-4144.342800010867
 30
0.0
 11
-4553.279676451727
 21
-4346.287544441683
 31
0.0
  0
LINE
  5
2A
100
AcDbEntity
  8
0
  6
CONTINUOUS
 62
          15
100
AcDbLine
 10
-4553.279676451727
 20
-4644.342800010867
 30
0.0
 11
-5054.279676451727
 21
-4644.342800010867
 31
0.0
  0
LINE
  5
2B
100
AcDbEntity
  8
0
  6
CONTINUOUS
 62
          15
100
AcDbLine
 10
-5054.279676451727
 20
-4369.342800010867
 30
0.0
 11
-5054.279676451727
 21
-4144.342800010867
 31
0.0
  0
LINE
  5
2C
100
AcDbEntity
  8
0
  6
GESTRICHELT
 62
          15
100
AcDbLine
 10
-5054.279676451727
 20
-4419.342800010867
 30
0.0
 11
-5054.279676451727
 21
-4369.342800010867
 31
0.0
  0
LINE
  5
2D
100
AcDbEntity
  8
0
  6
CONTINUOUS
 62
          15
100
AcDbLine
 10
-5054.279676451727
 20
-4644.342800010867
 30
0.0
 11
-5054.279676451727
 21
-4419.342800010867
 31
0.0
  0
LINE
  5
2E
100
AcDbEntity
  8
0
  6
STRICHPUNKT
 62
          15
100
AcDbLine
 10
-4803.779676451727
 20
-4144.342800010867
 30
0.0
 11
-4803.779676451727
 21
-4644.342800010867
 31
0.0
  0
LINE
  5
2F
100
AcDbEntity
  8
0
  6
GESTRICHELT
 62
          15
100
AcDbLine
 10
-5054.279676451727
 20
-4394.342800010867
 30
0.0
 11
-4553.279676451727
 21
-4394.342800010867
 31
0.0
  0
CIRCLE
  5
30
100
AcDbEntity
  8
0
  6
CONTINUOUS
 62
          15
100
AcDbCircle
 10
-4803.779676451727
 20
-4394.342800010867
 30
0.0
 40
15.25
  0
LINE
  5
31
100
AcDbEntity
  8
0
  6
GESTRICHELT
 62
          15
100
AcDbLine
 10
-4546.279676451727
 20
-4369.342800010867
 30
0.0
 11
-4546.279676451727
 21
-4419.342800010867
 31
0.0
  0
LINE
  5
32
100
AcDbEntity
  8
0
  6
CONTINUOUS
 62
          15
100
AcDbLine
 10
-5061.279676451727
 20
-4419.342800010867
 30
0.0
 11
-5061.279676451727
 21
-4369.342800010867
 31
0.0
  0
LINE
  5
33
100
AcDbEntity
  8
0
  6
GESTRICHELT
 62
          15
100
AcDbLine
 10
-4863.779676451727
 20
-4419.342800010867
 30
0.0
 11
-4546.279676451727
 21
-4419.342800010867
 31
0.0
  0
LINE
  5
34
100
AcDbEntity
  8
0
  6
CONTINUOUS
 62
          15
100
AcDbLine
 10
-5061.279676451727
 20
-4419.342800010867
 30
0.0
 11
-4863.779676451727
 21
-4419.342800010867
 31
0.0
  0
LINE
  5
35
100
AcDbEntity
  8
0
  6
GESTRICHELT
 62
          15
100
AcDbLine
 10
-4863.779676451727
 20
-4369.342800010867
 30
0.0
 11
-4546.279676451727
 21
-4369.342800010867
 31
0.0
  0
LINE
  5
36
100
AcDbEntity
  8
0
  6
CONTINUOUS
 62
          15
100
AcDbLine
 10
-5061.279676451727
 20
-4369.342800010867
 30
0.0
 11
-4863.779676451727
 21
-4369.342800010867
 31
0.0
  0
TEXT
  5
37
100
AcDbEntity
  8
0
  6
CONTINUOUS
 62
          15
100
AcDbText
 10
-4997.464954620605
 20
-4563.40860989551
 30
0.0
 40
3.5
  1
500-730
 41
0.900000010218
  7
GOTHICG
100
AcDbText
  0
ARC
  5
38
100
AcDbEntity
  8
0
  6
GESTRICHELT
 62
          15
100
AcDbCircle
 10
-4803.779676451727
 20
-4394.342800010867
 30
0.0
 40
22.5
100
AcDbArc
 50
75.931192584764
 51
221.039680347967
  0
CIRCLE
  5
39
100
AcDbEntity
  8
0
  6
CONTINUOUS
 62
          15
100
AcDbCircle
 10
-4407.369520451728
 20
-4394.342800010867
 30
0.0
 40
6.25
  0
LINE
  5
3A
100
AcDbEntity
  8
0
  6
GESTRICHELT
 62
          15
100
AcDbLine
 10
-4674.157654493532
 20
-4354.342797625597
 30
0.0
 11
-4863.779676451727
 21
-4354.342875358641
 31
0.0
  0
LINE
  5
3B
100
AcDbEntity
  8
0
  6
CONTINUOUS
 62
          15
100
AcDbLine
 10
-4665.517650957543
 20
-4354.342794083741
 30
0.0
 11
-4674.157654493532
 21
-4354.342797625597
 31
0.0
  0
LINE
  5
3C
100
AcDbEntity
  8
0
  6
GESTRICHELT
 62
          15
100
AcDbLine
 10
-4481.579151859443
 20
-4354.342718680582
 30
0.0
 11
-4665.517650957543
 21
-4354.342794083741
 31
0.0
  0
LINE
  5
3D
100
AcDbEntity
  8
0
  6
CONTINUOUS
 62
          15
100
AcDbLine
 10
-4367.369520451728
 20
-4354.342671861852
 30
0.0
 11
-4481.579151859443
 21
-4354.342718680582
 31
0.0
  0
LINE
  5
3E
100
AcDbEntity
  8
0
  6
CONTINUOUS
 62
          15
100
AcDbLine
 10
-4863.779676451727
 20
-4434.342861010867
 30
0.0
 11
-4367.369520451728
 21
-4434.342861010867
 31
0.0
  0
LINE
  5
3F
100
AcDbEntity
  8
0
  6
CONTINUOUS
 62
          15
100
AcDbLine
 10
-4367.369520451728
 20
-4434.342861010867
 30
0.0
 11
-4367.369520451728
 21
-4354.342671861852
 31
0.0
  0
LINE
  5
40
100
AcDbEntity
  8
0
  6
CONTINUOUS
 62
          15
100
AcDbLine
 10
-4863.779676451727
 20
-4359.685562968551
 30
0.0
 11
-4863.779676451727
 21
-4434.342861010867
 31
0.0
  0
LINE
  5
41
100
AcDbEntity
  8
0
  6
GESTRICHELT
 62
          15
100
AcDbLine
 10
-4863.779676451727
 20
-4354.342875358641
 30
0.0
 11
-4863.779676451727
 21
-4359.685562968551
 31
0.0
  0
LINE
  5
42
100
AcDbEntity
  8
WHITE
  6
CONTINUOUS
 62
          15
100
AcDbLine
 10
-4839.481129086516
 20
-4361.933143592893
 30
0.0
 11
-4839.488568901647
 21
-4362.169441466879
 31
0.0
  0
LINE
  5
43
100
AcDbEntity
  8
BLACK
  6
GESTRICHELT
 62
          15
100
AcDbLine
 10
-4430.229633416993
 20
-4391.809727829608
 30
0.0
 11
-4427.996785902401
 21
-4371.934758849089
 31
0.0
  0
LINE
  5
44
100
AcDbEntity
  8
BLACK
  6
GESTRICHELT
 62
          15
100
AcDbLine
 10
-4427.996785902401
 20
-4371.934758849089
 30
0.0
 11
-4431.971779698504
 21
-4371.488189346171
 31
0.0
  0
LINE
  5
45
100
AcDbEntity
  8
BLACK
  6
CONTINUOUS
 62
          15
100
AcDbLine
 10
-4430.63207118975
 20
-4359.56320795786
 30
0.0
 11
-4460.047025280917
 21
-4356.258593636264
 31
0.0
  0
LINE
  5
46
100
AcDbEntity
  8
BLACK
  6
CONTINUOUS
 62
          15
100
AcDbLine
 10
-4460.047025280917
 20
-4356.258593636264
 30
0.0
 11
-4460.102846468782
 21
-4356.755467860777
 31
0.0
  0
LINE
  5
47
100
AcDbEntity
  8
BLACK
  6
CONTINUOUS
 62
          15
100
AcDbLine
 10
-4460.102846468782
 20
-4356.755467860777
 30
0.0
 11
-4605.985118785789
 21
-4340.366367103676
 31
0.0
  0
LINE
  5
48
100
AcDbEntity
  8
BLACK
  6
CONTINUOUS
 62
          15
100
AcDbLine
 10
-4605.985118785789
 20
-4340.366367103676
 30
0.0
 11
-4605.929297597924
 21
-4339.869492879162
 31
0.0
  0
LINE
  5
49
100
AcDbEntity
  8
BLACK
  6
CONTINUOUS
 62
          15
100
AcDbLine
 10
-4605.929297597924
 20
-4339.869492879162
 30
0.0
 11
-4635.344251689093
 21
-4336.564878557567
 31
0.0
  0
LINE
  5
4A
100
AcDbEntity
  8
BLACK
  6
CONTINUOUS
 62
          15
100
AcDbLine
 10
-4635.344251689093
 20
-4336.564878557567
 30
0.0
 11
-4636.683960197848
 21
-4348.489859945878
 31
0.0
  0
LINE
  5
4B
100
AcDbEntity
  8
BLACK
  6
CONTINUOUS
 62
          15
100
AcDbLine
 10
-4636.683960197848
 20
-4348.489859945878
 30
0.0
 11
-4648.112067361646
 21
-4347.205972624988
 31
0.0
  0
LINE
  5
4C
100
AcDbEntity
  8
BLACK
  6
CONTINUOUS
 62
          15
100
AcDbLine
 10
-4648.112067361646
 20
-4347.205972624988
 30
0.0
 11
-4648.223709737376
 21
-4348.199721074014
 31
0.0
  0
LINE
  5
4D
100
AcDbEntity
  8
BLACK
  6
CONTINUOUS
 62
          15
100
AcDbLine
 10
-4648.223709737376
 20
-4348.199721074014
 30
0.0
 11
-4664.620559146304
 21
-4346.357621874476
 31
0.0
  0
LINE
  5
4E
100
AcDbEntity
  8
BLACK
  6
CONTINUOUS
 62
          15
100
AcDbLine
 10
-4664.620559146304
 20
-4346.357621874476
 30
0.0
 11
-4668.862969424028
 21
-4384.120062937462
 31
0.0
  0
LINE
  5
4F
100
AcDbEntity
  8
BLACK
  6
CONTINUOUS
 62
          15
100
AcDbLine
 10
-4668.862969424028
 20
-4384.120062937462
 30
0.0
 11
-4652.4661200151
 21
-4385.962162137
 31
0.0
  0
LINE
  5
50
100
AcDbEntity
  8
BLACK
  6
CONTINUOUS
 62
          15
100
AcDbLine
 10
-4652.4661200151
 20
-4385.962162137
 30
0.0
 11
-4652.577762390829
 21
-4386.955910586025
 31
0.0
  0
LINE
  5
51
100
AcDbEntity
  8
BLACK
  6
CONTINUOUS
 62
          15
100
AcDbLine
 10
-4652.577762390829
 20
-4386.955910586025
 30
0.0
 11
-4641.149655227031
 21
-4388.239797906916
 31
0.0
  0
LINE
  5
52
100
AcDbEntity
  8
BLACK
  6
CONTINUOUS
 62
          15
100
AcDbLine
 10
-4641.149655227031
 20
-4388.239797906916
 30
0.0
 11
-4642.489363735785
 21
-4400.164779295227
 31
0.0
  0
LINE
  5
53
100
AcDbEntity
  8
BLACK
  6
GESTRICHELT
 62
          15
100
AcDbLine
 10
-4632.551879245527
 20
-4401.281203052523
 30
0.0
 11
-4613.074409644618
 21
-4403.469393616822
 31
0.0
  0
LINE
  5
54
100
AcDbEntity
  8
BLACK
  6
CONTINUOUS
 62
          15
100
AcDbLine
 10
-4642.489363735785
 20
-4400.164779295227
 30
0.0
 11
-4632.551879245527
 21
-4401.281203052523
 31
0.0
  0
LINE
  5
55
100
AcDbEntity
  8
BLACK
  6
GESTRICHELT
 62
          15
100
AcDbLine
 10
-4613.074409644618
 20
-4403.469393616822
 30
0.0
 11
-4613.018588456753
 21
-4402.97251939231
 31
0.0
  0
LINE
  5
56
100
AcDbEntity
  8
BLACK
  6
CONTINUOUS
 62
          15
100
AcDbLine
 10
-4604.671101484935
 20
-4403.910315348438
 30
0.0
 11
-4467.136316139746
 21
-4419.361620149412
 31
0.0
  0
LINE
  5
57
100
AcDbEntity
  8
BLACK
  6
GESTRICHELT
 62
          15
100
AcDbLine
 10
-4613.018588456753
 20
-4402.97251939231
 30
0.0
 11
-4604.671101484935
 21
-4403.910315348438
 31
0.0
  0
LINE
  5
58
100
AcDbEntity
  8
BLACK
  6
CONTINUOUS
 62
          15
100
AcDbLine
 10
-4467.136316139746
 20
-4419.361620149412
 30
0.0
 11
-4467.19213732761
 21
-4419.858494373924
 31
0.0
  0
LINE
  5
59
100
AcDbEntity
  8
BLACK
  6
CONTINUOUS
 62
          15
100
AcDbLine
 10
-4467.19213732761
 20
-4419.858494373924
 30
0.0
 11
-4437.777183236443
 21
-4423.163108695519
 31
0.0
  0
LINE
  5
5A
100
AcDbEntity
  8
BLACK
  6
GESTRICHELT
 62
          15
100
AcDbLine
 10
-4436.437474727688
 20
-4411.238127307209
 30
0.0
 11
-4432.462480931585
 21
-4411.684696810126
 31
0.0
  0
LINE
  5
5B
100
AcDbEntity
  8
BLACK
  6
GESTRICHELT
 62
          15
100
AcDbLine
 10
-4432.462480931585
 20
-4411.684696810126
 30
0.0
 11
-4430.229633416993
 21
-4391.809727829608
 31
0.0
  0
LINE
  5
5C
100
AcDbEntity
  8
BLACK
  6
CONTINUOUS
 62
          15
100
AcDbLine
 10
-4460.102846468782
 20
-4356.755467860777
 30
0.0
 11
-4467.136316139746
 21
-4419.361620149412
 31
0.0
  0
LINE
  5
5D
100
AcDbEntity
  8
BLACK
  6
GESTRICHELT
 62
          15
100
AcDbLine
 10
-4608.498277402235
 20
-4362.736434570689
 30
0.0
 11
-4613.018588456753
 21
-4402.97251939231
 31
0.0
  0
LINE
  5
5E
100
AcDbEntity
  8
BLACK
  6
CONTINUOUS
 62
          15
100
AcDbLine
 10
-4605.985118785789
 20
-4340.366367103676
 30
0.0
 11
-4608.498277402235
 21
-4362.736434570689
 31
0.0
  0
LINE
  5
5F
100
AcDbEntity
  8
BLACK
  6
CONTINUOUS
 62
          15
100
AcDbLine
 10
-4636.683960197848
 20
-4348.489859945878
 30
0.0
 11
-4641.149655227031
 21
-4388.239797906916
 31
0.0
  0
LINE
  5
60
100
AcDbEntity
  8
BLACK
  6
CONTINUOUS
 62
          15
100
AcDbLine
 10
-4648.112067361646
 20
-4347.205972624988
 30
0.0
 11
-4652.577762390829
 21
-4386.955910586025
 31
0.0
  0
LINE
  5
61
100
AcDbEntity
  8
BLACK
  6
GESTRICHELT
 62
          15
100
AcDbLine
 10
-4781.564967578545
 20
-4344.288736546725
 30
0.0
 11
-4805.95711973265
 21
-4341.548407423886
 31
0.0
  0
LINE
  5
62
100
AcDbEntity
  8
BLACK
  6
CONTINUOUS
 62
          15
100
AcDbLine
 10
-4775.07151731177
 20
-4345.018241297324
 30
0.0
 11
-4781.564967578545
 21
-4344.288736546725
 31
0.0
  0
LINE
  5
63
100
AcDbEntity
  8
BLACK
  6
GESTRICHELT
 62
          15
100
AcDbLine
 10
-4783.351245590218
 20
-4360.18871173114
 30
0.0
 11
-4807.743397744324
 21
-4357.448382608301
 31
0.0
  0
LINE
  5
64
100
AcDbEntity
  8
BLACK
  6
CONTINUOUS
 62
          15
100
AcDbLine
 10
-4776.857795323443
 20
-4360.918216481739
 30
0.0
 11
-4783.351245590218
 21
-4360.18871173114
 31
0.0
  0
LINE
  5
65
100
AcDbEntity
  8
BLACK
  6
GESTRICHELT
 62
          15
100
AcDbLine
 10
-4806.974194296204
 20
-4342.360072971864
 30
0.0
 11
-4805.95711973265
 21
-4341.548407423886
 31
0.0
  0
LINE
  5
66
100
AcDbEntity
  8
BLACK
  6
GESTRICHELT
 62
          15
100
AcDbLine
 10
-4808.555019076669
 20
-4356.431272760506
 30
0.0
 11
-4807.743397744324
 21
-4357.448382608301
 31
0.0
  0
LINE
  5
67
100
AcDbEntity
  8
BLACK
  6
GESTRICHELT
 62
          15
100
AcDbLine
 10
-4806.974194296204
 20
-4342.360072971864
 30
0.0
 11
-4808.555019076669
 21
-4356.431272760506
 31
0.0
  0
LINE
  5
68
100
AcDbEntity
  8
BLACK
  6
CONTINUOUS
 62
          15
100
AcDbLine
 10
-4781.667694194149
 20
-4345.203124244611
 30
0.0
 11
-4775.174243927374
 21
-4345.93262899521
 31
0.0
  0
LINE
  5
69
100
AcDbEntity
  8
BLACK
  6
GESTRICHELT
 62
          15
100
AcDbLine
 10
-4806.974194296204
 20
-4342.360072971864
 30
0.0
 11
-4781.667694194149
 21
-4345.203124244611
 31
0.0
  0
LINE
  5
6A
100
AcDbEntity
  8
BLACK
  6
CONTINUOUS
 62
          15
100
AcDbLine
 10
-4783.248518974614
 20
-4359.274324033253
 30
0.0
 11
-4776.755068707839
 21
-4360.003828783852
 31
0.0
  0
LINE
  5
6B
100
AcDbEntity
  8
BLACK
  6
GESTRICHELT
 62
          15
100
AcDbLine
 10
-4808.555019076669
 20
-4356.431272760506
 30
0.0
 11
-4783.248518974614
 21
-4359.274324033253
 31
0.0
  0
LINE
  5
6C
100
AcDbEntity
  8
BLACK
  6
GESTRICHELT
 62
          15
100
AcDbLine
 10
-4805.95711973265
 20
-4341.548407423886
 30
0.0
 11
-4807.743397744324
 21
-4357.448382608301
 31
0.0
  0
LINE
  5
6D
100
AcDbEntity
  8
BLACK
  6
CONTINUOUS
 62
          15
100
AcDbLine
 10
-4665.625340527869
 20
-4355.30135791571
 30
0.0
 11
-4774.84823256031
 21
-4343.030744399272
 31
0.0
  0
LINE
  5
6E
100
AcDbEntity
  8
BLACK
  6
CONTINUOUS
 62
          15
100
AcDbLine
 10
-4774.84823256031
 20
-4343.030744399272
 30
0.0
 11
-4777.081080074902
 21
-4362.905713379791
 31
0.0
  0
LINE
  5
6F
100
AcDbEntity
  8
BLACK
  6
CONTINUOUS
 62
          15
100
AcDbLine
 10
-4777.081080074902
 20
-4362.905713379791
 30
0.0
 11
-4667.858188042462
 21
-4375.176326896228
 31
0.0
  0
LINE
  5
70
100
AcDbEntity
  8
BLACK
  6
CONTINUOUS
 62
          15
100
AcDbLine
 10
-4775.376543261466
 20
-4347.733330997298
 30
0.0
 11
-4768.751550288799
 21
-4348.477613874304
 31
0.0
  0
LINE
  5
71
100
AcDbEntity
  8
BLACK
  6
CONTINUOUS
 62
          15
100
AcDbLine
 10
-4776.552769373746
 20
-4358.203126781763
 30
0.0
 11
-4769.927776401078
 21
-4358.947409658768
 31
0.0
  0
LINE
  5
72
100
AcDbEntity
  8
BLACK
  6
CONTINUOUS
 62
          15
100
AcDbLine
 10
-4768.751550288799
 20
-4348.477613874304
 30
0.0
 11
-4769.927776401078
 21
-4358.947409658768
 31
0.0
  0
LINE
  5
73
100
AcDbEntity
  8
BLACK
  6
CONTINUOUS
 62
          15
100
AcDbLine
 10
-4775.376543261466
 20
-4347.733330997298
 30
0.0
 11
-4769.927776401078
 21
-4358.947409658768
 31
0.0
  0
LINE
  5
74
100
AcDbEntity
  8
BLACK
  6
CONTINUOUS
 62
          15
100
AcDbLine
 10
-4768.751550288799
 20
-4348.477613874304
 30
0.0
 11
-4776.552769373746
 21
-4358.203126781763
 31
0.0
  0
CIRCLE
  5
75
100
AcDbEntity
  8
BLACK
  6
GESTRICHELT
 62
          15
100
AcDbCircle
 10
-4625.953289619778
 20
-4378.374684003331
 30
0.0
 40
5.7225
  0
ARC
  5
76
100
AcDbEntity
  8
BLACK
  6
GESTRICHELT
 62
          15
100
AcDbCircle
 10
-4625.953289619778
 20
-4378.374684003331
 30
0.0
 40
6.5785
100
AcDbArc
 50
103.59
 51
13.59
  0
CIRCLE
  5
77
100
AcDbEntity
  8
BLACK
  6
CONTINUOUS
 62
          15
100
AcDbCircle
 10
-4447.168145305758
 20
-4381.353303249755
 30
0.0
 40
5.7225
  0
ARC
  5
78
100
AcDbEntity
  8
BLACK
  6
CONTINUOUS
 62
          15
100
AcDbCircle
 10
-4447.168145305758
 20
-4381.353303249755
 30
0.0
 40
6.57849
100
AcDbArc
 50
103.59
 51
13.59
  0
LINE
  5
79
100
AcDbEntity
  8
BLACK
  6
GESTRICHELT
 62
          15
100
AcDbLine
 10
-4619.714529571595
 20
-4361.871421779718
 30
0.0
 11
-4622.960282424245
 21
-4364.461541719017
 31
0.0
  0
LINE
  5
7A
100
AcDbEntity
  8
BLACK
  6
CONTINUOUS
 62
          15
100
AcDbLine
 10
-4613.654329804299
 20
-4357.035365257241
 30
0.0
 11
-4619.714529571595
 21
-4361.871421779718
 31
0.0
  0
LINE
  5
7B
100
AcDbEntity
  8
BLACK
  6
GESTRICHELT
 62
          15
100
AcDbLine
 10
-4621.907479732572
 20
-4361.702298447738
 30
0.0
 11
-4623.895937918309
 21
-4363.289103358621
 31
0.0
  0
LINE
  5
7C
100
AcDbEntity
  8
BLACK
  6
CONTINUOUS
 62
          15
100
AcDbLine
 10
-4614.589979716244
 20
-4355.862877209423
 30
0.0
 11
-4621.907479732572
 21
-4361.702298447738
 31
0.0
  0
ARC
  5
7D
100
AcDbEntity
  8
BLACK
  6
CONTINUOUS
 62
          15
100
AcDbCircle
 10
-4618.775131628456
 20
-4360.162214432962
 30
0.0
 40
6.0
100
AcDbArc
 50
338.368688099555
 51
192.811311900445
  0
ARC
  5
7E
100
AcDbEntity
  8
BLACK
  6
GESTRICHELT
 62
          15
100
AcDbCircle
 10
-4618.775131628456
 20
-4360.162214432962
 30
0.0
 40
6.0
100
AcDbArc
 50
192.811311900445
 51
338.368688099555
  0
LINE
  5
7F
100
AcDbEntity
  8
BLACK
  6
CONTINUOUS
 62
          15
100
AcDbLine
 10
-4449.225198882692
 20
-4396.438917387178
 30
0.0
 11
-4458.531455209291
 21
-4403.865110043664
 31
0.0
  0
LINE
  5
80
100
AcDbEntity
  8
BLACK
  6
CONTINUOUS
 62
          15
100
AcDbLine
 10
-4450.16115250129
 20
-4395.26644553407
 30
0.0
 11
-4459.467403245772
 21
-4402.692588503132
 31
0.0
  0
CIRCLE
  5
81
100
AcDbEntity
  8
BLACK
  6
CONTINUOUS
 62
          15
100
AcDbCircle
 10
-4454.346303297079
 20
-4399.565772820124
 30
0.0
 40
6.0
  0
LINE
  5
82
100
AcDbEntity
  8
BLACK
  6
CONTINUOUS
 62
          15
100
AcDbLine
 10
-4781.400422248672
 20
-4338.413577924661
 30
0.0
 11
-4784.881026191386
 21
-4338.022550503667
 31
0.0
  0
LINE
  5
83
100
AcDbEntity
  8
BLACK
  6
CONTINUOUS
 62
          15
100
AcDbLine
 10
-4788.361630134099
 20
-4337.631523082675
 30
0.0
 11
-4784.881026191386
 21
-4338.022550503667
 31
0.0
  0
LINE
  5
84
100
AcDbEntity
  8
BLACK
  6
CONTINUOUS
 62
          15
100
AcDbLine
 10
-4791.455642278118
 20
-4365.1718700996
 30
0.0
 11
-4787.975038335405
 21
-4365.562897520593
 31
0.0
  0
LINE
  5
85
100
AcDbEntity
  8
BLACK
  6
CONTINUOUS
 62
          15
100
AcDbLine
 10
-4784.494434392692
 20
-4365.953924941586
 30
0.0
 11
-4787.975038335405
 21
-4365.562897520593
 31
0.0
  0
LINE
  5
86
100
AcDbEntity
  8
BLACK
  6
CONTINUOUS
 62
          15
100
AcDbLine
 10
-4782.173924168253
 20
-4345.298654741408
 30
0.0
 11
-4785.654528110968
 21
-4344.907627320415
 31
0.0
  0
LINE
  5
87
100
AcDbEntity
  8
BLACK
  6
CONTINUOUS
 62
          15
100
AcDbLine
 10
-4789.135132053681
 20
-4344.516599899422
 30
0.0
 11
-4785.654528110968
 21
-4344.907627320415
 31
0.0
  0
LINE
  5
88
100
AcDbEntity
  8
BLACK
  6
CONTINUOUS
 62
          15
100
AcDbLine
 10
-4790.682140358537
 20
-4358.286793282853
 30
0.0
 11
-4787.201536415824
 21
-4358.677820703846
 31
0.0
  0
LINE
  5
89
100
AcDbEntity
  8
BLACK
  6
CONTINUOUS
 62
          15
100
AcDbLine
 10
-4783.72093247311
 20
-4359.068848124839
 30
0.0
 11
-4787.201536415824
 21
-4358.677820703846
 31
0.0
  0
ARC
  5
8A
100
AcDbEntity
  8
BLACK
  6
CONTINUOUS
 62
          15
100
AcDbCircle
 10
-4831.134091864291
 20
-4346.77023496247
 30
0.0
 40
48.982200000031
100
AcDbArc
 50
354.449437000001
 51
1.721609999997
  0
ARC
  5
8B
100
AcDbEntity
  8
BLACK
  6
CONTINUOUS
 62
          15
100
AcDbCircle
 10
-4741.721972662539
 20
-4356.815213061785
 30
0.0
 40
48.982199999991
100
AcDbArc
 50
165.458000000003
 51
172.731000000004
  0
ARC
  5
8C
100
AcDbEntity
  8
BLACK
  6
CONTINUOUS
 62
          15
100
AcDbCircle
 10
-4741.72197266254
 20
-4356.815213061792
 30
0.0
 40
48.982199999991
100
AcDbArc
 50
174.448999999995
 51
181.721999999996
  0
ARC
  5
8D
100
AcDbEntity
  8
BLACK
  6
CONTINUOUS
 62
          15
100
AcDbCircle
 10
-4831.13409186429
 20
-4346.770234962465
 30
0.0
 40
48.982200000031
100
AcDbArc
 50
345.458390000002
 51
352.730562999997
  0
LINE
  5
8E
100
AcDbEntity
  8
BLACK
  6
CONTINUOUS
 62
          15
100
AcDbLine
 10
-4782.381547877549
 20
-4351.507997157875
 30
0.0
 11
-4782.458106584382
 21
-4352.238724138932
 31
0.0
  0
LINE
  5
8F
100
AcDbEntity
  8
BLACK
  6
CONTINUOUS
 62
          15
100
AcDbLine
 10
-4790.310468002636
 20
-4350.617224970404
 30
0.0
 11
-4790.397957942409
 21
-4351.346723885328
 31
0.0
  0
LINE
  5
90
100
AcDbEntity
  8
BLACK
  6
CONTINUOUS
 62
          15
100
AcDbLine
 10
-4790.474516649242
 20
-4352.077450866384
 30
0.0
 11
-4790.397957942409
 21
-4351.346723885328
 31
0.0
  0
LINE
  5
91
100
AcDbEntity
  8
BLACK
  6
CONTINUOUS
 62
          15
100
AcDbLine
 10
-4782.545596524154
 20
-4352.968223053856
 30
0.0
 11
-4782.458106584382
 21
-4352.238724138932
 31
0.0
  0
ARC
  5
92
100
AcDbEntity
  8
BLACK
  6
CONTINUOUS
 62
          15
100
AcDbCircle
 10
-4794.019223425713
 20
-4340.481915298926
 30
0.0
 40
12.801499999978
100
AcDbArc
 50
337.871499999983
 51
353.59000000001
  0
ARC
  5
93
100
AcDbEntity
  8
BLACK
  6
CONTINUOUS
 62
          15
100
AcDbCircle
 10
-4776.516292243102
 20
-4342.44827692834
 30
0.0
 40
12.787200000002
100
AcDbArc
 50
173.59
 51
189.308999999996
  0
ARC
  5
94
100
AcDbEntity
  8
BLACK
  6
CONTINUOUS
 62
          15
100
AcDbCircle
 10
-4778.836801351105
 20
-4363.103537191039
 30
0.0
 40
12.801500000013
100
AcDbArc
 50
157.871000000002
 51
173.589999999986
  0
ARC
  5
95
100
AcDbEntity
  8
BLACK
  6
CONTINUOUS
 62
          15
100
AcDbCircle
 10
-4796.33973253378
 20
-4361.137175561616
 30
0.0
 40
12.78720000003
100
AcDbArc
 50
353.590000000019
 51
9.308499999982
  0
ARC
  5
96
100
AcDbEntity
  8
BLACK
  6
CONTINUOUS
 62
          15
100
AcDbCircle
 10
-4794.019223425766
 20
-4340.481915298921
 30
0.0
 40
12.78720000003
100
AcDbArc
 50
353.590000000019
 51
9.308499999982
  0
ARC
  5
97
100
AcDbEntity
  8
BLACK
  6
CONTINUOUS
 62
          15
100
AcDbCircle
 10
-4776.516292243091
 20
-4342.448276928345
 30
0.0
 40
12.801500000013
100
AcDbArc
 50
157.871000000002
 51
173.589999999986
  0
ARC
  5
98
100
AcDbEntity
  8
BLACK
  6
CONTINUOUS
 62
          15
100
AcDbCircle
 10
-4778.836801351115
 20
-4363.103537191035
 30
0.0
 40
12.787200000002
100
AcDbArc
 50
173.59
 51
189.308999999996
  0
ARC
  5
99
100
AcDbEntity
  8
BLACK
  6
CONTINUOUS
 62
          15
100
AcDbCircle
 10
-4796.339732533727
 20
-4361.137175561619
 30
0.0
 40
12.801499999978
100
AcDbArc
 50
337.871499999983
 51
353.59000000001
  0
LINE
  5
9A
100
AcDbEntity
  8
BLACK
  6
CONTINUOUS
 62
          15
100
AcDbLine
 10
-4781.297852030374
 20
-4341.911094007585
 30
0.0
 11
-4782.458106584382
 21
-4352.238724138932
 31
0.0
  0
LINE
  5
9B
100
AcDbEntity
  8
BLACK
  6
CONTINUOUS
 62
          15
100
AcDbLine
 10
-4789.237703388402
 20
-4341.019093753981
 30
0.0
 11
-4790.397957942409
 21
-4351.346723885328
 31
0.0
  0
LINE
  5
9C
100
AcDbEntity
  8
BLACK
  6
CONTINUOUS
 62
          15
100
AcDbLine
 10
-4791.558212496416
 20
-4361.674354016674
 30
0.0
 11
-4790.397957942409
 21
-4351.346723885328
 31
0.0
  0
LINE
  5
9D
100
AcDbEntity
  8
BLACK
  6
CONTINUOUS
 62
          15
100
AcDbLine
 10
-4783.618361138389
 20
-4362.566354270279
 30
0.0
 11
-4782.458106584382
 21
-4352.238724138932
 31
0.0
  0
LINE
  5
9E
100
AcDbEntity
  8
0
  6
CONTINUOUS
 62
          15
100
AcDbLine
 10
-4430.628122341905
 20
-4359.528058567708
 30
0.0
 11
-4437.773234388597
 21
-4423.127959305369
 31
0.0
  0
LINE
  5
9F
100
AcDbEntity
  8
0
  6
CONTINUOUS
 62
          15
100
AcDbLine
 10
-4430.088091505936
 20
-4417.42135537452
 30
0.0
 11
-4430.570232776177
 21
-4421.712979736522
 31
0.0
  0
LINE
  5
A0
100
AcDbEntity
  8
0
  6
CONTINUOUS
 62
          15
100
AcDbLine
 10
-4423.918746088317
 20
-4362.506925256028
 30
0.0
 11
-4424.400887358557
 21
-4366.798549618032
 31
0.0
  0
LINE
  5
A1
100
AcDbEntity
  8
0
  6
CONTINUOUS
 62
          15
100
AcDbLine
 10
-4424.400887358557
 20
-4366.798549618032
 30
0.0
 11
-4425.406253670013
 21
-4375.747492223232
 31
0.0
  0
LINE
  5
A2
100
AcDbEntity
  8
0
  6
CONTINUOUS
 62
          15
100
AcDbLine
 10
-4429.082725194479
 20
-4408.472412769317
 30
0.0
 11
-4430.088091505936
 21
-4417.42135537452
 31
0.0
  0
LINE
  5
A3
100
AcDbEntity
  8
WHITE
  6
CONTINUOUS
 62
          15
100
AcDbLine
 10
-4432.711515765211
 20
-4423.483773679152
 30
0.0
 11
-4437.769385961106
 21
-4423.093703774476
 31
0.0
  0
LINE
  5
A4
100
AcDbEntity
  8
WHITE
  6
CONTINUOUS
 62
          15
100
AcDbLine
 10
-4425.613731612508
 20
-4360.305146861374
 30
0.0
 11
-4430.63207118975
 21
-4359.56320795786
 31
0.0
  0
LINE
  5
A5
100
AcDbEntity
  8
0
  6
CONTINUOUS
 62
          15
100
AcDbLine
 10
-4428.985992275604
 20
-4417.506350782681
 30
0.0
 11
-4430.088091505936
 21
-4417.42135537452
 31
0.0
  0
LINE
  5
A6
100
AcDbEntity
  8
WHITE
  6
CONTINUOUS
 62
          15
100
AcDbLine
 10
-4420.764923480232
 20
-4370.262884129653
 30
0.0
 11
-4421.76818674481
 21
-4379.1931071442
 31
0.0
  0
LINE
  5
A7
100
AcDbEntity
  8
0
  6
CONTINUOUS
 62
          15
100
AcDbLine
 10
-4424.400887358557
 20
-4366.798549618032
 30
0.0
 11
-4423.307401766517
 21
-4366.960216537673
 31
0.0
  0
LINE
  5
A8
100
AcDbEntity
  8
WHITE
  6
CONTINUOUS
 62
          15
100
AcDbLine
 10
-4424.750298475825
 20
-4405.737408876878
 30
0.0
 11
-4424.770804527476
 21
-4405.919936854188
 31
0.0
  0
LINE
  5
A9
100
AcDbEntity
  8
0
  6
CONTINUOUS
 62
          15
100
AcDbLine
 10
-4405.821896365123
 20
-4382.443015992382
 30
0.0
 11
-4420.923913021318
 21
-4380.478926165446
 31
0.0
  0
LINE
  5
AA
100
AcDbEntity
  8
0
  6
CONTINUOUS
 62
          15
100
AcDbLine
 10
-4408.500905294442
 20
-4406.289346304155
 30
0.0
 11
-4423.662267956573
 21
-4404.853505728167
 31
0.0
  0
LINE
  5
AB
100
AcDbEntity
  8
0
  6
CONTINUOUS
 62
          15
100
AcDbLine
 10
-4421.570296865339
 20
-4380.1188061767
 30
0.0
 11
-4424.372445337531
 21
-4405.061223247127
 31
0.0
  0
LINE
  5
AC
100
AcDbEntity
  8
WHITE
  6
CONTINUOUS
 62
          15
100
AcDbLine
 10
-4423.676694119728
 20
-4377.954074311106
 30
0.0
 11
-4422.632966519952
 21
-4378.089816100262
 31
0.0
  0
LINE
  5
AD
100
AcDbEntity
  8
WHITE
  6
CONTINUOUS
 62
          15
100
AcDbLine
 10
-4421.76818674481
 20
-4379.1931071442
 30
0.0
 11
-4421.788692796461
 21
-4379.37563512151
 31
0.0
  0
LINE
  5
AE
100
AcDbEntity
  8
WHITE
  6
CONTINUOUS
 62
          15
100
AcDbLine
 10
-4424.770804527476
 20
-4405.919936854188
 30
0.0
 11
-4425.774067792054
 21
-4414.850159868735
 31
0.0
  0
LINE
  5
AF
100
AcDbEntity
  8
WHITE
  6
CONTINUOUS
 62
          15
100
AcDbLine
 10
-4425.858835046729
 20
-4406.803840002898
 30
0.0
 11
-4426.906664155973
 21
-4406.704606471896
 31
0.0
  0
ARC
  5
B0
100
AcDbEntity
  8
0
  6
CONTINUOUS
 62
          15
100
AcDbCircle
 10
-4407.369520451728
 20
-4394.342800010867
 30
0.0
 40
12.0
100
AcDbArc
 50
264.589999999997
 51
82.590000000002
  0
ARC
  5
B1
100
AcDbEntity
  8
WHITE
  6
CONTINUOUS
 62
          15
100
AcDbCircle
 10
-4425.906242986368
 20
-4362.283640504568
 30
0.0
 40
2.0
100
AcDbArc
 50
353.589999999999
 51
81.590000000022
  0
ARC
  5
B2
100
AcDbEntity
  8
WHITE
  6
CONTINUOUS
 62
          15
100
AcDbCircle
 10
-4423.746168827309
 20
-4369.927957002464
 30
0.0
 40
3.0
100
AcDbArc
 50
353.589999999999
 51
81.589999999985
  0
ARC
  5
B3
100
AcDbEntity
  8
WHITE
  6
CONTINUOUS
 62
          15
100
AcDbCircle
 10
-4428.755313139132
 20
-4414.515232741547
 30
0.0
 40
3.0
100
AcDbArc
 50
265.589999999994
 51
353.589999999999
  0
ARC
  5
B4
100
AcDbEntity
  8
WHITE
  6
CONTINUOUS
 62
          15
100
AcDbCircle
 10
-4432.557729674229
 20
-4421.489694985064
 30
0.0
 40
2.0
100
AcDbArc
 50
265.589999999977
 51
353.589999999999
  0
ARC
  5
B5
100
AcDbEntity
  8
WHITE
  6
CONTINUOUS
 62
          15
100
AcDbCircle
 10
-4422.761935193836
 20
-4379.08146476847
 30
0.0
 40
1.0
100
AcDbArc
 50
353.589999999999
 51
82.59000000007
  0
ARC
  5
B6
100
AcDbEntity
  8
WHITE
  6
CONTINUOUS
 62
          15
100
AcDbCircle
 10
-4423.418756771961
 20
-4375.970776974691
 30
0.0
 40
2.0
100
AcDbArc
 50
173.59
 51
262.59000000002
  0
ARC
  5
B7
100
AcDbEntity
  8
WHITE
  6
CONTINUOUS
 62
          15
100
AcDbCircle
 10
-4420.794944347435
 20
-4379.487277497239
 30
0.0
 40
1.000000000001
100
AcDbArc
 50
219.162995999259
 51
262.590000000031
  0
ARC
  5
B8
100
AcDbEntity
  8
WHITE
  6
CONTINUOUS
 62
          15
100
AcDbCircle
 10
-4420.794944347435
 20
-4379.487277497239
 30
0.0
 40
1.0
100
AcDbArc
 50
173.59
 51
219.162995999262
  0
ARC
  5
B9
100
AcDbEntity
  8
WHITE
  6
CONTINUOUS
 62
          15
100
AcDbCircle
 10
-4427.095228296428
 20
-4408.695697520776
 30
0.0
 40
1.999999999999
100
AcDbArc
 50
84.589999999927
 51
173.59
  0
ARC
  5
BA
100
AcDbEntity
  8
WHITE
  6
CONTINUOUS
 62
          15
100
AcDbCircle
 10
-4425.764552976501
 20
-4405.808294478458
 30
0.0
 40
1.0
100
AcDbArc
 50
264.58999999993
 51
353.589999999999
  0
ARC
  5
BB
100
AcDbEntity
  8
WHITE
  6
CONTINUOUS
 62
          15
100
AcDbCircle
 10
-4423.756550026799
 20
-4405.849051252607
 30
0.0
 40
1.0
100
AcDbArc
 50
128.017004000809
 51
173.59
  0
ARC
  5
BC
100
AcDbEntity
  8
WHITE
  6
CONTINUOUS
 62
          15
100
AcDbCircle
 10
-4423.756550026799
 20
-4405.849051252607
 30
0.0
 40
1.0
100
AcDbArc
 50
84.589999999969
 51
128.017004000808
  0
LINE
  5
BD
100
AcDbEntity
  8
WHITE
  6
CONTINUOUS
 62
          15
100
AcDbLine
 10
-4791.291096948246
 20
-4359.296711477536
 30
0.0
 11
-4791.201783047663
 21
-4358.501712718315
 31
0.0
  0
LINE
  5
BE
100
AcDbEntity
  8
WHITE
  6
CONTINUOUS
 62
          15
100
AcDbLine
 10
-4791.201783047663
 20
-4358.501712718315
 30
0.0
 11
-4789.594132837156
 21
-4344.191735052341
 31
0.0
  0
LINE
  5
BF
100
AcDbEntity
  8
WHITE
  6
CONTINUOUS
 62
          15
100
AcDbLine
 10
-4789.594132837156
 20
-4344.191735052341
 30
0.0
 11
-4789.504818936573
 21
-4343.396736293121
 31
0.0
  0
LINE
  5
C0
100
AcDbEntity
  8
WHITE
  6
CONTINUOUS
 62
          15
100
AcDbLine
 10
-4789.504818936573
 20
-4343.396736293121
 30
0.0
 11
-4789.013592483362
 21
-4339.024243117407
 31
0.0
  0
LINE
  5
C1
100
AcDbEntity
  8
WHITE
  6
CONTINUOUS
 62
          15
100
AcDbLine
 10
-4823.984186322912
 20
-4363.674143046396
 30
0.0
 11
-4822.256161175655
 21
-4363.868277520719
 31
0.0
  0
LINE
  5
C2
100
AcDbEntity
  8
WHITE
  6
CONTINUOUS
 62
          15
100
AcDbLine
 10
-4818.683605152309
 20
-4332.068327151889
 30
0.0
 11
-4820.411630299565
 21
-4331.874192677567
 31
0.0
  0
LINE
  5
C3
100
AcDbEntity
  8
WHITE
  6
CONTINUOUS
 62
          15
100
AcDbLine
 10
-4822.256161175655
 20
-4363.868277520719
 30
0.0
 11
-4817.226696869536
 21
-4364.433311201357
 31
0.0
  0
LINE
  5
C4
100
AcDbEntity
  8
WHITE
  6
CONTINUOUS
 62
          15
100
AcDbLine
 10
-4813.65414084619
 20
-4332.633360832528
 30
0.0
 11
-4818.683605152309
 21
-4332.068327151889
 31
0.0
  0
LINE
  5
C5
100
AcDbEntity
  8
WHITE
  6
CONTINUOUS
 62
          15
100
AcDbLine
 10
-4867.4966221725
 20
-4326.584443185072
 30
0.0
 11
-4820.411630299565
 21
-4331.874192677567
 31
0.0
  0
LINE
  5
C6
100
AcDbEntity
  8
WHITE
  6
CONTINUOUS
 62
          15
100
AcDbLine
 10
-4871.069178195846
 20
-4358.384393553902
 30
0.0
 11
-4823.984186322912
 21
-4363.674143046396
 31
0.0
  0
LINE
  5
C7
100
AcDbEntity
  8
WHITE
  6
CONTINUOUS
 62
          15
100
AcDbLine
 10
-4812.72958440911
 20
-4335.152327961066
 30
0.0
 11
-4815.766257028954
 21
-4362.182285774571
 31
0.0
  0
LINE
  5
C8
100
AcDbEntity
  8
WHITE
  6
CONTINUOUS
 62
          15
100
AcDbLine
 10
-4790.072119771317
 20
-4337.6977741277
 30
0.0
 11
-4793.676617047058
 21
-4337.292827946833
 31
0.0
  0
LINE
  5
C9
100
AcDbEntity
  8
WHITE
  6
CONTINUOUS
 62
          15
100
AcDbLine
 10
-4791.782323401456
 20
-4363.66920465325
 30
0.0
 11
-4791.291096948246
 21
-4359.296711477536
 31
0.0
  0
LINE
  5
CA
100
AcDbEntity
  8
WHITE
  6
CONTINUOUS
 62
          15
100
AcDbLine
 10
-4814.573758890123
 20
-4362.316256625446
 30
0.0
 11
-4812.135048676489
 21
-4362.590232803455
 31
0.0
  0
LINE
  5
CB
100
AcDbEntity
  8
WHITE
  6
CONTINUOUS
 62
          15
100
AcDbLine
 10
-4808.919748255476
 20
-4333.970277471508
 30
0.0
 11
-4809.098376056644
 21
-4335.560274989949
 31
0.0
  0
LINE
  5
CC
100
AcDbEntity
  8
WHITE
  6
CONTINUOUS
 62
          15
100
AcDbLine
 10
-4809.098376056644
 20
-4335.560274989949
 30
0.0
 11
-4811.537086270279
 21
-4335.286298811941
 31
0.0
  0
LINE
  5
CD
100
AcDbEntity
  8
WHITE
  6
CONTINUOUS
 62
          15
100
AcDbLine
 10
-4809.098376056644
 20
-4335.560274989949
 30
0.0
 11
-4812.135048676489
 21
-4362.590232803455
 31
0.0
  0
LINE
  5
CE
100
AcDbEntity
  8
WHITE
  6
CONTINUOUS
 62
          15
100
AcDbLine
 10
-4812.135048676489
 20
-4362.590232803455
 30
0.0
 11
-4812.313676477656
 21
-4364.180230321897
 31
0.0
  0
LINE
  5
CF
100
AcDbEntity
  8
WHITE
  6
CONTINUOUS
 62
          15
100
AcDbLine
 10
-4796.891917468071
 20
-4365.912783278781
 30
0.0
 11
-4796.713289666904
 21
-4364.322785760339
 31
0.0
  0
LINE
  5
D0
100
AcDbEntity
  8
WHITE
  6
CONTINUOUS
 62
          15
100
AcDbLine
 10
-4796.713289666904
 20
-4364.322785760339
 30
0.0
 11
-4793.108792391163
 21
-4364.727731941205
 31
0.0
  0
LINE
  5
D1
100
AcDbEntity
  8
WHITE
  6
CONTINUOUS
 62
          15
100
AcDbLine
 10
-4796.713289666904
 20
-4364.322785760339
 30
0.0
 11
-4793.676617047058
 21
-4337.292827946833
 31
0.0
  0
LINE
  5
D2
100
AcDbEntity
  8
WHITE
  6
CONTINUOUS
 62
          15
100
AcDbLine
 10
-4793.676617047058
 20
-4337.292827946833
 30
0.0
 11
-4793.497989245891
 21
-4335.702830428392
 31
0.0
  0
LINE
  5
D3
100
AcDbEntity
  8
WHITE
  6
CONTINUOUS
 62
          15
100
AcDbLine
 10
-4808.919748255476
 20
-4333.970277471508
 30
0.0
 11
-4793.497989245891
 21
-4335.702830428392
 31
0.0
  0
LINE
  5
D4
100
AcDbEntity
  8
WHITE
  6
CONTINUOUS
 62
          15
100
AcDbLine
 10
-4812.313676477656
 20
-4364.180230321897
 30
0.0
 11
-4796.891917468071
 21
-4365.912783278781
 31
0.0
  0
ARC
  5
D5
100
AcDbEntity
  8
WHITE
  6
CONTINUOUS
 62
          15
100
AcDbCircle
 10
-4843.087967895363
 20
-4345.427280293614
 30
0.0
 40
27.821476415486
100
AcDbArc
 50
318.483694434248
 51
28.696305565753
  0
ARC
  5
D6
100
AcDbEntity
  8
WHITE
  6
CONTINUOUS
 62
          15
100
AcDbCircle
 10
-4829.983124920408
 20
-4346.899540003524
 30
0.0
 40
39.547005383793
100
AcDbArc
 50
149.72507458395
 51
197.45492541605
  0
ARC
  5
D7
100
AcDbEntity
  8
WHITE
  6
CONTINUOUS
 62
          15
100
AcDbCircle
 10
-4844.038299063889
 20
-4345.320515619426
 30
0.0
 40
30.022213997861
100
AcDbArc
 50
141.385772496028
 51
205.794227503972
  0
ARC
  5
D8
100
AcDbEntity
  8
WHITE
  6
CONTINUOUS
 62
          15
100
AcDbCircle
 10
-4813.788111697065
 20
-4333.825858971359
 30
0.0
 40
1.2
100
AcDbArc
 50
353.589999999999
 51
83.59
  0
ARC
  5
D9
100
AcDbEntity
  8
WHITE
  6
CONTINUOUS
 62
          15
100
AcDbCircle
 10
-4811.403115419403
 20
-4334.093800673109
 30
0.0
 40
1.2
100
AcDbArc
 50
173.59
 51
263.589999999999
  0
ARC
  5
DA
100
AcDbEntity
  8
WHITE
  6
CONTINUOUS
 62
          15
100
AcDbCircle
 10
-4790.206090622193
 20
-4338.890272266531
 30
0.0
 40
1.2
100
AcDbArc
 50
353.589999999999
 51
83.59
  0
ARC
  5
DB
100
AcDbEntity
  8
WHITE
  6
CONTINUOUS
 62
          15
100
AcDbCircle
 10
-4792.974821540286
 20
-4363.535233802374
 30
0.0
 40
1.2
100
AcDbArc
 50
263.589999999999
 51
353.589999999999
  0
ARC
  5
DC
100
AcDbEntity
  8
WHITE
  6
CONTINUOUS
 62
          15
100
AcDbCircle
 10
-4814.707729740999
 20
-4363.508754764277
 30
0.0
 40
1.2
100
AcDbArc
 50
83.59
 51
173.59
  0
ARC
  5
DD
100
AcDbEntity
  8
WHITE
  6
CONTINUOUS
 62
          15
100
AcDbCircle
 10
-4817.092726018661
 20
-4363.240813062526
 30
0.0
 40
1.2
100
AcDbArc
 50
263.589999999999
 51
353.589999999999
  0
LINE
  5
DE
100
AcDbEntity
  8
WHITE
  6
CONTINUOUS
 62
          15
100
AcDbLine
 10
-4597.691277356797
 20
-4368.221361662107
 30
0.0
 11
-4594.214939515148
 21
-4369.059796315552
 31
0.0
  0
LINE
  5
DF
100
AcDbEntity
  8
WHITE
  6
CONTINUOUS
 62
          15
100
AcDbLine
 10
-4597.841071858391
 20
-4365.633546913253
 30
0.0
 11
-4598.070921341967
 21
-4367.679477648073
 31
0.0
  0
LINE
  5
E0
100
AcDbEntity
  8
WHITE
  6
CONTINUOUS
 62
          15
100
AcDbLine
 10
-4597.009161759906
 20
-4362.149730598757
 30
0.0
 11
-4593.433442885042
 21
-4362.10355717237
 31
0.0
  0
LINE
  5
E1
100
AcDbEntity
  8
WHITE
  6
CONTINUOUS
 62
          15
100
AcDbLine
 10
-4597.729429482661
 20
-4364.639798464227
 30
0.0
 11
-4597.499579999085
 21
-4362.593867729408
 31
0.0
  0
LINE
  5
E2
100
AcDbEntity
  8
WHITE
  6
CONTINUOUS
 62
          15
100
AcDbLine
 10
-4596.26467158478
 20
-4365.810647135969
 30
0.0
 11
-4597.841071858391
 21
-4365.633546913253
 31
0.0
  0
LINE
  5
E3
100
AcDbEntity
  8
WHITE
  6
CONTINUOUS
 62
          15
100
AcDbLine
 10
-4596.208850396916
 20
-4365.313772911457
 30
0.0
 11
-4596.26467158478
 21
-4365.810647135969
 31
0.0
  0
LINE
  5
E4
100
AcDbEntity
  8
WHITE
  6
CONTINUOUS
 62
          15
100
AcDbLine
 10
-4596.153029209052
 20
-4364.816898686943
 30
0.0
 11
-4596.208850396916
 21
-4365.313772911457
 31
0.0
  0
LINE
  5
E5
100
AcDbEntity
  8
WHITE
  6
CONTINUOUS
 62
          15
100
AcDbLine
 10
-4597.729429482661
 20
-4364.639798464227
 30
0.0
 11
-4596.153029209052
 21
-4364.816898686943
 31
0.0
  0
LINE
  5
E6
100
AcDbEntity
  8
WHITE
  6
CONTINUOUS
 62
          15
100
AcDbLine
 10
-4593.210158133582
 20
-4360.116060274318
 30
0.0
 11
-4582.77579941881
 21
-4361.288305219478
 31
0.0
  0
LINE
  5
E7
100
AcDbEntity
  8
WHITE
  6
CONTINUOUS
 62
          15
100
AcDbLine
 10
-4593.210158133582
 20
-4360.116060274318
 30
0.0
 11
-4594.270760703013
 21
-4369.556670540064
 31
0.0
  0
LINE
  5
E8
100
AcDbEntity
  8
WHITE
  6
CONTINUOUS
 62
          15
100
AcDbLine
 10
-4586.884238845658
 20
-4397.858248143633
 30
0.0
 11
-4578.437377028937
 21
-4398.807208337335
 31
0.0
  0
LINE
  5
E9
100
AcDbEntity
  8
WHITE
  6
CONTINUOUS
 62
          15
100
AcDbLine
 10
-4578.437377028937
 20
-4398.807208337335
 30
0.0
 11
-4578.381555841072
 21
-4398.310334112822
 31
0.0
  0
LINE
  5
EA
100
AcDbEntity
  8
WHITE
  6
CONTINUOUS
 62
          15
100
AcDbLine
 10
-4578.381555841072
 20
-4398.310334112822
 30
0.0
 11
-4573.190185369647
 21
-4352.101031233116
 31
0.0
  0
LINE
  5
EB
100
AcDbEntity
  8
WHITE
  6
CONTINUOUS
 62
          15
100
AcDbLine
 10
-4572.196436920622
 20
-4352.212673608845
 30
0.0
 11
-4572.252258108487
 21
-4352.709547833358
 31
0.0
  0
LINE
  5
EC
100
AcDbEntity
  8
WHITE
  6
CONTINUOUS
 62
          15
100
AcDbLine
 10
-4572.252258108487
 20
-4352.709547833358
 30
0.0
 11
-4573.246006557512
 21
-4352.597905457628
 31
0.0
  0
LINE
  5
ED
100
AcDbEntity
  8
WHITE
  6
CONTINUOUS
 62
          15
100
AcDbLine
 10
-4572.252258108487
 20
-4352.709547833358
 30
0.0
 11
-4577.387807392047
 21
-4398.421976488551
 31
0.0
  0
LINE
  5
EE
100
AcDbEntity
  8
WHITE
  6
CONTINUOUS
 62
          15
100
AcDbLine
 10
-4577.387807392047
 20
-4398.421976488551
 30
0.0
 11
-4578.381555841072
 21
-4398.310334112822
 31
0.0
  0
LINE
  5
EF
100
AcDbEntity
  8
WHITE
  6
CONTINUOUS
 62
          15
100
AcDbLine
 10
-4583.272673643322
 20
-4361.232484031613
 30
0.0
 11
-4582.133921410881
 21
-4351.096249851549
 31
0.0
  0
LINE
  5
F0
100
AcDbEntity
  8
WHITE
  6
CONTINUOUS
 62
          15
100
AcDbLine
 10
-4573.190185369647
 20
-4352.101031233116
 30
0.0
 11
-4582.133921410881
 21
-4351.096249851549
 31
0.0
  0
LINE
  5
F1
100
AcDbEntity
  8
WHITE
  6
CONTINUOUS
 62
          15
100
AcDbLine
 10
-4495.677806345624
 20
-4360.809136540022
 30
0.0
 11
-4572.196436920622
 21
-4352.212673608845
 31
0.0
  0
LINE
  5
F2
100
AcDbEntity
  8
WHITE
  6
CONTINUOUS
 62
          15
100
AcDbLine
 10
-4583.272673643322
 20
-4361.232484031613
 30
0.0
 11
-4582.77579941881
 21
-4361.288305219478
 31
0.0
  0
LINE
  5
F3
100
AcDbEntity
  8
WHITE
  6
CONTINUOUS
 62
          15
100
AcDbLine
 10
-4582.77579941881
 20
-4361.288305219478
 30
0.0
 11
-4586.884238845658
 21
-4397.858248143633
 31
0.0
  0
LINE
  5
F4
100
AcDbEntity
  8
WHITE
  6
CONTINUOUS
 62
          15
100
AcDbLine
 10
-4500.924998004914
 20
-4407.515313644241
 30
0.0
 11
-4495.677806345624
 21
-4360.809136540022
 31
0.0
  0
LINE
  5
F5
100
AcDbEntity
  8
WHITE
  6
CONTINUOUS
 62
          15
100
AcDbLine
 10
-4577.443628579911
 20
-4398.918850713064
 30
0.0
 11
-4500.924998004914
 21
-4407.515313644241
 31
0.0
  0
LINE
  5
F6
100
AcDbEntity
  8
WHITE
  6
CONTINUOUS
 62
          15
100
AcDbLine
 10
-4577.387807392047
 20
-4398.421976488551
 30
0.0
 11
-4577.443628579911
 21
-4398.918850713064
 31
0.0
  0
LINE
  5
F7
100
AcDbEntity
  8
WHITE
  6
CONTINUOUS
 62
          15
100
AcDbLine
 10
-4600.110247826317
 20
-4381.227698349848
 30
0.0
 11
-4599.524125353737
 21
-4376.010518992463
 31
0.0
  0
LINE
  5
F8
100
AcDbEntity
  8
WHITE
  6
CONTINUOUS
 62
          15
100
AcDbLine
 10
-4601.254582177546
 20
-4391.413619952364
 30
0.0
 11
-4597.793668529928
 21
-4360.60741803256
 31
0.0
  0
LINE
  5
F9
100
AcDbEntity
  8
WHITE
  6
CONTINUOUS
 62
          15
100
AcDbLine
 10
-4596.688277705172
 20
-4359.725311959263
 30
0.0
 11
-4593.210158133582
 21
-4360.116060274318
 31
0.0
  0
LINE
  5
FA
100
AcDbEntity
  8
WHITE
  6
CONTINUOUS
 62
          15
100
AcDbLine
 10
-4600.372476104249
 20
-4392.51901077712
 30
0.0
 11
-4586.459997817885
 21
-4394.082004037334
 31
0.0
  0
LINE
  5
FB
100
AcDbEntity
  8
WHITE
  6
CONTINUOUS
 62
           1
100
AcDbLine
 10
-4627.114239022332
 20
-4397.66567144526
 30
0.0
 11
-4609.226766939866
 21
-4399.675234208393
 31
0.0
  0
LINE
  5
FC
100
AcDbEntity
  8
WHITE
  6
CONTINUOUS
 62
           1
100
AcDbLine
 10
-4609.226766939866
 20
-4399.675234208393
 30
0.0
 11
-4609.756030583843
 21
-4399.011999713541
 31
0.0
  0
LINE
  5
FD
100
AcDbEntity
  8
WHITE
  6
CONTINUOUS
 62
           1
100
AcDbLine
 10
-4609.756030583843
 20
-4399.011999713541
 30
0.0
 11
-4609.09279608899
 21
-4398.482736069563
 31
0.0
  0
LINE
  5
FE
100
AcDbEntity
  8
WHITE
  6
CONTINUOUS
 62
           1
100
AcDbLine
 10
-4609.09279608899
 20
-4398.482736069563
 30
0.0
 11
-4626.980268171457
 21
-4396.473173306431
 31
0.0
  0
LINE
  5
FF
100
AcDbEntity
  8
WHITE
  6
CONTINUOUS
 62
           1
100
AcDbLine
 10
-4626.980268171457
 20
-4396.473173306431
 30
0.0
 11
-4626.451004527479
 21
-4397.136407801284
 31
0.0
  0
LINE
  5
100
100
AcDbEntity
  8
WHITE
  6
CONTINUOUS
 62
           1
100
AcDbLine
 10
-4626.451004527479
 20
-4397.136407801284
 30
0.0
 11
-4627.114239022332
 21
-4397.66567144526
 31
0.0
  0
LINE
  5
101
100
AcDbEntity
  8
WHITE
  6
CONTINUOUS
 62
           1
100
AcDbLine
 10
-4626.451004527479
 20
-4397.136407801284
 30
0.0
 11
-4609.756030583843
 21
-4399.011999713541
 31
0.0
  0
LINE
  5
102
100
AcDbEntity
  8
WHITE
  6
CONTINUOUS
 62
           1
100
AcDbLine
 10
-4626.674289278938
 20
-4399.123904699336
 30
0.0
 11
-4627.203552922916
 21
-4398.460670204482
 31
0.0
  0
LINE
  5
103
100
AcDbEntity
  8
WHITE
  6
CONTINUOUS
 62
           1
100
AcDbLine
 10
-4627.203552922916
 20
-4398.460670204482
 30
0.0
 11
-4609.31608084045
 21
-4400.470232967615
 31
0.0
  0
LINE
  5
104
100
AcDbEntity
  8
WHITE
  6
CONTINUOUS
 62
           1
100
AcDbLine
 10
-4609.31608084045
 20
-4400.470232967615
 30
0.0
 11
-4609.979315335302
 21
-4400.999496611593
 31
0.0
  0
LINE
  5
105
100
AcDbEntity
  8
WHITE
  6
CONTINUOUS
 62
           1
100
AcDbLine
 10
-4609.979315335302
 20
-4400.999496611593
 30
0.0
 11
-4609.450051691325
 21
-4401.662731106445
 31
0.0
  0
LINE
  5
106
100
AcDbEntity
  8
WHITE
  6
CONTINUOUS
 62
           1
100
AcDbLine
 10
-4609.450051691325
 20
-4401.662731106445
 30
0.0
 11
-4627.337523773792
 21
-4399.653168343312
 31
0.0
  0
LINE
  5
107
100
AcDbEntity
  8
WHITE
  6
CONTINUOUS
 62
           1
100
AcDbLine
 10
-4627.337523773792
 20
-4399.653168343312
 30
0.0
 11
-4626.674289278938
 21
-4399.123904699336
 31
0.0
  0
LINE
  5
108
100
AcDbEntity
  8
WHITE
  6
CONTINUOUS
 62
           1
100
AcDbLine
 10
-4609.979315335302
 20
-4400.999496611593
 30
0.0
 11
-4626.674289278938
 21
-4399.123904699336
 31
0.0
  0
LINE
  5
109
100
AcDbEntity
  8
WHITE
  6
CONTINUOUS
 62
           1
100
AcDbLine
 10
-4626.897574030398
 20
-4401.111401597387
 30
0.0
 11
-4627.426837674376
 21
-4400.448167102534
 31
0.0
  0
LINE
  5
10A
100
AcDbEntity
  8
WHITE
  6
CONTINUOUS
 62
           1
100
AcDbLine
 10
-4627.426837674376
 20
-4400.448167102534
 30
0.0
 11
-4609.539365591909
 21
-4402.457729865667
 31
0.0
  0
LINE
  5
10B
100
AcDbEntity
  8
WHITE
  6
CONTINUOUS
 62
           1
100
AcDbLine
 10
-4609.539365591909
 20
-4402.457729865667
 30
0.0
 11
-4610.202600086761
 21
-4402.986993509645
 31
0.0
  0
LINE
  5
10C
100
AcDbEntity
  8
WHITE
  6
CONTINUOUS
 62
           1
100
AcDbLine
 10
-4610.202600086761
 20
-4402.986993509645
 30
0.0
 11
-4609.673336442784
 21
-4403.650228004497
 31
0.0
  0
LINE
  5
10D
100
AcDbEntity
  8
WHITE
  6
CONTINUOUS
 62
           1
100
AcDbLine
 10
-4609.673336442784
 20
-4403.650228004497
 30
0.0
 11
-4627.560808525252
 21
-4401.640665241364
 31
0.0
  0
LINE
  5
10E
100
AcDbEntity
  8
WHITE
  6
CONTINUOUS
 62
           1
100
AcDbLine
 10
-4627.560808525252
 20
-4401.640665241364
 30
0.0
 11
-4626.897574030398
 21
-4401.111401597387
 31
0.0
  0
LINE
  5
10F
100
AcDbEntity
  8
WHITE
  6
CONTINUOUS
 62
           1
100
AcDbLine
 10
-4627.120858781856
 20
-4403.098898495439
 30
0.0
 11
-4627.650122425835
 21
-4402.435664000586
 31
0.0
  0
LINE
  5
110
100
AcDbEntity
  8
WHITE
  6
CONTINUOUS
 62
           1
100
AcDbLine
 10
-4627.650122425835
 20
-4402.435664000586
 30
0.0
 11
-4621.595293333337
 21
-4403.115891985028
 31
0.0
  0
LINE
  5
111
100
AcDbEntity
  8
WHITE
  6
CONTINUOUS
 62
           1
100
AcDbLine
 10
-4609.762650343368
 20
-4404.445226763719
 30
0.0
 11
-4610.425884838221
 21
-4404.974490407696
 31
0.0
  0
LINE
  5
112
100
AcDbEntity
  8
WHITE
  6
CONTINUOUS
 62
           1
100
AcDbLine
 10
-4610.425884838221
 20
-4404.974490407696
 30
0.0
 11
-4609.896621194243
 21
-4405.637724902548
 31
0.0
  0
LINE
  5
113
100
AcDbEntity
  8
WHITE
  6
CONTINUOUS
 62
           1
100
AcDbLine
 10
-4609.896621194243
 20
-4405.637724902548
 30
0.0
 11
-4615.95145028674
 21
-4404.957496918107
 31
0.0
  0
LINE
  5
114
100
AcDbEntity
  8
WHITE
  6
CONTINUOUS
 62
           1
100
AcDbLine
 10
-4627.78409327671
 20
-4403.628162139416
 30
0.0
 11
-4627.120858781856
 21
-4403.098898495439
 31
0.0
  0
LINE
  5
115
100
AcDbEntity
  8
WHITE
  6
CONTINUOUS
 62
           1
100
AcDbLine
 10
-4627.344143533315
 20
-4405.08639539349
 30
0.0
 11
-4627.873407177294
 21
-4404.423160898637
 31
0.0
  0
LINE
  5
116
100
AcDbEntity
  8
WHITE
  6
CONTINUOUS
 62
           1
100
AcDbLine
 10
-4627.873407177294
 20
-4404.423160898637
 30
0.0
 11
-4622.560129175105
 21
-4405.020079545059
 31
0.0
  0
LINE
  5
117
100
AcDbEntity
  8
WHITE
  6
CONTINUOUS
 62
           1
100
AcDbLine
 10
-4609.985935094826
 20
-4406.43272366177
 30
0.0
 11
-4610.64916958968
 21
-4406.961987305747
 31
0.0
  0
LINE
  5
118
100
AcDbEntity
  8
WHITE
  6
CONTINUOUS
 62
           1
100
AcDbLine
 10
-4627.120858781856
 20
-4403.098898495439
 30
0.0
 11
-4621.066029689359
 21
-4403.779126479881
 31
0.0
  0
LINE
  5
119
100
AcDbEntity
  8
WHITE
  6
CONTINUOUS
 62
           1
100
AcDbLine
 10
-4626.897574030398
 20
-4401.111401597387
 30
0.0
 11
-4610.202600086761
 21
-4402.986993509645
 31
0.0
  0
LINE
  5
11A
100
AcDbEntity
  8
WHITE
  6
CONTINUOUS
 62
           1
100
AcDbLine
 10
-4621.729264184212
 20
-4404.308390123858
 30
0.0
 11
-4621.066029689359
 21
-4403.779126479881
 31
0.0
  0
LINE
  5
11B
100
AcDbEntity
  8
WHITE
  6
CONTINUOUS
 62
           1
100
AcDbLine
 10
-4621.729264184212
 20
-4404.308390123858
 30
0.0
 11
-4627.78409327671
 21
-4403.628162139416
 31
0.0
  0
LINE
  5
11C
100
AcDbEntity
  8
WHITE
  6
CONTINUOUS
 62
           1
100
AcDbLine
 10
-4621.066029689359
 20
-4403.779126479881
 30
0.0
 11
-4621.595293333337
 21
-4403.115891985028
 31
0.0
  0
LINE
  5
11D
100
AcDbEntity
  8
WHITE
  6
CONTINUOUS
 62
           1
100
AcDbLine
 10
-4622.560129175105
 20
-4405.020079545059
 30
0.0
 11
-4622.030865531127
 21
-4405.683314039912
 31
0.0
  0
LINE
  5
11E
100
AcDbEntity
  8
WHITE
  6
CONTINUOUS
 62
           1
100
AcDbLine
 10
-4615.96244759187
 20
-4406.365068659326
 30
0.0
 11
-4615.299213097016
 21
-4405.835805015348
 31
0.0
  0
LINE
  5
11F
100
AcDbEntity
  8
WHITE
  6
CONTINUOUS
 62
           1
100
AcDbLine
 10
-4615.299213097016
 20
-4405.835805015348
 30
0.0
 11
-4609.985935094826
 21
-4406.43272366177
 31
0.0
  0
LINE
  5
120
100
AcDbEntity
  8
WHITE
  6
CONTINUOUS
 62
           1
100
AcDbLine
 10
-4615.95145028674
 20
-4404.957496918107
 30
0.0
 11
-4616.480713930718
 21
-4404.294262423255
 31
0.0
  0
LINE
  5
121
100
AcDbEntity
  8
WHITE
  6
CONTINUOUS
 62
           1
100
AcDbLine
 10
-4616.480713930718
 20
-4404.294262423255
 30
0.0
 11
-4610.425884838221
 21
-4404.974490407696
 31
0.0
  0
LINE
  5
122
100
AcDbEntity
  8
WHITE
  6
CONTINUOUS
 62
           1
100
AcDbLine
 10
-4616.480713930718
 20
-4404.294262423255
 30
0.0
 11
-4615.817479435864
 21
-4403.764998779277
 31
0.0
  0
LINE
  5
123
100
AcDbEntity
  8
WHITE
  6
CONTINUOUS
 62
           1
100
AcDbLine
 10
-4615.817479435864
 20
-4403.764998779277
 30
0.0
 11
-4609.762650343368
 21
-4404.445226763719
 31
0.0
  0
LINE
  5
124
100
AcDbEntity
  8
WHITE
  6
CONTINUOUS
 62
           1
100
AcDbLine
 10
-4627.650122425835
 20
-4402.435664000586
 30
0.0
 11
-4627.78409327671
 21
-4403.628162139416
 31
0.0
  0
LINE
  5
125
100
AcDbEntity
  8
WHITE
  6
CONTINUOUS
 62
           1
100
AcDbLine
 10
-4627.560808525252
 20
-4401.640665241364
 30
0.0
 11
-4627.426837674376
 21
-4400.448167102534
 31
0.0
  0
LINE
  5
126
100
AcDbEntity
  8
WHITE
  6
CONTINUOUS
 62
           1
100
AcDbLine
 10
-4627.337523773792
 20
-4399.653168343312
 30
0.0
 11
-4627.203552922916
 21
-4398.460670204482
 31
0.0
  0
LINE
  5
127
100
AcDbEntity
  8
WHITE
  6
CONTINUOUS
 62
           1
100
AcDbLine
 10
-4627.114239022332
 20
-4397.66567144526
 30
0.0
 11
-4626.980268171457
 21
-4396.473173306431
 31
0.0
  0
LINE
  5
128
100
AcDbEntity
  8
WHITE
  6
CONTINUOUS
 62
           1
100
AcDbLine
 10
-4627.873407177294
 20
-4404.423160898637
 30
0.0
 11
-4627.940392602732
 21
-4405.019409968052
 31
0.0
  0
LINE
  5
129
100
AcDbEntity
  8
WHITE
  6
CONTINUOUS
 62
           1
100
AcDbLine
 10
-4610.052920520265
 20
-4407.028972731185
 30
0.0
 11
-4609.985935094826
 21
-4406.43272366177
 31
0.0
  0
LINE
  5
12A
100
AcDbEntity
  8
WHITE
  6
CONTINUOUS
 62
           1
100
AcDbLine
 10
-4609.896621194243
 20
-4405.637724902548
 30
0.0
 11
-4609.762650343368
 21
-4404.445226763719
 31
0.0
  0
LINE
  5
12B
100
AcDbEntity
  8
WHITE
  6
CONTINUOUS
 62
           1
100
AcDbLine
 10
-4609.673336442784
 20
-4403.650228004497
 30
0.0
 11
-4609.539365591909
 21
-4402.457729865667
 31
0.0
  0
LINE
  5
12C
100
AcDbEntity
  8
WHITE
  6
CONTINUOUS
 62
           1
100
AcDbLine
 10
-4609.450051691325
 20
-4401.662731106445
 30
0.0
 11
-4609.31608084045
 21
-4400.470232967615
 31
0.0
  0
LINE
  5
12D
100
AcDbEntity
  8
WHITE
  6
CONTINUOUS
 62
           1
100
AcDbLine
 10
-4609.226766939866
 20
-4399.675234208393
 30
0.0
 11
-4609.09279608899
 21
-4398.482736069563
 31
0.0
  0
LINE
  5
12E
100
AcDbEntity
  8
WHITE
  6
CONTINUOUS
 62
           1
100
AcDbLine
 10
-4611.013044951539
 20
-4415.575209392808
 30
0.0
 11
-4610.879074100663
 21
-4414.382711253978
 31
0.0
  0
LINE
  5
12F
100
AcDbEntity
  8
WHITE
  6
CONTINUOUS
 62
           1
100
AcDbLine
 10
-4610.789760200079
 20
-4413.587712494757
 30
0.0
 11
-4610.655789349205
 21
-4412.395214355926
 31
0.0
  0
LINE
  5
130
100
AcDbEntity
  8
WHITE
  6
CONTINUOUS
 62
           1
100
AcDbLine
 10
-4610.566475448621
 20
-4411.600215596704
 30
0.0
 11
-4610.432504597746
 21
-4410.407717457874
 31
0.0
  0
LINE
  5
131
100
AcDbEntity
  8
WHITE
  6
CONTINUOUS
 62
           1
100
AcDbLine
 10
-4610.343190697162
 20
-4409.612718698652
 30
0.0
 11
-4610.209219846286
 21
-4408.420220559822
 31
0.0
  0
LINE
  5
132
100
AcDbEntity
  8
WHITE
  6
CONTINUOUS
 62
           1
100
AcDbLine
 10
-4610.119905945702
 20
-4407.6252218006
 30
0.0
 11
-4610.052920520265
 21
-4407.028972731185
 31
0.0
  0
LINE
  5
133
100
AcDbEntity
  8
WHITE
  6
CONTINUOUS
 62
           1
100
AcDbLine
 10
-4627.940392602732
 20
-4405.019409968052
 30
0.0
 11
-4628.007378028169
 21
-4405.615659037469
 31
0.0
  0
LINE
  5
134
100
AcDbEntity
  8
WHITE
  6
CONTINUOUS
 62
           1
100
AcDbLine
 10
-4628.900517034006
 20
-4413.565646629675
 30
0.0
 11
-4628.766546183131
 21
-4412.373148490846
 31
0.0
  0
LINE
  5
135
100
AcDbEntity
  8
WHITE
  6
CONTINUOUS
 62
           1
100
AcDbLine
 10
-4628.677232282547
 20
-4411.578149731624
 30
0.0
 11
-4628.543261431672
 21
-4410.385651592794
 31
0.0
  0
LINE
  5
136
100
AcDbEntity
  8
WHITE
  6
CONTINUOUS
 62
           1
100
AcDbLine
 10
-4628.453947531088
 20
-4409.590652833572
 30
0.0
 11
-4628.319976680212
 21
-4408.398154694742
 31
0.0
  0
LINE
  5
137
100
AcDbEntity
  8
WHITE
  6
CONTINUOUS
 62
           1
100
AcDbLine
 10
-4628.096691928753
 20
-4406.41065779669
 30
0.0
 11
-4628.230662779628
 21
-4407.60315593552
 31
0.0
  0
LINE
  5
138
100
AcDbEntity
  8
WHITE
  6
CONTINUOUS
 62
           1
100
AcDbLine
 10
-4610.343190697162
 20
-4409.612718698652
 30
0.0
 11
-4616.398019789658
 21
-4408.932490714211
 31
0.0
  0
LINE
  5
139
100
AcDbEntity
  8
WHITE
  6
CONTINUOUS
 62
           1
100
AcDbLine
 10
-4616.398019789658
 20
-4408.932490714211
 30
0.0
 11
-4616.927283433636
 21
-4408.269256219357
 31
0.0
  0
LINE
  5
13A
100
AcDbEntity
  8
WHITE
  6
CONTINUOUS
 62
           1
100
AcDbLine
 10
-4610.872454341139
 20
-4408.949484203799
 30
0.0
 11
-4616.927283433636
 21
-4408.269256219357
 31
0.0
  0
LINE
  5
13B
100
AcDbEntity
  8
WHITE
  6
CONTINUOUS
 62
           1
100
AcDbLine
 10
-4616.927283433636
 20
-4408.269256219357
 30
0.0
 11
-4616.264048938783
 21
-4407.739992575381
 31
0.0
  0
LINE
  5
13C
100
AcDbEntity
  8
WHITE
  6
CONTINUOUS
 62
           1
100
AcDbLine
 10
-4610.119905945702
 20
-4407.6252218006
 30
0.0
 11
-4615.433183947891
 21
-4407.028303154179
 31
0.0
  0
LINE
  5
13D
100
AcDbEntity
  8
WHITE
  6
CONTINUOUS
 62
           1
100
AcDbLine
 10
-4615.433183947891
 20
-4407.028303154179
 30
0.0
 11
-4615.96244759187
 21
-4406.365068659326
 31
0.0
  0
LINE
  5
13E
100
AcDbEntity
  8
WHITE
  6
CONTINUOUS
 62
           1
100
AcDbLine
 10
-4627.344143533315
 20
-4405.08639539349
 30
0.0
 11
-4622.030865531127
 21
-4405.683314039912
 31
0.0
  0
LINE
  5
13F
100
AcDbEntity
  8
WHITE
  6
CONTINUOUS
 62
           1
100
AcDbLine
 10
-4622.030865531127
 20
-4405.683314039912
 30
0.0
 11
-4622.694100025979
 21
-4406.212577683889
 31
0.0
  0
LINE
  5
140
100
AcDbEntity
  8
WHITE
  6
CONTINUOUS
 62
           1
100
AcDbLine
 10
-4622.17583368713
 20
-4408.283383919962
 30
0.0
 11
-4621.512599192278
 21
-4407.754120275984
 31
0.0
  0
LINE
  5
141
100
AcDbEntity
  8
WHITE
  6
CONTINUOUS
 62
           1
100
AcDbLine
 10
-4628.096691928753
 20
-4406.41065779669
 30
0.0
 11
-4622.041862836255
 21
-4407.090885781132
 31
0.0
  0
LINE
  5
142
100
AcDbEntity
  8
WHITE
  6
CONTINUOUS
 62
           1
100
AcDbLine
 10
-4621.512599192278
 20
-4407.754120275984
 30
0.0
 11
-4622.041862836255
 21
-4407.090885781132
 31
0.0
  0
LINE
  5
143
100
AcDbEntity
  8
WHITE
  6
CONTINUOUS
 62
           1
100
AcDbLine
 10
-4611.095739092598
 20
-4410.936981101851
 30
0.0
 11
-4627.790713036234
 21
-4409.061389189594
 31
0.0
  0
LINE
  5
144
100
AcDbEntity
  8
WHITE
  6
CONTINUOUS
 62
           1
100
AcDbLine
 10
-4621.512599192278
 20
-4407.754120275984
 30
0.0
 11
-4627.567428284775
 21
-4407.073892291543
 31
0.0
  0
LINE
  5
145
100
AcDbEntity
  8
WHITE
  6
CONTINUOUS
 62
           1
100
AcDbLine
 10
-4615.96244759187
 20
-4406.365068659326
 30
0.0
 11
-4610.64916958968
 21
-4406.961987305747
 31
0.0
  0
LINE
  5
146
100
AcDbEntity
  8
WHITE
  6
CONTINUOUS
 62
           1
100
AcDbLine
 10
-4610.64916958968
 20
-4406.961987305747
 30
0.0
 11
-4610.119905945702
 21
-4407.6252218006
 31
0.0
  0
LINE
  5
147
100
AcDbEntity
  8
WHITE
  6
CONTINUOUS
 62
           1
100
AcDbLine
 10
-4622.694100025979
 20
-4406.212577683889
 30
0.0
 11
-4628.007378028169
 21
-4405.615659037469
 31
0.0
  0
LINE
  5
148
100
AcDbEntity
  8
WHITE
  6
CONTINUOUS
 62
           1
100
AcDbLine
 10
-4628.007378028169
 20
-4405.615659037469
 30
0.0
 11
-4627.344143533315
 21
-4405.08639539349
 31
0.0
  0
LINE
  5
149
100
AcDbEntity
  8
WHITE
  6
CONTINUOUS
 62
           1
100
AcDbLine
 10
-4627.567428284775
 20
-4407.073892291543
 30
0.0
 11
-4628.096691928753
 21
-4406.41065779669
 31
0.0
  0
LINE
  5
14A
100
AcDbEntity
  8
WHITE
  6
CONTINUOUS
 62
           1
100
AcDbLine
 10
-4616.264048938783
 20
-4407.739992575381
 30
0.0
 11
-4610.209219846286
 21
-4408.420220559822
 31
0.0
  0
LINE
  5
14B
100
AcDbEntity
  8
WHITE
  6
CONTINUOUS
 62
           1
100
AcDbLine
 10
-4610.209219846286
 20
-4408.420220559822
 30
0.0
 11
-4610.872454341139
 21
-4408.949484203799
 31
0.0
  0
LINE
  5
14C
100
AcDbEntity
  8
WHITE
  6
CONTINUOUS
 62
           1
100
AcDbLine
 10
-4610.872454341139
 20
-4408.949484203799
 30
0.0
 11
-4610.343190697162
 21
-4409.612718698652
 31
0.0
  0
LINE
  5
14D
100
AcDbEntity
  8
WHITE
  6
CONTINUOUS
 62
           1
100
AcDbLine
 10
-4622.17583368713
 20
-4408.283383919962
 30
0.0
 11
-4628.230662779628
 21
-4407.60315593552
 31
0.0
  0
LINE
  5
14E
100
AcDbEntity
  8
WHITE
  6
CONTINUOUS
 62
           1
100
AcDbLine
 10
-4628.230662779628
 20
-4407.60315593552
 30
0.0
 11
-4627.567428284775
 21
-4407.073892291543
 31
0.0
  0
LINE
  5
14F
100
AcDbEntity
  8
WHITE
  6
CONTINUOUS
 62
           1
100
AcDbLine
 10
-4627.790713036234
 20
-4409.061389189594
 30
0.0
 11
-4628.319976680212
 21
-4408.398154694742
 31
0.0
  0
LINE
  5
150
100
AcDbEntity
  8
WHITE
  6
CONTINUOUS
 62
           1
100
AcDbLine
 10
-4628.319976680212
 20
-4408.398154694742
 30
0.0
 11
-4610.432504597746
 21
-4410.407717457874
 31
0.0
  0
LINE
  5
151
100
AcDbEntity
  8
WHITE
  6
CONTINUOUS
 62
           1
100
AcDbLine
 10
-4610.432504597746
 20
-4410.407717457874
 30
0.0
 11
-4611.095739092598
 21
-4410.936981101851
 31
0.0
  0
LINE
  5
152
100
AcDbEntity
  8
WHITE
  6
CONTINUOUS
 62
           1
100
AcDbLine
 10
-4611.095739092598
 20
-4410.936981101851
 30
0.0
 11
-4610.566475448621
 21
-4411.600215596704
 31
0.0
  0
LINE
  5
153
100
AcDbEntity
  8
WHITE
  6
CONTINUOUS
 62
           1
100
AcDbLine
 10
-4610.566475448621
 20
-4411.600215596704
 30
0.0
 11
-4628.453947531088
 21
-4409.590652833572
 31
0.0
  0
LINE
  5
154
100
AcDbEntity
  8
WHITE
  6
CONTINUOUS
 62
           1
100
AcDbLine
 10
-4628.453947531088
 20
-4409.590652833572
 30
0.0
 11
-4627.790713036234
 21
-4409.061389189594
 31
0.0
  0
LINE
  5
155
100
AcDbEntity
  8
WHITE
  6
CONTINUOUS
 62
           1
100
AcDbLine
 10
-4628.013997787693
 20
-4411.048886087646
 30
0.0
 11
-4611.319023844057
 21
-4412.924477999903
 31
0.0
  0
LINE
  5
156
100
AcDbEntity
  8
WHITE
  6
CONTINUOUS
 62
           1
100
AcDbLine
 10
-4628.013997787693
 20
-4411.048886087646
 30
0.0
 11
-4628.543261431672
 21
-4410.385651592794
 31
0.0
  0
LINE
  5
157
100
AcDbEntity
  8
WHITE
  6
CONTINUOUS
 62
           1
100
AcDbLine
 10
-4628.543261431672
 20
-4410.385651592794
 30
0.0
 11
-4610.655789349205
 21
-4412.395214355926
 31
0.0
  0
LINE
  5
158
100
AcDbEntity
  8
WHITE
  6
CONTINUOUS
 62
           1
100
AcDbLine
 10
-4610.655789349205
 20
-4412.395214355926
 30
0.0
 11
-4611.319023844057
 21
-4412.924477999903
 31
0.0
  0
LINE
  5
159
100
AcDbEntity
  8
WHITE
  6
CONTINUOUS
 62
           1
100
AcDbLine
 10
-4611.319023844057
 20
-4412.924477999903
 30
0.0
 11
-4610.789760200079
 21
-4413.587712494757
 31
0.0
  0
LINE
  5
15A
100
AcDbEntity
  8
WHITE
  6
CONTINUOUS
 62
           1
100
AcDbLine
 10
-4610.789760200079
 20
-4413.587712494757
 30
0.0
 11
-4628.677232282547
 21
-4411.578149731624
 31
0.0
  0
LINE
  5
15B
100
AcDbEntity
  8
WHITE
  6
CONTINUOUS
 62
           1
100
AcDbLine
 10
-4628.677232282547
 20
-4411.578149731624
 30
0.0
 11
-4628.013997787693
 21
-4411.048886087646
 31
0.0
  0
LINE
  5
15C
100
AcDbEntity
  8
WHITE
  6
CONTINUOUS
 62
           1
100
AcDbLine
 10
-4611.542308595516
 20
-4414.911974897955
 30
0.0
 11
-4628.237282539152
 21
-4413.036382985698
 31
0.0
  0
LINE
  5
15D
100
AcDbEntity
  8
WHITE
  6
CONTINUOUS
 62
           1
100
AcDbLine
 10
-4628.766546183131
 20
-4412.373148490846
 30
0.0
 11
-4628.237282539152
 21
-4413.036382985698
 31
0.0
  0
LINE
  5
15E
100
AcDbEntity
  8
WHITE
  6
CONTINUOUS
 62
           1
100
AcDbLine
 10
-4628.237282539152
 20
-4413.036382985698
 30
0.0
 11
-4628.900517034006
 21
-4413.565646629675
 31
0.0
  0
LINE
  5
15F
100
AcDbEntity
  8
WHITE
  6
CONTINUOUS
 62
           1
100
AcDbLine
 10
-4628.900517034006
 20
-4413.565646629675
 30
0.0
 11
-4611.013044951539
 21
-4415.575209392808
 31
0.0
  0
LINE
  5
160
100
AcDbEntity
  8
WHITE
  6
CONTINUOUS
 62
           1
100
AcDbLine
 10
-4611.013044951539
 20
-4415.575209392808
 30
0.0
 11
-4611.542308595516
 21
-4414.911974897955
 31
0.0
  0
LINE
  5
161
100
AcDbEntity
  8
WHITE
  6
CONTINUOUS
 62
           1
100
AcDbLine
 10
-4611.542308595516
 20
-4414.911974897955
 30
0.0
 11
-4610.879074100663
 21
-4414.382711253978
 31
0.0
  0
LINE
  5
162
100
AcDbEntity
  8
WHITE
  6
CONTINUOUS
 62
           1
100
AcDbLine
 10
-4610.879074100663
 20
-4414.382711253978
 30
0.0
 11
-4628.766546183131
 21
-4412.373148490846
 31
0.0
  0
LINE
  5
163
100
AcDbEntity
  8
WHITE
  6
CONTINUOUS
 62
          15
100
AcDbLine
 10
-4655.068321613518
 20
-4415.484409231279
 30
0.0
 11
-4654.170879969042
 21
-4414.26759368739
 31
0.0
  0
LINE
  5
164
100
AcDbEntity
  8
WHITE
  6
CONTINUOUS
 62
          15
100
AcDbLine
 10
-4649.953394721397
 20
-4414.741405820745
 30
0.0
 11
-4654.170879969042
 21
-4414.26759368739
 31
0.0
  0
LINE
  5
165
100
AcDbEntity
  8
WHITE
  6
CONTINUOUS
 62
          15
100
AcDbLine
 10
-4654.170879969042
 20
-4414.26759368739
 30
0.0
 11
-4654.629767672541
 21
-4411.580763363733
 31
0.0
  0
LINE
  5
166
100
AcDbEntity
  8
WHITE
  6
CONTINUOUS
 62
          15
100
AcDbLine
 10
-4654.183198169623
 20
-4407.60576956763
 30
0.0
 11
-4653.139571878155
 21
-4405.08773873456
 31
0.0
  0
LINE
  5
167
100
AcDbEntity
  8
WHITE
  6
CONTINUOUS
 62
          15
100
AcDbLine
 10
-4648.92208663051
 20
-4405.561550867915
 30
0.0
 11
-4653.139571878155
 21
-4405.08773873456
 31
0.0
  0
LINE
  5
168
100
AcDbEntity
  8
WHITE
  6
CONTINUOUS
 62
          15
100
AcDbLine
 10
-4653.139571878155
 20
-4405.08773873456
 30
0.0
 11
-4653.744644228646
 21
-4403.702123700086
 31
0.0
  0
LINE
  5
169
100
AcDbEntity
  8
WHITE
  6
CONTINUOUS
 62
          15
100
AcDbLine
 10
-4654.686534014487
 20
-4418.857521163805
 30
0.0
 11
-4655.291606364977
 21
-4417.471906129331
 31
0.0
  0
LINE
  5
16A
100
AcDbEntity
  8
WHITE
  6
CONTINUOUS
 62
          15
100
AcDbLine
 10
-4648.406432585065
 20
-4400.971623391499
 30
0.0
 11
-4652.623917832712
 21
-4400.497811258143
 31
0.0
  0
LINE
  5
16B
100
AcDbEntity
  8
WHITE
  6
CONTINUOUS
 62
          15
100
AcDbLine
 10
-4653.521359477187
 20
-4401.714626802034
 30
0.0
 11
-4652.623917832712
 21
-4400.497811258143
 31
0.0
  0
LINE
  5
16C
100
AcDbEntity
  8
WHITE
  6
CONTINUOUS
 62
          15
100
AcDbLine
 10
-4650.46904876684
 20
-4419.331333297161
 30
0.0
 11
-4650.322864119848
 21
-4418.030118007979
 31
0.0
  0
LINE
  5
16D
100
AcDbEntity
  8
WHITE
  6
CONTINUOUS
 62
          15
100
AcDbLine
 10
-4655.068321613518
 20
-4415.484409231279
 30
0.0
 11
-4655.291606364977
 21
-4417.471906129331
 31
0.0
  0
LINE
  5
16E
100
AcDbEntity
  8
WHITE
  6
CONTINUOUS
 62
          15
100
AcDbLine
 10
-4650.322864119848
 20
-4418.030118007979
 30
0.0
 11
-4655.291606364977
 21
-4417.471906129331
 31
0.0
  0
LINE
  5
16F
100
AcDbEntity
  8
WHITE
  6
CONTINUOUS
 62
          15
100
AcDbLine
 10
-4650.322864119848
 20
-4418.030118007979
 30
0.0
 11
-4650.099579368389
 21
-4416.042621109927
 31
0.0
  0
LINE
  5
170
100
AcDbEntity
  8
WHITE
  6
CONTINUOUS
 62
          15
100
AcDbLine
 10
-4654.629767672541
 20
-4411.580763363733
 30
0.0
 11
-4655.068321613518
 21
-4415.484409231279
 31
0.0
  0
LINE
  5
171
100
AcDbEntity
  8
WHITE
  6
CONTINUOUS
 62
          15
100
AcDbLine
 10
-4650.099579368389
 20
-4416.042621109927
 30
0.0
 11
-4655.068321613518
 21
-4415.484409231279
 31
0.0
  0
LINE
  5
172
100
AcDbEntity
  8
WHITE
  6
CONTINUOUS
 62
          15
100
AcDbLine
 10
-4650.099579368389
 20
-4416.042621109927
 30
0.0
 11
-4649.953394721397
 21
-4414.741405820745
 31
0.0
  0
LINE
  5
173
100
AcDbEntity
  8
WHITE
  6
CONTINUOUS
 62
          15
100
AcDbLine
 10
-4649.953394721397
 20
-4414.741405820745
 30
0.0
 11
-4649.661025427412
 21
-4412.138975242381
 31
0.0
  0
LINE
  5
174
100
AcDbEntity
  8
WHITE
  6
CONTINUOUS
 62
          15
100
AcDbLine
 10
-4654.183198169623
 20
-4407.60576956763
 30
0.0
 11
-4654.629767672541
 21
-4411.580763363733
 31
0.0
  0
LINE
  5
175
100
AcDbEntity
  8
WHITE
  6
CONTINUOUS
 62
          15
100
AcDbLine
 10
-4649.661025427412
 20
-4412.138975242381
 30
0.0
 11
-4654.629767672541
 21
-4411.580763363733
 31
0.0
  0
LINE
  5
176
100
AcDbEntity
  8
WHITE
  6
CONTINUOUS
 62
          15
100
AcDbLine
 10
-4649.661025427412
 20
-4412.138975242381
 30
0.0
 11
-4649.214455924493
 21
-4408.163981446278
 31
0.0
  0
LINE
  5
177
100
AcDbEntity
  8
WHITE
  6
CONTINUOUS
 62
          15
100
AcDbLine
 10
-4653.744644228646
 20
-4403.702123700086
 30
0.0
 11
-4654.183198169623
 21
-4407.60576956763
 31
0.0
  0
LINE
  5
178
100
AcDbEntity
  8
WHITE
  6
CONTINUOUS
 62
          15
100
AcDbLine
 10
-4649.214455924493
 20
-4408.163981446278
 30
0.0
 11
-4654.183198169623
 21
-4407.60576956763
 31
0.0
  0
LINE
  5
179
100
AcDbEntity
  8
WHITE
  6
CONTINUOUS
 62
          15
100
AcDbLine
 10
-4649.214455924493
 20
-4408.163981446278
 30
0.0
 11
-4648.92208663051
 21
-4405.561550867915
 31
0.0
  0
LINE
  5
17A
100
AcDbEntity
  8
WHITE
  6
CONTINUOUS
 62
          15
100
AcDbLine
 10
-4648.92208663051
 20
-4405.561550867915
 30
0.0
 11
-4648.775901983518
 21
-4404.260335578734
 31
0.0
  0
LINE
  5
17B
100
AcDbEntity
  8
WHITE
  6
CONTINUOUS
 62
          15
100
AcDbLine
 10
-4653.521359477187
 20
-4401.714626802034
 30
0.0
 11
-4653.744644228646
 21
-4403.702123700086
 31
0.0
  0
LINE
  5
17C
100
AcDbEntity
  8
WHITE
  6
CONTINUOUS
 62
          15
100
AcDbLine
 10
-4648.775901983518
 20
-4404.260335578734
 30
0.0
 11
-4653.744644228646
 21
-4403.702123700086
 31
0.0
  0
LINE
  5
17D
100
AcDbEntity
  8
WHITE
  6
CONTINUOUS
 62
          15
100
AcDbLine
 10
-4648.775901983518
 20
-4404.260335578734
 30
0.0
 11
-4648.552617232058
 21
-4402.272838680682
 31
0.0
  0
LINE
  5
17E
100
AcDbEntity
  8
WHITE
  6
CONTINUOUS
 62
          15
100
AcDbLine
 10
-4653.521359477187
 20
-4401.714626802034
 30
0.0
 11
-4648.552617232058
 21
-4402.272838680682
 31
0.0
  0
LINE
  5
17F
100
AcDbEntity
  8
WHITE
  6
CONTINUOUS
 62
          15
100
AcDbLine
 10
-4654.686534014487
 20
-4418.857521163805
 30
0.0
 11
-4650.46904876684
 21
-4419.331333297161
 31
0.0
  0
LINE
  5
180
100
AcDbEntity
  8
WHITE
  6
CONTINUOUS
 62
          15
100
AcDbLine
 10
-4648.552617232058
 20
-4402.272838680682
 30
0.0
 11
-4648.406432585065
 21
-4400.971623391499
 31
0.0
  0
LINE
  5
181
100
AcDbEntity
  8
WHITE
  6
CONTINUOUS
 62
          15
100
AcDbLine
 10
-4599.524125353737
 20
-4376.010518992463
 30
0.0
 11
-4598.938002881157
 21
-4370.793339635076
 31
0.0
  0
LINE
  5
182
100
AcDbEntity
  8
WHITE
  6
CONTINUOUS
 62
          15
100
AcDbLine
 10
-4601.40549634233
 20
-4379.321175000458
 30
0.0
 11
-4601.796244657383
 21
-4382.79929457205
 31
0.0
  0
LINE
  5
183
100
AcDbEntity
  8
WHITE
  6
CONTINUOUS
 62
          15
100
AcDbLine
 10
-4601.796244657383
 20
-4382.79929457205
 30
0.0
 11
-4601.044982103142
 21
-4382.883694941615
 31
0.0
  0
LINE
  5
184
100
AcDbEntity
  8
WHITE
  6
CONTINUOUS
 62
          15
100
AcDbLine
 10
-4600.623999712222
 20
-4372.364935857277
 30
0.0
 11
-4601.40549634233
 21
-4379.321175000458
 31
0.0
  0
LINE
  5
185
100
AcDbEntity
  8
WHITE
  6
CONTINUOUS
 62
          15
100
AcDbLine
 10
-4601.40549634233
 20
-4379.321175000458
 30
0.0
 11
-4600.654233788087
 21
-4379.405575370023
 31
0.0
  0
LINE
  5
186
100
AcDbEntity
  8
WHITE
  6
CONTINUOUS
 62
          15
100
AcDbLine
 10
-4600.233251397169
 20
-4368.886816285687
 30
0.0
 11
-4600.623999712222
 21
-4372.364935857277
 31
0.0
  0
LINE
  5
187
100
AcDbEntity
  8
WHITE
  6
CONTINUOUS
 62
          15
100
AcDbLine
 10
-4600.623999712222
 20
-4372.364935857277
 30
0.0
 11
-4599.872737157981
 21
-4372.449336226841
 31
0.0
  0
LINE
  5
188
100
AcDbEntity
  8
WHITE
  6
CONTINUOUS
 62
          15
100
AcDbLine
 10
-4599.619218330656
 20
-4363.421199816044
 30
0.0
 11
-4600.233251397169
 21
-4368.886816285687
 31
0.0
  0
LINE
  5
189
100
AcDbEntity
  8
WHITE
  6
CONTINUOUS
 62
          15
100
AcDbLine
 10
-4600.233251397169
 20
-4368.886816285687
 30
0.0
 11
-4599.481988842927
 21
-4368.971216655252
 31
0.0
  0
LINE
  5
18A
100
AcDbEntity
  8
WHITE
  6
CONTINUOUS
 62
          15
100
AcDbLine
 10
-4645.001579799767
 20
-4404.612112254189
 30
0.0
 11
-4646.341288308522
 21
-4416.537093642501
 31
0.0
  0
LINE
  5
18B
100
AcDbEntity
  8
WHITE
  6
CONTINUOUS
 62
           2
100
AcDbLine
 10
-4646.341288308522
 20
-4416.537093642501
 30
0.0
 11
-4650.10759493033
 21
-4416.113969038486
 31
0.0
  0
LINE
  5
18C
100
AcDbEntity
  8
WHITE
  6
CONTINUOUS
 62
          15
100
AcDbLine
 10
-4644.889937424037
 20
-4403.618363805163
 30
0.0
 11
-4645.001579799767
 21
-4404.612112254189
 31
0.0
  0
LINE
  5
18D
100
AcDbEntity
  8
WHITE
  6
CONTINUOUS
 62
           2
100
AcDbLine
 10
-4645.001579799767
 20
-4404.612112254189
 30
0.0
 11
-4648.767886421575
 21
-4404.188987650174
 31
0.0
  0
LINE
  5
18E
100
AcDbEntity
  8
WHITE
  6
CONTINUOUS
 62
          15
100
AcDbLine
 10
-4646.341288308522
 20
-4416.537093642501
 30
0.0
 11
-4646.452930684251
 21
-4417.530842091526
 31
0.0
  0
LINE
  5
18F
100
AcDbEntity
  8
WHITE
  6
CONTINUOUS
 62
          15
100
AcDbLine
 10
-4650.21923730606
 20
-4417.107717487512
 30
0.0
 11
-4646.452930684251
 21
-4417.530842091526
 31
0.0
  0
LINE
  5
190
100
AcDbEntity
  8
WHITE
  6
CONTINUOUS
 62
          15
100
AcDbLine
 10
-4644.834116236172
 20
-4403.12148958065
 30
0.0
 11
-4644.889937424037
 21
-4403.618363805163
 31
0.0
  0
LINE
  5
191
100
AcDbEntity
  8
WHITE
  6
CONTINUOUS
 62
          15
100
AcDbLine
 10
-4648.656244045846
 20
-4403.195239201148
 30
0.0
 11
-4644.889937424037
 21
-4403.618363805163
 31
0.0
  0
LINE
  5
192
100
AcDbEntity
  8
WHITE
  6
CONTINUOUS
 62
          15
100
AcDbLine
 10
-4608.193615396753
 20
-4421.829073557115
 30
0.0
 11
-4627.110509892525
 21
-4419.703860637283
 31
0.0
  0
LINE
  5
193
100
AcDbEntity
  8
WHITE
  6
CONTINUOUS
 62
          15
100
AcDbLine
 10
-4627.110509892525
 20
-4419.703860637283
 30
0.0
 11
-4634.7512340474
 21
-4420.858047498334
 31
0.0
  0
LINE
  5
194
100
AcDbEntity
  8
WHITE
  6
CONTINUOUS
 62
          15
100
AcDbLine
 10
-4602.968489602543
 20
-4393.233653286821
 30
0.0
 11
-4603.465363827056
 21
-4393.177832098957
 31
0.0
  0
LINE
  5
195
100
AcDbEntity
  8
WHITE
  6
CONTINUOUS
 62
          15
100
AcDbLine
 10
-4606.535529159619
 20
-4420.50591444717
 30
0.0
 11
-4603.465363827056
 21
-4393.177832098957
 31
0.0
  0
LINE
  5
196
100
AcDbEntity
  8
WHITE
  6
CONTINUOUS
 62
          15
100
AcDbLine
 10
-4633.037326622402
 20
-4419.038014163876
 30
0.0
 11
-4627.110509892525
 21
-4419.703860637283
 31
0.0
  0
LINE
  5
197
100
AcDbEntity
  8
WHITE
  6
CONTINUOUS
 62
          15
100
AcDbLine
 10
-4603.465363827056
 20
-4393.177832098957
 30
0.0
 11
-4631.290320399783
 21
-4390.051845578529
 31
0.0
  0
LINE
  5
198
100
AcDbEntity
  8
WHITE
  6
CONTINUOUS
 62
          15
100
AcDbLine
 10
-4634.360485732346
 20
-4417.379927926742
 30
0.0
 11
-4631.290320399783
 21
-4390.051845578529
 31
0.0
  0
LINE
  5
199
100
AcDbEntity
  8
WHITE
  6
CONTINUOUS
 62
          15
100
AcDbLine
 10
-4645.185592762172
 20
-4419.685802553173
 30
0.0
 11
-4634.7512340474
 21
-4420.858047498334
 31
0.0
  0
LINE
  5
19A
100
AcDbEntity
  8
WHITE
  6
CONTINUOUS
 62
          15
100
AcDbLine
 10
-4646.452930684251
 20
-4417.530842091526
 30
0.0
 11
-4646.508751872116
 21
-4418.027716316039
 31
0.0
  0
LINE
  5
19B
100
AcDbEntity
  8
WHITE
  6
CONTINUOUS
 62
          15
100
AcDbLine
 10
-4643.176029999039
 20
-4401.798330470705
 30
0.0
 11
-4632.741671284267
 21
-4402.970575415866
 31
0.0
  0
LINE
  5
19C
100
AcDbEntity
  8
WHITE
  6
CONTINUOUS
 62
          15
100
AcDbLine
 10
-4602.856847226813
 20
-4392.239904837796
 30
0.0
 11
-4602.968489602543
 21
-4393.233653286821
 31
0.0
  0
LINE
  5
19D
100
AcDbEntity
  8
WHITE
  6
CONTINUOUS
 62
          15
100
AcDbLine
 10
-4631.290320399783
 20
-4390.051845578529
 30
0.0
 11
-4631.787194624296
 21
-4389.996024390664
 31
0.0
  0
LINE
  5
19E
100
AcDbEntity
  8
WHITE
  6
CONTINUOUS
 62
          15
100
AcDbLine
 10
-4631.787194624296
 20
-4389.996024390664
 30
0.0
 11
-4631.675552248566
 21
-4389.002275941638
 31
0.0
  0
LINE
  5
19F
100
AcDbEntity
  8
WHITE
  6
CONTINUOUS
 62
          15
100
AcDbLine
 10
-4602.856847226813
 20
-4392.239904837796
 30
0.0
 11
-4631.675552248566
 21
-4389.002275941638
 31
0.0
  0
LINE
  5
1A0
100
AcDbEntity
  8
WHITE
  6
CONTINUOUS
 62
           7
100
AcDbLine
 10
-4628.76660742286
 20
-4363.109245719414
 30
0.0
 11
-4628.828671667461
 21
-4363.661690491477
 31
0.0
  0
LINE
  5
1A1
100
AcDbEntity
  8
WHITE
  6
CONTINUOUS
 62
          15
100
AcDbLine
 10
-4626.625324433827
 20
-4361.338451776784
 30
0.0
 11
-4599.619218330656
 21
-4363.421199816044
 31
0.0
  0
LINE
  5
1A2
100
AcDbEntity
  8
WHITE
  6
CONTINUOUS
 62
           7
100
AcDbLine
 10
-4635.081301233481
 20
-4374.531585776627
 30
0.0
 11
-4635.025480045617
 21
-4374.034711552115
 31
0.0
  0
LINE
  5
1A3
100
AcDbEntity
  8
WHITE
  6
CONTINUOUS
 62
           1
100
AcDbLine
 10
-4632.552685155464
 20
-4374.31251696303
 30
0.0
 11
-4635.025480045617
 21
-4374.034711552115
 31
0.0
  0
LINE
  5
1A4
100
AcDbEntity
  8
WHITE
  6
CONTINUOUS
 62
           7
100
AcDbLine
 10
-4635.025480045617
 20
-4374.034711552115
 30
0.0
 11
-4634.578910542698
 21
-4370.059717756011
 31
0.0
  0
LINE
  5
1A5
100
AcDbEntity
  8
WHITE
  6
CONTINUOUS
 62
           1
100
AcDbLine
 10
-4632.106115652546
 20
-4370.337523166927
 30
0.0
 11
-4634.578910542698
 21
-4370.059717756011
 31
0.0
  0
LINE
  5
1A6
100
AcDbEntity
  8
WHITE
  6
CONTINUOUS
 62
           7
100
AcDbLine
 10
-4635.137122421346
 20
-4375.028460001141
 30
0.0
 11
-4635.081301233481
 21
-4374.531585776627
 31
0.0
  0
LINE
  5
1A7
100
AcDbEntity
  8
WHITE
  6
CONTINUOUS
 62
           1
100
AcDbLine
 10
-4632.608506343328
 20
-4374.809391187543
 30
0.0
 11
-4635.081301233481
 21
-4374.531585776627
 31
0.0
  0
LINE
  5
1A8
100
AcDbEntity
  8
WHITE
  6
CONTINUOUS
 62
           7
100
AcDbLine
 10
-4634.578910542698
 20
-4370.059717756011
 30
0.0
 11
-4634.523089354833
 21
-4369.562843531498
 31
0.0
  0
LINE
  5
1A9
100
AcDbEntity
  8
WHITE
  6
CONTINUOUS
 62
           1
100
AcDbLine
 10
-4632.050294464681
 20
-4369.840648942413
 30
0.0
 11
-4634.523089354833
 21
-4369.562843531498
 31
0.0
  0
LINE
  5
1AA
100
AcDbEntity
  8
WHITE
  6
CONTINUOUS
 62
           7
100
AcDbLine
 10
-4633.473519717943
 20
-4369.177611682715
 30
0.0
 11
-4634.14337397232
 21
-4375.14010237687
 31
0.0
  0
LINE
  5
1AB
100
AcDbEntity
  8
WHITE
  6
CONTINUOUS
 62
           2
100
AcDbLine
 10
-4634.14337397232
 20
-4375.14010237687
 30
0.0
 11
-4635.137122421346
 21
-4375.028460001141
 31
0.0
  0
LINE
  5
1AC
100
AcDbEntity
  8
WHITE
  6
CONTINUOUS
 62
           7
100
AcDbLine
 10
-4633.361877342213
 20
-4368.183863233689
 30
0.0
 11
-4633.473519717943
 21
-4369.177611682715
 31
0.0
  0
LINE
  5
1AD
100
AcDbEntity
  8
WHITE
  6
CONTINUOUS
 62
           2
100
AcDbLine
 10
-4633.473519717943
 20
-4369.177611682715
 30
0.0
 11
-4634.467268166969
 21
-4369.065969306985
 31
0.0
  0
LINE
  5
1AE
100
AcDbEntity
  8
WHITE
  6
CONTINUOUS
 62
           7
100
AcDbLine
 10
-4634.14337397232
 20
-4375.14010237687
 30
0.0
 11
-4634.25501634805
 21
-4376.133850825896
 31
0.0
  0
LINE
  5
1AF
100
AcDbEntity
  8
WHITE
  6
CONTINUOUS
 62
           7
100
AcDbLine
 10
-4634.25501634805
 20
-4376.133850825896
 30
0.0
 11
-4635.137122421346
 21
-4375.028460001141
 31
0.0
  0
LINE
  5
1B0
100
AcDbEntity
  8
WHITE
  6
CONTINUOUS
 62
           7
100
AcDbLine
 10
-4634.523089354833
 20
-4369.562843531498
 30
0.0
 11
-4634.467268166969
 21
-4369.065969306985
 31
0.0
  0
LINE
  5
1B1
100
AcDbEntity
  8
WHITE
  6
CONTINUOUS
 62
           7
100
AcDbLine
 10
-4632.803665463565
 20
-4363.215120988559
 30
0.0
 11
-4633.361877342213
 21
-4368.183863233689
 31
0.0
  0
LINE
  5
1B2
100
AcDbEntity
  8
WHITE
  6
CONTINUOUS
 62
           7
100
AcDbLine
 10
-4634.467268166969
 20
-4369.065969306985
 30
0.0
 11
-4633.361877342213
 21
-4368.183863233689
 31
0.0
  0
LINE
  5
1B3
100
AcDbEntity
  8
WHITE
  6
CONTINUOUS
 62
          15
100
AcDbLine
 10
-4601.796244657383
 20
-4382.79929457205
 30
0.0
 11
-4602.856847226813
 21
-4392.239904837796
 31
0.0
  0
LINE
  5
1B4
100
AcDbEntity
  8
WHITE
  6
CONTINUOUS
 62
          15
100
AcDbLine
 10
-4631.675552248566
 20
-4389.002275941638
 30
0.0
 11
-4630.838234430594
 21
-4381.549162573944
 31
0.0
  0
LINE
  5
1B5
100
AcDbEntity
  8
WHITE
  6
CONTINUOUS
 62
           7
100
AcDbLine
 10
-4631.94362525535
 20
-4382.43126864724
 30
0.0
 11
-4629.710777740758
 21
-4362.556299666722
 31
0.0
  0
LINE
  5
1B6
100
AcDbEntity
  8
WHITE
  6
CONTINUOUS
 62
           7
100
AcDbLine
 10
-4633.931122153401
 20
-4382.207983895782
 30
0.0
 11
-4631.698274638809
 21
-4362.333014915263
 31
0.0
  0
LINE
  5
1B7
100
AcDbEntity
  8
WHITE
  6
CONTINUOUS
 62
           7
100
AcDbLine
 10
-4633.931122153401
 20
-4382.207983895782
 30
0.0
 11
-4634.813228226698
 21
-4381.102593071026
 31
0.0
  0
LINE
  5
1B8
100
AcDbEntity
  8
WHITE
  6
CONTINUOUS
 62
           7
100
AcDbLine
 10
-4630.838234430594
 20
-4381.549162573944
 30
0.0
 11
-4631.94362525535
 21
-4382.43126864724
 31
0.0
  0
LINE
  5
1B9
100
AcDbEntity
  8
WHITE
  6
CONTINUOUS
 62
           7
100
AcDbLine
 10
-4629.710777740758
 20
-4362.556299666722
 30
0.0
 11
-4628.828671667461
 21
-4363.661690491477
 31
0.0
  0
LINE
  5
1BA
100
AcDbEntity
  8
WHITE
  6
CONTINUOUS
 62
           7
100
AcDbLine
 10
-4631.698274638809
 20
-4362.333014915263
 30
0.0
 11
-4632.803665463565
 21
-4363.215120988559
 31
0.0
  0
LINE
  5
1BB
100
AcDbEntity
  8
WHITE
  6
CONTINUOUS
 62
           7
100
AcDbLine
 10
-4634.25501634805
 20
-4376.133850825896
 30
0.0
 11
-4634.813228226698
 21
-4381.102593071026
 31
0.0
  0
LINE
  5
1BC
100
AcDbEntity
  8
WHITE
  6
CONTINUOUS
 62
           7
100
AcDbLine
 10
-4633.931122153401
 20
-4382.207983895782
 30
0.0
 11
-4631.94362525535
 21
-4382.43126864724
 31
0.0
  0
LINE
  5
1BD
100
AcDbEntity
  8
WHITE
  6
CONTINUOUS
 62
          15
100
AcDbLine
 10
-4630.838234430594
 20
-4381.549162573944
 30
0.0
 11
-4628.828671667461
 21
-4363.661690491477
 31
0.0
  0
LINE
  5
1BE
100
AcDbEntity
  8
WHITE
  6
CONTINUOUS
 62
           7
100
AcDbLine
 10
-4629.710777740758
 20
-4362.556299666722
 30
0.0
 11
-4631.698274638809
 21
-4362.333014915263
 31
0.0
  0
LINE
  5
1BF
100
AcDbEntity
  8
WHITE
  6
CONTINUOUS
 62
          15
100
AcDbLine
 10
-4583.272673643322
 20
-4361.232484031613
 30
0.0
 11
-4582.77579941881
 21
-4361.288305219478
 31
0.0
  0
LINE
  5
1C0
100
AcDbEntity
  8
WHITE
  6
CONTINUOUS
 62
          15
100
AcDbLine
 10
-4598.74262872363
 20
-4369.054279849282
 30
0.0
 11
-4594.270760703013
 21
-4369.556670540064
 31
0.0
  0
LINE
  5
1C1
100
AcDbEntity
  8
WHITE
  6
CONTINUOUS
 62
           7
100
AcDbLine
 10
-4610.967271316233
 20
-4383.68771068157
 30
0.0
 11
-4619.236362011096
 21
-4382.758722132
 31
0.0
  0
LINE
  5
1C2
100
AcDbEntity
  8
WHITE
  6
CONTINUOUS
 62
           7
100
AcDbLine
 10
-4619.236362011096
 20
-4382.758722132
 30
0.0
 11
-4618.47013425862
 21
-4375.938393957797
 31
0.0
  0
LINE
  5
1C3
100
AcDbEntity
  8
WHITE
  6
CONTINUOUS
 62
           7
100
AcDbLine
 10
-4618.47013425862
 20
-4375.938393957797
 30
0.0
 11
-4610.201043563757
 21
-4376.867382507367
 31
0.0
  0
LINE
  5
1C4
100
AcDbEntity
  8
WHITE
  6
CONTINUOUS
 62
           7
100
AcDbLine
 10
-4610.201043563757
 20
-4376.867382507367
 30
0.0
 11
-4610.967271316233
 21
-4383.68771068157
 31
0.0
  0
ARC
  5
1C5
100
AcDbEntity
  8
WHITE
  6
CONTINUOUS
 62
          15
100
AcDbCircle
 10
-4554.699713153208
 20
-4357.700355943568
 30
0.0
 40
2.25
100
AcDbArc
 50
173.59
 51
353.589999999999
  0
ARC
  5
1C6
100
AcDbEntity
  8
WHITE
  6
CONTINUOUS
 62
          15
100
AcDbCircle
 10
-4554.699713153208
 20
-4357.700355943568
 30
0.0
 40
2.25
100
AcDbArc
 50
353.589999999999
 51
173.59
  0
ARC
  5
1C7
100
AcDbEntity
  8
WHITE
  6
CONTINUOUS
 62
          15
100
AcDbCircle
 10
-4608.074741494829
 20
-4375.049902549862
 30
0.0
 40
8.604407030244
100
AcDbArc
 50
353.589999999999
 51
17.59198532828
  0
ARC
  5
1C8
100
AcDbEntity
  8
WHITE
  6
CONTINUOUS
 62
          15
100
AcDbCircle
 10
-4602.525161906327
 20
-4380.956395541437
 30
0.0
 40
2.430106011614
100
AcDbArc
 50
353.589999999999
 51
39.655478142734
  0
ARC
  5
1C9
100
AcDbEntity
  8
WHITE
  6
CONTINUOUS
 62
          15
100
AcDbCircle
 10
-4601.352916961167
 20
-4370.522036826666
 30
0.0
 40
2.430106011614
100
AcDbArc
 50
353.589999999999
 51
39.655478142734
  0
ARC
  5
1CA
100
AcDbEntity
  8
WHITE
  6
CONTINUOUS
 62
          15
100
AcDbCircle
 10
-4602.525161906327
 20
-4380.956395541437
 30
0.0
 40
2.430106011614
100
AcDbArc
 50
307.524521857251
 51
353.589999999999
  0
ARC
  5
1CB
100
AcDbEntity
  8
WHITE
  6
CONTINUOUS
 62
          15
100
AcDbCircle
 10
-4601.352916961167
 20
-4370.522036826666
 30
0.0
 40
2.430106011613
100
AcDbArc
 50
307.524521857281
 51
353.589999999999
  0
ARC
  5
1CC
100
AcDbEntity
  8
WHITE
  6
CONTINUOUS
 62
          15
100
AcDbCircle
 10
-4608.074741494829
 20
-4375.049902549862
 30
0.0
 40
8.604407030244
100
AcDbArc
 50
329.588014671731
 51
353.589999999999
  0
CIRCLE
  5
1CD
100
AcDbEntity
  8
WHITE
  6
CONTINUOUS
 62
          15
100
AcDbCircle
 10
-4528.359206262587
 20
-4400.911207552223
 30
0.0
 40
2.25
  0
CIRCLE
  5
1CE
100
AcDbEntity
  8
WHITE
  6
CONTINUOUS
 62
          15
100
AcDbCircle
 10
-4549.227923692131
 20
-4398.566717661902
 30
0.0
 40
2.25
  0
CIRCLE
  5
1CF
100
AcDbEntity
  8
WHITE
  6
CONTINUOUS
 62
          15
100
AcDbCircle
 10
-4513.956026743144
 20
-4362.277693348481
 30
0.0
 40
2.25
  0
ARC
  5
1D0
100
AcDbEntity
  8
WHITE
  6
CONTINUOUS
 62
          15
100
AcDbCircle
 10
-4597.002705774572
 20
-4362.649688917272
 30
0.0
 40
0.5
100
AcDbArc
 50
90.739821982564
 51
173.59
  0
ARC
  5
1D1
100
AcDbEntity
  8
WHITE
  6
CONTINUOUS
 62
          15
100
AcDbCircle
 10
-4597.574047117454
 20
-4367.735298835937
 30
0.0
 40
0.5
100
AcDbArc
 50
173.59
 51
256.44017801742
  0
ARC
  5
1D2
100
AcDbEntity
  8
WHITE
  6
CONTINUOUS
 62
          15
100
AcDbCircle
 10
-4596.799920080903
 20
-4360.71906040829
 30
0.0
 40
1.0
100
AcDbArc
 50
83.59
 51
173.59
  0
ARC
  5
1D3
100
AcDbEntity
  8
WHITE
  6
CONTINUOUS
 62
          15
100
AcDbCircle
 10
-4600.260833728519
 20
-4391.525262328094
 30
0.0
 40
1.0
100
AcDbArc
 50
173.59
 51
263.59
  0
ARC
  5
1D4
100
AcDbEntity
  8
WHITE
  6
CONTINUOUS
 62
          15
100
AcDbCircle
 10
-4608.026151833158
 20
-4420.338450883575
 30
0.0
 40
1.500000000001
100
AcDbArc
 50
263.59
 51
353.589999999999
  0
ARC
  5
1D5
100
AcDbEntity
  8
WHITE
  6
CONTINUOUS
 62
          15
100
AcDbCircle
 10
-4632.869863058806
 20
-4417.547391490336
 30
0.0
 40
1.5
100
AcDbArc
 50
173.59
 51
263.59
  0
ARC
  5
1D6
100
AcDbEntity
  8
WHITE
  6
CONTINUOUS
 62
          15
100
AcDbCircle
 10
-4643.343493562634
 20
-4403.288953144244
 30
0.0
 40
1.5
100
AcDbArc
 50
83.59
 51
173.59
  0
ARC
  5
1D7
100
AcDbEntity
  8
WHITE
  6
CONTINUOUS
 62
          15
100
AcDbCircle
 10
-4645.018129198577
 20
-4418.195179879634
 30
0.0
 40
1.5
100
AcDbArc
 50
173.59
 51
263.59
  0
ARC
  5
1D8
100
AcDbEntity
  8
WHITE
  6
CONTINUOUS
 62
          15
100
AcDbCircle
 10
-4626.779110524808
 20
-4363.332530470873
 30
0.0
 40
2.0
100
AcDbArc
 50
85.59
 51
173.59
  0
TEXT
  5
1D9
100
AcDbEntity
  8
WHITE
  6
CONTINUOUS
 62
           7
100
AcDbText
 10
-4617.741004618561
 20
-4381.336560872731
 30
0.0
 40
4.0
  1
14
 50
-6.41
 41
0.955
  7
TXT
100
AcDbText
  0
LINE
  5
1DA
100
AcDbEntity
  8
WHITE
  6
GESTRICHELT
 62
          15
100
AcDbLine
 10
-4843.024102807581
 20
-4330.349636313485
 30
0.0
 11
-4838.625064949705
 21
-4334.743471279664
 31
0.0
  0
ARC
  5
1DB
100
AcDbEntity
  8
WHITE
  6
CONTINUOUS
 62
          15
100
AcDbCircle
 10
-4803.779676451727
 20
-4394.342800010867
 30
0.0
 40
22.5
100
AcDbArc
 50
221.039680999999
 51
75.931192584764
  0
LINE
  5
1DC
100
AcDbEntity
  8
WHITE
  6
GESTRICHELT
 62
          15
100
AcDbLine
 10
-4864.24496502576
 20
-4359.151057765092
 30
0.0
 11
-4867.77284014911
 21
-4355.098373655013
 31
0.0
  0
LINE
  5
1DD
100
AcDbEntity
  8
WHITE
  6
CONTINUOUS
 62
          15
100
AcDbLine
 10
-4820.750415269793
 20
-4409.11588489413
 30
0.0
 11
-4864.24496502576
 21
-4359.151057765092
 31
0.0
  0
ARC
  5
1DE
100
AcDbEntity
  8
WHITE
  6
GESTRICHELT
 62
          15
100
AcDbCircle
 10
-4857.166238431311
 20
-4344.491771937215
 30
0.0
 40
15.0
100
AcDbArc
 50
135.0
 51
225.0
  0
LINE
  5
1DF
100
AcDbEntity
  8
WHITE
  6
GESTRICHELT
 62
          15
100
AcDbLine
 10
-4867.77284014911
 20
-4333.885170219417
 30
0.0
 11
-4864.237306243177
 21
-4330.349636313485
 31
0.0
  0
ARC
  5
1E0
100
AcDbEntity
  8
WHITE
  6
GESTRICHELT
 62
          15
100
AcDbCircle
 10
-4853.630704525379
 20
-4340.956238031283
 30
0.0
 40
15.0
100
AcDbArc
 50
115.494701449333
 51
135.0
  0
ARC
  5
1E1
100
AcDbEntity
  8
WHITE
  6
CONTINUOUS
 62
          15
100
AcDbCircle
 10
-4853.630704525379
 20
-4340.956238031283
 30
0.0
 40
15.0
100
AcDbArc
 50
51.68529855067
 51
115.494701449333
  0
ARC
  5
1E2
100
AcDbEntity
  8
WHITE
  6
GESTRICHELT
 62
          15
100
AcDbCircle
 10
-4853.630704525379
 20
-4340.956238031283
 30
0.0
 40
15.0
100
AcDbArc
 50
45.0
 51
51.68529855067
  0
CIRCLE
  5
1E3
100
AcDbEntity
  8
WHITE
  6
CONTINUOUS
 62
          15
100
AcDbCircle
 10
-4853.984257915972
 20
-4344.138218546623
 30
0.0
 40
8.25
  0
POLYLINE
  5
1E4
100
AcDbEntity
  8
0
  6
GESTRICHELT
 62
          15
100
AcDb2dPolyline
 66
           1
 10
0.0
 20
0.0
 30
0.0
  0
VERTEX
  5
1E5
100
AcDbEntity
  8
0
  6
GESTRICHELT
 62
          15
100
AcDbVertex
100
AcDb2dVertex
 10
-4838.625064949705
 20
-4334.743471279664
 30
0.0
  0
VERTEX
  5
1E6
100
AcDbEntity
  8
0
  6
GESTRICHELT
 62
          15
100
AcDbVertex
100
AcDb2dVertex
 10
-4825.705681996082
 20
-4363.48074212391
 30
0.0
  0
SEQEND
  5
1E7
100
AcDbEntity
  8
0
  6
GESTRICHELT
 62
          15
  0
POLYLINE
  5
1E8
100
AcDbEntity
  8
0
  6
CONTINUOUS
 62
          15
100
AcDb2dPolyline
 66
           1
 10
0.0
 20
0.0
 30
0.0
  0
VERTEX
  5
1E9
100
AcDbEntity
  8
0
  6
CONTINUOUS
 62
          15
100
AcDbVertex
100
AcDb2dVertex
 10
-4825.705681996082
 20
-4363.48074212391
 30
0.0
  0
VERTEX
  5
1EA
100
AcDbEntity
  8
0
  6
CONTINUOUS
 62
          15
100
AcDbVertex
100
AcDb2dVertex
 10
-4825.160962009561
 20
-4364.692391770267
 30
0.0
  0
VERTEX
  5
1EB
100
AcDbEntity
  8
0
  6
CONTINUOUS
 62
          15
100
AcDbVertex
100
AcDb2dVertex
 10
-4798.310219750938
 20
-4372.517698787775
 30
0.0
  0
SEQEND
  5
1EC
100
AcDbEntity
  8
0
  6
CONTINUOUS
 62
          15
  0
ENDSEC
  0
SECTION
  2
OBJECTS
  0
DICTIONARY
  5
19
100
AcDbDictionary
  3
ACAD_GROUP
350
1A
  3
ACAD_MLINESTYLE
350
1B
  0
DICTIONARY
  5
1A
102
{ACAD_REACTORS
330
19
102
}
100
AcDbDictionary
  0
DICTIONARY
  5
1B
102
{ACAD_REACTORS
330
19
102
}
100
AcDbDictionary
  3
STANDARD
350
1C
  0
MLINESTYLE
  5
1C
102
{ACAD_REACTORS
330
1B
102
}
100
AcDbMlineStyle
  2
STANDARD
 70
           0
  3

 62
           0
 51
90.0
 52
90.0
 71
           2
 49
0.5
 62
         256
  6
BYLAYER
 49
-0.5
 62
         256
  6
BYLAYER
  0
ENDSEC
  0
EOF
