  0
SECTION
  2
HEADER
  9
$ACADVER
  1
AC1012
  9
$DWGCODEPAGE
  3
dos850
  9
$INSBASE
 10
0.0
 20
0.0
 30
0.0
  9
$EXTMIN
 10
-15443.576572685837
 20
-209.243292612544
 30
0.0
  9
$EXTMAX
 10
-15225.523156591229
 20
-4.168765383993
 30
0.0
  9
$LIMMIN
 10
-15443.576572685837
 20
-209.243292612544
  9
$LIMMAX
 10
-15225.523156591229
 20
-4.168765383993
  9
$ORTHOMODE
 70
           0
  9
$REGENMODE
 70
           1
  9
$FILLMODE
 70
           1
  9
$QTEXTMODE
 70
           0
  9
$MIRRTEXT
 70
           1
  9
$DRAGMODE
 70
           2
  9
$LTSCALE
 40
5.0
  9
$OSMODE
 70
           0
  9
$ATTMODE
 70
           1
  9
$TEXTSIZE
 40
0.2
  9
$TRACEWID
 40
0.05
  9
$TEXTSTYLE
  7
TXT
  9
$CLAYER
  8
0
  9
$CELTYPE
  6
CONTINUOUS
  9
$CECOLOR
 62
         256
  9
$CELTSCALE
 40
1.0
  9
$DELOBJ
 70
           1
  9
$DISPSILH
 70
           0
  9
$DIMSCALE
 40
1.0
  9
$DIMASZ
 40
3.5
  9
$DIMEXO
 40
0.0625
  9
$DIMDLI
 40
0.38
  9
$DIMRND
 40
0.0
  9
$DIMDLE
 40
0.0
  9
$DIMEXE
 40
0.18
  9
$DIMTP
 40
0.0
  9
$DIMTM
 40
0.0
  9
$DIMTXT
 40
3.5
  9
$DIMCEN
 40
0.09
  9
$DIMTSZ
 40
0.0
  9
$DIMTOL
 70
           0
  9
$DIMLIM
 70
           0
  9
$DIMTIH
 70
           1
  9
$DIMTOH
 70
           1
  9
$DIMSE1
 70
           0
  9
$DIMSE2
 70
           0
  9
$DIMTAD
 70
           0
  9
$DIMZIN
 70
           0
  9
$DIMBLK
  1

  9
$DIMASO
 70
           1
  9
$DIMSHO
 70
           1
  9
$DIMPOST
  1

  9
$DIMAPOST
  1

  9
$DIMALT
 70
           0
  9
$DIMALTD
 70
           2
  9
$DIMALTF
 40
25.4
  9
$DIMLFAC
 40
1.0
  9
$DIMTOFL
 70
           0
  9
$DIMTVP
 40
0.0
  9
$DIMTIX
 70
           0
  9
$DIMSOXD
 70
           0
  9
$DIMSAH
 70
           0
  9
$DIMBLK1
  1

  9
$DIMBLK2
  1

  9
$DIMSTYLE
  2
STANDARD
  9
$DIMCLRD
 70
           0
  9
$DIMCLRE
 70
           0
  9
$DIMCLRT
 70
           0
  9
$DIMTFAC
 40
1.0
  9
$DIMGAP
 40
0.09
  9
$DIMJUST
 70
           0
  9
$DIMSD1
 70
           0
  9
$DIMSD2
 70
           0
  9
$DIMTOLJ
 70
           1
  9
$DIMTZIN
 70
           0
  9
$DIMALTZ
 70
           0
  9
$DIMALTTZ
 70
           0
  9
$DIMFIT
 70
           3
  9
$DIMUPT
 70
           0
  9
$DIMUNIT
 70
           2
  9
$DIMDEC
 70
           4
  9
$DIMTDEC
 70
           4
  9
$DIMALTU
 70
           2
  9
$DIMALTTD
 70
           2
  9
$DIMTXSTY
  7
TXT
  9
$DIMAUNIT
 70
           0
  9
$LUNITS
 70
           2
  9
$LUPREC
 70
           3
  9
$SKETCHINC
 40
0.1
  9
$FILLETRAD
 40
0.0
  9
$AUNITS
 70
           0
  9
$AUPREC
 70
           3
  9
$MENU
  1
acad
  9
$ELEVATION
 40
0.0
  9
$PELEVATION
 40
0.0
  9
$THICKNESS
 40
0.0
  9
$LIMCHECK
 70
           0
  9
$BLIPMODE
 70
           1
  9
$CHAMFERA
 40
0.0
  9
$CHAMFERB
 40
0.0
  9
$CHAMFERC
 40
0.0
  9
$CHAMFERD
 40
0.0
  9
$SKPOLY
 70
           0
  9
$TDCREATE
 40
0.000000000
  9
$TDUPDATE
 40
0.000000000
  9
$TDINDWG
 40
0.0000000000
  9
$TDUSRTIMER
 40
0.0000000000
  9
$USRTIMER
 70
           1
  9
$ANGBASE
 50
0.0
  9
$ANGDIR
 70
           0
  9
$PDMODE
 70
           2
  9
$PDSIZE
 40
0.5
  9
$PLINEWID
 40
0.0
  9
$COORDS
 70
           0
  9
$SPLFRAME
 70
           0
  9
$SPLINETYPE
 70
           6
  9
$SPLINESEGS
 70
           8
  9
$ATTDIA
 70
           0
  9
$ATTREQ
 70
           1
  9
$HANDLING
 70
           1
  9
$HANDSEED
  5
8B
  9
$SURFTAB1
 70
           6
  9
$SURFTAB2
 70
           6
  9
$SURFTYPE
 70
           6
  9
$SURFU
 70
           6
  9
$SURFV
 70
           6
  9
$UCSNAME
  2

  9
$UCSORG
 10
0.0
 20
0.0
 30
0.0
  9
$UCSXDIR
 10
1.0
 20
0.0
 30
0.0
  9
$UCSYDIR
 10
0.0
 20
1.0
 30
0.0
  9
$PUCSNAME
  2

  9
$PUCSORG
 10
0.0
 20
0.0
 30
0.0
  9
$PUCSXDIR
 10
1.0
 20
0.0
 30
0.0
  9
$PUCSYDIR
 10
0.0
 20
1.0
 30
0.0
  9
$USERI1
 70
           0
  9
$USERI2
 70
           0
  9
$USERI3
 70
           0
  9
$USERI4
 70
           0
  9
$USERI5
 70
           0
  9
$USERR1
 40
0.0
  9
$USERR2
 40
0.0
  9
$USERR3
 40
0.0
  9
$USERR4
 40
0.0
  9
$USERR5
 40
0.0
  9
$WORLDVIEW
 70
           1
  9
$SHADEDGE
 70
           3
  9
$SHADEDIF
 70
          70
  9
$TILEMODE
 70
           1
  9
$MAXACTVP
 70
          16
  9
$PINSBASE
 10
0.0
 20
0.0
 30
0.0
  9
$PLIMCHECK
 70
           0
  9
$PEXTMIN
 10
1.000000000000E+20
 20
1.000000000000E+20
 30
1.000000000000E+20
  9
$PEXTMAX
 10
-1.000000000000E+20
 20
-1.000000000000E+20
 30
-1.000000000000E+20
  9
$PLIMMIN
 10
0.0
 20
0.0
  9
$PLIMMAX
 10
12.0
 20
9.0
  9
$UNITMODE
 70
           0
  9
$VISRETAIN
 70
           0
  9
$PLINEGEN
 70
           1
  9
$PSLTSCALE
 70
           0
  9
$TREEDEPTH
 70
        3020
  9
$PICKSTYLE
 70
           1
  9
$CMLSTYLE
  2
STANDARD
  9
$CMLJUST
 70
           0
  9
$CMLSCALE
 40
1.0
  9
$SAVEIMAGES
 70
           0
  0
ENDSEC
  0
SECTION
  2
CLASSES
  0
CLASS
  1
LWPOLYLINE
  2
AcDbPolyline
  3
"AutoCAD"
 90
        0
280
           0
281
           1
  0
CLASS
  1
IMAGE
  2
AcDbRasterImage
  3
ISM
 90
      127
280
           0
281
           1
  0
CLASS
  1
OLE2FRAME
  2
AcDbOle2Frame
  3
""
 90
        0
280
           0
281
           1
  0
CLASS
  1
HATCH
  2
AcDbHatch
  3
"ACAD_SEDONA"
 90
        0
280
           0
281
           1
  0
CLASS
  1
DICTIONARYVAR
  2
AcDbDictionaryVar
  3
"AutoCAD"
 90
        0
280
           0
281
           0
  0
CLASS
  1
RASTERVARIABLES
  2
AcDbRasterVariables
  3
ISM
 90
        0
280
           0
281
           0
  0
CLASS
  1
IMAGEDEF
  2
AcDbRasterImageDef
  3
ISM
 90
        0
280
           0
281
           0
  0
CLASS
  1
IMAGEDEF_REACTOR
  2
AcDbRasterImageDefReactor
  3
ISM
 90
        1
280
           0
281
           0
  0
CLASS
  1
IDBUFFER
  2
AcDbIdBuffer
  3
"Acad"
 90
        0
280
           0
281
           0
  0
CLASS
  1
SPATIAL_FILTER
  2
AcDbSpatialFilter
  3
"Acad"
 90
        0
280
           0
281
           0
  0
CLASS
  1
XRECORD
  2
AcDbXrecord
  3
"<Built In>"
 90
        0
280
           0
281
           0
  0
ENDSEC
  0
SECTION
  2
TABLES
  0
TABLE
  2
VPORT
  5
7
100
AcDbSymbolTable
 70
           1
  0
VPORT
  5
15
100
AcDbSymbolTableRecord
100
AcDbViewportTableRecord
  2
*ACTIVE
 70
           0
 10
0.0
 20
0.0
 11
1.0
 21
1.0
 12
6.591288
 22
4.579184
 13
0.0
 23
0.0
 14
1.0
 24
1.0
 15
0.0
 25
0.0
 16
0.0
 26
0.0
 36
1.0
 17
0.0
 27
0.0
 37
0.0
 40
9.158369
 41
0.688564
 42
50.0
 43
0.0
 44
0.0
 50
0.0
 51
0.0
 71
           0
 72
         100
 73
           1
 74
           1
 75
           0
 76
           0
 77
           0
 78
           0
  0
ENDTAB
  0
TABLE
  2
LTYPE
  5
4
100
AcDbSymbolTable
 70
           5
  0
LTYPE
  5
11
100
AcDbSymbolTableRecord
100
AcDbLinetypeTableRecord
  2
BYBLOCK
 70
           0
  3

 72
          65
 73
           0
 40
0.0
  0
LTYPE
  5
12
100
AcDbSymbolTableRecord
100
AcDbLinetypeTableRecord
  2
BYLAYER
 70
           0
  3

 72
          65
 73
           0
 40
0.0
  0
LTYPE
  5
13
100
AcDbSymbolTableRecord
100
AcDbLinetypeTableRecord
  2
CONTINUOUS
 70
           0
  3
Solid line
 72
          65
 73
           0
 40
0.0
  0
LTYPE
  5
1D
100
AcDbSymbolTableRecord
100
AcDbLinetypeTableRecord
  2
GESTRICHELT
 70
           0
  3

 72
          65
 73
           2
 40
0.75
 49
0.5
 74
           0
 49
-0.25
 74
           0
  0
LTYPE
  5
1E
100
AcDbSymbolTableRecord
100
AcDbLinetypeTableRecord
  2
STRICHPUNKT
 70
           0
  3

 72
          65
 73
           4
 40
1.0
 49
0.5
 74
           0
 49
-0.25
 74
           0
 49
0.0
 74
           0
 49
-0.25
 74
           0
  0
ENDTAB
  0
TABLE
  2
LAYER
  5
2
100
AcDbSymbolTable
 70
           2
  0
LAYER
  5
14
100
AcDbSymbolTableRecord
100
AcDbLayerTableRecord
  2
0
 70
           0
 62
           7
  6
CONTINUOUS
  0
LAYER
  5
20
100
AcDbSymbolTableRecord
100
AcDbLayerTableRecord
  2
FREI
 70
           0
 62
           7
  6
CONTINUOUS
  0
ENDTAB
  0
TABLE
  2
STYLE
  5
3
100
AcDbSymbolTable
 70
           2
  0
STYLE
  5
17
100
AcDbSymbolTableRecord
100
AcDbTextStyleTableRecord
  2
TXT
 70
           0
 40
3.5
 41
1.0
 50
0.0
 71
           0
 42
3.5
  3
TXT
  4

  0
STYLE
  5
1F
100
AcDbSymbolTableRecord
100
AcDbTextStyleTableRecord
  2
GOTHICG
 70
           0
 40
3.5
 41
1.0
 50
0.0
 71
           0
 42
3.5
  3
GOTHICG
  4

  0
ENDTAB
  0
TABLE
  2
VIEW
  5
5
100
AcDbSymbolTable
 70
           0
  0
ENDTAB
  0
TABLE
  2
UCS
  5
6
100
AcDbSymbolTable
 70
           0
  0
ENDTAB
  0
TABLE
  2
APPID
  5
8
100
AcDbSymbolTable
 70
           2
  0
APPID
  5
16
100
AcDbSymbolTableRecord
100
AcDbRegAppTableRecord
  2
ACAD
 70
           0
  0
APPID
  5
21
100
AcDbSymbolTableRecord
100
AcDbRegAppTableRecord
  2
MegaCADPntStyle
 70
           0
  0
ENDTAB
  0
TABLE
  2
DIMSTYLE
  5
9
100
AcDbSymbolTable
 70
           1
  0
DIMSTYLE
105
18
100
AcDbSymbolTableRecord
100
AcDbDimStyleTableRecord
  2
STANDARD
 70
           0
  3

  4

  5

  6

  7

 40
1.0
 41
0.18
 42
0.0625
 43
0.38
 44
0.18
 45
0.0
 46
0.0
 47
0.0
 48
0.0
140
0.18
141
0.09
142
0.0
143
25.4
144
1.0
145
0.0
146
1.0
147
0.09
 71
           0
 72
           0
 73
           1
 74
           1
 75
           0
 76
           0
 77
           0
 78
           0
170
           0
171
           2
172
           0
173
           0
174
           0
175
           0
176
           0
177
           0
178
           0
270
           2
271
           4
272
           4
273
           2
274
           2
340
17
275
           0
280
           0
281
           0
282
           0
283
           1
284
           0
285
           0
286
           0
287
           0
288
           0
  0
ENDTAB
  0
TABLE
  2
BLOCK_RECORD
  5
1
100
AcDbSymbolTable
 70
           1
  0
BLOCK_RECORD
  5
A
100
AcDbSymbolTableRecord
100
AcDbBlockTableRecord
  2
*MODEL_SPACE
  0
BLOCK_RECORD
  5
B
100
AcDbSymbolTableRecord
100
AcDbBlockTableRecord
  2
*PAPER_SPACE
  0
BLOCK_RECORD
  5
22
100
AcDbSymbolTableRecord
100
AcDbBlockTableRecord
  2
ELIPPSE
  0
ENDTAB
  0
ENDSEC
  0
SECTION
  2
BLOCKS
  0
BLOCK
  5
D
100
AcDbEntity
  8
0
100
AcDbBlockBegin
  2
*MODEL_SPACE
 70
           0
 10
0.0
 20
0.0
 30
0.0
  3
*MODEL_SPACE
  1

  0
ENDBLK
  5
E
100
AcDbEntity
  8
0
100
AcDbBlockEnd
  0
BLOCK
  5
F
100
AcDbEntity
 67
           1
  8
0
100
AcDbBlockBegin
  2
*PAPER_SPACE
 70
           0
 10
0.0
 20
0.0
 30
0.0
  3
*PAPER_SPACE
  1

  0
ENDBLK
  5
10
100
AcDbEntity
 67
           1
  8
0
100
AcDbBlockEnd
  0
BLOCK
  5
86
100
AcDbEntity
  8
0
100
AcDbBlockBegin
  2
ELIPPSE
 70
          64
 10
0.0
 20
0.0
 30
0.0
  3
ELIPPSE
  1

  0
CIRCLE
  5
87
100
AcDbEntity
  8
0
  6
BYBLOCK
 62
           0
100
AcDbCircle
 10
0.0
 20
0.0
 30
0.0
 40
1.0
  0
ENDBLK
  5
88
100
AcDbEntity
  8
0
  6
BYBLOCK
 62
           0
100
AcDbBlockEnd
  0
ENDSEC
  0
SECTION
  2
ENTITIES
  0
LINE
  5
23
100
AcDbEntity
  8
FREI
  6
STRICHPUNKT
 62
          15
100
AcDbLine
 10
-15339.842289794722
 20
-80.070244158412
 30
0.0
 11
-15279.842289794722
 21
-183.993292612544
 31
0.0
  0
LINE
  5
24
100
AcDbEntity
  8
FREI
  6
GESTRICHELT
 62
          15
100
AcDbLine
 10
-15281.529912606571
 20
-80.070244158412
 30
0.0
 11
-15236.108006903609
 21
-158.743292612544
 31
0.0
  0
LINE
  5
25
100
AcDbEntity
  8
FREI
  6
CONTINUOUS
 62
          15
100
AcDbLine
 10
-15339.842289794722
 20
-181.070244158412
 30
0.0
 11
-15323.576572685837
 21
-209.243292612544
 31
0.0
  0
LINE
  5
26
100
AcDbEntity
  8
FREI
  6
GESTRICHELT
 62
          15
100
AcDbLine
 10
-15336.70440047269
 20
-80.070244158412
 30
0.0
 11
-15281.529912606571
 21
-80.070244158412
 31
0.0
  0
LINE
  5
27
100
AcDbEntity
  8
FREI
  6
GESTRICHELT
 62
          15
100
AcDbLine
 10
-15289.342289794722
 20
-50.070244158412
 30
0.0
 11
-15281.529912606571
 21
-80.070244158412
 31
0.0
  0
LINE
  5
28
100
AcDbEntity
  8
FREI
  6
STRICHPUNKT
 62
          15
100
AcDbLine
 10
-15339.842289794722
 20
-50.070244158412
 30
0.0
 11
-15339.842289794722
 21
-80.070244158412
 31
0.0
  0
LINE
  5
29
100
AcDbEntity
  8
FREI
  6
STRICHPUNKT
 62
          15
100
AcDbLine
 10
-15339.842289794722
 20
-80.070244158412
 30
0.0
 11
-15399.842289794722
 21
-183.993292612544
 31
0.0
  0
LINE
  5
2A
100
AcDbEntity
  8
FREI
  6
CONTINUOUS
 62
          15
100
AcDbLine
 10
-15398.154666982875
 20
-80.070244158412
 30
0.0
 11
-15443.576572685837
 21
-158.743292612544
 31
0.0
  0
LINE
  5
2B
100
AcDbEntity
  8
FREI
  6
CONTINUOUS
 62
          15
100
AcDbLine
 10
-15339.842289794722
 20
-181.070244158412
 30
0.0
 11
-15356.108006903609
 21
-209.243292612544
 31
0.0
  0
LINE
  5
2C
100
AcDbEntity
  8
FREI
  6
CONTINUOUS
 62
          15
100
AcDbLine
 10
-15336.70440047269
 20
-80.070244158412
 30
0.0
 11
-15398.154666982875
 21
-80.070244158412
 31
0.0
  0
LINE
  5
2D
100
AcDbEntity
  8
FREI
  6
CONTINUOUS
 62
          15
100
AcDbLine
 10
-15390.342289794722
 20
-50.070244158412
 30
0.0
 11
-15398.154666982875
 21
-80.070244158412
 31
0.0
  0
LINE
  5
2E
100
AcDbEntity
  8
FREI
  6
GESTRICHELT
 62
          15
100
AcDbLine
 10
-15317.792084103332
 20
-50.070244158412
 30
0.0
 11
-15289.342289794722
 21
-50.070244158412
 31
0.0
  0
LINE
  5
2F
100
AcDbEntity
  8
FREI
  6
CONTINUOUS
 62
          15
100
AcDbLine
 10
-15390.342289794722
 20
-50.070244158412
 30
0.0
 11
-15317.792084103332
 21
-50.070244158412
 31
0.0
  0
LINE
  5
30
100
AcDbEntity
  8
FREI
  6
CONTINUOUS
 62
          15
100
AcDbLine
 10
-15244.94478969219
 20
-163.845211534302
 30
0.0
 11
-15323.576572685837
 21
-209.243292612544
 31
0.0
  0
LINE
  5
31
100
AcDbEntity
  8
FREI
  6
GESTRICHELT
 62
          15
100
AcDbLine
 10
-15236.108006903609
 20
-158.743292612544
 30
0.0
 11
-15244.94478969219
 21
-163.845211534302
 31
0.0
  0
LINE
  5
32
100
AcDbEntity
  8
FREI
  6
CONTINUOUS
 62
          15
100
AcDbLine
 10
-15356.108006903609
 20
-209.243292612544
 30
0.0
 11
-15443.576572685837
 21
-158.743292612544
 31
0.0
  0
LINE
  5
33
100
AcDbEntity
  8
FREI
  6
CONTINUOUS
 62
          15
100
AcDbLine
 10
-15339.842289794722
 20
-85.047777202088
 30
0.0
 11
-15339.842289794722
 21
-80.070244158412
 31
0.0
  0
LINE
  5
34
100
AcDbEntity
  8
FREI
  6
GESTRICHELT
 62
          15
100
AcDbLine
 10
-15339.842289794722
 20
-109.886115993505
 30
0.0
 11
-15339.842289794722
 21
-85.047777202088
 31
0.0
  0
LINE
  5
35
100
AcDbEntity
  8
FREI
  6
GESTRICHELT
 62
          15
100
AcDbLine
 10
-15339.842289794722
 20
-178.414820808911
 30
0.0
 11
-15339.842289794722
 21
-121.053477078514
 31
0.0
  0
LINE
  5
36
100
AcDbEntity
  8
FREI
  6
CONTINUOUS
 62
          15
100
AcDbLine
 10
-15339.842289794722
 20
-181.070244158412
 30
0.0
 11
-15339.842289794722
 21
-178.414820808911
 31
0.0
  0
ARC
  5
37
100
AcDbEntity
  8
FREI
  6
CONTINUOUS
 62
          15
100
AcDbCircle
 10
-15297.268495632938
 20
-31.252034980718
 30
0.0
 40
20.102193939583
100
AcDbArc
 50
29.970101035151
 51
77.275326881122
  0
ARC
  5
38
100
AcDbEntity
  8
FREI
  6
CONTINUOUS
 62
          15
100
AcDbCircle
 10
-15245.625350530812
 20
-120.822200369653
 30
0.0
 40
20.102193939583
100
AcDbArc
 50
342.664835748251
 51
29.970101035151
  0
LINE
  5
39
100
AcDbEntity
  8
FREI
  6
CONTINUOUS
 62
          15
100
AcDbLine
 10
-15236.501720362881
 20
-159.048936391416
 30
0.0
 11
-15226.436463594588
 21
-126.811795135873
 31
0.0
  0
LINE
  5
3A
100
AcDbEntity
  8
FREI
  6
CONTINUOUS
 62
          15
100
AcDbLine
 10
-15325.78396984895
 20
-4.202099909633
 30
0.0
 11
-15292.84001865153
 21
-11.64071405586
 31
0.0
  0
LINE
  5
3B
100
AcDbEntity
  8
FREI
  6
CONTINUOUS
 62
          15
100
AcDbLine
 10
-15279.850763492635
 20
-21.208017910177
 30
0.0
 11
-15228.20761839051
 21
-110.778183299112
 31
0.0
  0
ARC
  5
3C
100
AcDbEntity
  8
FREI
  6
CONTINUOUS
 62
          15
100
AcDbCircle
 10
-15354.384402855971
 20
-123.857117181851
 30
0.0
 40
8.392040578676
100
AcDbArc
 50
147.628285169611
 51
272.168526113971
  0
LINE
  5
3D
100
AcDbEntity
  8
FREI
  6
CONTINUOUS
 62
          15
100
AcDbLine
 10
-15316.114007455495
 20
-47.40836507116
 30
0.0
 11
-15361.484361821367
 21
-119.37790092248
 31
0.0
  0
LINE
  5
3E
100
AcDbEntity
  8
FREI
  6
CONTINUOUS
 62
          15
100
AcDbLine
 10
-15333.790155918454
 20
-16.757121247809
 30
0.0
 11
-15251.376588688921
 21
-159.686127323992
 31
0.0
  0
ARC
  5
3F
100
AcDbEntity
  8
FREI
  6
CONTINUOUS
 62
          15
100
AcDbCircle
 10
-15326.51909938783
 20
-12.561100958471
 30
0.0
 40
8.392335574478
100
AcDbArc
 50
84.974072586301
 51
209.988620150222
  0
ARC
  5
40
100
AcDbEntity
  8
FREI
  6
CONTINUOUS
 62
          15
100
AcDbCircle
 10
-15244.106712141505
 20
-155.494826967488
 30
0.0
 40
8.392335574478
100
AcDbArc
 50
209.964734733568
 51
334.951481380678
  0
LINE
  5
41
100
AcDbEntity
  8
FREI
  6
GESTRICHELT
 62
          15
100
AcDbLine
 10
-15305.481178763925
 20
-130.441423485143
 30
0.0
 11
-15324.804583785915
 21
-131.083334350553
 31
0.0
  0
LINE
  5
42
100
AcDbEntity
  8
FREI
  6
CONTINUOUS
 62
          15
100
AcDbLine
 10
-15305.489438646384
 20
-130.47446301498
 30
0.0
 11
-15268.921759015739
 21
-129.261440276668
 31
0.0
  0
LINE
  5
43
100
AcDbEntity
  8
FREI
  6
CONTINUOUS
 62
          15
100
AcDbLine
 10
-15324.973321384727
 20
-131.144693477394
 30
0.0
 11
-15354.066987372891
 21
-132.239717894859
 31
0.0
  0
LINE
  5
44
100
AcDbEntity
  8
FREI
  6
CONTINUOUS
 62
          15
100
AcDbLine
 10
-15320.959018509495
 20
-143.071963748662
 30
0.0
 11
-15320.956658543078
 21
-140.367442234836
 31
0.0
  0
LINE
  5
45
100
AcDbEntity
  8
FREI
  6
GESTRICHELT
 62
          15
100
AcDbLine
 10
-15320.959018509495
 20
-143.071963748662
 30
0.0
 11
-15320.981438190456
 21
-147.494540814027
 31
0.0
  0
LINE
  5
46
100
AcDbEntity
  8
FREI
  6
GESTRICHELT
 62
          15
100
AcDbLine
 10
-15320.959018509495
 20
-115.46979653601
 30
0.0
 11
-15320.967278391954
 21
-140.39576183184
 31
0.0
  0
LINE
  5
47
100
AcDbEntity
  8
FREI
  6
GESTRICHELT
 62
          15
100
AcDbLine
 10
-15358.727921046369
 20
-115.011963051121
 30
0.0
 11
-15358.725561079951
 21
-131.036135022215
 31
0.0
  0
ARC
  5
48
100
AcDbEntity
  8
FREI
  6
CONTINUOUS
 62
          15
100
AcDbCircle
 10
-15339.842289794722
 20
-115.46979653601
 30
0.0
 40
18.883271285229
100
AcDbArc
 50
116.990965333067
 51
178.553410663232
  0
ARC
  5
49
100
AcDbEntity
  8
FREI
  6
GESTRICHELT
 62
          15
100
AcDbCircle
 10
-15339.842289794722
 20
-115.46979653601
 30
0.0
 40
18.883271285229
100
AcDbArc
 50
0.000000683099
 51
116.990965333067
  0
LINE
  5
4A
100
AcDbEntity
  8
FREI
  6
CONTINUOUS
 62
          15
100
AcDbLine
 10
-15358.725561079951
 20
-178.414820808911
 30
0.0
 11
-15320.959018509495
 21
-178.414820808911
 31
0.0
  0
LINE
  5
4B
100
AcDbEntity
  8
FREI
  6
CONTINUOUS
 62
          15
100
AcDbLine
 10
-15358.725561079951
 20
-131.036135022215
 30
0.0
 11
-15358.725561079951
 21
-178.414820808911
 31
0.0
  0
LINE
  5
4C
100
AcDbEntity
  8
FREI
  6
CONTINUOUS
 62
          15
100
AcDbLine
 10
-15320.959018509495
 20
-178.414820808911
 30
0.0
 11
-15320.957838526285
 21
-147.409582023016
 31
0.0
  0
ARC
  5
4D
100
AcDbEntity
  8
FREI
  6
CONTINUOUS
 62
          15
100
AcDbCircle
 10
-15339.842289794722
 20
-165.826759940897
 30
0.0
 40
9.071415910955
100
AcDbArc
 50
83.396411513612
 51
323.393951543439
  0
LINE
  5
4E
100
AcDbEntity
  8
FREI
  6
GESTRICHELT
 62
          15
100
AcDbLine
 10
-15322.599195169274
 20
-143.010604621821
 30
0.0
 11
-15321.474671171598
 21
-143.14276274117
 31
0.0
  0
ARC
  5
4F
100
AcDbEntity
  8
FREI
  6
GESTRICHELT
 62
          15
100
AcDbCircle
 10
-15287.487614817886
 20
-107.035276561829
 30
0.0
 40
2.092700220231
100
AcDbArc
 50
322.006040502197
 51
23.359604704482
  0
CIRCLE
  5
50
100
AcDbEntity
  8
FREI
  6
CONTINUOUS
 62
          15
100
AcDbCircle
 10
-15274.408680935148
 20
-77.748093327475
 30
0.0
 40
5.874546403394
  0
ARC
  5
51
100
AcDbEntity
  8
FREI
  6
GESTRICHELT
 62
          15
100
AcDbCircle
 10
-15279.798844231462
 20
-89.66120380024
 30
0.0
 40
2.092700220231
100
AcDbArc
 50
263.388406711703
 51
323.459608284301
  0
ARC
  5
52
100
AcDbEntity
  8
FREI
  6
GESTRICHELT
 62
          15
100
AcDbCircle
 10
-15277.879011551273
 20
-94.097940664107
 30
0.0
 40
2.092700220231
100
AcDbArc
 50
263.420531649356
 51
323.459608284301
  0
LINE
  5
53
100
AcDbEntity
  8
FREI
  6
GESTRICHELT
 62
          15
100
AcDbLine
 10
-15279.803564164296
 20
-80.075020214588
 30
0.0
 11
-15282.741722353399
 21
-81.344682146907
 31
0.0
  0
LINE
  5
54
100
AcDbEntity
  8
FREI
  6
GESTRICHELT
 62
          15
100
AcDbLine
 10
-15272.445188876245
 20
-83.28457454164
 30
0.0
 11
-15278.117368159385
 21
-90.90726606839
 31
0.0
  0
LINE
  5
55
100
AcDbEntity
  8
FREI
  6
GESTRICHELT
 62
          15
100
AcDbLine
 10
-15276.197535479196
 20
-95.344002932257
 30
0.0
 11
-15267.132904471689
 21
-83.152416422291
 31
0.0
  0
ARC
  5
56
100
AcDbEntity
  8
FREI
  6
GESTRICHELT
 62
          15
100
AcDbCircle
 10
-15274.415760834398
 20
-77.743373394641
 30
0.0
 40
9.071120915153
100
AcDbArc
 50
323.39839556867
 51
203.390402770664
  0
ARC
  5
57
100
AcDbEntity
  8
FREI
  6
CONTINUOUS
 62
          15
100
AcDbCircle
 10
-15293.886663757448
 20
-92.243007060384
 30
0.0
 40
2.092700220231
100
AcDbArc
 50
89.482670676549
 51
203.385226065905
  0
LINE
  5
58
100
AcDbEntity
  8
FREI
  6
GESTRICHELT
 62
          15
100
AcDbLine
 10
-15288.725417203577
 20
-94.947528574209
 30
0.0
 11
-15278.118548142595
 21
-96.174711111023
 31
0.0
  0
LINE
  5
59
100
AcDbEntity
  8
FREI
  6
GESTRICHELT
 62
          15
100
AcDbLine
 10
-15280.039560805992
 20
-91.737974247157
 30
0.0
 11
-15291.309580430137
 21
-90.444712650668
 31
0.0
  0
ARC
  5
5A
100
AcDbEntity
  8
FREI
  6
CONTINUOUS
 62
          15
100
AcDbCircle
 10
-15292.528503084493
 20
-103.287649891712
 30
0.0
 40
1.046055114313
100
AcDbArc
 50
263.418060351511
 51
23.359604704482
  0
ARC
  5
5B
100
AcDbEntity
  8
FREI
  6
CONTINUOUS
 62
          15
100
AcDbCircle
 10
-15287.487614817886
 20
-107.035276561829
 30
0.0
 40
2.092700220231
100
AcDbArc
 50
263.420531649356
 51
322.006040502197
  0
LINE
  5
5C
100
AcDbEntity
  8
FREI
  6
CONTINUOUS
 62
          15
100
AcDbLine
 10
-15295.807676420845
 20
-93.07371523915
 30
0.0
 11
-15291.566816769586
 21
-102.872295802328
 31
0.0
  0
ARC
  5
5D
100
AcDbEntity
  8
FREI
  6
CONTINUOUS
 62
          15
100
AcDbCircle
 10
-15298.454378757455
 20
-108.927969628223
 30
0.0
 40
1.046055114313
100
AcDbArc
 50
83.354100952973
 51
203.436618161791
  0
ARC
  5
5E
100
AcDbEntity
  8
FREI
  6
CONTINUOUS
 62
          15
100
AcDbCircle
 10
-15303.495267024062
 20
-105.180342958106
 30
0.0
 40
2.092700220231
100
AcDbArc
 50
83.388401704415
 51
203.385226065905
  0
LINE
  5
5F
100
AcDbEntity
  8
FREI
  6
CONTINUOUS
 62
          15
100
AcDbLine
 10
-15298.332840486983
 20
-107.884864471931
 30
0.0
 11
-15287.727151409208
 21
-109.112047008745
 31
0.0
  0
LINE
  5
60
100
AcDbEntity
  8
FREI
  6
CONTINUOUS
 62
          15
100
AcDbLine
 10
-15292.648861371757
 20
-104.330755048004
 30
0.0
 11
-15303.254550449532
 21
-103.10357251119
 31
0.0
  0
LINE
  5
61
100
AcDbEntity
  8
FREI
  6
CONTINUOUS
 62
          15
100
AcDbLine
 10
-15302.257464638371
 20
-117.268090945726
 30
0.0
 11
-15312.861973732937
 21
-116.040908408912
 31
0.0
  0
LINE
  5
62
100
AcDbEntity
  8
FREI
  6
CONTINUOUS
 62
          15
100
AcDbLine
 10
-15307.941443753596
 20
-120.822200369653
 30
0.0
 11
-15297.335754675822
 21
-122.049382906467
 31
0.0
  0
ARC
  5
63
100
AcDbEntity
  8
FREI
  6
CONTINUOUS
 62
          15
100
AcDbCircle
 10
-15313.102690307467
 20
-118.117678855828
 30
0.0
 40
2.092700220231
100
AcDbArc
 50
83.388401704415
 51
203.385226065905
  0
ARC
  5
64
100
AcDbEntity
  8
FREI
  6
CONTINUOUS
 62
          15
100
AcDbCircle
 10
-15308.06180204086
 20
-121.865305525945
 30
0.0
 40
1.046055114313
100
AcDbArc
 50
83.418055344222
 51
203.410895497621
  0
LINE
  5
65
100
AcDbEntity
  8
FREI
  6
CONTINUOUS
 62
          15
100
AcDbLine
 10
-15305.416279687459
 20
-106.011051136873
 30
0.0
 11
-15301.175420036199
 21
-115.809631700051
 31
0.0
  0
LINE
  5
66
100
AcDbEntity
  8
FREI
  6
CONTINUOUS
 62
          15
100
AcDbLine
 10
-15295.172845454685
 20
-119.141904280785
 30
0.0
 11
-15299.412525122736
 21
-109.343323717606
 31
0.0
  0
ARC
  5
67
100
AcDbEntity
  8
FREI
  6
CONTINUOUS
 62
          15
100
AcDbCircle
 10
-15297.095038101292
 20
-119.972612459551
 30
0.0
 40
2.092700220231
100
AcDbArc
 50
263.388406711703
 51
23.372406255528
  0
ARC
  5
68
100
AcDbEntity
  8
FREI
  6
CONTINUOUS
 62
          15
100
AcDbCircle
 10
-15302.137106351107
 20
-116.224985789434
 30
0.0
 40
1.046055114313
100
AcDbArc
 50
263.418060351511
 51
23.359604704482
  0
LINE
  5
69
100
AcDbEntity
  8
FREI
  6
CONTINUOUS
 62
          15
100
AcDbLine
 10
-15311.866067904984
 20
-130.205426843448
 30
0.0
 11
-15322.470576999551
 21
-128.978244306634
 31
0.0
  0
LINE
  5
6A
100
AcDbEntity
  8
FREI
  6
CONTINUOUS
 62
          15
100
AcDbLine
 10
-15317.55004702021
 20
-133.759536267375
 30
0.0
 11
-15306.944357942435
 21
-134.986718804189
 31
0.0
  0
ARC
  5
6B
100
AcDbEntity
  8
FREI
  6
CONTINUOUS
 62
          15
100
AcDbCircle
 10
-15322.711293574079
 20
-131.05501475355
 30
0.0
 40
2.092700220231
100
AcDbArc
 50
83.388401704415
 51
203.385226065905
  0
ARC
  5
6C
100
AcDbEntity
  8
FREI
  6
CONTINUOUS
 62
          15
100
AcDbCircle
 10
-15317.670405307474
 20
-134.802641423667
 30
0.0
 40
1.046055114313
100
AcDbArc
 50
83.418055344222
 51
203.410895497621
  0
LINE
  5
6D
100
AcDbEntity
  8
FREI
  6
CONTINUOUS
 62
          15
100
AcDbLine
 10
-15315.023702970864
 20
-118.948387034595
 30
0.0
 11
-15310.784023302813
 21
-128.746967597773
 31
0.0
  0
LINE
  5
6E
100
AcDbEntity
  8
FREI
  6
CONTINUOUS
 62
          15
100
AcDbLine
 10
-15304.7814487213
 20
-132.079240178507
 30
0.0
 11
-15309.021128389351
 21
-122.280659615328
 31
0.0
  0
ARC
  5
6F
100
AcDbEntity
  8
FREI
  6
CONTINUOUS
 62
          15
100
AcDbCircle
 10
-15306.703641367905
 20
-132.909948357273
 30
0.0
 40
2.092700220231
100
AcDbArc
 50
263.388406711703
 51
23.372406255528
  0
ARC
  5
70
100
AcDbEntity
  8
FREI
  6
CONTINUOUS
 62
          15
100
AcDbCircle
 10
-15311.74570961772
 20
-129.16704161999
 30
0.0
 40
1.046055114313
100
AcDbArc
 50
263.388406711703
 51
23.596177758969
  0
ARC
  5
71
100
AcDbEntity
  8
FREI
  6
CONTINUOUS
 62
          15
100
AcDbCircle
 10
-15321.354312884334
 20
-142.104377517712
 30
0.0
 40
1.046055114313
100
AcDbArc
 50
263.388406711703
 51
23.596177758969
  0
ARC
  5
72
100
AcDbEntity
  8
FREI
  6
CONTINUOUS
 62
          15
100
AcDbCircle
 10
-15316.312244634519
 20
-145.847284254995
 30
0.0
 40
2.092700220231
100
AcDbArc
 50
263.388406711703
 51
23.372406255528
  0
LINE
  5
73
100
AcDbEntity
  8
FREI
  6
CONTINUOUS
 62
          15
100
AcDbLine
 10
-15314.390051987913
 20
-145.016576076229
 30
0.0
 11
-15318.629731655965
 21
-135.217995513051
 31
0.0
  0
LINE
  5
74
100
AcDbEntity
  8
FREI
  6
CONTINUOUS
 62
          15
100
AcDbLine
 10
-15324.632306237478
 20
-131.885722932317
 30
0.0
 11
-15320.392626569426
 21
-141.684303495495
 31
0.0
  0
ARC
  5
75
100
AcDbEntity
  8
FREI
  6
CONTINUOUS
 62
          15
100
AcDbCircle
 10
-15328.319753763963
 20
-158.506144115517
 30
0.0
 40
4.18658042367
100
AcDbArc
 50
323.388481348987
 51
23.385221057158
  0
ARC
  5
76
100
AcDbEntity
  8
FREI
  6
CONTINUOUS
 62
          15
100
AcDbCircle
 10
-15333.122285422456
 20
-157.949192041117
 30
0.0
 40
4.18658042367
100
AcDbArc
 50
323.388481348987
 51
23.385221057158
  0
ARC
  5
77
100
AcDbEntity
  8
FREI
  6
CONTINUOUS
 62
          15
100
AcDbCircle
 10
-15327.279008574087
 20
-147.739977321389
 30
0.0
 40
1.046055114313
100
AcDbArc
 50
83.418055344222
 51
203.436618161791
  0
ARC
  5
78
100
AcDbEntity
  8
FREI
  6
CONTINUOUS
 62
          15
100
AcDbCircle
 10
-15332.319896840692
 20
-143.992350651272
 30
0.0
 40
2.092700220231
100
AcDbArc
 50
83.388401704415
 51
203.503718090275
  0
LINE
  5
79
100
AcDbEntity
  8
FREI
  6
CONTINUOUS
 62
          15
100
AcDbLine
 10
-15327.158650286823
 20
-146.696872165097
 30
0.0
 11
-15316.552961209049
 21
-147.924054701912
 31
0.0
  0
LINE
  5
7A
100
AcDbEntity
  8
FREI
  6
CONTINUOUS
 62
          15
100
AcDbLine
 10
-15321.474671171598
 20
-143.14276274117
 30
0.0
 11
-15332.079180266164
 21
-141.915580204356
 31
0.0
  0
LINE
  5
7B
100
AcDbEntity
  8
FREI
  6
CONTINUOUS
 62
          15
100
AcDbLine
 10
-15334.240909504091
 20
-144.827778762873
 30
0.0
 11
-15329.280260095662
 21
-156.287775683584
 31
0.0
  0
LINE
  5
7C
100
AcDbEntity
  8
FREI
  6
CONTINUOUS
 62
          15
100
AcDbLine
 10
-15324.477728437167
 20
-156.844727757984
 30
0.0
 11
-15328.23715493937
 21
-148.155331410773
 31
0.0
  0
LINE
  5
7D
100
AcDbEntity
  8
FREI
  6
CONTINUOUS
 62
          15
100
AcDbLine
 10
-15324.959161586225
 20
-161.002988584651
 30
0.0
 11
-15332.560613415222
 21
-171.235802968547
 31
0.0
  0
LINE
  5
7E
100
AcDbEntity
  8
FREI
  6
CONTINUOUS
 62
          15
100
AcDbLine
 10
-15335.190795986913
 20
-167.757212469963
 30
0.0
 11
-15329.761693244718
 21
-160.44603651025
 31
0.0
  0
LINE
  5
7F
100
AcDbEntity
  8
FREI
  6
CONTINUOUS
 62
          15
100
AcDbLine
 10
-15339.26409802257
 20
-160.823631136962
 30
0.0
 11
-15338.79918463843
 21
-156.816408160981
 31
0.0
  0
CIRCLE
  5
80
100
AcDbEntity
  8
FREI
  6
CONTINUOUS
 62
          15
100
AcDbCircle
 10
-15339.842289794722
 20
-165.826759940897
 30
0.0
 40
5.03587333797
  0
LINE
  5
81
100
AcDbEntity
  8
FREI
  6
CONTINUOUS
 62
          15
100
AcDbLine
 10
-15293.867784026112
 20
-90.152076814966
 30
0.0
 11
-15291.309580430137
 21
-90.444712650668
 31
0.0
  0
LINE
  5
82
100
AcDbEntity
  8
FREI
  6
CONTINUOUS
 62
          15
100
AcDbLine
 10
-15285.564242188071
 20
-106.204568383062
 30
0.0
 11
-15289.805101839333
 21
-96.405987819884
 31
0.0
  0
ARC
  5
83
100
AcDbEntity
  8
FREI
  6
CONTINUOUS
 62
          15
100
AcDbCircle
 10
-15288.845775490841
 20
-95.990633730501
 30
0.0
 40
1.046055114313
100
AcDbArc
 50
83.418055344222
 51
203.410895497621
  0
CIRCLE
  5
84
100
AcDbEntity
  8
FREI
  6
CONTINUOUS
 62
          15
100
AcDbCircle
 10
-15339.842289794722
 20
-115.46979653601
 30
0.0
 40
5.583680542505
  0
TEXT
  5
85
100
AcDbEntity
  8
FREI
  6
CONTINUOUS
 62
          15
100
AcDbText
 10
-15422.552853078161
 20
-153.200807895191
 30
0.0
 40
3.527777671814
  1
100-220
 41
0.899999979725
  7
GOTHICG
100
AcDbText
  0
ENDSEC
  0
SECTION
  2
OBJECTS
  0
DICTIONARY
  5
19
100
AcDbDictionary
  3
ACAD_GROUP
350
1A
  3
ACAD_MLINESTYLE
350
1B
  0
DICTIONARY
  5
1A
102
{ACAD_REACTORS
330
19
102
}
100
AcDbDictionary
  0
DICTIONARY
  5
1B
102
{ACAD_REACTORS
330
19
102
}
100
AcDbDictionary
  3
STANDARD
350
1C
  0
MLINESTYLE
  5
1C
102
{ACAD_REACTORS
330
1B
102
}
100
AcDbMlineStyle
  2
STANDARD
 70
           0
  3

 62
           0
 51
90.0
 52
90.0
 71
           2
 49
0.5
 62
         256
  6
BYLAYER
 49
-0.5
 62
         256
  6
BYLAYER
  0
ENDSEC
  0
EOF
