  0
SECTION
  2
HEADER
  9
$ACADVER
  1
AC1012
  9
$DWGCODEPAGE
  3
dos850
  9
$INSBASE
 10
0.0
 20
0.0
 30
0.0
  9
$EXTMIN
 10
-15556.774370014502
 20
-2566.073413964955
 30
0.0
  9
$EXTMAX
 10
-15162.703263853829
 20
-2247.822130382614
 30
0.0
  9
$LIMMIN
 10
-15556.774370014502
 20
-2566.073413964955
  9
$LIMMAX
 10
-15162.703263853829
 20
-2247.822130382614
  9
$ORTHOMODE
 70
           0
  9
$REGENMODE
 70
           1
  9
$FILLMODE
 70
           1
  9
$QTEXTMODE
 70
           0
  9
$MIRRTEXT
 70
           1
  9
$DRAGMODE
 70
           2
  9
$LTSCALE
 40
5.0
  9
$OSMODE
 70
           0
  9
$ATTMODE
 70
           1
  9
$TEXTSIZE
 40
0.2
  9
$TRACEWID
 40
0.05
  9
$TEXTSTYLE
  7
TXT
  9
$CLAYER
  8
0
  9
$CELTYPE
  6
CONTINUOUS
  9
$CECOLOR
 62
         256
  9
$CELTSCALE
 40
1.0
  9
$DELOBJ
 70
           1
  9
$DISPSILH
 70
           0
  9
$DIMSCALE
 40
1.0
  9
$DIMASZ
 40
3.5
  9
$DIMEXO
 40
0.0625
  9
$DIMDLI
 40
0.38
  9
$DIMRND
 40
0.0
  9
$DIMDLE
 40
0.0
  9
$DIMEXE
 40
0.18
  9
$DIMTP
 40
0.0
  9
$DIMTM
 40
0.0
  9
$DIMTXT
 40
3.5
  9
$DIMCEN
 40
0.09
  9
$DIMTSZ
 40
0.0
  9
$DIMTOL
 70
           0
  9
$DIMLIM
 70
           0
  9
$DIMTIH
 70
           1
  9
$DIMTOH
 70
           1
  9
$DIMSE1
 70
           0
  9
$DIMSE2
 70
           0
  9
$DIMTAD
 70
           0
  9
$DIMZIN
 70
           0
  9
$DIMBLK
  1

  9
$DIMASO
 70
           1
  9
$DIMSHO
 70
           1
  9
$DIMPOST
  1

  9
$DIMAPOST
  1

  9
$DIMALT
 70
           0
  9
$DIMALTD
 70
           2
  9
$DIMALTF
 40
25.4
  9
$DIMLFAC
 40
1.0
  9
$DIMTOFL
 70
           0
  9
$DIMTVP
 40
0.0
  9
$DIMTIX
 70
           0
  9
$DIMSOXD
 70
           0
  9
$DIMSAH
 70
           0
  9
$DIMBLK1
  1

  9
$DIMBLK2
  1

  9
$DIMSTYLE
  2
STANDARD
  9
$DIMCLRD
 70
           0
  9
$DIMCLRE
 70
           0
  9
$DIMCLRT
 70
           0
  9
$DIMTFAC
 40
1.0
  9
$DIMGAP
 40
0.09
  9
$DIMJUST
 70
           0
  9
$DIMSD1
 70
           0
  9
$DIMSD2
 70
           0
  9
$DIMTOLJ
 70
           1
  9
$DIMTZIN
 70
           0
  9
$DIMALTZ
 70
           0
  9
$DIMALTTZ
 70
           0
  9
$DIMFIT
 70
           3
  9
$DIMUPT
 70
           0
  9
$DIMUNIT
 70
           2
  9
$DIMDEC
 70
           4
  9
$DIMTDEC
 70
           4
  9
$DIMALTU
 70
           2
  9
$DIMALTTD
 70
           2
  9
$DIMTXSTY
  7
TXT
  9
$DIMAUNIT
 70
           0
  9
$LUNITS
 70
           2
  9
$LUPREC
 70
           3
  9
$SKETCHINC
 40
0.1
  9
$FILLETRAD
 40
0.0
  9
$AUNITS
 70
           0
  9
$AUPREC
 70
           3
  9
$MENU
  1
acad
  9
$ELEVATION
 40
0.0
  9
$PELEVATION
 40
0.0
  9
$THICKNESS
 40
0.0
  9
$LIMCHECK
 70
           0
  9
$BLIPMODE
 70
           1
  9
$CHAMFERA
 40
0.0
  9
$CHAMFERB
 40
0.0
  9
$CHAMFERC
 40
0.0
  9
$CHAMFERD
 40
0.0
  9
$SKPOLY
 70
           0
  9
$TDCREATE
 40
0.000000000
  9
$TDUPDATE
 40
0.000000000
  9
$TDINDWG
 40
0.0000000000
  9
$TDUSRTIMER
 40
0.0000000000
  9
$USRTIMER
 70
           1
  9
$ANGBASE
 50
0.0
  9
$ANGDIR
 70
           0
  9
$PDMODE
 70
           2
  9
$PDSIZE
 40
0.5
  9
$PLINEWID
 40
0.0
  9
$COORDS
 70
           0
  9
$SPLFRAME
 70
           0
  9
$SPLINETYPE
 70
           6
  9
$SPLINESEGS
 70
           8
  9
$ATTDIA
 70
           0
  9
$ATTREQ
 70
           1
  9
$HANDLING
 70
           1
  9
$HANDSEED
  5
8C
  9
$SURFTAB1
 70
           6
  9
$SURFTAB2
 70
           6
  9
$SURFTYPE
 70
           6
  9
$SURFU
 70
           6
  9
$SURFV
 70
           6
  9
$UCSNAME
  2

  9
$UCSORG
 10
0.0
 20
0.0
 30
0.0
  9
$UCSXDIR
 10
1.0
 20
0.0
 30
0.0
  9
$UCSYDIR
 10
0.0
 20
1.0
 30
0.0
  9
$PUCSNAME
  2

  9
$PUCSORG
 10
0.0
 20
0.0
 30
0.0
  9
$PUCSXDIR
 10
1.0
 20
0.0
 30
0.0
  9
$PUCSYDIR
 10
0.0
 20
1.0
 30
0.0
  9
$USERI1
 70
           0
  9
$USERI2
 70
           0
  9
$USERI3
 70
           0
  9
$USERI4
 70
           0
  9
$USERI5
 70
           0
  9
$USERR1
 40
0.0
  9
$USERR2
 40
0.0
  9
$USERR3
 40
0.0
  9
$USERR4
 40
0.0
  9
$USERR5
 40
0.0
  9
$WORLDVIEW
 70
           1
  9
$SHADEDGE
 70
           3
  9
$SHADEDIF
 70
          70
  9
$TILEMODE
 70
           1
  9
$MAXACTVP
 70
          16
  9
$PINSBASE
 10
0.0
 20
0.0
 30
0.0
  9
$PLIMCHECK
 70
           0
  9
$PEXTMIN
 10
1.000000000000E+20
 20
1.000000000000E+20
 30
1.000000000000E+20
  9
$PEXTMAX
 10
-1.000000000000E+20
 20
-1.000000000000E+20
 30
-1.000000000000E+20
  9
$PLIMMIN
 10
0.0
 20
0.0
  9
$PLIMMAX
 10
12.0
 20
9.0
  9
$UNITMODE
 70
           0
  9
$VISRETAIN
 70
           0
  9
$PLINEGEN
 70
           1
  9
$PSLTSCALE
 70
           0
  9
$TREEDEPTH
 70
        3020
  9
$PICKSTYLE
 70
           1
  9
$CMLSTYLE
  2
STANDARD
  9
$CMLJUST
 70
           0
  9
$CMLSCALE
 40
1.0
  9
$SAVEIMAGES
 70
           0
  0
ENDSEC
  0
SECTION
  2
CLASSES
  0
CLASS
  1
LWPOLYLINE
  2
AcDbPolyline
  3
"AutoCAD"
 90
        0
280
           0
281
           1
  0
CLASS
  1
IMAGE
  2
AcDbRasterImage
  3
ISM
 90
      127
280
           0
281
           1
  0
CLASS
  1
OLE2FRAME
  2
AcDbOle2Frame
  3
""
 90
        0
280
           0
281
           1
  0
CLASS
  1
HATCH
  2
AcDbHatch
  3
"ACAD_SEDONA"
 90
        0
280
           0
281
           1
  0
CLASS
  1
DICTIONARYVAR
  2
AcDbDictionaryVar
  3
"AutoCAD"
 90
        0
280
           0
281
           0
  0
CLASS
  1
RASTERVARIABLES
  2
AcDbRasterVariables
  3
ISM
 90
        0
280
           0
281
           0
  0
CLASS
  1
IMAGEDEF
  2
AcDbRasterImageDef
  3
ISM
 90
        0
280
           0
281
           0
  0
CLASS
  1
IMAGEDEF_REACTOR
  2
AcDbRasterImageDefReactor
  3
ISM
 90
        1
280
           0
281
           0
  0
CLASS
  1
IDBUFFER
  2
AcDbIdBuffer
  3
"Acad"
 90
        0
280
           0
281
           0
  0
CLASS
  1
SPATIAL_FILTER
  2
AcDbSpatialFilter
  3
"Acad"
 90
        0
280
           0
281
           0
  0
CLASS
  1
XRECORD
  2
AcDbXrecord
  3
"<Built In>"
 90
        0
280
           0
281
           0
  0
ENDSEC
  0
SECTION
  2
TABLES
  0
TABLE
  2
VPORT
  5
7
100
AcDbSymbolTable
 70
           1
  0
VPORT
  5
15
100
AcDbSymbolTableRecord
100
AcDbViewportTableRecord
  2
*ACTIVE
 70
           0
 10
0.0
 20
0.0
 11
1.0
 21
1.0
 12
6.591288
 22
4.579184
 13
0.0
 23
0.0
 14
1.0
 24
1.0
 15
0.0
 25
0.0
 16
0.0
 26
0.0
 36
1.0
 17
0.0
 27
0.0
 37
0.0
 40
9.158369
 41
0.688564
 42
50.0
 43
0.0
 44
0.0
 50
0.0
 51
0.0
 71
           0
 72
         100
 73
           1
 74
           1
 75
           0
 76
           0
 77
           0
 78
           0
  0
ENDTAB
  0
TABLE
  2
LTYPE
  5
4
100
AcDbSymbolTable
 70
           5
  0
LTYPE
  5
11
100
AcDbSymbolTableRecord
100
AcDbLinetypeTableRecord
  2
BYBLOCK
 70
           0
  3

 72
          65
 73
           0
 40
0.0
  0
LTYPE
  5
12
100
AcDbSymbolTableRecord
100
AcDbLinetypeTableRecord
  2
BYLAYER
 70
           0
  3

 72
          65
 73
           0
 40
0.0
  0
LTYPE
  5
13
100
AcDbSymbolTableRecord
100
AcDbLinetypeTableRecord
  2
CONTINUOUS
 70
           0
  3
Solid line
 72
          65
 73
           0
 40
0.0
  0
LTYPE
  5
1D
100
AcDbSymbolTableRecord
100
AcDbLinetypeTableRecord
  2
GESTRICHELT
 70
           0
  3

 72
          65
 73
           2
 40
0.75
 49
0.5
 74
           0
 49
-0.25
 74
           0
  0
LTYPE
  5
1E
100
AcDbSymbolTableRecord
100
AcDbLinetypeTableRecord
  2
STRICHPUNKT
 70
           0
  3

 72
          65
 73
           4
 40
1.0
 49
0.5
 74
           0
 49
-0.25
 74
           0
 49
0.0
 74
           0
 49
-0.25
 74
           0
  0
ENDTAB
  0
TABLE
  2
LAYER
  5
2
100
AcDbSymbolTable
 70
           2
  0
LAYER
  5
14
100
AcDbSymbolTableRecord
100
AcDbLayerTableRecord
  2
0
 70
           0
 62
           7
  6
CONTINUOUS
  0
LAYER
  5
20
100
AcDbSymbolTableRecord
100
AcDbLayerTableRecord
  2
FREI
 70
           0
 62
           7
  6
CONTINUOUS
  0
ENDTAB
  0
TABLE
  2
STYLE
  5
3
100
AcDbSymbolTable
 70
           2
  0
STYLE
  5
17
100
AcDbSymbolTableRecord
100
AcDbTextStyleTableRecord
  2
TXT
 70
           0
 40
3.5
 41
1.0
 50
0.0
 71
           0
 42
3.5
  3
TXT
  4

  0
STYLE
  5
1F
100
AcDbSymbolTableRecord
100
AcDbTextStyleTableRecord
  2
GOTHICG
 70
           0
 40
3.5
 41
1.0
 50
0.0
 71
           0
 42
3.5
  3
GOTHICG
  4

  0
ENDTAB
  0
TABLE
  2
VIEW
  5
5
100
AcDbSymbolTable
 70
           0
  0
ENDTAB
  0
TABLE
  2
UCS
  5
6
100
AcDbSymbolTable
 70
           0
  0
ENDTAB
  0
TABLE
  2
APPID
  5
8
100
AcDbSymbolTable
 70
           2
  0
APPID
  5
16
100
AcDbSymbolTableRecord
100
AcDbRegAppTableRecord
  2
ACAD
 70
           0
  0
APPID
  5
21
100
AcDbSymbolTableRecord
100
AcDbRegAppTableRecord
  2
MegaCADPntStyle
 70
           0
  0
ENDTAB
  0
TABLE
  2
DIMSTYLE
  5
9
100
AcDbSymbolTable
 70
           1
  0
DIMSTYLE
105
18
100
AcDbSymbolTableRecord
100
AcDbDimStyleTableRecord
  2
STANDARD
 70
           0
  3

  4

  5

  6

  7

 40
1.0
 41
0.18
 42
0.0625
 43
0.38
 44
0.18
 45
0.0
 46
0.0
 47
0.0
 48
0.0
140
0.18
141
0.09
142
0.0
143
25.4
144
1.0
145
0.0
146
1.0
147
0.09
 71
           0
 72
           0
 73
           1
 74
           1
 75
           0
 76
           0
 77
           0
 78
           0
170
           0
171
           2
172
           0
173
           0
174
           0
175
           0
176
           0
177
           0
178
           0
270
           2
271
           4
272
           4
273
           2
274
           2
340
17
275
           0
280
           0
281
           0
282
           0
283
           1
284
           0
285
           0
286
           0
287
           0
288
           0
  0
ENDTAB
  0
TABLE
  2
BLOCK_RECORD
  5
1
100
AcDbSymbolTable
 70
           1
  0
BLOCK_RECORD
  5
A
100
AcDbSymbolTableRecord
100
AcDbBlockTableRecord
  2
*MODEL_SPACE
  0
BLOCK_RECORD
  5
B
100
AcDbSymbolTableRecord
100
AcDbBlockTableRecord
  2
*PAPER_SPACE
  0
BLOCK_RECORD
  5
22
100
AcDbSymbolTableRecord
100
AcDbBlockTableRecord
  2
ELIPPSE
  0
ENDTAB
  0
ENDSEC
  0
SECTION
  2
BLOCKS
  0
BLOCK
  5
D
100
AcDbEntity
  8
0
100
AcDbBlockBegin
  2
*MODEL_SPACE
 70
           0
 10
0.0
 20
0.0
 30
0.0
  3
*MODEL_SPACE
  1

  0
ENDBLK
  5
E
100
AcDbEntity
  8
0
100
AcDbBlockEnd
  0
BLOCK
  5
F
100
AcDbEntity
 67
           1
  8
0
100
AcDbBlockBegin
  2
*PAPER_SPACE
 70
           0
 10
0.0
 20
0.0
 30
0.0
  3
*PAPER_SPACE
  1

  0
ENDBLK
  5
10
100
AcDbEntity
 67
           1
  8
0
100
AcDbBlockEnd
  0
BLOCK
  5
87
100
AcDbEntity
  8
0
100
AcDbBlockBegin
  2
ELIPPSE
 70
          64
 10
0.0
 20
0.0
 30
0.0
  3
ELIPPSE
  1

  0
CIRCLE
  5
88
100
AcDbEntity
  8
0
  6
BYBLOCK
 62
           0
100
AcDbCircle
 10
0.0
 20
0.0
 30
0.0
 40
1.0
  0
ENDBLK
  5
89
100
AcDbEntity
  8
0
  6
BYBLOCK
 62
           0
100
AcDbBlockEnd
  0
ENDSEC
  0
SECTION
  2
ENTITIES
  0
LINE
  5
23
100
AcDbEntity
  8
FREI
  6
STRICHPUNKT
 62
          15
100
AcDbLine
 10
-15359.738816934165
 20
-2325.297825132378
 30
0.0
 11
-15249.738816934165
 21
-2515.823413964955
 31
0.0
  0
LINE
  5
24
100
AcDbEntity
  8
FREI
  6
CONTINUOUS
 62
          15
100
AcDbLine
 10
-15243.691412827049
 20
-2325.297825132378
 30
0.0
 11
-15162.703263853829
 21
-2465.573413964955
 31
0.0
  0
LINE
  5
25
100
AcDbEntity
  8
FREI
  6
CONTINUOUS
 62
          15
100
AcDbLine
 10
-15359.738816934165
 20
-2526.297825132378
 30
0.0
 11
-15336.774370014502
 21
-2566.073413964955
 31
0.0
  0
LINE
  5
26
100
AcDbEntity
  8
FREI
  6
STRICHPUNKT
 62
          15
100
AcDbLine
 10
-15359.738816934165
 20
-2260.297825132378
 30
0.0
 11
-15359.738816934165
 21
-2325.297825132378
 31
0.0
  0
LINE
  5
27
100
AcDbEntity
  8
FREI
  6
STRICHPUNKT
 62
          15
100
AcDbLine
 10
-15359.738816934165
 20
-2325.297825132378
 30
0.0
 11
-15469.738816934165
 21
-2515.823413964955
 31
0.0
  0
LINE
  5
28
100
AcDbEntity
  8
FREI
  6
CONTINUOUS
 62
          15
100
AcDbLine
 10
-15475.78622104128
 20
-2325.297825132378
 30
0.0
 11
-15556.774370014502
 21
-2465.573413964955
 31
0.0
  0
LINE
  5
29
100
AcDbEntity
  8
FREI
  6
CONTINUOUS
 62
          15
100
AcDbLine
 10
-15359.738816934165
 20
-2526.297825132378
 30
0.0
 11
-15382.703263853829
 21
-2566.073413964955
 31
0.0
  0
LINE
  5
2A
100
AcDbEntity
  8
FREI
  6
CONTINUOUS
 62
          15
100
AcDbLine
 10
-15342.396022650233
 20
-2325.297825132378
 30
0.0
 11
-15475.78622104128
 21
-2325.297825132378
 31
0.0
  0
LINE
  5
2B
100
AcDbEntity
  8
FREI
  6
GESTRICHELT
 62
          15
100
AcDbLine
 10
-15249.948689714534
 20
-2325.297825132378
 30
0.0
 11
-15342.396022650233
 21
-2325.297825132378
 31
0.0
  0
LINE
  5
2C
100
AcDbEntity
  8
FREI
  6
CONTINUOUS
 62
          15
100
AcDbLine
 10
-15243.691412827049
 20
-2325.297825132378
 30
0.0
 11
-15249.948689714534
 21
-2325.297825132378
 31
0.0
  0
LINE
  5
2D
100
AcDbEntity
  8
FREI
  6
CONTINUOUS
 62
          15
100
AcDbLine
 10
-15475.78622104128
 20
-2325.297825132378
 30
0.0
 11
-15460.238816934165
 21
-2260.297825132378
 31
0.0
  0
LINE
  5
2E
100
AcDbEntity
  8
FREI
  6
CONTINUOUS
 62
          15
100
AcDbLine
 10
-15291.571661796092
 20
-2260.297825132378
 30
0.0
 11
-15259.238816934165
 21
-2260.297825132378
 31
0.0
  0
LINE
  5
2F
100
AcDbEntity
  8
FREI
  6
GESTRICHELT
 62
          15
100
AcDbLine
 10
-15353.222789587118
 20
-2260.297825132378
 30
0.0
 11
-15291.571661796092
 21
-2260.297825132378
 31
0.0
  0
LINE
  5
30
100
AcDbEntity
  8
FREI
  6
CONTINUOUS
 62
          15
100
AcDbLine
 10
-15460.238816934165
 20
-2260.297825132378
 30
0.0
 11
-15353.222789587118
 21
-2260.297825132378
 31
0.0
  0
LINE
  5
31
100
AcDbEntity
  8
FREI
  6
CONTINUOUS
 62
          15
100
AcDbLine
 10
-15259.238816934165
 20
-2260.297825132378
 30
0.0
 11
-15243.691412827049
 21
-2325.297825132378
 31
0.0
  0
LINE
  5
32
100
AcDbEntity
  8
FREI
  6
CONTINUOUS
 62
          15
100
AcDbLine
 10
-15359.738816934165
 20
-2474.004400702621
 30
0.0
 11
-15359.738816934165
 21
-2526.297825132378
 31
0.0
  0
LINE
  5
33
100
AcDbEntity
  8
FREI
  6
GESTRICHELT
 62
          15
100
AcDbLine
 10
-15359.738816934165
 20
-2402.297825132378
 30
0.0
 11
-15359.738816934165
 21
-2474.004400702621
 31
0.0
  0
LINE
  5
34
100
AcDbEntity
  8
FREI
  6
GESTRICHELT
 62
          15
100
AcDbLine
 10
-15359.738816934165
 20
-2352.80814266074
 30
0.0
 11
-15359.738816934165
 21
-2382.297825132378
 31
0.0
  0
LINE
  5
35
100
AcDbEntity
  8
FREI
  6
CONTINUOUS
 62
          15
100
AcDbLine
 10
-15359.738816934165
 20
-2325.297825132378
 30
0.0
 11
-15359.738816934165
 21
-2352.80814266074
 31
0.0
  0
LINE
  5
36
100
AcDbEntity
  8
FREI
  6
CONTINUOUS
 62
          15
100
AcDbLine
 10
-15336.774370014502
 20
-2566.073413964955
 30
0.0
 11
-15162.703263853829
 21
-2465.573413964955
 31
0.0
  0
LINE
  5
37
100
AcDbEntity
  8
FREI
  6
CONTINUOUS
 62
          15
100
AcDbLine
 10
-15382.703263853829
 20
-2566.073413964955
 30
0.0
 11
-15556.774370014502
 21
-2465.573413964955
 31
0.0
  0
ARC
  5
38
100
AcDbEntity
  8
FREI
  6
CONTINUOUS
 62
          15
100
AcDbCircle
 10
-15304.475371250033
 20
-2282.977907023513
 30
0.0
 40
26.093904120701
100
AcDbArc
 50
29.970101035151
 51
77.275326881122
  0
ARC
  5
39
100
AcDbEntity
  8
FREI
  6
CONTINUOUS
 62
          15
100
AcDbCircle
 10
-15237.439341210904
 20
-2399.245579833687
 30
0.0
 40
26.093904120701
100
AcDbArc
 50
342.664835748251
 51
29.970101035151
  0
LINE
  5
3A
100
AcDbEntity
  8
FREI
  6
CONTINUOUS
 62
          15
100
AcDbLine
 10
-15225.596299026047
 20
-2448.866272360936
 30
0.0
 11
-15212.530966662254
 21
-2407.020448189914
 31
0.0
  0
LINE
  5
3B
100
AcDbEntity
  8
FREI
  6
CONTINUOUS
 62
          15
100
AcDbLine
 10
-15341.490238999555
 20
-2247.865400680302
 30
0.0
 11
-15298.726931348354
 21
-2257.52118675549
 31
0.0
  0
LINE
  5
3C
100
AcDbEntity
  8
FREI
  6
CONTINUOUS
 62
          15
100
AcDbLine
 10
-15281.866066323661
 20
-2269.940145114883
 30
0.0
 11
-15214.830036284535
 21
-2386.207817925058
 31
0.0
  0
ARC
  5
3D
100
AcDbEntity
  8
FREI
  6
CONTINUOUS
 62
          15
100
AcDbCircle
 10
-15378.615388569731
 20
-2403.185091538221
 30
0.0
 40
10.893393173657
100
AcDbArc
 50
147.628285169611
 51
272.168526113971
  0
LINE
  5
3E
100
AcDbEntity
  8
FREI
  6
CONTINUOUS
 62
          15
100
AcDbLine
 10
-15328.938023440202
 20
-2303.949833251538
 30
0.0
 11
-15387.831579054249
 21
-2397.37078888254
 31
0.0
  0
LINE
  5
3F
100
AcDbEntity
  8
FREI
  6
CONTINUOUS
 62
          15
100
AcDbLine
 10
-15351.882768904401
 20
-2264.162603066088
 30
0.0
 11
-15244.904807792514
 21
-2449.693386015854
 31
0.0
  0
ARC
  5
40
100
AcDbEntity
  8
FREI
  6
CONTINUOUS
 62
          15
100
AcDbCircle
 10
-15342.444483086618
 20
-2258.71590647926
 30
0.0
 40
10.893776096645
100
AcDbArc
 50
84.974072586301
 51
209.988620150222
  0
ARC
  5
41
100
AcDbEntity
  8
FREI
  6
CONTINUOUS
 62
          15
100
AcDbCircle
 10
-15235.468053666684
 20
-2444.252816196839
 30
0.0
 40
10.893776096645
100
AcDbArc
 50
209.964734733568
 51
334.951481380678
  0
LINE
  5
42
100
AcDbEntity
  8
FREI
  6
GESTRICHELT
 62
          15
100
AcDbLine
 10
-15315.13594724675
 20
-2411.731932639038
 30
0.0
 11
-15340.218934678107
 21
-2412.56517306177
 31
0.0
  0
LINE
  5
43
100
AcDbEntity
  8
FREI
  6
CONTINUOUS
 62
          15
100
AcDbLine
 10
-15315.146669090425
 20
-2411.774820013737
 30
0.0
 11
-15267.67953544987
 21
-2410.200240685486
 31
0.0
  0
LINE
  5
44
100
AcDbEntity
  8
FREI
  6
CONTINUOUS
 62
          15
100
AcDbLine
 10
-15340.437966627464
 20
-2412.644821043355
 30
0.0
 11
-15378.203363434226
 21
-2414.06623117625
 31
0.0
  0
LINE
  5
45
100
AcDbEntity
  8
FREI
  6
CONTINUOUS
 62
          15
100
AcDbLine
 10
-15335.227150601482
 20
-2428.127163309851
 30
0.0
 11
-15335.224087217575
 21
-2424.616525352311
 31
0.0
  0
LINE
  5
46
100
AcDbEntity
  8
FREI
  6
GESTRICHELT
 62
          15
100
AcDbLine
 10
-15335.227150601482
 20
-2428.127163309851
 30
0.0
 11
-15335.256252748601
 21
-2433.867944751762
 31
0.0
  0
LINE
  5
47
100
AcDbEntity
  8
FREI
  6
GESTRICHELT
 62
          15
100
AcDbLine
 10
-15335.227150601482
 20
-2392.297825132378
 30
0.0
 11
-15335.237872445157
 21
-2424.653285959197
 31
0.0
  0
LINE
  5
48
100
AcDbEntity
  8
FREI
  6
GESTRICHELT
 62
          15
100
AcDbLine
 10
-15384.253546650754
 20
-2391.703528654401
 30
0.0
 11
-15384.250483266847
 21
-2412.503905383628
 31
0.0
  0
ARC
  5
49
100
AcDbEntity
  8
FREI
  6
CONTINUOUS
 62
          15
100
AcDbCircle
 10
-15359.738816934165
 20
-2392.297825132378
 30
0.0
 40
24.511666332682
100
AcDbArc
 50
116.990965333067
 51
178.553410663232
  0
ARC
  5
4A
100
AcDbEntity
  8
FREI
  6
GESTRICHELT
 62
          15
100
AcDbCircle
 10
-15359.738816934165
 20
-2392.297825132378
 30
0.0
 40
24.511666332682
100
AcDbArc
 50
0.000000683099
 51
116.990965333067
  0
LINE
  5
4B
100
AcDbEntity
  8
FREI
  6
CONTINUOUS
 62
          15
100
AcDbLine
 10
-15384.250483266847
 20
-2474.004400702621
 30
0.0
 11
-15335.227150601482
 21
-2474.004400702621
 31
0.0
  0
LINE
  5
4C
100
AcDbEntity
  8
FREI
  6
CONTINUOUS
 62
          15
100
AcDbLine
 10
-15384.250483266847
 20
-2412.503905383628
 30
0.0
 11
-15384.250483266847
 21
-2474.004400702621
 31
0.0
  0
LINE
  5
4D
100
AcDbEntity
  8
FREI
  6
CONTINUOUS
 62
          15
100
AcDbLine
 10
-15335.227150601482
 20
-2474.004400702621
 30
0.0
 11
-15335.22561890953
 21
-2433.757662931106
 31
0.0
  0
ARC
  5
4E
100
AcDbEntity
  8
FREI
  6
CONTINUOUS
 62
          15
100
AcDbCircle
 10
-15359.738816934165
 20
-2457.664310942135
 30
0.0
 40
11.775264815914
100
AcDbArc
 50
83.396411513612
 51
323.393951543439
  0
LINE
  5
4F
100
AcDbEntity
  8
FREI
  6
GESTRICHELT
 62
          15
100
AcDbLine
 10
-15337.356202416919
 20
-2428.047515328267
 30
0.0
 11
-15335.896499985185
 21
-2428.219064827064
 31
0.0
  0
ARC
  5
50
100
AcDbEntity
  8
FREI
  6
GESTRICHELT
 62
          15
100
AcDbCircle
 10
-15291.779176647045
 20
-2381.349291048394
 30
0.0
 40
2.716455679623
100
AcDbArc
 50
322.006040502197
 51
23.359604704482
  0
CIRCLE
  5
51
100
AcDbEntity
  8
FREI
  6
CONTINUOUS
 62
          15
100
AcDbCircle
 10
-15274.801903033882
 20
-2343.332696761249
 30
0.0
 40
7.625528390755
  0
ARC
  5
52
100
AcDbEntity
  8
FREI
  6
GESTRICHELT
 62
          15
100
AcDbCircle
 10
-15281.798671877705
 20
-2358.796658724304
 30
0.0
 40
2.716455679623
100
AcDbArc
 50
263.388406711703
 51
323.459608284301
  0
ARC
  5
53
100
AcDbEntity
  8
FREI
  6
GESTRICHELT
 62
          15
100
AcDbCircle
 10
-15279.306609069277
 20
-2364.555820469657
 30
0.0
 40
2.716455679623
100
AcDbArc
 50
263.420531649356
 51
323.459608284301
  0
LINE
  5
54
100
AcDbEntity
  8
FREI
  6
GESTRICHELT
 62
          15
100
AcDbLine
 10
-15281.804798645519
 20
-2346.353193293653
 30
0.0
 11
-15285.618711609863
 21
-2348.001293835674
 31
0.0
  0
LINE
  5
55
100
AcDbEntity
  8
FREI
  6
GESTRICHELT
 62
          15
100
AcDbLine
 10
-15272.253167623174
 20
-2350.519395407312
 30
0.0
 11
-15279.616010843894
 21
-2360.414125427254
 31
0.0
  0
LINE
  5
56
100
AcDbEntity
  8
FREI
  6
GESTRICHELT
 62
          15
100
AcDbLine
 10
-15277.123948035467
 20
-2366.173287172607
 30
0.0
 11
-15265.357490448285
 21
-2350.347845908515
 31
0.0
  0
ARC
  5
57
100
AcDbEntity
  8
FREI
  6
GESTRICHELT
 62
          15
100
AcDbCircle
 10
-15274.811093185604
 20
-2343.326569993435
 30
0.0
 40
11.774881892926
100
AcDbArc
 50
323.39839556867
 51
203.390402770664
  0
ARC
  5
58
100
AcDbEntity
  8
FREI
  6
CONTINUOUS
 62
          15
100
AcDbCircle
 10
-15300.085542111154
 20
-2362.148000718674
 30
0.0
 40
2.716455679623
100
AcDbArc
 50
89.482670676549
 51
203.385226065905
  0
LINE
  5
59
100
AcDbEntity
  8
FREI
  6
GESTRICHELT
 62
          15
100
AcDbLine
 10
-15293.385921506322
 20
-2365.658638676214
 30
0.0
 11
-15279.617542535849
 21
-2367.251598307907
 31
0.0
  0
LINE
  5
5A
100
AcDbEntity
  8
FREI
  6
GESTRICHELT
 62
          15
100
AcDbLine
 10
-15282.111137036231
 20
-2361.492436562554
 30
0.0
 11
-15296.740326884599
 21
-2359.813702181462
 31
0.0
  0
ARC
  5
5B
100
AcDbEntity
  8
FREI
  6
CONTINUOUS
 62
          15
100
AcDbCircle
 10
-15298.322564672617
 20
-2376.484637403914
 30
0.0
 40
1.357844916823
100
AcDbArc
 50
263.418060351511
 51
23.359604704482
  0
ARC
  5
5C
100
AcDbEntity
  8
FREI
  6
CONTINUOUS
 62
          15
100
AcDbCircle
 10
-15291.779176647045
 20
-2381.349291048394
 30
0.0
 40
2.716455679623
100
AcDbArc
 50
263.420531649356
 51
322.006040502197
  0
LINE
  5
5D
100
AcDbEntity
  8
FREI
  6
CONTINUOUS
 62
          15
100
AcDbLine
 10
-15302.579136611535
 20
-2363.226311853974
 30
0.0
 11
-15297.074235730472
 21
-2375.945481836265
 31
0.0
  0
ARC
  5
5E
100
AcDbEntity
  8
FREI
  6
CONTINUOUS
 62
          15
100
AcDbCircle
 10
-15306.014721663352
 20
-2383.80612494189
 30
0.0
 40
1.357844916823
100
AcDbArc
 50
83.354100952973
 51
203.436618161791
  0
ARC
  5
5F
100
AcDbEntity
  8
FREI
  6
CONTINUOUS
 62
          15
100
AcDbCircle
 10
-15312.558109688924
 20
-2378.941471297411
 30
0.0
 40
2.716455679623
100
AcDbArc
 50
83.388401704415
 51
203.385226065905
  0
LINE
  5
60
100
AcDbEntity
  8
FREI
  6
CONTINUOUS
 62
          15
100
AcDbLine
 10
-15305.856957392136
 20
-2382.45210925495
 30
0.0
 11
-15292.090110113617
 21
-2384.045068886644
 31
0.0
  0
LINE
  5
61
100
AcDbEntity
  8
FREI
  6
CONTINUOUS
 62
          15
100
AcDbLine
 10
-15298.478797251879
 20
-2377.838653090854
 30
0.0
 11
-15312.2456445304
 21
-2376.245693459161
 31
0.0
  0
LINE
  5
62
100
AcDbEntity
  8
FREI
  6
CONTINUOUS
 62
          15
100
AcDbLine
 10
-15310.951364829647
 20
-2394.63212366959
 30
0.0
 11
-15324.716680416213
 21
-2393.039164037898
 31
0.0
  0
LINE
  5
63
100
AcDbEntity
  8
FREI
  6
CONTINUOUS
 62
          15
100
AcDbLine
 10
-15318.329524969906
 20
-2399.245579833687
 30
0.0
 11
-15304.562677691385
 21
-2400.838539465381
 31
0.0
  0
ARC
  5
64
100
AcDbEntity
  8
FREI
  6
CONTINUOUS
 62
          15
100
AcDbCircle
 10
-15325.029145574737
 20
-2395.734941876148
 30
0.0
 40
2.716455679623
100
AcDbArc
 50
83.388401704415
 51
203.385226065905
  0
ARC
  5
65
100
AcDbEntity
  8
FREI
  6
CONTINUOUS
 62
          15
100
AcDbCircle
 10
-15318.485757549168
 20
-2400.599595520627
 30
0.0
 40
1.357844916823
100
AcDbArc
 50
83.418055344222
 51
203.410895497621
  0
LINE
  5
66
100
AcDbEntity
  8
FREI
  6
CONTINUOUS
 62
          15
100
AcDbLine
 10
-15315.051704189305
 20
-2380.019782432711
 30
0.0
 11
-15309.546803308242
 21
-2392.738952415001
 31
0.0
  0
LINE
  5
67
100
AcDbEntity
  8
FREI
  6
CONTINUOUS
 62
          15
100
AcDbLine
 10
-15301.755086340525
 20
-2397.06445049183
 30
0.0
 11
-15307.258455529636
 21
-2384.34528050954
 31
0.0
  0
ARC
  5
68
100
AcDbEntity
  8
FREI
  6
CONTINUOUS
 62
          15
100
AcDbCircle
 10
-15304.250212532861
 20
-2398.14276162713
 30
0.0
 40
2.716455679623
100
AcDbArc
 50
263.388406711703
 51
23.372406255528
  0
ARC
  5
69
100
AcDbEntity
  8
FREI
  6
CONTINUOUS
 62
          15
100
AcDbCircle
 10
-15310.795132250385
 20
-2393.278107982651
 30
0.0
 40
1.357844916823
100
AcDbArc
 50
263.418060351511
 51
23.359604704482
  0
LINE
  5
6A
100
AcDbEntity
  8
FREI
  6
CONTINUOUS
 62
          15
100
AcDbLine
 10
-15323.423932407417
 20
-2411.425594248328
 30
0.0
 11
-15337.189247993982
 21
-2409.832634616634
 31
0.0
  0
LINE
  5
6B
100
AcDbEntity
  8
FREI
  6
CONTINUOUS
 62
          15
100
AcDbLine
 10
-15330.802092547672
 20
-2416.039050412424
 30
0.0
 11
-15317.035245269153
 21
-2417.632010044118
 31
0.0
  0
ARC
  5
6C
100
AcDbEntity
  8
FREI
  6
CONTINUOUS
 62
          15
100
AcDbCircle
 10
-15337.501713152507
 20
-2412.528412454884
 30
0.0
 40
2.716455679623
100
AcDbArc
 50
83.388401704415
 51
203.385226065905
  0
ARC
  5
6D
100
AcDbEntity
  8
FREI
  6
CONTINUOUS
 62
          15
100
AcDbCircle
 10
-15330.958325126936
 20
-2417.393066099364
 30
0.0
 40
1.357844916823
100
AcDbArc
 50
83.418055344222
 51
203.410895497621
  0
LINE
  5
6E
100
AcDbEntity
  8
FREI
  6
CONTINUOUS
 62
          15
100
AcDbLine
 10
-15327.522740075119
 20
-2396.813253011448
 30
0.0
 11
-15322.01937088601
 21
-2409.532422993738
 31
0.0
  0
LINE
  5
6F
100
AcDbEntity
  8
FREI
  6
CONTINUOUS
 62
          15
100
AcDbLine
 10
-15314.227653918295
 20
-2413.857921070567
 30
0.0
 11
-15319.731023107404
 21
-2401.138751088277
 31
0.0
  0
ARC
  5
70
100
AcDbEntity
  8
FREI
  6
CONTINUOUS
 62
          15
100
AcDbCircle
 10
-15316.722780110629
 20
-2414.936232205867
 30
0.0
 40
2.716455679623
100
AcDbArc
 50
263.388406711703
 51
23.372406255528
  0
ARC
  5
71
100
AcDbEntity
  8
FREI
  6
CONTINUOUS
 62
          15
100
AcDbCircle
 10
-15323.267699828155
 20
-2410.077705329202
 30
0.0
 40
1.357844916823
100
AcDbArc
 50
263.388406711703
 51
23.596177758969
  0
ARC
  5
72
100
AcDbEntity
  8
FREI
  6
CONTINUOUS
 62
          15
100
AcDbCircle
 10
-15335.740267405923
 20
-2426.871175907939
 30
0.0
 40
1.357844916823
100
AcDbArc
 50
263.388406711703
 51
23.596177758969
  0
ARC
  5
73
100
AcDbEntity
  8
FREI
  6
CONTINUOUS
 62
          15
100
AcDbCircle
 10
-15329.195347688397
 20
-2431.729702784604
 30
0.0
 40
2.716455679623
100
AcDbArc
 50
263.388406711703
 51
23.372406255528
  0
LINE
  5
74
100
AcDbEntity
  8
FREI
  6
CONTINUOUS
 62
          15
100
AcDbLine
 10
-15326.700221496063
 20
-2430.651391649304
 30
0.0
 11
-15332.203590685172
 21
-2417.932221667013
 31
0.0
  0
LINE
  5
75
100
AcDbEntity
  8
FREI
  6
CONTINUOUS
 62
          15
100
AcDbLine
 10
-15339.995307652889
 20
-2413.606723590185
 30
0.0
 11
-15334.491938463778
 21
-2426.325893572475
 31
0.0
  0
ARC
  5
76
100
AcDbEntity
  8
FREI
  6
CONTINUOUS
 62
          15
100
AcDbCircle
 10
-15344.781845007736
 20
-2448.161694062303
 30
0.0
 40
5.4344430512
100
AcDbArc
 50
323.388481348987
 51
23.385221057158
  0
ARC
  5
77
100
AcDbEntity
  8
FREI
  6
CONTINUOUS
 62
          15
100
AcDbCircle
 10
-15351.01583125869
 20
-2447.438735460227
 30
0.0
 40
5.4344430512
100
AcDbArc
 50
323.388481348987
 51
23.385221057158
  0
ARC
  5
78
100
AcDbEntity
  8
FREI
  6
CONTINUOUS
 62
          15
100
AcDbCircle
 10
-15343.430892704704
 20
-2434.1865366781
 30
0.0
 40
1.357844916823
100
AcDbArc
 50
83.418055344222
 51
203.436618161791
  0
ARC
  5
79
100
AcDbEntity
  8
FREI
  6
CONTINUOUS
 62
          15
100
AcDbCircle
 10
-15349.974280730275
 20
-2429.321883033621
 30
0.0
 40
2.716455679623
100
AcDbArc
 50
83.388401704415
 51
203.503718090275
  0
LINE
  5
7A
100
AcDbEntity
  8
FREI
  6
CONTINUOUS
 62
          15
100
AcDbLine
 10
-15343.274660125442
 20
-2432.832520991161
 30
0.0
 11
-15329.507812846923
 21
-2434.425480622855
 31
0.0
  0
LINE
  5
7B
100
AcDbEntity
  8
FREI
  6
CONTINUOUS
 62
          15
100
AcDbLine
 10
-15335.896499985185
 20
-2428.219064827064
 30
0.0
 11
-15349.66181557175
 21
-2426.626105195371
 31
0.0
  0
LINE
  5
7C
100
AcDbEntity
  8
FREI
  6
CONTINUOUS
 62
          15
100
AcDbLine
 10
-15352.467875230655
 20
-2430.406320936736
 30
0.0
 11
-15346.028642257927
 21
-2445.282113189626
 31
0.0
  0
LINE
  5
7D
100
AcDbEntity
  8
FREI
  6
CONTINUOUS
 62
          15
100
AcDbLine
 10
-15339.794656006974
 20
-2446.005071791703
 30
0.0
 11
-15344.674626570988
 21
-2434.725692245751
 31
0.0
  0
LINE
  5
7E
100
AcDbEntity
  8
FREI
  6
CONTINUOUS
 62
          15
100
AcDbLine
 10
-15340.419586324022
 20
-2451.402754236017
 30
0.0
 11
-15350.286745888799
 21
-2464.685586857215
 31
0.0
  0
LINE
  5
7F
100
AcDbEntity
  8
FREI
  6
CONTINUOUS
 62
          15
100
AcDbLine
 10
-15353.700887253266
 20
-2460.170158978145
 30
0.0
 11
-15346.653572574976
 21
-2450.679795633941
 31
0.0
  0
LINE
  5
80
100
AcDbEntity
  8
FREI
  6
CONTINUOUS
 62
          15
100
AcDbLine
 10
-15358.988287876926
 20
-2451.169937059078
 30
0.0
 11
-15358.384801247224
 21
-2445.968311184817
 31
0.0
  0
CIRCLE
  5
81
100
AcDbEntity
  8
FREI
  6
CONTINUOUS
 62
          15
100
AcDbCircle
 10
-15359.738816934165
 20
-2457.664310942135
 30
0.0
 40
6.536878334769
  0
LINE
  5
82
100
AcDbEntity
  8
FREI
  6
CONTINUOUS
 62
          15
100
AcDbLine
 10
-15300.061035039898
 20
-2359.433842576981
 30
0.0
 11
-15296.740326884599
 21
-2359.813702181462
 31
0.0
  0
LINE
  5
83
100
AcDbEntity
  8
FREI
  6
CONTINUOUS
 62
          15
100
AcDbLine
 10
-15289.282518762757
 20
-2380.270979913094
 30
0.0
 11
-15294.787419643821
 21
-2367.551809930803
 31
0.0
  0
ARC
  5
84
100
AcDbEntity
  8
FREI
  6
CONTINUOUS
 62
          15
100
AcDbCircle
 10
-15293.542154085584
 20
-2367.012654363153
 30
0.0
 40
1.357844916823
100
AcDbArc
 50
83.418055344222
 51
203.410895497621
  0
CIRCLE
  5
85
100
AcDbEntity
  8
FREI
  6
CONTINUOUS
 62
          15
100
AcDbCircle
 10
-15359.738816934165
 20
-2392.297825132378
 30
0.0
 40
10.0
  0
TEXT
  5
86
100
AcDbEntity
  8
FREI
  6
CONTINUOUS
 62
          15
100
AcDbText
 10
-15528.068641297365
 20
-2460.344100303568
 30
0.0
 40
3.527777671814
  1
200-220
 41
0.899999979725
  7
GOTHICG
100
AcDbText
  0
ENDSEC
  0
SECTION
  2
OBJECTS
  0
DICTIONARY
  5
19
100
AcDbDictionary
  3
ACAD_GROUP
350
1A
  3
ACAD_MLINESTYLE
350
1B
  0
DICTIONARY
  5
1A
102
{ACAD_REACTORS
330
19
102
}
100
AcDbDictionary
  0
DICTIONARY
  5
1B
102
{ACAD_REACTORS
330
19
102
}
100
AcDbDictionary
  3
STANDARD
350
1C
  0
MLINESTYLE
  5
1C
102
{ACAD_REACTORS
330
1B
102
}
100
AcDbMlineStyle
  2
STANDARD
 70
           0
  3

 62
           0
 51
90.0
 52
90.0
 71
           2
 49
0.5
 62
         256
  6
BYLAYER
 49
-0.5
 62
         256
  6
BYLAYER
  0
ENDSEC
  0
EOF
