  0
SECTION
  2
HEADER
  9
$ACADVER
  1
AC1012
  9
$DWGCODEPAGE
  3
dos850
  9
$INSBASE
 10
0.0
 20
0.0
 30
0.0
  9
$EXTMIN
 10
-15596.359410522307
 20
-3043.439495896101
 30
0.0
  9
$EXTMAX
 10
-15155.637669267024
 20
-2704.763271968913
 30
0.0
  9
$LIMMIN
 10
-15596.359410522307
 20
-3043.439495896101
  9
$LIMMAX
 10
-15155.637669267024
 20
-2704.763271968913
  9
$ORTHOMODE
 70
           0
  9
$REGENMODE
 70
           1
  9
$FILLMODE
 70
           1
  9
$QTEXTMODE
 70
           0
  9
$MIRRTEXT
 70
           1
  9
$DRAGMODE
 70
           2
  9
$LTSCALE
 40
5.0
  9
$OSMODE
 70
           0
  9
$ATTMODE
 70
           1
  9
$TEXTSIZE
 40
0.2
  9
$TRACEWID
 40
0.05
  9
$TEXTSTYLE
  7
TXT
  9
$CLAYER
  8
0
  9
$CELTYPE
  6
CONTINUOUS
  9
$CECOLOR
 62
         256
  9
$CELTSCALE
 40
1.0
  9
$DELOBJ
 70
           1
  9
$DISPSILH
 70
           0
  9
$DIMSCALE
 40
1.0
  9
$DIMASZ
 40
3.5
  9
$DIMEXO
 40
0.0625
  9
$DIMDLI
 40
0.38
  9
$DIMRND
 40
0.0
  9
$DIMDLE
 40
0.0
  9
$DIMEXE
 40
0.18
  9
$DIMTP
 40
0.0
  9
$DIMTM
 40
0.0
  9
$DIMTXT
 40
3.5
  9
$DIMCEN
 40
0.09
  9
$DIMTSZ
 40
0.0
  9
$DIMTOL
 70
           0
  9
$DIMLIM
 70
           0
  9
$DIMTIH
 70
           1
  9
$DIMTOH
 70
           1
  9
$DIMSE1
 70
           0
  9
$DIMSE2
 70
           0
  9
$DIMTAD
 70
           0
  9
$DIMZIN
 70
           0
  9
$DIMBLK
  1

  9
$DIMASO
 70
           1
  9
$DIMSHO
 70
           1
  9
$DIMPOST
  1

  9
$DIMAPOST
  1

  9
$DIMALT
 70
           0
  9
$DIMALTD
 70
           2
  9
$DIMALTF
 40
25.4
  9
$DIMLFAC
 40
1.0
  9
$DIMTOFL
 70
           0
  9
$DIMTVP
 40
0.0
  9
$DIMTIX
 70
           0
  9
$DIMSOXD
 70
           0
  9
$DIMSAH
 70
           0
  9
$DIMBLK1
  1

  9
$DIMBLK2
  1

  9
$DIMSTYLE
  2
STANDARD
  9
$DIMCLRD
 70
           0
  9
$DIMCLRE
 70
           0
  9
$DIMCLRT
 70
           0
  9
$DIMTFAC
 40
1.0
  9
$DIMGAP
 40
0.09
  9
$DIMJUST
 70
           0
  9
$DIMSD1
 70
           0
  9
$DIMSD2
 70
           0
  9
$DIMTOLJ
 70
           1
  9
$DIMTZIN
 70
           0
  9
$DIMALTZ
 70
           0
  9
$DIMALTTZ
 70
           0
  9
$DIMFIT
 70
           3
  9
$DIMUPT
 70
           0
  9
$DIMUNIT
 70
           2
  9
$DIMDEC
 70
           4
  9
$DIMTDEC
 70
           4
  9
$DIMALTU
 70
           2
  9
$DIMALTTD
 70
           2
  9
$DIMTXSTY
  7
TXT
  9
$DIMAUNIT
 70
           0
  9
$LUNITS
 70
           2
  9
$LUPREC
 70
           3
  9
$SKETCHINC
 40
0.1
  9
$FILLETRAD
 40
0.0
  9
$AUNITS
 70
           0
  9
$AUPREC
 70
           3
  9
$MENU
  1
acad
  9
$ELEVATION
 40
0.0
  9
$PELEVATION
 40
0.0
  9
$THICKNESS
 40
0.0
  9
$LIMCHECK
 70
           0
  9
$BLIPMODE
 70
           1
  9
$CHAMFERA
 40
0.0
  9
$CHAMFERB
 40
0.0
  9
$CHAMFERC
 40
0.0
  9
$CHAMFERD
 40
0.0
  9
$SKPOLY
 70
           0
  9
$TDCREATE
 40
0.000000000
  9
$TDUPDATE
 40
0.000000000
  9
$TDINDWG
 40
0.0000000000
  9
$TDUSRTIMER
 40
0.0000000000
  9
$USRTIMER
 70
           1
  9
$ANGBASE
 50
0.0
  9
$ANGDIR
 70
           0
  9
$PDMODE
 70
           2
  9
$PDSIZE
 40
0.5
  9
$PLINEWID
 40
0.0
  9
$COORDS
 70
           0
  9
$SPLFRAME
 70
           0
  9
$SPLINETYPE
 70
           6
  9
$SPLINESEGS
 70
           8
  9
$ATTDIA
 70
           0
  9
$ATTREQ
 70
           1
  9
$HANDLING
 70
           1
  9
$HANDSEED
  5
8A
  9
$SURFTAB1
 70
           6
  9
$SURFTAB2
 70
           6
  9
$SURFTYPE
 70
           6
  9
$SURFU
 70
           6
  9
$SURFV
 70
           6
  9
$UCSNAME
  2

  9
$UCSORG
 10
0.0
 20
0.0
 30
0.0
  9
$UCSXDIR
 10
1.0
 20
0.0
 30
0.0
  9
$UCSYDIR
 10
0.0
 20
1.0
 30
0.0
  9
$PUCSNAME
  2

  9
$PUCSORG
 10
0.0
 20
0.0
 30
0.0
  9
$PUCSXDIR
 10
1.0
 20
0.0
 30
0.0
  9
$PUCSYDIR
 10
0.0
 20
1.0
 30
0.0
  9
$USERI1
 70
           0
  9
$USERI2
 70
           0
  9
$USERI3
 70
           0
  9
$USERI4
 70
           0
  9
$USERI5
 70
           0
  9
$USERR1
 40
0.0
  9
$USERR2
 40
0.0
  9
$USERR3
 40
0.0
  9
$USERR4
 40
0.0
  9
$USERR5
 40
0.0
  9
$WORLDVIEW
 70
           1
  9
$SHADEDGE
 70
           3
  9
$SHADEDIF
 70
          70
  9
$TILEMODE
 70
           1
  9
$MAXACTVP
 70
          16
  9
$PINSBASE
 10
0.0
 20
0.0
 30
0.0
  9
$PLIMCHECK
 70
           0
  9
$PEXTMIN
 10
1.000000000000E+20
 20
1.000000000000E+20
 30
1.000000000000E+20
  9
$PEXTMAX
 10
-1.000000000000E+20
 20
-1.000000000000E+20
 30
-1.000000000000E+20
  9
$PLIMMIN
 10
0.0
 20
0.0
  9
$PLIMMAX
 10
12.0
 20
9.0
  9
$UNITMODE
 70
           0
  9
$VISRETAIN
 70
           0
  9
$PLINEGEN
 70
           1
  9
$PSLTSCALE
 70
           0
  9
$TREEDEPTH
 70
        3020
  9
$PICKSTYLE
 70
           1
  9
$CMLSTYLE
  2
STANDARD
  9
$CMLJUST
 70
           0
  9
$CMLSCALE
 40
1.0
  9
$SAVEIMAGES
 70
           0
  0
ENDSEC
  0
SECTION
  2
CLASSES
  0
CLASS
  1
LWPOLYLINE
  2
AcDbPolyline
  3
"AutoCAD"
 90
        0
280
           0
281
           1
  0
CLASS
  1
IMAGE
  2
AcDbRasterImage
  3
ISM
 90
      127
280
           0
281
           1
  0
CLASS
  1
OLE2FRAME
  2
AcDbOle2Frame
  3
""
 90
        0
280
           0
281
           1
  0
CLASS
  1
HATCH
  2
AcDbHatch
  3
"ACAD_SEDONA"
 90
        0
280
           0
281
           1
  0
CLASS
  1
DICTIONARYVAR
  2
AcDbDictionaryVar
  3
"AutoCAD"
 90
        0
280
           0
281
           0
  0
CLASS
  1
RASTERVARIABLES
  2
AcDbRasterVariables
  3
ISM
 90
        0
280
           0
281
           0
  0
CLASS
  1
IMAGEDEF
  2
AcDbRasterImageDef
  3
ISM
 90
        0
280
           0
281
           0
  0
CLASS
  1
IMAGEDEF_REACTOR
  2
AcDbRasterImageDefReactor
  3
ISM
 90
        1
280
           0
281
           0
  0
CLASS
  1
IDBUFFER
  2
AcDbIdBuffer
  3
"Acad"
 90
        0
280
           0
281
           0
  0
CLASS
  1
SPATIAL_FILTER
  2
AcDbSpatialFilter
  3
"Acad"
 90
        0
280
           0
281
           0
  0
CLASS
  1
XRECORD
  2
AcDbXrecord
  3
"<Built In>"
 90
        0
280
           0
281
           0
  0
ENDSEC
  0
SECTION
  2
TABLES
  0
TABLE
  2
VPORT
  5
7
100
AcDbSymbolTable
 70
           1
  0
VPORT
  5
15
100
AcDbSymbolTableRecord
100
AcDbViewportTableRecord
  2
*ACTIVE
 70
           0
 10
0.0
 20
0.0
 11
1.0
 21
1.0
 12
6.591288
 22
4.579184
 13
0.0
 23
0.0
 14
1.0
 24
1.0
 15
0.0
 25
0.0
 16
0.0
 26
0.0
 36
1.0
 17
0.0
 27
0.0
 37
0.0
 40
9.158369
 41
0.688564
 42
50.0
 43
0.0
 44
0.0
 50
0.0
 51
0.0
 71
           0
 72
         100
 73
           1
 74
           1
 75
           0
 76
           0
 77
           0
 78
           0
  0
ENDTAB
  0
TABLE
  2
LTYPE
  5
4
100
AcDbSymbolTable
 70
           5
  0
LTYPE
  5
11
100
AcDbSymbolTableRecord
100
AcDbLinetypeTableRecord
  2
BYBLOCK
 70
           0
  3

 72
          65
 73
           0
 40
0.0
  0
LTYPE
  5
12
100
AcDbSymbolTableRecord
100
AcDbLinetypeTableRecord
  2
BYLAYER
 70
           0
  3

 72
          65
 73
           0
 40
0.0
  0
LTYPE
  5
13
100
AcDbSymbolTableRecord
100
AcDbLinetypeTableRecord
  2
CONTINUOUS
 70
           0
  3
Solid line
 72
          65
 73
           0
 40
0.0
  0
LTYPE
  5
1D
100
AcDbSymbolTableRecord
100
AcDbLinetypeTableRecord
  2
GESTRICHELT
 70
           0
  3

 72
          65
 73
           2
 40
0.75
 49
0.5
 74
           0
 49
-0.25
 74
           0
  0
LTYPE
  5
1E
100
AcDbSymbolTableRecord
100
AcDbLinetypeTableRecord
  2
STRICHPUNKT
 70
           0
  3

 72
          65
 73
           4
 40
1.0
 49
0.5
 74
           0
 49
-0.25
 74
           0
 49
0.0
 74
           0
 49
-0.25
 74
           0
  0
ENDTAB
  0
TABLE
  2
LAYER
  5
2
100
AcDbSymbolTable
 70
           2
  0
LAYER
  5
14
100
AcDbSymbolTableRecord
100
AcDbLayerTableRecord
  2
0
 70
           0
 62
           7
  6
CONTINUOUS
  0
LAYER
  5
20
100
AcDbSymbolTableRecord
100
AcDbLayerTableRecord
  2
FREI
 70
           0
 62
           7
  6
CONTINUOUS
  0
ENDTAB
  0
TABLE
  2
STYLE
  5
3
100
AcDbSymbolTable
 70
           2
  0
STYLE
  5
17
100
AcDbSymbolTableRecord
100
AcDbTextStyleTableRecord
  2
TXT
 70
           0
 40
3.5
 41
1.0
 50
0.0
 71
           0
 42
3.5
  3
TXT
  4

  0
STYLE
  5
1F
100
AcDbSymbolTableRecord
100
AcDbTextStyleTableRecord
  2
GOTHICG
 70
           0
 40
3.5
 41
1.0
 50
0.0
 71
           0
 42
3.5
  3
GOTHICG
  4

  0
ENDTAB
  0
TABLE
  2
VIEW
  5
5
100
AcDbSymbolTable
 70
           0
  0
ENDTAB
  0
TABLE
  2
UCS
  5
6
100
AcDbSymbolTable
 70
           0
  0
ENDTAB
  0
TABLE
  2
APPID
  5
8
100
AcDbSymbolTable
 70
           2
  0
APPID
  5
16
100
AcDbSymbolTableRecord
100
AcDbRegAppTableRecord
  2
ACAD
 70
           0
  0
APPID
  5
21
100
AcDbSymbolTableRecord
100
AcDbRegAppTableRecord
  2
MegaCADPntStyle
 70
           0
  0
ENDTAB
  0
TABLE
  2
DIMSTYLE
  5
9
100
AcDbSymbolTable
 70
           1
  0
DIMSTYLE
105
18
100
AcDbSymbolTableRecord
100
AcDbDimStyleTableRecord
  2
STANDARD
 70
           0
  3

  4

  5

  6

  7

 40
1.0
 41
0.18
 42
0.0625
 43
0.38
 44
0.18
 45
0.0
 46
0.0
 47
0.0
 48
0.0
140
0.18
141
0.09
142
0.0
143
25.4
144
1.0
145
0.0
146
1.0
147
0.09
 71
           0
 72
           0
 73
           1
 74
           1
 75
           0
 76
           0
 77
           0
 78
           0
170
           0
171
           2
172
           0
173
           0
174
           0
175
           0
176
           0
177
           0
178
           0
270
           2
271
           4
272
           4
273
           2
274
           2
340
17
275
           0
280
           0
281
           0
282
           0
283
           1
284
           0
285
           0
286
           0
287
           0
288
           0
  0
ENDTAB
  0
TABLE
  2
BLOCK_RECORD
  5
1
100
AcDbSymbolTable
 70
           1
  0
BLOCK_RECORD
  5
A
100
AcDbSymbolTableRecord
100
AcDbBlockTableRecord
  2
*MODEL_SPACE
  0
BLOCK_RECORD
  5
B
100
AcDbSymbolTableRecord
100
AcDbBlockTableRecord
  2
*PAPER_SPACE
  0
BLOCK_RECORD
  5
22
100
AcDbSymbolTableRecord
100
AcDbBlockTableRecord
  2
ELIPPSE
  0
ENDTAB
  0
ENDSEC
  0
SECTION
  2
BLOCKS
  0
BLOCK
  5
D
100
AcDbEntity
  8
0
100
AcDbBlockBegin
  2
*MODEL_SPACE
 70
           0
 10
0.0
 20
0.0
 30
0.0
  3
*MODEL_SPACE
  1

  0
ENDBLK
  5
E
100
AcDbEntity
  8
0
100
AcDbBlockEnd
  0
BLOCK
  5
F
100
AcDbEntity
 67
           1
  8
0
100
AcDbBlockBegin
  2
*PAPER_SPACE
 70
           0
 10
0.0
 20
0.0
 30
0.0
  3
*PAPER_SPACE
  1

  0
ENDBLK
  5
10
100
AcDbEntity
 67
           1
  8
0
100
AcDbBlockEnd
  0
BLOCK
  5
85
100
AcDbEntity
  8
0
100
AcDbBlockBegin
  2
ELIPPSE
 70
          64
 10
0.0
 20
0.0
 30
0.0
  3
ELIPPSE
  1

  0
CIRCLE
  5
86
100
AcDbEntity
  8
0
  6
BYBLOCK
 62
           0
100
AcDbCircle
 10
0.0
 20
0.0
 30
0.0
 40
1.0
  0
ENDBLK
  5
87
100
AcDbEntity
  8
0
  6
BYBLOCK
 62
           0
100
AcDbBlockEnd
  0
ENDSEC
  0
SECTION
  2
ENTITIES
  0
LINE
  5
23
100
AcDbEntity
  8
FREI
  6
STRICHPUNKT
 62
          15
100
AcDbLine
 10
-15375.998539894666
 20
-2774.763271968913
 30
0.0
 11
-15498.498539894666
 21
-2986.939495896101
 31
0.0
  0
LINE
  5
24
100
AcDbEntity
  8
FREI
  6
CONTINUOUS
 62
          15
100
AcDbLine
 10
-15506.479700731521
 20
-2774.763271968913
 30
0.0
 11
-15596.359410522307
 21
-2930.439495896101
 31
0.0
  0
LINE
  5
25
100
AcDbEntity
  8
FREI
  6
CONTINUOUS
 62
          15
100
AcDbLine
 10
-15375.998539894666
 20
-3000.763271968913
 30
0.0
 11
-15400.637669267024
 21
-3043.439495896101
 31
0.0
  0
LINE
  5
26
100
AcDbEntity
  8
FREI
  6
STRICHPUNKT
 62
          15
100
AcDbLine
 10
-15375.998539894666
 20
-2704.763271968913
 30
0.0
 11
-15375.998539894666
 21
-2774.763271968913
 31
0.0
  0
LINE
  5
27
100
AcDbEntity
  8
FREI
  6
STRICHPUNKT
 62
          15
100
AcDbLine
 10
-15375.998539894666
 20
-2774.763271968913
 30
0.0
 11
-15253.498539894666
 21
-2986.939495896101
 31
0.0
  0
LINE
  5
28
100
AcDbEntity
  8
FREI
  6
CONTINUOUS
 62
          15
100
AcDbLine
 10
-15245.51737905781
 20
-2774.763271968913
 30
0.0
 11
-15155.637669267024
 21
-2930.439495896101
 31
0.0
  0
LINE
  5
29
100
AcDbEntity
  8
FREI
  6
CONTINUOUS
 62
          15
100
AcDbLine
 10
-15375.998539894666
 20
-3000.763271968913
 30
0.0
 11
-15351.359410522307
 21
-3043.439495896101
 31
0.0
  0
LINE
  5
2A
100
AcDbEntity
  8
FREI
  6
CONTINUOUS
 62
          15
100
AcDbLine
 10
-15271.013132423503
 20
-2774.763271968913
 30
0.0
 11
-15245.51737905781
 21
-2774.763271968913
 31
0.0
  0
LINE
  5
2B
100
AcDbEntity
  8
FREI
  6
GESTRICHELT
 62
          15
100
AcDbLine
 10
-15353.402324397024
 20
-2774.763271968913
 30
0.0
 11
-15271.013132423503
 21
-2774.763271968913
 31
0.0
  0
LINE
  5
2C
100
AcDbEntity
  8
FREI
  6
CONTINUOUS
 62
          15
100
AcDbLine
 10
-15506.479700731521
 20
-2774.763271968913
 30
0.0
 11
-15353.402324397024
 21
-2774.763271968913
 31
0.0
  0
LINE
  5
2D
100
AcDbEntity
  8
FREI
  6
CONTINUOUS
 62
          15
100
AcDbLine
 10
-15155.637669267024
 20
-2930.439495896101
 30
0.0
 11
-15351.359410522307
 21
-3043.439495896101
 31
0.0
  0
LINE
  5
2E
100
AcDbEntity
  8
FREI
  6
CONTINUOUS
 62
          15
100
AcDbLine
 10
-15400.637669267024
 20
-3043.439495896101
 30
0.0
 11
-15596.359410522307
 21
-2930.439495896101
 31
0.0
  0
LINE
  5
2F
100
AcDbEntity
  8
FREI
  6
CONTINUOUS
 62
          15
100
AcDbLine
 10
-15375.998539894666
 20
-2810.606922830608
 30
0.0
 11
-15375.998539894666
 21
-2774.763271968913
 31
0.0
  0
LINE
  5
30
100
AcDbEntity
  8
FREI
  6
GESTRICHELT
 62
          15
100
AcDbLine
 10
-15375.998539894666
 20
-2840.096605302246
 30
0.0
 11
-15375.998539894666
 21
-2810.606922830608
 31
0.0
  0
LINE
  5
31
100
AcDbEntity
  8
FREI
  6
GESTRICHELT
 62
          15
100
AcDbLine
 10
-15375.998539894666
 20
-2931.803180872489
 30
0.0
 11
-15375.998539894666
 21
-2860.096605302246
 31
0.0
  0
LINE
  5
32
100
AcDbEntity
  8
FREI
  6
CONTINUOUS
 62
          15
100
AcDbLine
 10
-15375.998539894666
 20
-3000.763271968913
 30
0.0
 11
-15375.998539894666
 21
-2931.803180872489
 31
0.0
  0
LINE
  5
33
100
AcDbEntity
  8
FREI
  6
CONTINUOUS
 62
          15
100
AcDbLine
 10
-15506.479700731521
 20
-2774.763271968913
 30
0.0
 11
-15488.998539894666
 21
-2704.763271968913
 31
0.0
  0
LINE
  5
34
100
AcDbEntity
  8
FREI
  6
CONTINUOUS
 62
          15
100
AcDbLine
 10
-15488.998539894666
 20
-2704.763271968913
 30
0.0
 11
-15262.998539894666
 21
-2704.763271968913
 31
0.0
  0
LINE
  5
35
100
AcDbEntity
  8
FREI
  6
CONTINUOUS
 62
          15
100
AcDbLine
 10
-15262.998539894666
 20
-2704.763271968913
 30
0.0
 11
-15245.51737905781
 21
-2774.763271968913
 31
0.0
  0
ARC
  5
36
100
AcDbEntity
  8
FREI
  6
CONTINUOUS
 62
          15
100
AcDbCircle
 10
-15320.735094210533
 20
-2740.77668719338
 30
0.0
 40
26.093904120701
100
AcDbArc
 50
29.970101035151
 51
77.275326881122
  0
ARC
  5
37
100
AcDbEntity
  8
FREI
  6
CONTINUOUS
 62
          15
100
AcDbCircle
 10
-15253.699064171406
 20
-2857.044360003555
 30
0.0
 40
26.093904120701
100
AcDbArc
 50
342.664835748251
 51
29.970101035151
  0
LINE
  5
38
100
AcDbEntity
  8
FREI
  6
CONTINUOUS
 62
          15
100
AcDbLine
 10
-15241.856021986547
 20
-2906.665052530804
 30
0.0
 11
-15228.790689622754
 21
-2864.819228359781
 31
0.0
  0
LINE
  5
39
100
AcDbEntity
  8
FREI
  6
CONTINUOUS
 62
          15
100
AcDbLine
 10
-15357.749961960055
 20
-2705.66418085017
 30
0.0
 11
-15314.986654308856
 21
-2715.319966925357
 31
0.0
  0
LINE
  5
3A
100
AcDbEntity
  8
FREI
  6
CONTINUOUS
 62
          15
100
AcDbLine
 10
-15298.125789284162
 20
-2727.738925284751
 30
0.0
 11
-15231.089759245035
 21
-2844.006598094926
 31
0.0
  0
ARC
  5
3B
100
AcDbEntity
  8
FREI
  6
CONTINUOUS
 62
          15
100
AcDbCircle
 10
-15394.875111530233
 20
-2860.983871708089
 30
0.0
 40
10.893393173657
100
AcDbArc
 50
147.628285169611
 51
272.168526113971
  0
LINE
  5
3C
100
AcDbEntity
  8
FREI
  6
CONTINUOUS
 62
          15
100
AcDbLine
 10
-15345.197746400701
 20
-2761.748613421406
 30
0.0
 11
-15404.091302014751
 21
-2855.169569052408
 31
0.0
  0
LINE
  5
3D
100
AcDbEntity
  8
FREI
  6
CONTINUOUS
 62
          15
100
AcDbLine
 10
-15368.142491864901
 20
-2721.961383235956
 30
0.0
 11
-15261.164530753014
 21
-2907.492166185722
 31
0.0
  0
ARC
  5
3E
100
AcDbEntity
  8
FREI
  6
CONTINUOUS
 62
          15
100
AcDbCircle
 10
-15358.704206047118
 20
-2716.514686649127
 30
0.0
 40
10.893776096645
100
AcDbArc
 50
84.974072586301
 51
209.988620150222
  0
ARC
  5
3F
100
AcDbEntity
  8
FREI
  6
CONTINUOUS
 62
          15
100
AcDbCircle
 10
-15251.727776627185
 20
-2902.051596366707
 30
0.0
 40
10.893776096645
100
AcDbArc
 50
209.964734733568
 51
334.951481380678
  0
LINE
  5
40
100
AcDbEntity
  8
FREI
  6
GESTRICHELT
 62
          15
100
AcDbLine
 10
-15331.395670207252
 20
-2869.530712808906
 30
0.0
 11
-15356.478657638609
 21
-2870.363953231637
 31
0.0
  0
LINE
  5
41
100
AcDbEntity
  8
FREI
  6
CONTINUOUS
 62
          15
100
AcDbLine
 10
-15331.406392050927
 20
-2869.573600183605
 30
0.0
 11
-15283.93925841037
 21
-2867.999020855354
 31
0.0
  0
LINE
  5
42
100
AcDbEntity
  8
FREI
  6
CONTINUOUS
 62
          15
100
AcDbLine
 10
-15356.697689587965
 20
-2870.443601213222
 30
0.0
 11
-15394.463086394728
 21
-2871.865011346118
 31
0.0
  0
LINE
  5
43
100
AcDbEntity
  8
FREI
  6
CONTINUOUS
 62
          15
100
AcDbLine
 10
-15351.486873561984
 20
-2885.925943479719
 30
0.0
 11
-15351.483810178077
 21
-2882.415305522179
 31
0.0
  0
LINE
  5
44
100
AcDbEntity
  8
FREI
  6
GESTRICHELT
 62
          15
100
AcDbLine
 10
-15351.486873561984
 20
-2885.925943479719
 30
0.0
 11
-15351.515975709101
 21
-2891.666724921629
 31
0.0
  0
LINE
  5
45
100
AcDbEntity
  8
FREI
  6
GESTRICHELT
 62
          15
100
AcDbLine
 10
-15351.486873561984
 20
-2850.096605302246
 30
0.0
 11
-15351.497595405659
 21
-2882.452066129065
 31
0.0
  0
LINE
  5
46
100
AcDbEntity
  8
FREI
  6
GESTRICHELT
 62
          15
100
AcDbLine
 10
-15400.513269611254
 20
-2849.502308824268
 30
0.0
 11
-15400.510206227347
 21
-2870.302685553495
 31
0.0
  0
ARC
  5
47
100
AcDbEntity
  8
FREI
  6
CONTINUOUS
 62
          15
100
AcDbCircle
 10
-15375.998539894666
 20
-2850.096605302246
 30
0.0
 40
24.511666332682
100
AcDbArc
 50
116.990965333067
 51
178.553410663232
  0
ARC
  5
48
100
AcDbEntity
  8
FREI
  6
GESTRICHELT
 62
          15
100
AcDbCircle
 10
-15375.998539894666
 20
-2850.096605302246
 30
0.0
 40
24.511666332682
100
AcDbArc
 50
0.000000683099
 51
116.990965333067
  0
LINE
  5
49
100
AcDbEntity
  8
FREI
  6
CONTINUOUS
 62
          15
100
AcDbLine
 10
-15400.510206227347
 20
-2931.803180872489
 30
0.0
 11
-15351.486873561984
 21
-2931.803180872489
 31
0.0
  0
LINE
  5
4A
100
AcDbEntity
  8
FREI
  6
CONTINUOUS
 62
          15
100
AcDbLine
 10
-15400.510206227347
 20
-2870.302685553495
 30
0.0
 11
-15400.510206227347
 21
-2931.803180872489
 31
0.0
  0
LINE
  5
4B
100
AcDbEntity
  8
FREI
  6
CONTINUOUS
 62
          15
100
AcDbLine
 10
-15351.486873561984
 20
-2931.803180872489
 30
0.0
 11
-15351.485341870031
 21
-2891.556443100974
 31
0.0
  0
ARC
  5
4C
100
AcDbEntity
  8
FREI
  6
CONTINUOUS
 62
          15
100
AcDbCircle
 10
-15375.998539894666
 20
-2915.463091112003
 30
0.0
 40
11.775264815914
100
AcDbArc
 50
83.396411513612
 51
323.393951543439
  0
LINE
  5
4D
100
AcDbEntity
  8
FREI
  6
GESTRICHELT
 62
          15
100
AcDbLine
 10
-15353.61592537742
 20
-2885.846295498135
 30
0.0
 11
-15352.156222945685
 21
-2886.017844996932
 31
0.0
  0
ARC
  5
4E
100
AcDbEntity
  8
FREI
  6
GESTRICHELT
 62
          15
100
AcDbCircle
 10
-15308.038899607547
 20
-2839.148071218262
 30
0.0
 40
2.716455679623
100
AcDbArc
 50
322.006040502197
 51
23.359604704482
  0
CIRCLE
  5
4F
100
AcDbEntity
  8
FREI
  6
CONTINUOUS
 62
          15
100
AcDbCircle
 10
-15291.061625994384
 20
-2801.131476931117
 30
0.0
 40
7.625528390755
  0
ARC
  5
50
100
AcDbEntity
  8
FREI
  6
GESTRICHELT
 62
          15
100
AcDbCircle
 10
-15298.058394838206
 20
-2816.595438894171
 30
0.0
 40
2.716455679623
100
AcDbArc
 50
263.388406711703
 51
323.459608284301
  0
ARC
  5
51
100
AcDbEntity
  8
FREI
  6
GESTRICHELT
 62
          15
100
AcDbCircle
 10
-15295.566332029777
 20
-2822.354600639525
 30
0.0
 40
2.716455679623
100
AcDbArc
 50
263.420531649356
 51
323.459608284301
  0
LINE
  5
52
100
AcDbEntity
  8
FREI
  6
GESTRICHELT
 62
          15
100
AcDbLine
 10
-15298.06452160602
 20
-2804.15197346352
 30
0.0
 11
-15301.878434570363
 21
-2805.800074005542
 31
0.0
  0
LINE
  5
53
100
AcDbEntity
  8
FREI
  6
GESTRICHELT
 62
          15
100
AcDbLine
 10
-15288.512890583674
 20
-2808.31817557718
 30
0.0
 11
-15295.875733804396
 21
-2818.212905597121
 31
0.0
  0
LINE
  5
54
100
AcDbEntity
  8
FREI
  6
GESTRICHELT
 62
          15
100
AcDbLine
 10
-15293.383670995967
 20
-2823.972067342475
 30
0.0
 11
-15281.617213408786
 21
-2808.146626078382
 31
0.0
  0
ARC
  5
55
100
AcDbEntity
  8
FREI
  6
GESTRICHELT
 62
          15
100
AcDbCircle
 10
-15291.070816146104
 20
-2801.125350163303
 30
0.0
 40
11.774881892926
100
AcDbArc
 50
323.39839556867
 51
203.390402770664
  0
ARC
  5
56
100
AcDbEntity
  8
FREI
  6
CONTINUOUS
 62
          15
100
AcDbCircle
 10
-15316.345265071655
 20
-2819.946780888542
 30
0.0
 40
2.716455679623
100
AcDbArc
 50
89.482670676549
 51
203.385226065905
  0
LINE
  5
57
100
AcDbEntity
  8
FREI
  6
GESTRICHELT
 62
          15
100
AcDbLine
 10
-15309.645644466822
 20
-2823.457418846082
 30
0.0
 11
-15295.877265496349
 21
-2825.050378477775
 31
0.0
  0
LINE
  5
58
100
AcDbEntity
  8
FREI
  6
GESTRICHELT
 62
          15
100
AcDbLine
 10
-15298.37085999673
 20
-2819.291216732422
 30
0.0
 11
-15313.000049845099
 21
-2817.61248235133
 31
0.0
  0
ARC
  5
59
100
AcDbEntity
  8
FREI
  6
CONTINUOUS
 62
          15
100
AcDbCircle
 10
-15314.582287633119
 20
-2834.283417573782
 30
0.0
 40
1.357844916823
100
AcDbArc
 50
263.418060351511
 51
23.359604704482
  0
ARC
  5
5A
100
AcDbEntity
  8
FREI
  6
CONTINUOUS
 62
          15
100
AcDbCircle
 10
-15308.038899607547
 20
-2839.148071218262
 30
0.0
 40
2.716455679623
100
AcDbArc
 50
263.420531649356
 51
322.006040502197
  0
LINE
  5
5B
100
AcDbEntity
  8
FREI
  6
CONTINUOUS
 62
          15
100
AcDbLine
 10
-15318.838859572037
 20
-2821.025092023842
 30
0.0
 11
-15313.333958690973
 21
-2833.744262006132
 31
0.0
  0
ARC
  5
5C
100
AcDbEntity
  8
FREI
  6
CONTINUOUS
 62
          15
100
AcDbCircle
 10
-15322.274444623852
 20
-2841.604905111758
 30
0.0
 40
1.357844916823
100
AcDbArc
 50
83.354100952973
 51
203.436618161791
  0
ARC
  5
5D
100
AcDbEntity
  8
FREI
  6
CONTINUOUS
 62
          15
100
AcDbCircle
 10
-15328.817832649425
 20
-2836.740251467279
 30
0.0
 40
2.716455679623
100
AcDbArc
 50
83.388401704415
 51
203.385226065905
  0
LINE
  5
5E
100
AcDbEntity
  8
FREI
  6
CONTINUOUS
 62
          15
100
AcDbLine
 10
-15322.116680352638
 20
-2840.250889424818
 30
0.0
 11
-15308.349833074119
 21
-2841.843849056512
 31
0.0
  0
LINE
  5
5F
100
AcDbEntity
  8
FREI
  6
CONTINUOUS
 62
          15
100
AcDbLine
 10
-15314.738520212381
 20
-2835.637433260722
 30
0.0
 11
-15328.5053674909
 21
-2834.044473629028
 31
0.0
  0
LINE
  5
60
100
AcDbEntity
  8
FREI
  6
CONTINUOUS
 62
          15
100
AcDbLine
 10
-15327.211087790149
 20
-2852.430903839458
 30
0.0
 11
-15340.976403376715
 21
-2850.837944207765
 31
0.0
  0
LINE
  5
61
100
AcDbEntity
  8
FREI
  6
CONTINUOUS
 62
          15
100
AcDbLine
 10
-15334.589247930406
 20
-2857.044360003555
 30
0.0
 11
-15320.822400651887
 21
-2858.637319635248
 31
0.0
  0
ARC
  5
62
100
AcDbEntity
  8
FREI
  6
CONTINUOUS
 62
          15
100
AcDbCircle
 10
-15341.288868535239
 20
-2853.533722046016
 30
0.0
 40
2.716455679623
100
AcDbArc
 50
83.388401704415
 51
203.385226065905
  0
ARC
  5
63
100
AcDbEntity
  8
FREI
  6
CONTINUOUS
 62
          15
100
AcDbCircle
 10
-15334.745480509668
 20
-2858.398375690495
 30
0.0
 40
1.357844916823
100
AcDbArc
 50
83.418055344222
 51
203.410895497621
  0
LINE
  5
64
100
AcDbEntity
  8
FREI
  6
CONTINUOUS
 62
          15
100
AcDbLine
 10
-15331.311427149805
 20
-2837.818562602579
 30
0.0
 11
-15325.806526268743
 21
-2850.537732584869
 31
0.0
  0
LINE
  5
65
100
AcDbEntity
  8
FREI
  6
CONTINUOUS
 62
          15
100
AcDbLine
 10
-15318.014809301027
 20
-2854.863230661698
 30
0.0
 11
-15323.518178490136
 21
-2842.144060679408
 31
0.0
  0
ARC
  5
66
100
AcDbEntity
  8
FREI
  6
CONTINUOUS
 62
          15
100
AcDbCircle
 10
-15320.509935493361
 20
-2855.941541796998
 30
0.0
 40
2.716455679623
100
AcDbArc
 50
263.388406711703
 51
23.372406255528
  0
ARC
  5
67
100
AcDbEntity
  8
FREI
  6
CONTINUOUS
 62
          15
100
AcDbCircle
 10
-15327.054855210887
 20
-2851.076888152519
 30
0.0
 40
1.357844916823
100
AcDbArc
 50
263.418060351511
 51
23.359604704482
  0
LINE
  5
68
100
AcDbEntity
  8
FREI
  6
CONTINUOUS
 62
          15
100
AcDbLine
 10
-15339.683655367917
 20
-2869.224374418196
 30
0.0
 11
-15353.448970954483
 21
-2867.631414786502
 31
0.0
  0
LINE
  5
69
100
AcDbEntity
  8
FREI
  6
CONTINUOUS
 62
          15
100
AcDbLine
 10
-15347.061815508174
 20
-2873.837830582292
 30
0.0
 11
-15333.294968229655
 21
-2875.430790213985
 31
0.0
  0
ARC
  5
6A
100
AcDbEntity
  8
FREI
  6
CONTINUOUS
 62
          15
100
AcDbCircle
 10
-15353.761436113007
 20
-2870.327192624752
 30
0.0
 40
2.716455679623
100
AcDbArc
 50
83.388401704415
 51
203.385226065905
  0
ARC
  5
6B
100
AcDbEntity
  8
FREI
  6
CONTINUOUS
 62
          15
100
AcDbCircle
 10
-15347.218048087436
 20
-2875.191846269232
 30
0.0
 40
1.357844916823
100
AcDbArc
 50
83.418055344222
 51
203.410895497621
  0
LINE
  5
6C
100
AcDbEntity
  8
FREI
  6
CONTINUOUS
 62
          15
100
AcDbLine
 10
-15343.782463035621
 20
-2854.612033181316
 30
0.0
 11
-15338.279093846511
 21
-2867.331203163606
 31
0.0
  0
LINE
  5
6D
100
AcDbEntity
  8
FREI
  6
CONTINUOUS
 62
          15
100
AcDbLine
 10
-15330.487376878795
 20
-2871.656701240435
 30
0.0
 11
-15335.990746067904
 21
-2858.937531258145
 31
0.0
  0
ARC
  5
6E
100
AcDbEntity
  8
FREI
  6
CONTINUOUS
 62
          15
100
AcDbCircle
 10
-15332.982503071131
 20
-2872.735012375735
 30
0.0
 40
2.716455679623
100
AcDbArc
 50
263.388406711703
 51
23.372406255528
  0
ARC
  5
6F
100
AcDbEntity
  8
FREI
  6
CONTINUOUS
 62
          15
100
AcDbCircle
 10
-15339.527422788655
 20
-2867.87648549907
 30
0.0
 40
1.357844916823
100
AcDbArc
 50
263.388406711703
 51
23.596177758969
  0
ARC
  5
70
100
AcDbEntity
  8
FREI
  6
CONTINUOUS
 62
          15
100
AcDbCircle
 10
-15351.999990366423
 20
-2884.669956077807
 30
0.0
 40
1.357844916823
100
AcDbArc
 50
263.388406711703
 51
23.596177758969
  0
ARC
  5
71
100
AcDbEntity
  8
FREI
  6
CONTINUOUS
 62
          15
100
AcDbCircle
 10
-15345.455070648899
 20
-2889.528482954472
 30
0.0
 40
2.716455679623
100
AcDbArc
 50
263.388406711703
 51
23.372406255528
  0
LINE
  5
72
100
AcDbEntity
  8
FREI
  6
CONTINUOUS
 62
          15
100
AcDbLine
 10
-15342.959944456563
 20
-2888.450171819172
 30
0.0
 11
-15348.463313645674
 21
-2875.731001836881
 31
0.0
  0
LINE
  5
73
100
AcDbEntity
  8
FREI
  6
CONTINUOUS
 62
          15
100
AcDbLine
 10
-15356.255030613389
 20
-2871.405503760052
 30
0.0
 11
-15350.75166142428
 21
-2884.124673742343
 31
0.0
  0
ARC
  5
74
100
AcDbEntity
  8
FREI
  6
CONTINUOUS
 62
          15
100
AcDbCircle
 10
-15361.041567968237
 20
-2905.96047423217
 30
0.0
 40
5.4344430512
100
AcDbArc
 50
323.388481348987
 51
23.385221057158
  0
ARC
  5
75
100
AcDbEntity
  8
FREI
  6
CONTINUOUS
 62
          15
100
AcDbCircle
 10
-15367.275554219192
 20
-2905.237515630095
 30
0.0
 40
5.4344430512
100
AcDbArc
 50
323.388481348987
 51
23.385221057158
  0
ARC
  5
76
100
AcDbEntity
  8
FREI
  6
CONTINUOUS
 62
          15
100
AcDbCircle
 10
-15359.690615665206
 20
-2891.985316847968
 30
0.0
 40
1.357844916823
100
AcDbArc
 50
83.418055344222
 51
203.436618161791
  0
ARC
  5
77
100
AcDbEntity
  8
FREI
  6
CONTINUOUS
 62
          15
100
AcDbCircle
 10
-15366.234003690775
 20
-2887.120663203489
 30
0.0
 40
2.716455679623
100
AcDbArc
 50
83.388401704415
 51
203.503718090275
  0
LINE
  5
78
100
AcDbEntity
  8
FREI
  6
CONTINUOUS
 62
          15
100
AcDbLine
 10
-15359.534383085944
 20
-2890.631301161029
 30
0.0
 11
-15345.767535807423
 21
-2892.224260792722
 31
0.0
  0
LINE
  5
79
100
AcDbEntity
  8
FREI
  6
CONTINUOUS
 62
          15
100
AcDbLine
 10
-15352.156222945685
 20
-2886.017844996932
 30
0.0
 11
-15365.921538532251
 21
-2884.424885365238
 31
0.0
  0
LINE
  5
7A
100
AcDbEntity
  8
FREI
  6
CONTINUOUS
 62
          15
100
AcDbLine
 10
-15368.727598191157
 20
-2888.205101106604
 30
0.0
 11
-15362.288365218428
 21
-2903.080893359494
 31
0.0
  0
LINE
  5
7B
100
AcDbEntity
  8
FREI
  6
CONTINUOUS
 62
          15
100
AcDbLine
 10
-15356.054378967474
 20
-2903.803851961571
 30
0.0
 11
-15360.934349531488
 21
-2892.524472415618
 31
0.0
  0
LINE
  5
7C
100
AcDbEntity
  8
FREI
  6
CONTINUOUS
 62
          15
100
AcDbLine
 10
-15356.679309284524
 20
-2909.201534405885
 30
0.0
 11
-15366.546468849301
 21
-2922.484367027083
 31
0.0
  0
LINE
  5
7D
100
AcDbEntity
  8
FREI
  6
CONTINUOUS
 62
          15
100
AcDbLine
 10
-15369.960610213766
 20
-2917.968939148013
 30
0.0
 11
-15362.913295535476
 21
-2908.478575803809
 31
0.0
  0
LINE
  5
7E
100
AcDbEntity
  8
FREI
  6
CONTINUOUS
 62
          15
100
AcDbLine
 10
-15375.248010837426
 20
-2908.968717228946
 30
0.0
 11
-15374.644524207726
 21
-2903.767091354685
 31
0.0
  0
CIRCLE
  5
7F
100
AcDbEntity
  8
FREI
  6
CONTINUOUS
 62
          15
100
AcDbCircle
 10
-15375.998539894666
 20
-2915.463091112003
 30
0.0
 40
6.536878334769
  0
LINE
  5
80
100
AcDbEntity
  8
FREI
  6
CONTINUOUS
 62
          15
100
AcDbLine
 10
-15316.320758000398
 20
-2817.232622746849
 30
0.0
 11
-15313.000049845099
 21
-2817.61248235133
 31
0.0
  0
LINE
  5
81
100
AcDbEntity
  8
FREI
  6
CONTINUOUS
 62
          15
100
AcDbLine
 10
-15305.542241723258
 20
-2838.069760082961
 30
0.0
 11
-15311.04714260432
 21
-2825.350590100671
 31
0.0
  0
ARC
  5
82
100
AcDbEntity
  8
FREI
  6
CONTINUOUS
 62
          15
100
AcDbCircle
 10
-15309.801877046084
 20
-2824.811434533021
 30
0.0
 40
1.357844916823
100
AcDbArc
 50
83.418055344222
 51
203.410895497621
  0
CIRCLE
  5
83
100
AcDbEntity
  8
FREI
  6
CONTINUOUS
 62
          15
100
AcDbCircle
 10
-15375.998539894666
 20
-2850.096605302246
 30
0.0
 40
10.0
  0
TEXT
  5
84
100
AcDbEntity
  8
FREI
  6
CONTINUOUS
 62
          15
100
AcDbText
 10
-15562.564187445951
 20
-2925.019398422758
 30
0.0
 40
3.527777671814
  1
250-220
 41
0.899999979725
  7
GOTHICG
100
AcDbText
  0
ENDSEC
  0
SECTION
  2
OBJECTS
  0
DICTIONARY
  5
19
100
AcDbDictionary
  3
ACAD_GROUP
350
1A
  3
ACAD_MLINESTYLE
350
1B
  0
DICTIONARY
  5
1A
102
{ACAD_REACTORS
330
19
102
}
100
AcDbDictionary
  0
DICTIONARY
  5
1B
102
{ACAD_REACTORS
330
19
102
}
100
AcDbDictionary
  3
STANDARD
350
1C
  0
MLINESTYLE
  5
1C
102
{ACAD_REACTORS
330
1B
102
}
100
AcDbMlineStyle
  2
STANDARD
 70
           0
  3

 62
           0
 51
90.0
 52
90.0
 71
           2
 49
0.5
 62
         256
  6
BYLAYER
 49
-0.5
 62
         256
  6
BYLAYER
  0
ENDSEC
  0
EOF
