  0
SECTION
  2
HEADER
  9
$ACADVER
  1
AC1012
  9
$DWGCODEPAGE
  3
dos850
  9
$INSBASE
 10
0.0
 20
0.0
 30
0.0
  9
$EXTMIN
 10
-15678.580291007891
 20
-5263.57963618826
 30
0.0
  9
$EXTMAX
 10
-15067.318187200655
 20
-4798.711125920472
 30
0.0
  9
$LIMMIN
 10
-15678.580291007891
 20
-5263.57963618826
  9
$LIMMAX
 10
-15067.318187200655
 20
-4798.711125920472
  9
$ORTHOMODE
 70
           0
  9
$REGENMODE
 70
           1
  9
$FILLMODE
 70
           1
  9
$QTEXTMODE
 70
           0
  9
$MIRRTEXT
 70
           1
  9
$DRAGMODE
 70
           2
  9
$LTSCALE
 40
5.0
  9
$OSMODE
 70
           0
  9
$ATTMODE
 70
           1
  9
$TEXTSIZE
 40
0.2
  9
$TRACEWID
 40
0.05
  9
$TEXTSTYLE
  7
TXT
  9
$CLAYER
  8
0
  9
$CELTYPE
  6
CONTINUOUS
  9
$CECOLOR
 62
         256
  9
$CELTSCALE
 40
1.0
  9
$DELOBJ
 70
           1
  9
$DISPSILH
 70
           0
  9
$DIMSCALE
 40
1.0
  9
$DIMASZ
 40
3.5
  9
$DIMEXO
 40
0.0625
  9
$DIMDLI
 40
0.38
  9
$DIMRND
 40
0.0
  9
$DIMDLE
 40
0.0
  9
$DIMEXE
 40
0.18
  9
$DIMTP
 40
0.0
  9
$DIMTM
 40
0.0
  9
$DIMTXT
 40
3.5
  9
$DIMCEN
 40
0.09
  9
$DIMTSZ
 40
0.0
  9
$DIMTOL
 70
           0
  9
$DIMLIM
 70
           0
  9
$DIMTIH
 70
           1
  9
$DIMTOH
 70
           1
  9
$DIMSE1
 70
           0
  9
$DIMSE2
 70
           0
  9
$DIMTAD
 70
           0
  9
$DIMZIN
 70
           0
  9
$DIMBLK
  1

  9
$DIMASO
 70
           1
  9
$DIMSHO
 70
           1
  9
$DIMPOST
  1

  9
$DIMAPOST
  1

  9
$DIMALT
 70
           0
  9
$DIMALTD
 70
           2
  9
$DIMALTF
 40
25.4
  9
$DIMLFAC
 40
1.0
  9
$DIMTOFL
 70
           0
  9
$DIMTVP
 40
0.0
  9
$DIMTIX
 70
           0
  9
$DIMSOXD
 70
           0
  9
$DIMSAH
 70
           0
  9
$DIMBLK1
  1

  9
$DIMBLK2
  1

  9
$DIMSTYLE
  2
STANDARD
  9
$DIMCLRD
 70
           0
  9
$DIMCLRE
 70
           0
  9
$DIMCLRT
 70
           0
  9
$DIMTFAC
 40
1.0
  9
$DIMGAP
 40
0.09
  9
$DIMJUST
 70
           0
  9
$DIMSD1
 70
           0
  9
$DIMSD2
 70
           0
  9
$DIMTOLJ
 70
           1
  9
$DIMTZIN
 70
           0
  9
$DIMALTZ
 70
           0
  9
$DIMALTTZ
 70
           0
  9
$DIMFIT
 70
           3
  9
$DIMUPT
 70
           0
  9
$DIMUNIT
 70
           2
  9
$DIMDEC
 70
           4
  9
$DIMTDEC
 70
           4
  9
$DIMALTU
 70
           2
  9
$DIMALTTD
 70
           2
  9
$DIMTXSTY
  7
TXT
  9
$DIMAUNIT
 70
           0
  9
$LUNITS
 70
           2
  9
$LUPREC
 70
           3
  9
$SKETCHINC
 40
0.1
  9
$FILLETRAD
 40
0.0
  9
$AUNITS
 70
           0
  9
$AUPREC
 70
           3
  9
$MENU
  1
acad
  9
$ELEVATION
 40
0.0
  9
$PELEVATION
 40
0.0
  9
$THICKNESS
 40
0.0
  9
$LIMCHECK
 70
           0
  9
$BLIPMODE
 70
           1
  9
$CHAMFERA
 40
0.0
  9
$CHAMFERB
 40
0.0
  9
$CHAMFERC
 40
0.0
  9
$CHAMFERD
 40
0.0
  9
$SKPOLY
 70
           0
  9
$TDCREATE
 40
0.000000000
  9
$TDUPDATE
 40
0.000000000
  9
$TDINDWG
 40
0.0000000000
  9
$TDUSRTIMER
 40
0.0000000000
  9
$USRTIMER
 70
           1
  9
$ANGBASE
 50
0.0
  9
$ANGDIR
 70
           0
  9
$PDMODE
 70
           2
  9
$PDSIZE
 40
0.5
  9
$PLINEWID
 40
0.0
  9
$COORDS
 70
           0
  9
$SPLFRAME
 70
           0
  9
$SPLINETYPE
 70
           6
  9
$SPLINESEGS
 70
           8
  9
$ATTDIA
 70
           0
  9
$ATTREQ
 70
           1
  9
$HANDLING
 70
           1
  9
$HANDSEED
  5
8A
  9
$SURFTAB1
 70
           6
  9
$SURFTAB2
 70
           6
  9
$SURFTYPE
 70
           6
  9
$SURFU
 70
           6
  9
$SURFV
 70
           6
  9
$UCSNAME
  2

  9
$UCSORG
 10
0.0
 20
0.0
 30
0.0
  9
$UCSXDIR
 10
1.0
 20
0.0
 30
0.0
  9
$UCSYDIR
 10
0.0
 20
1.0
 30
0.0
  9
$PUCSNAME
  2

  9
$PUCSORG
 10
0.0
 20
0.0
 30
0.0
  9
$PUCSXDIR
 10
1.0
 20
0.0
 30
0.0
  9
$PUCSYDIR
 10
0.0
 20
1.0
 30
0.0
  9
$USERI1
 70
           0
  9
$USERI2
 70
           0
  9
$USERI3
 70
           0
  9
$USERI4
 70
           0
  9
$USERI5
 70
           0
  9
$USERR1
 40
0.0
  9
$USERR2
 40
0.0
  9
$USERR3
 40
0.0
  9
$USERR4
 40
0.0
  9
$USERR5
 40
0.0
  9
$WORLDVIEW
 70
           1
  9
$SHADEDGE
 70
           3
  9
$SHADEDIF
 70
          70
  9
$TILEMODE
 70
           1
  9
$MAXACTVP
 70
          16
  9
$PINSBASE
 10
0.0
 20
0.0
 30
0.0
  9
$PLIMCHECK
 70
           0
  9
$PEXTMIN
 10
1.000000000000E+20
 20
1.000000000000E+20
 30
1.000000000000E+20
  9
$PEXTMAX
 10
-1.000000000000E+20
 20
-1.000000000000E+20
 30
-1.000000000000E+20
  9
$PLIMMIN
 10
0.0
 20
0.0
  9
$PLIMMAX
 10
12.0
 20
9.0
  9
$UNITMODE
 70
           0
  9
$VISRETAIN
 70
           0
  9
$PLINEGEN
 70
           1
  9
$PSLTSCALE
 70
           0
  9
$TREEDEPTH
 70
        3020
  9
$PICKSTYLE
 70
           1
  9
$CMLSTYLE
  2
STANDARD
  9
$CMLJUST
 70
           0
  9
$CMLSCALE
 40
1.0
  9
$SAVEIMAGES
 70
           0
  0
ENDSEC
  0
SECTION
  2
CLASSES
  0
CLASS
  1
LWPOLYLINE
  2
AcDbPolyline
  3
"AutoCAD"
 90
        0
280
           0
281
           1
  0
CLASS
  1
IMAGE
  2
AcDbRasterImage
  3
ISM
 90
      127
280
           0
281
           1
  0
CLASS
  1
OLE2FRAME
  2
AcDbOle2Frame
  3
""
 90
        0
280
           0
281
           1
  0
CLASS
  1
HATCH
  2
AcDbHatch
  3
"ACAD_SEDONA"
 90
        0
280
           0
281
           1
  0
CLASS
  1
DICTIONARYVAR
  2
AcDbDictionaryVar
  3
"AutoCAD"
 90
        0
280
           0
281
           0
  0
CLASS
  1
RASTERVARIABLES
  2
AcDbRasterVariables
  3
ISM
 90
        0
280
           0
281
           0
  0
CLASS
  1
IMAGEDEF
  2
AcDbRasterImageDef
  3
ISM
 90
        0
280
           0
281
           0
  0
CLASS
  1
IMAGEDEF_REACTOR
  2
AcDbRasterImageDefReactor
  3
ISM
 90
        1
280
           0
281
           0
  0
CLASS
  1
IDBUFFER
  2
AcDbIdBuffer
  3
"Acad"
 90
        0
280
           0
281
           0
  0
CLASS
  1
SPATIAL_FILTER
  2
AcDbSpatialFilter
  3
"Acad"
 90
        0
280
           0
281
           0
  0
CLASS
  1
XRECORD
  2
AcDbXrecord
  3
"<Built In>"
 90
        0
280
           0
281
           0
  0
ENDSEC
  0
SECTION
  2
TABLES
  0
TABLE
  2
VPORT
  5
7
100
AcDbSymbolTable
 70
           1
  0
VPORT
  5
15
100
AcDbSymbolTableRecord
100
AcDbViewportTableRecord
  2
*ACTIVE
 70
           0
 10
0.0
 20
0.0
 11
1.0
 21
1.0
 12
6.591288
 22
4.579184
 13
0.0
 23
0.0
 14
1.0
 24
1.0
 15
0.0
 25
0.0
 16
0.0
 26
0.0
 36
1.0
 17
0.0
 27
0.0
 37
0.0
 40
9.158369
 41
0.688564
 42
50.0
 43
0.0
 44
0.0
 50
0.0
 51
0.0
 71
           0
 72
         100
 73
           1
 74
           1
 75
           0
 76
           0
 77
           0
 78
           0
  0
ENDTAB
  0
TABLE
  2
LTYPE
  5
4
100
AcDbSymbolTable
 70
           5
  0
LTYPE
  5
11
100
AcDbSymbolTableRecord
100
AcDbLinetypeTableRecord
  2
BYBLOCK
 70
           0
  3

 72
          65
 73
           0
 40
0.0
  0
LTYPE
  5
12
100
AcDbSymbolTableRecord
100
AcDbLinetypeTableRecord
  2
BYLAYER
 70
           0
  3

 72
          65
 73
           0
 40
0.0
  0
LTYPE
  5
13
100
AcDbSymbolTableRecord
100
AcDbLinetypeTableRecord
  2
CONTINUOUS
 70
           0
  3
Solid line
 72
          65
 73
           0
 40
0.0
  0
LTYPE
  5
1D
100
AcDbSymbolTableRecord
100
AcDbLinetypeTableRecord
  2
GESTRICHELT
 70
           0
  3

 72
          65
 73
           2
 40
0.75
 49
0.5
 74
           0
 49
-0.25
 74
           0
  0
LTYPE
  5
1E
100
AcDbSymbolTableRecord
100
AcDbLinetypeTableRecord
  2
STRICHPUNKT
 70
           0
  3

 72
          65
 73
           4
 40
1.0
 49
0.5
 74
           0
 49
-0.25
 74
           0
 49
0.0
 74
           0
 49
-0.25
 74
           0
  0
ENDTAB
  0
TABLE
  2
LAYER
  5
2
100
AcDbSymbolTable
 70
           2
  0
LAYER
  5
14
100
AcDbSymbolTableRecord
100
AcDbLayerTableRecord
  2
0
 70
           0
 62
           7
  6
CONTINUOUS
  0
LAYER
  5
20
100
AcDbSymbolTableRecord
100
AcDbLayerTableRecord
  2
FREI
 70
           0
 62
           7
  6
CONTINUOUS
  0
ENDTAB
  0
TABLE
  2
STYLE
  5
3
100
AcDbSymbolTable
 70
           2
  0
STYLE
  5
17
100
AcDbSymbolTableRecord
100
AcDbTextStyleTableRecord
  2
TXT
 70
           0
 40
3.5
 41
1.0
 50
0.0
 71
           0
 42
3.5
  3
TXT
  4

  0
STYLE
  5
1F
100
AcDbSymbolTableRecord
100
AcDbTextStyleTableRecord
  2
GOTHICG
 70
           0
 40
3.5
 41
1.0
 50
0.0
 71
           0
 42
3.5
  3
GOTHICG
  4

  0
ENDTAB
  0
TABLE
  2
VIEW
  5
5
100
AcDbSymbolTable
 70
           0
  0
ENDTAB
  0
TABLE
  2
UCS
  5
6
100
AcDbSymbolTable
 70
           0
  0
ENDTAB
  0
TABLE
  2
APPID
  5
8
100
AcDbSymbolTable
 70
           2
  0
APPID
  5
16
100
AcDbSymbolTableRecord
100
AcDbRegAppTableRecord
  2
ACAD
 70
           0
  0
APPID
  5
21
100
AcDbSymbolTableRecord
100
AcDbRegAppTableRecord
  2
MegaCADPntStyle
 70
           0
  0
ENDTAB
  0
TABLE
  2
DIMSTYLE
  5
9
100
AcDbSymbolTable
 70
           1
  0
DIMSTYLE
105
18
100
AcDbSymbolTableRecord
100
AcDbDimStyleTableRecord
  2
STANDARD
 70
           0
  3

  4

  5

  6

  7

 40
1.0
 41
0.18
 42
0.0625
 43
0.38
 44
0.18
 45
0.0
 46
0.0
 47
0.0
 48
0.0
140
0.18
141
0.09
142
0.0
143
25.4
144
1.0
145
0.0
146
1.0
147
0.09
 71
           0
 72
           0
 73
           1
 74
           1
 75
           0
 76
           0
 77
           0
 78
           0
170
           0
171
           2
172
           0
173
           0
174
           0
175
           0
176
           0
177
           0
178
           0
270
           2
271
           4
272
           4
273
           2
274
           2
340
17
275
           0
280
           0
281
           0
282
           0
283
           1
284
           0
285
           0
286
           0
287
           0
288
           0
  0
ENDTAB
  0
TABLE
  2
BLOCK_RECORD
  5
1
100
AcDbSymbolTable
 70
           1
  0
BLOCK_RECORD
  5
A
100
AcDbSymbolTableRecord
100
AcDbBlockTableRecord
  2
*MODEL_SPACE
  0
BLOCK_RECORD
  5
B
100
AcDbSymbolTableRecord
100
AcDbBlockTableRecord
  2
*PAPER_SPACE
  0
BLOCK_RECORD
  5
22
100
AcDbSymbolTableRecord
100
AcDbBlockTableRecord
  2
ELIPPSE
  0
ENDTAB
  0
ENDSEC
  0
SECTION
  2
BLOCKS
  0
BLOCK
  5
D
100
AcDbEntity
  8
0
100
AcDbBlockBegin
  2
*MODEL_SPACE
 70
           0
 10
0.0
 20
0.0
 30
0.0
  3
*MODEL_SPACE
  1

  0
ENDBLK
  5
E
100
AcDbEntity
  8
0
100
AcDbBlockEnd
  0
BLOCK
  5
F
100
AcDbEntity
 67
           1
  8
0
100
AcDbBlockBegin
  2
*PAPER_SPACE
 70
           0
 10
0.0
 20
0.0
 30
0.0
  3
*PAPER_SPACE
  1

  0
ENDBLK
  5
10
100
AcDbEntity
 67
           1
  8
0
100
AcDbBlockEnd
  0
BLOCK
  5
85
100
AcDbEntity
  8
0
100
AcDbBlockBegin
  2
ELIPPSE
 70
          64
 10
0.0
 20
0.0
 30
0.0
  3
ELIPPSE
  1

  0
CIRCLE
  5
86
100
AcDbEntity
  8
0
  6
BYBLOCK
 62
           0
100
AcDbCircle
 10
0.0
 20
0.0
 30
0.0
 40
1.0
  0
ENDBLK
  5
87
100
AcDbEntity
  8
0
  6
BYBLOCK
 62
           0
100
AcDbBlockEnd
  0
ENDSEC
  0
SECTION
  2
ENTITIES
  0
LINE
  5
23
100
AcDbEntity
  8
FREI
  6
STRICHPUNKT
 62
          15
100
AcDbLine
 10
-15372.949239104273
 20
-4798.711125920472
 30
0.0
 11
-15372.949239104273
 21
-4893.711125920472
 31
0.0
  0
LINE
  5
24
100
AcDbEntity
  8
FREI
  6
STRICHPUNKT
 62
          15
100
AcDbLine
 10
-15372.949239104273
 20
-4893.711125920472
 30
0.0
 11
-15205.449239104273
 21
-5183.82963618826
 31
0.0
  0
LINE
  5
25
100
AcDbEntity
  8
FREI
  6
CONTINUOUS
 62
          15
100
AcDbLine
 10
-15188.774503232782
 20
-4893.711125920472
 30
0.0
 11
-15067.318187200655
 21
-5104.07963618826
 31
0.0
  0
LINE
  5
26
100
AcDbEntity
  8
FREI
  6
CONTINUOUS
 62
          15
100
AcDbLine
 10
-15372.949239104273
 20
-5212.711125920472
 30
0.0
 11
-15343.580291007891
 21
-5263.57963618826
 31
0.0
  0
LINE
  5
27
100
AcDbEntity
  8
FREI
  6
STRICHPUNKT
 62
          15
100
AcDbLine
 10
-15372.949239104273
 20
-4893.711125920472
 30
0.0
 11
-15540.449239104273
 21
-5183.82963618826
 31
0.0
  0
LINE
  5
28
100
AcDbEntity
  8
FREI
  6
CONTINUOUS
 62
          15
100
AcDbLine
 10
-15557.123974975764
 20
-4893.711125920472
 30
0.0
 11
-15678.580291007891
 21
-5104.07963618826
 31
0.0
  0
LINE
  5
29
100
AcDbEntity
  8
FREI
  6
CONTINUOUS
 62
          15
100
AcDbLine
 10
-15372.949239104273
 20
-5212.711125920472
 30
0.0
 11
-15402.318187200655
 21
-5263.57963618826
 31
0.0
  0
LINE
  5
2A
100
AcDbEntity
  8
FREI
  6
CONTINUOUS
 62
          15
100
AcDbLine
 10
-15285.837389097409
 20
-4893.711125920472
 30
0.0
 11
-15188.774503232782
 21
-4893.711125920472
 31
0.0
  0
LINE
  5
2B
100
AcDbEntity
  8
FREI
  6
GESTRICHELT
 62
          15
100
AcDbLine
 10
-15352.522114900743
 20
-4893.711125920472
 30
0.0
 11
-15285.837389097409
 21
-4893.711125920472
 31
0.0
  0
LINE
  5
2C
100
AcDbEntity
  8
FREI
  6
CONTINUOUS
 62
          15
100
AcDbLine
 10
-15557.123974975764
 20
-4893.711125920472
 30
0.0
 11
-15352.522114900743
 21
-4893.711125920472
 31
0.0
  0
LINE
  5
2D
100
AcDbEntity
  8
FREI
  6
CONTINUOUS
 62
          15
100
AcDbLine
 10
-15188.774503232782
 20
-4893.711125920472
 30
0.0
 11
-15213.449239104273
 21
-4798.711125920472
 31
0.0
  0
LINE
  5
2E
100
AcDbEntity
  8
FREI
  6
CONTINUOUS
 62
          15
100
AcDbLine
 10
-15213.449239104273
 20
-4798.711125920472
 30
0.0
 11
-15532.449239104273
 21
-4798.711125920472
 31
0.0
  0
LINE
  5
2F
100
AcDbEntity
  8
FREI
  6
CONTINUOUS
 62
          15
100
AcDbLine
 10
-15532.449239104273
 20
-4798.711125920472
 30
0.0
 11
-15557.123974975764
 21
-4893.711125920472
 31
0.0
  0
LINE
  5
30
100
AcDbEntity
  8
FREI
  6
CONTINUOUS
 62
          15
100
AcDbLine
 10
-15372.949239104273
 20
-5081.751034824049
 30
0.0
 11
-15372.949239104273
 21
-5212.711125920472
 31
0.0
  0
LINE
  5
31
100
AcDbEntity
  8
FREI
  6
GESTRICHELT
 62
          15
100
AcDbLine
 10
-15372.949239104273
 20
-5010.044459253806
 30
0.0
 11
-15372.949239104273
 21
-5081.751034824049
 31
0.0
  0
LINE
  5
32
100
AcDbEntity
  8
FREI
  6
GESTRICHELT
 62
          15
100
AcDbLine
 10
-15372.949239104273
 20
-4960.554776782168
 30
0.0
 11
-15372.949239104273
 21
-4990.044459253806
 31
0.0
  0
LINE
  5
33
100
AcDbEntity
  8
FREI
  6
CONTINUOUS
 62
          15
100
AcDbLine
 10
-15372.949239104273
 20
-4893.711125920472
 30
0.0
 11
-15372.949239104273
 21
-4960.554776782168
 31
0.0
  0
ARC
  5
34
100
AcDbEntity
  8
FREI
  6
CONTINUOUS
 62
          15
100
AcDbCircle
 10
-15317.685793420142
 20
-4890.72454114494
 30
0.0
 40
26.093904120701
100
AcDbArc
 50
29.970101035151
 51
77.275326881122
  0
ARC
  5
35
100
AcDbEntity
  8
FREI
  6
CONTINUOUS
 62
          15
100
AcDbCircle
 10
-15250.649763381012
 20
-5006.992213955115
 30
0.0
 40
26.093904120701
100
AcDbArc
 50
342.664835748251
 51
29.970101035151
  0
LINE
  5
36
100
AcDbEntity
  8
FREI
  6
CONTINUOUS
 62
          15
100
AcDbLine
 10
-15238.806721196155
 20
-5056.612906482364
 30
0.0
 11
-15225.741388832361
 21
-5014.767082311342
 31
0.0
  0
LINE
  5
37
100
AcDbEntity
  8
FREI
  6
CONTINUOUS
 62
          15
100
AcDbLine
 10
-15354.700661169662
 20
-4855.61203480173
 30
0.0
 11
-15311.937353518462
 21
-4865.267820876918
 31
0.0
  0
LINE
  5
38
100
AcDbEntity
  8
FREI
  6
CONTINUOUS
 62
          15
100
AcDbLine
 10
-15295.076488493769
 20
-4877.686779236312
 30
0.0
 11
-15228.040458454641
 21
-4993.954452046486
 31
0.0
  0
ARC
  5
39
100
AcDbEntity
  8
FREI
  6
CONTINUOUS
 62
          15
100
AcDbCircle
 10
-15391.82581073984
 20
-5010.93172565965
 30
0.0
 40
10.893393173657
100
AcDbArc
 50
147.628285169611
 51
272.168526113971
  0
LINE
  5
3A
100
AcDbEntity
  8
FREI
  6
CONTINUOUS
 62
          15
100
AcDbLine
 10
-15342.148445610308
 20
-4911.696467372965
 30
0.0
 11
-15401.042001224358
 21
-5005.117423003969
 31
0.0
  0
LINE
  5
3B
100
AcDbEntity
  8
FREI
  6
CONTINUOUS
 62
          15
100
AcDbLine
 10
-15365.093191074508
 20
-4871.909237187516
 30
0.0
 11
-15258.115229962621
 21
-5057.440020137283
 31
0.0
  0
ARC
  5
3C
100
AcDbEntity
  8
FREI
  6
CONTINUOUS
 62
          15
100
AcDbCircle
 10
-15355.654905256724
 20
-4866.462540600687
 30
0.0
 40
10.893776096645
100
AcDbArc
 50
84.974072586301
 51
209.988620150222
  0
ARC
  5
3D
100
AcDbEntity
  8
FREI
  6
CONTINUOUS
 62
          15
100
AcDbCircle
 10
-15248.678475836792
 20
-5051.999450318268
 30
0.0
 40
10.893776096645
100
AcDbArc
 50
209.964734733568
 51
334.951481380678
  0
LINE
  5
3E
100
AcDbEntity
  8
FREI
  6
GESTRICHELT
 62
          15
100
AcDbLine
 10
-15328.346369416859
 20
-5019.478566760467
 30
0.0
 11
-15353.429356848215
 21
-5020.311807183198
 31
0.0
  0
LINE
  5
3F
100
AcDbEntity
  8
FREI
  6
CONTINUOUS
 62
          15
100
AcDbLine
 10
-15328.357091260534
 20
-5019.521454135165
 30
0.0
 11
-15280.889957619978
 21
-5017.946874806914
 31
0.0
  0
LINE
  5
40
100
AcDbEntity
  8
FREI
  6
CONTINUOUS
 62
          15
100
AcDbLine
 10
-15353.648388797572
 20
-5020.391455164783
 30
0.0
 11
-15391.413785604334
 21
-5021.812865297678
 31
0.0
  0
LINE
  5
41
100
AcDbEntity
  8
FREI
  6
CONTINUOUS
 62
          15
100
AcDbLine
 10
-15348.437572771591
 20
-5035.873797431279
 30
0.0
 11
-15348.434509387684
 21
-5032.36315947374
 31
0.0
  0
LINE
  5
42
100
AcDbEntity
  8
FREI
  6
GESTRICHELT
 62
          15
100
AcDbLine
 10
-15348.437572771591
 20
-5035.873797431279
 30
0.0
 11
-15348.466674918709
 21
-5041.61457887319
 31
0.0
  0
LINE
  5
43
100
AcDbEntity
  8
FREI
  6
GESTRICHELT
 62
          15
100
AcDbLine
 10
-15348.437572771591
 20
-5000.044459253806
 30
0.0
 11
-15348.448294615266
 21
-5032.399920080625
 31
0.0
  0
LINE
  5
44
100
AcDbEntity
  8
FREI
  6
GESTRICHELT
 62
          15
100
AcDbLine
 10
-15397.463968820863
 20
-4999.450162775829
 30
0.0
 11
-15397.460905436956
 21
-5020.250539505056
 31
0.0
  0
ARC
  5
45
100
AcDbEntity
  8
FREI
  6
CONTINUOUS
 62
          15
100
AcDbCircle
 10
-15372.949239104273
 20
-5000.044459253806
 30
0.0
 40
24.511666332682
100
AcDbArc
 50
116.990965333067
 51
178.553410663232
  0
ARC
  5
46
100
AcDbEntity
  8
FREI
  6
GESTRICHELT
 62
          15
100
AcDbCircle
 10
-15372.949239104273
 20
-5000.044459253806
 30
0.0
 40
24.511666332682
100
AcDbArc
 50
0.000000683099
 51
116.990965333067
  0
LINE
  5
47
100
AcDbEntity
  8
FREI
  6
CONTINUOUS
 62
          15
100
AcDbLine
 10
-15397.460905436956
 20
-5081.751034824049
 30
0.0
 11
-15348.437572771591
 21
-5081.751034824049
 31
0.0
  0
LINE
  5
48
100
AcDbEntity
  8
FREI
  6
CONTINUOUS
 62
          15
100
AcDbLine
 10
-15397.460905436956
 20
-5020.250539505056
 30
0.0
 11
-15397.460905436956
 21
-5081.751034824049
 31
0.0
  0
LINE
  5
49
100
AcDbEntity
  8
FREI
  6
CONTINUOUS
 62
          15
100
AcDbLine
 10
-15348.437572771591
 20
-5081.751034824049
 30
0.0
 11
-15348.436041079638
 21
-5041.504297052534
 31
0.0
  0
ARC
  5
4A
100
AcDbEntity
  8
FREI
  6
CONTINUOUS
 62
          15
100
AcDbCircle
 10
-15372.949239104273
 20
-5065.410945063562
 30
0.0
 40
11.775264815914
100
AcDbArc
 50
83.396411513612
 51
323.393951543439
  0
LINE
  5
4B
100
AcDbEntity
  8
FREI
  6
GESTRICHELT
 62
          15
100
AcDbLine
 10
-15350.566624587027
 20
-5035.794149449695
 30
0.0
 11
-15349.106922155293
 21
-5035.965698948492
 31
0.0
  0
ARC
  5
4C
100
AcDbEntity
  8
FREI
  6
GESTRICHELT
 62
          15
100
AcDbCircle
 10
-15304.989598817154
 20
-4989.095925169822
 30
0.0
 40
2.716455679623
100
AcDbArc
 50
322.006040502197
 51
23.359604704482
  0
CIRCLE
  5
4D
100
AcDbEntity
  8
FREI
  6
CONTINUOUS
 62
          15
100
AcDbCircle
 10
-15288.01232520399
 20
-4951.079330882678
 30
0.0
 40
7.625528390755
  0
ARC
  5
4E
100
AcDbEntity
  8
FREI
  6
GESTRICHELT
 62
          15
100
AcDbCircle
 10
-15295.009094047813
 20
-4966.543292845732
 30
0.0
 40
2.716455679623
100
AcDbArc
 50
263.388406711703
 51
323.459608284301
  0
ARC
  5
4F
100
AcDbEntity
  8
FREI
  6
GESTRICHELT
 62
          15
100
AcDbCircle
 10
-15292.517031239384
 20
-4972.302454591085
 30
0.0
 40
2.716455679623
100
AcDbArc
 50
263.420531649356
 51
323.459608284301
  0
LINE
  5
50
100
AcDbEntity
  8
FREI
  6
GESTRICHELT
 62
          15
100
AcDbLine
 10
-15295.015220815627
 20
-4954.099827415081
 30
0.0
 11
-15298.829133779969
 21
-4955.747927957102
 31
0.0
  0
LINE
  5
51
100
AcDbEntity
  8
FREI
  6
GESTRICHELT
 62
          15
100
AcDbLine
 10
-15285.46358979328
 20
-4958.266029528741
 30
0.0
 11
-15292.826433014003
 21
-4968.160759548682
 31
0.0
  0
LINE
  5
52
100
AcDbEntity
  8
FREI
  6
GESTRICHELT
 62
          15
100
AcDbLine
 10
-15290.334370205574
 20
-4973.919921294035
 30
0.0
 11
-15278.567912618393
 21
-4958.094480029942
 31
0.0
  0
ARC
  5
53
100
AcDbEntity
  8
FREI
  6
GESTRICHELT
 62
          15
100
AcDbCircle
 10
-15288.021515355713
 20
-4951.073204114864
 30
0.0
 40
11.774881892926
100
AcDbArc
 50
323.39839556867
 51
203.390402770664
  0
ARC
  5
54
100
AcDbEntity
  8
FREI
  6
CONTINUOUS
 62
          15
100
AcDbCircle
 10
-15313.295964281262
 20
-4969.894634840102
 30
0.0
 40
2.716455679623
100
AcDbArc
 50
89.482670676549
 51
203.385226065905
  0
LINE
  5
55
100
AcDbEntity
  8
FREI
  6
GESTRICHELT
 62
          15
100
AcDbLine
 10
-15306.596343676429
 20
-4973.405272797641
 30
0.0
 11
-15292.827964705955
 21
-4974.998232429334
 31
0.0
  0
LINE
  5
56
100
AcDbEntity
  8
FREI
  6
GESTRICHELT
 62
          15
100
AcDbLine
 10
-15295.321559206337
 20
-4969.239070683982
 30
0.0
 11
-15309.950749054706
 21
-4967.56033630289
 31
0.0
  0
ARC
  5
57
100
AcDbEntity
  8
FREI
  6
CONTINUOUS
 62
          15
100
AcDbCircle
 10
-15311.532986842725
 20
-4984.231271525343
 30
0.0
 40
1.357844916823
100
AcDbArc
 50
263.418060351511
 51
23.359604704482
  0
ARC
  5
58
100
AcDbEntity
  8
FREI
  6
CONTINUOUS
 62
          15
100
AcDbCircle
 10
-15304.989598817154
 20
-4989.095925169822
 30
0.0
 40
2.716455679623
100
AcDbArc
 50
263.420531649356
 51
322.006040502197
  0
LINE
  5
59
100
AcDbEntity
  8
FREI
  6
CONTINUOUS
 62
          15
100
AcDbLine
 10
-15315.789558781644
 20
-4970.972945975402
 30
0.0
 11
-15310.28465790058
 21
-4983.692115957692
 31
0.0
  0
ARC
  5
5A
100
AcDbEntity
  8
FREI
  6
CONTINUOUS
 62
          15
100
AcDbCircle
 10
-15319.225143833459
 20
-4991.552759063317
 30
0.0
 40
1.357844916823
100
AcDbArc
 50
83.354100952973
 51
203.436618161791
  0
ARC
  5
5B
100
AcDbEntity
  8
FREI
  6
CONTINUOUS
 62
          15
100
AcDbCircle
 10
-15325.768531859032
 20
-4986.688105418838
 30
0.0
 40
2.716455679623
100
AcDbArc
 50
83.388401704415
 51
203.385226065905
  0
LINE
  5
5C
100
AcDbEntity
  8
FREI
  6
CONTINUOUS
 62
          15
100
AcDbLine
 10
-15319.067379562244
 20
-4990.198743376379
 30
0.0
 11
-15305.300532283725
 21
-4991.791703008072
 31
0.0
  0
LINE
  5
5D
100
AcDbEntity
  8
FREI
  6
CONTINUOUS
 62
          15
100
AcDbLine
 10
-15311.689219421987
 20
-4985.585287212281
 30
0.0
 11
-15325.456066700506
 21
-4983.992327580589
 31
0.0
  0
LINE
  5
5E
100
AcDbEntity
  8
FREI
  6
CONTINUOUS
 62
          15
100
AcDbLine
 10
-15324.161786999755
 20
-5002.378757791019
 30
0.0
 11
-15337.927102586322
 21
-5000.785798159326
 31
0.0
  0
LINE
  5
5F
100
AcDbEntity
  8
FREI
  6
CONTINUOUS
 62
          15
100
AcDbLine
 10
-15331.539947140012
 20
-5006.992213955115
 30
0.0
 11
-15317.773099861493
 21
-5008.585173586809
 31
0.0
  0
ARC
  5
60
100
AcDbEntity
  8
FREI
  6
CONTINUOUS
 62
          15
100
AcDbCircle
 10
-15338.239567744846
 20
-5003.481575997575
 30
0.0
 40
2.716455679623
100
AcDbArc
 50
83.388401704415
 51
203.385226065905
  0
ARC
  5
61
100
AcDbEntity
  8
FREI
  6
CONTINUOUS
 62
          15
100
AcDbCircle
 10
-15331.696179719274
 20
-5008.346229642055
 30
0.0
 40
1.357844916823
100
AcDbArc
 50
83.418055344222
 51
203.410895497621
  0
LINE
  5
62
100
AcDbEntity
  8
FREI
  6
CONTINUOUS
 62
          15
100
AcDbLine
 10
-15328.262126359414
 20
-4987.766416554139
 30
0.0
 11
-15322.75722547835
 21
-5000.48558653643
 31
0.0
  0
LINE
  5
63
100
AcDbEntity
  8
FREI
  6
CONTINUOUS
 62
          15
100
AcDbLine
 10
-15314.965508510633
 20
-5004.811084613259
 30
0.0
 11
-15320.468877699745
 21
-4992.091914630968
 31
0.0
  0
ARC
  5
64
100
AcDbEntity
  8
FREI
  6
CONTINUOUS
 62
          15
100
AcDbCircle
 10
-15317.460634702968
 20
-5005.889395748558
 30
0.0
 40
2.716455679623
100
AcDbArc
 50
263.388406711703
 51
23.372406255528
  0
ARC
  5
65
100
AcDbEntity
  8
FREI
  6
CONTINUOUS
 62
          15
100
AcDbCircle
 10
-15324.005554420493
 20
-5001.024742104079
 30
0.0
 40
1.357844916823
100
AcDbArc
 50
263.418060351511
 51
23.359604704482
  0
LINE
  5
66
100
AcDbEntity
  8
FREI
  6
CONTINUOUS
 62
          15
100
AcDbLine
 10
-15336.634354577525
 20
-5019.172228369756
 30
0.0
 11
-15350.39967016409
 21
-5017.579268738062
 31
0.0
  0
LINE
  5
67
100
AcDbEntity
  8
FREI
  6
CONTINUOUS
 62
          15
100
AcDbLine
 10
-15344.012514717781
 20
-5023.785684533852
 30
0.0
 11
-15330.245667439262
 21
-5025.378644165545
 31
0.0
  0
ARC
  5
68
100
AcDbEntity
  8
FREI
  6
CONTINUOUS
 62
          15
100
AcDbCircle
 10
-15350.712135322616
 20
-5020.275046576313
 30
0.0
 40
2.716455679623
100
AcDbArc
 50
83.388401704415
 51
203.385226065905
  0
ARC
  5
69
100
AcDbEntity
  8
FREI
  6
CONTINUOUS
 62
          15
100
AcDbCircle
 10
-15344.168747297043
 20
-5025.139700220792
 30
0.0
 40
1.357844916823
100
AcDbArc
 50
83.418055344222
 51
203.410895497621
  0
LINE
  5
6A
100
AcDbEntity
  8
FREI
  6
CONTINUOUS
 62
          15
100
AcDbLine
 10
-15340.733162245228
 20
-5004.559887132877
 30
0.0
 11
-15335.229793056118
 21
-5017.279057115165
 31
0.0
  0
LINE
  5
6B
100
AcDbEntity
  8
FREI
  6
CONTINUOUS
 62
          15
100
AcDbLine
 10
-15327.438076088403
 20
-5021.604555191994
 30
0.0
 11
-15332.941445277513
 21
-5008.885385209705
 31
0.0
  0
ARC
  5
6C
100
AcDbEntity
  8
FREI
  6
CONTINUOUS
 62
          15
100
AcDbCircle
 10
-15329.933202280738
 20
-5022.682866327295
 30
0.0
 40
2.716455679623
100
AcDbArc
 50
263.388406711703
 51
23.372406255528
  0
ARC
  5
6D
100
AcDbEntity
  8
FREI
  6
CONTINUOUS
 62
          15
100
AcDbCircle
 10
-15336.478121998263
 20
-5017.82433945063
 30
0.0
 40
1.357844916823
100
AcDbArc
 50
263.388406711703
 51
23.596177758969
  0
ARC
  5
6E
100
AcDbEntity
  8
FREI
  6
CONTINUOUS
 62
          15
100
AcDbCircle
 10
-15348.95068957603
 20
-5034.617810029367
 30
0.0
 40
1.357844916823
100
AcDbArc
 50
263.388406711703
 51
23.596177758969
  0
ARC
  5
6F
100
AcDbEntity
  8
FREI
  6
CONTINUOUS
 62
          15
100
AcDbCircle
 10
-15342.405769858506
 20
-5039.476336906033
 30
0.0
 40
2.716455679623
100
AcDbArc
 50
263.388406711703
 51
23.372406255528
  0
LINE
  5
70
100
AcDbEntity
  8
FREI
  6
CONTINUOUS
 62
          15
100
AcDbLine
 10
-15339.910643666171
 20
-5038.398025770732
 30
0.0
 11
-15345.414012855281
 21
-5025.678855788441
 31
0.0
  0
LINE
  5
71
100
AcDbEntity
  8
FREI
  6
CONTINUOUS
 62
          15
100
AcDbLine
 10
-15353.205729822997
 20
-5021.353357711612
 30
0.0
 11
-15347.702360633886
 21
-5034.072527693903
 31
0.0
  0
ARC
  5
72
100
AcDbEntity
  8
FREI
  6
CONTINUOUS
 62
          15
100
AcDbCircle
 10
-15357.992267177844
 20
-5055.90832818373
 30
0.0
 40
5.4344430512
100
AcDbArc
 50
323.388481348987
 51
23.385221057158
  0
ARC
  5
73
100
AcDbEntity
  8
FREI
  6
CONTINUOUS
 62
          15
100
AcDbCircle
 10
-15364.226253428798
 20
-5055.185369581655
 30
0.0
 40
5.4344430512
100
AcDbArc
 50
323.388481348987
 51
23.385221057158
  0
ARC
  5
74
100
AcDbEntity
  8
FREI
  6
CONTINUOUS
 62
          15
100
AcDbCircle
 10
-15356.641314874812
 20
-5041.933170799528
 30
0.0
 40
1.357844916823
100
AcDbArc
 50
83.418055344222
 51
203.436618161791
  0
ARC
  5
75
100
AcDbEntity
  8
FREI
  6
CONTINUOUS
 62
          15
100
AcDbCircle
 10
-15363.184702900382
 20
-5037.068517155049
 30
0.0
 40
2.716455679623
100
AcDbArc
 50
83.388401704415
 51
203.503718090275
  0
LINE
  5
76
100
AcDbEntity
  8
FREI
  6
CONTINUOUS
 62
          15
100
AcDbLine
 10
-15356.48508229555
 20
-5040.579155112589
 30
0.0
 11
-15342.71823501703
 21
-5042.172114744282
 31
0.0
  0
LINE
  5
77
100
AcDbEntity
  8
FREI
  6
CONTINUOUS
 62
          15
100
AcDbLine
 10
-15349.106922155293
 20
-5035.965698948492
 30
0.0
 11
-15362.872237741858
 21
-5034.372739316799
 31
0.0
  0
LINE
  5
78
100
AcDbEntity
  8
FREI
  6
CONTINUOUS
 62
          15
100
AcDbLine
 10
-15365.678297400764
 20
-5038.152955058164
 30
0.0
 11
-15359.239064428035
 21
-5053.028747311055
 31
0.0
  0
LINE
  5
79
100
AcDbEntity
  8
FREI
  6
CONTINUOUS
 62
          15
100
AcDbLine
 10
-15353.005078177081
 20
-5053.751705913131
 30
0.0
 11
-15357.885048741095
 21
-5042.472326367179
 31
0.0
  0
LINE
  5
7A
100
AcDbEntity
  8
FREI
  6
CONTINUOUS
 62
          15
100
AcDbLine
 10
-15353.63000849413
 20
-5059.149388357446
 30
0.0
 11
-15363.497168058908
 21
-5072.432220978642
 31
0.0
  0
LINE
  5
7B
100
AcDbEntity
  8
FREI
  6
CONTINUOUS
 62
          15
100
AcDbLine
 10
-15366.911309423374
 20
-5067.916793099574
 30
0.0
 11
-15359.863994745085
 21
-5058.426429755369
 31
0.0
  0
LINE
  5
7C
100
AcDbEntity
  8
FREI
  6
CONTINUOUS
 62
          15
100
AcDbLine
 10
-15372.198710047032
 20
-5058.916571180505
 30
0.0
 11
-15371.595223417333
 21
-5053.714945306245
 31
0.0
  0
CIRCLE
  5
7D
100
AcDbEntity
  8
FREI
  6
CONTINUOUS
 62
          15
100
AcDbCircle
 10
-15372.949239104273
 20
-5065.410945063562
 30
0.0
 40
6.536878334769
  0
LINE
  5
7E
100
AcDbEntity
  8
FREI
  6
CONTINUOUS
 62
          15
100
AcDbLine
 10
-15313.271457210007
 20
-4967.18047669841
 30
0.0
 11
-15309.950749054706
 21
-4967.56033630289
 31
0.0
  0
LINE
  5
7F
100
AcDbEntity
  8
FREI
  6
CONTINUOUS
 62
          15
100
AcDbLine
 10
-15302.492940932865
 20
-4988.017614034521
 30
0.0
 11
-15307.997841813929
 21
-4975.298444052231
 31
0.0
  0
ARC
  5
80
100
AcDbEntity
  8
FREI
  6
CONTINUOUS
 62
          15
100
AcDbCircle
 10
-15306.752576255692
 20
-4974.759288484582
 30
0.0
 40
1.357844916823
100
AcDbArc
 50
83.418055344222
 51
203.410895497621
  0
LINE
  5
81
100
AcDbEntity
  8
FREI
  6
CONTINUOUS
 62
          15
100
AcDbLine
 10
-15678.580291007891
 20
-5104.07963618826
 30
0.0
 11
-15402.318187200655
 21
-5263.57963618826
 31
0.0
  0
LINE
  5
82
100
AcDbEntity
  8
FREI
  6
CONTINUOUS
 62
          15
100
AcDbLine
 10
-15343.580291007891
 20
-5263.57963618826
 30
0.0
 11
-15067.318187200655
 21
-5104.07963618826
 31
0.0
  0
CIRCLE
  5
83
100
AcDbEntity
  8
FREI
  6
CONTINUOUS
 62
          15
100
AcDbCircle
 10
-15372.949239104273
 20
-5000.044459253806
 30
0.0
 40
10.0
  0
TEXT
  5
84
100
AcDbEntity
  8
FREI
  6
CONTINUOUS
 62
          15
100
AcDbText
 10
-15623.438680649338
 20
-5096.209656010238
 30
0.0
 40
3.527777671814
  1
315-220
 41
0.899999979725
  7
GOTHICG
100
AcDbText
  0
ENDSEC
  0
SECTION
  2
OBJECTS
  0
DICTIONARY
  5
19
100
AcDbDictionary
  3
ACAD_GROUP
350
1A
  3
ACAD_MLINESTYLE
350
1B
  0
DICTIONARY
  5
1A
102
{ACAD_REACTORS
330
19
102
}
100
AcDbDictionary
  0
DICTIONARY
  5
1B
102
{ACAD_REACTORS
330
19
102
}
100
AcDbDictionary
  3
STANDARD
350
1C
  0
MLINESTYLE
  5
1C
102
{ACAD_REACTORS
330
1B
102
}
100
AcDbMlineStyle
  2
STANDARD
 70
           0
  3

 62
           0
 51
90.0
 52
90.0
 71
           2
 49
0.5
 62
         256
  6
BYLAYER
 49
-0.5
 62
         256
  6
BYLAYER
  0
ENDSEC
  0
EOF
