  0
SECTION
  2
HEADER
  9
$ACADVER
  1
AC1012
  9
$DWGCODEPAGE
  3
dos850
  9
$INSBASE
 10
0.0
 20
0.0
 30
0.0
  9
$EXTMIN
 10
-14764.13062084573
 20
-872.964703697232
 30
0.0
  9
$EXTMAX
 10
-14139.320919475143
 20
-653.650639091722
 30
0.0
  9
$LIMMIN
 10
-14764.13062084573
 20
-872.964703697232
  9
$LIMMAX
 10
-14139.320919475143
 20
-653.650639091722
  9
$ORTHOMODE
 70
           0
  9
$REGENMODE
 70
           1
  9
$FILLMODE
 70
           1
  9
$QTEXTMODE
 70
           0
  9
$MIRRTEXT
 70
           1
  9
$DRAGMODE
 70
           2
  9
$LTSCALE
 40
5.0
  9
$OSMODE
 70
           0
  9
$ATTMODE
 70
           1
  9
$TEXTSIZE
 40
0.2
  9
$TRACEWID
 40
0.05
  9
$TEXTSTYLE
  7
TXT
  9
$CLAYER
  8
0
  9
$CELTYPE
  6
CONTINUOUS
  9
$CECOLOR
 62
         256
  9
$CELTSCALE
 40
1.0
  9
$DELOBJ
 70
           1
  9
$DISPSILH
 70
           0
  9
$DIMSCALE
 40
1.0
  9
$DIMASZ
 40
3.5
  9
$DIMEXO
 40
0.0625
  9
$DIMDLI
 40
0.38
  9
$DIMRND
 40
0.0
  9
$DIMDLE
 40
0.0
  9
$DIMEXE
 40
0.18
  9
$DIMTP
 40
0.0
  9
$DIMTM
 40
0.0
  9
$DIMTXT
 40
3.5
  9
$DIMCEN
 40
0.09
  9
$DIMTSZ
 40
0.0
  9
$DIMTOL
 70
           0
  9
$DIMLIM
 70
           0
  9
$DIMTIH
 70
           1
  9
$DIMTOH
 70
           1
  9
$DIMSE1
 70
           0
  9
$DIMSE2
 70
           0
  9
$DIMTAD
 70
           0
  9
$DIMZIN
 70
           0
  9
$DIMBLK
  1

  9
$DIMASO
 70
           1
  9
$DIMSHO
 70
           1
  9
$DIMPOST
  1

  9
$DIMAPOST
  1

  9
$DIMALT
 70
           0
  9
$DIMALTD
 70
           2
  9
$DIMALTF
 40
25.4
  9
$DIMLFAC
 40
1.0
  9
$DIMTOFL
 70
           0
  9
$DIMTVP
 40
0.0
  9
$DIMTIX
 70
           0
  9
$DIMSOXD
 70
           0
  9
$DIMSAH
 70
           0
  9
$DIMBLK1
  1

  9
$DIMBLK2
  1

  9
$DIMSTYLE
  2
STANDARD
  9
$DIMCLRD
 70
           0
  9
$DIMCLRE
 70
           0
  9
$DIMCLRT
 70
           0
  9
$DIMTFAC
 40
1.0
  9
$DIMGAP
 40
0.09
  9
$DIMJUST
 70
           0
  9
$DIMSD1
 70
           0
  9
$DIMSD2
 70
           0
  9
$DIMTOLJ
 70
           1
  9
$DIMTZIN
 70
           0
  9
$DIMALTZ
 70
           0
  9
$DIMALTTZ
 70
           0
  9
$DIMFIT
 70
           3
  9
$DIMUPT
 70
           0
  9
$DIMUNIT
 70
           2
  9
$DIMDEC
 70
           4
  9
$DIMTDEC
 70
           4
  9
$DIMALTU
 70
           2
  9
$DIMALTTD
 70
           2
  9
$DIMTXSTY
  7
TXT
  9
$DIMAUNIT
 70
           0
  9
$LUNITS
 70
           2
  9
$LUPREC
 70
           3
  9
$SKETCHINC
 40
0.1
  9
$FILLETRAD
 40
0.0
  9
$AUNITS
 70
           0
  9
$AUPREC
 70
           3
  9
$MENU
  1
acad
  9
$ELEVATION
 40
0.0
  9
$PELEVATION
 40
0.0
  9
$THICKNESS
 40
0.0
  9
$LIMCHECK
 70
           0
  9
$BLIPMODE
 70
           1
  9
$CHAMFERA
 40
0.0
  9
$CHAMFERB
 40
0.0
  9
$CHAMFERC
 40
0.0
  9
$CHAMFERD
 40
0.0
  9
$SKPOLY
 70
           0
  9
$TDCREATE
 40
0.000000000
  9
$TDUPDATE
 40
0.000000000
  9
$TDINDWG
 40
0.0000000000
  9
$TDUSRTIMER
 40
0.0000000000
  9
$USRTIMER
 70
           1
  9
$ANGBASE
 50
0.0
  9
$ANGDIR
 70
           0
  9
$PDMODE
 70
           2
  9
$PDSIZE
 40
0.5
  9
$PLINEWID
 40
0.0
  9
$COORDS
 70
           0
  9
$SPLFRAME
 70
           0
  9
$SPLINETYPE
 70
           6
  9
$SPLINESEGS
 70
           8
  9
$ATTDIA
 70
           0
  9
$ATTREQ
 70
           1
  9
$HANDLING
 70
           1
  9
$HANDSEED
  5
3AC
  9
$SURFTAB1
 70
           6
  9
$SURFTAB2
 70
           6
  9
$SURFTYPE
 70
           6
  9
$SURFU
 70
           6
  9
$SURFV
 70
           6
  9
$UCSNAME
  2

  9
$UCSORG
 10
0.0
 20
0.0
 30
0.0
  9
$UCSXDIR
 10
1.0
 20
0.0
 30
0.0
  9
$UCSYDIR
 10
0.0
 20
1.0
 30
0.0
  9
$PUCSNAME
  2

  9
$PUCSORG
 10
0.0
 20
0.0
 30
0.0
  9
$PUCSXDIR
 10
1.0
 20
0.0
 30
0.0
  9
$PUCSYDIR
 10
0.0
 20
1.0
 30
0.0
  9
$USERI1
 70
           0
  9
$USERI2
 70
           0
  9
$USERI3
 70
           0
  9
$USERI4
 70
           0
  9
$USERI5
 70
           0
  9
$USERR1
 40
0.0
  9
$USERR2
 40
0.0
  9
$USERR3
 40
0.0
  9
$USERR4
 40
0.0
  9
$USERR5
 40
0.0
  9
$WORLDVIEW
 70
           1
  9
$SHADEDGE
 70
           3
  9
$SHADEDIF
 70
          70
  9
$TILEMODE
 70
           1
  9
$MAXACTVP
 70
          16
  9
$PINSBASE
 10
0.0
 20
0.0
 30
0.0
  9
$PLIMCHECK
 70
           0
  9
$PEXTMIN
 10
1.000000000000E+20
 20
1.000000000000E+20
 30
1.000000000000E+20
  9
$PEXTMAX
 10
-1.000000000000E+20
 20
-1.000000000000E+20
 30
-1.000000000000E+20
  9
$PLIMMIN
 10
0.0
 20
0.0
  9
$PLIMMAX
 10
12.0
 20
9.0
  9
$UNITMODE
 70
           0
  9
$VISRETAIN
 70
           0
  9
$PLINEGEN
 70
           1
  9
$PSLTSCALE
 70
           0
  9
$TREEDEPTH
 70
        3020
  9
$PICKSTYLE
 70
           1
  9
$CMLSTYLE
  2
STANDARD
  9
$CMLJUST
 70
           0
  9
$CMLSCALE
 40
1.0
  9
$SAVEIMAGES
 70
           0
  0
ENDSEC
  0
SECTION
  2
CLASSES
  0
CLASS
  1
LWPOLYLINE
  2
AcDbPolyline
  3
"AutoCAD"
 90
        0
280
           0
281
           1
  0
CLASS
  1
IMAGE
  2
AcDbRasterImage
  3
ISM
 90
      127
280
           0
281
           1
  0
CLASS
  1
OLE2FRAME
  2
AcDbOle2Frame
  3
""
 90
        0
280
           0
281
           1
  0
CLASS
  1
HATCH
  2
AcDbHatch
  3
"ACAD_SEDONA"
 90
        0
280
           0
281
           1
  0
CLASS
  1
DICTIONARYVAR
  2
AcDbDictionaryVar
  3
"AutoCAD"
 90
        0
280
           0
281
           0
  0
CLASS
  1
RASTERVARIABLES
  2
AcDbRasterVariables
  3
ISM
 90
        0
280
           0
281
           0
  0
CLASS
  1
IMAGEDEF
  2
AcDbRasterImageDef
  3
ISM
 90
        0
280
           0
281
           0
  0
CLASS
  1
IMAGEDEF_REACTOR
  2
AcDbRasterImageDefReactor
  3
ISM
 90
        1
280
           0
281
           0
  0
CLASS
  1
IDBUFFER
  2
AcDbIdBuffer
  3
"Acad"
 90
        0
280
           0
281
           0
  0
CLASS
  1
SPATIAL_FILTER
  2
AcDbSpatialFilter
  3
"Acad"
 90
        0
280
           0
281
           0
  0
CLASS
  1
XRECORD
  2
AcDbXrecord
  3
"<Built In>"
 90
        0
280
           0
281
           0
  0
ENDSEC
  0
SECTION
  2
TABLES
  0
TABLE
  2
VPORT
  5
7
100
AcDbSymbolTable
 70
           1
  0
VPORT
  5
15
100
AcDbSymbolTableRecord
100
AcDbViewportTableRecord
  2
*ACTIVE
 70
           0
 10
0.0
 20
0.0
 11
1.0
 21
1.0
 12
6.591288
 22
4.579184
 13
0.0
 23
0.0
 14
1.0
 24
1.0
 15
0.0
 25
0.0
 16
0.0
 26
0.0
 36
1.0
 17
0.0
 27
0.0
 37
0.0
 40
9.158369
 41
0.688564
 42
50.0
 43
0.0
 44
0.0
 50
0.0
 51
0.0
 71
           0
 72
         100
 73
           1
 74
           1
 75
           0
 76
           0
 77
           0
 78
           0
  0
ENDTAB
  0
TABLE
  2
LTYPE
  5
4
100
AcDbSymbolTable
 70
           5
  0
LTYPE
  5
11
100
AcDbSymbolTableRecord
100
AcDbLinetypeTableRecord
  2
BYBLOCK
 70
           0
  3

 72
          65
 73
           0
 40
0.0
  0
LTYPE
  5
12
100
AcDbSymbolTableRecord
100
AcDbLinetypeTableRecord
  2
BYLAYER
 70
           0
  3

 72
          65
 73
           0
 40
0.0
  0
LTYPE
  5
13
100
AcDbSymbolTableRecord
100
AcDbLinetypeTableRecord
  2
CONTINUOUS
 70
           0
  3
Solid line
 72
          65
 73
           0
 40
0.0
  0
LTYPE
  5
1D
100
AcDbSymbolTableRecord
100
AcDbLinetypeTableRecord
  2
GESTRICHELT
 70
           0
  3

 72
          65
 73
           2
 40
0.75
 49
0.5
 74
           0
 49
-0.25
 74
           0
  0
LTYPE
  5
1E
100
AcDbSymbolTableRecord
100
AcDbLinetypeTableRecord
  2
STRICHPUNKT
 70
           0
  3

 72
          65
 73
           4
 40
1.0
 49
0.5
 74
           0
 49
-0.25
 74
           0
 49
0.0
 74
           0
 49
-0.25
 74
           0
  0
ENDTAB
  0
TABLE
  2
LAYER
  5
2
100
AcDbSymbolTable
 70
           3
  0
LAYER
  5
14
100
AcDbSymbolTableRecord
100
AcDbLayerTableRecord
  2
0
 70
           0
 62
           7
  6
CONTINUOUS
  0
LAYER
  5
20
100
AcDbSymbolTableRecord
100
AcDbLayerTableRecord
  2
FREI
 70
           0
 62
           7
  6
CONTINUOUS
  0
LAYER
  5
21
100
AcDbSymbolTableRecord
100
AcDbLayerTableRecord
  2
Frei
 70
           0
 62
           7
  6
CONTINUOUS
  0
ENDTAB
  0
TABLE
  2
STYLE
  5
3
100
AcDbSymbolTable
 70
           2
  0
STYLE
  5
17
100
AcDbSymbolTableRecord
100
AcDbTextStyleTableRecord
  2
TXT
 70
           0
 40
3.5
 41
1.0
 50
0.0
 71
           0
 42
3.5
  3
TXT
  4

  0
STYLE
  5
1F
100
AcDbSymbolTableRecord
100
AcDbTextStyleTableRecord
  2
GOTHICG
 70
           0
 40
3.5
 41
1.0
 50
0.0
 71
           0
 42
3.5
  3
GOTHICG
  4

  0
ENDTAB
  0
TABLE
  2
VIEW
  5
5
100
AcDbSymbolTable
 70
           0
  0
ENDTAB
  0
TABLE
  2
UCS
  5
6
100
AcDbSymbolTable
 70
           0
  0
ENDTAB
  0
TABLE
  2
APPID
  5
8
100
AcDbSymbolTable
 70
           2
  0
APPID
  5
16
100
AcDbSymbolTableRecord
100
AcDbRegAppTableRecord
  2
ACAD
 70
           0
  0
APPID
  5
22
100
AcDbSymbolTableRecord
100
AcDbRegAppTableRecord
  2
MegaCADPntStyle
 70
           0
  0
ENDTAB
  0
TABLE
  2
DIMSTYLE
  5
9
100
AcDbSymbolTable
 70
           1
  0
DIMSTYLE
105
18
100
AcDbSymbolTableRecord
100
AcDbDimStyleTableRecord
  2
STANDARD
 70
           0
  3

  4

  5

  6

  7

 40
1.0
 41
0.18
 42
0.0625
 43
0.38
 44
0.18
 45
0.0
 46
0.0
 47
0.0
 48
0.0
140
0.18
141
0.09
142
0.0
143
25.4
144
1.0
145
0.0
146
1.0
147
0.09
 71
           0
 72
           0
 73
           1
 74
           1
 75
           0
 76
           0
 77
           0
 78
           0
170
           0
171
           2
172
           0
173
           0
174
           0
175
           0
176
           0
177
           0
178
           0
270
           2
271
           4
272
           4
273
           2
274
           2
340
17
275
           0
280
           0
281
           0
282
           0
283
           1
284
           0
285
           0
286
           0
287
           0
288
           0
  0
ENDTAB
  0
TABLE
  2
BLOCK_RECORD
  5
1
100
AcDbSymbolTable
 70
           3
  0
BLOCK_RECORD
  5
A
100
AcDbSymbolTableRecord
100
AcDbBlockTableRecord
  2
*MODEL_SPACE
  0
BLOCK_RECORD
  5
B
100
AcDbSymbolTableRecord
100
AcDbBlockTableRecord
  2
*PAPER_SPACE
  0
BLOCK_RECORD
  5
23
100
AcDbSymbolTableRecord
100
AcDbBlockTableRecord
  2
ELIPPSE
  0
BLOCK_RECORD
  5
24
100
AcDbSymbolTableRecord
100
AcDbBlockTableRecord
  2
MAK1
  0
BLOCK_RECORD
  5
25
100
AcDbSymbolTableRecord
100
AcDbBlockTableRecord
  2
MAK2
  0
ENDTAB
  0
ENDSEC
  0
SECTION
  2
BLOCKS
  0
BLOCK
  5
D
100
AcDbEntity
  8
0
100
AcDbBlockBegin
  2
*MODEL_SPACE
 70
           0
 10
0.0
 20
0.0
 30
0.0
  3
*MODEL_SPACE
  1

  0
ENDBLK
  5
E
100
AcDbEntity
  8
0
100
AcDbBlockEnd
  0
BLOCK
  5
F
100
AcDbEntity
 67
           1
  8
0
100
AcDbBlockBegin
  2
*PAPER_SPACE
 70
           0
 10
0.0
 20
0.0
 30
0.0
  3
*PAPER_SPACE
  1

  0
ENDBLK
  5
10
100
AcDbEntity
 67
           1
  8
0
100
AcDbBlockEnd
  0
BLOCK
  5
350
100
AcDbEntity
  8
0
100
AcDbBlockBegin
  2
ELIPPSE
 70
          64
 10
0.0
 20
0.0
 30
0.0
  3
ELIPPSE
  1

  0
CIRCLE
  5
351
100
AcDbEntity
  8
0
  6
BYBLOCK
 62
           0
100
AcDbCircle
 10
0.0
 20
0.0
 30
0.0
 40
1.0
  0
ENDBLK
  5
352
100
AcDbEntity
  8
0
  6
BYBLOCK
 62
           0
100
AcDbBlockEnd
  0
BLOCK
  5
353
100
AcDbEntity
  8
0
100
AcDbBlockBegin
  2
MAK1
 70
          64
 10
0.0
 20
0.0
 30
0.0
  3
MAK1
  1

  0
LINE
  5
354
100
AcDbEntity
  8
Frei
  6
CONTINUOUS
 62
           2
100
AcDbLine
 10
191.903508353411
 20
615.10691689356
 30
0.0
 11
192.293358480831
 21
615.496767020979
 31
0.0
  0
LINE
  5
355
100
AcDbEntity
  8
Frei
  6
CONTINUOUS
 62
           2
100
AcDbLine
 10
191.903508353413
 20
614.04625672178
 30
0.0
 11
193.354018652612
 21
615.496767020979
 31
0.0
  0
LINE
  5
356
100
AcDbEntity
  8
Frei
  6
CONTINUOUS
 62
           2
100
AcDbLine
 10
191.903508353413
 20
612.98559655
 30
0.0
 11
193.903508353415
 21
614.98559655
 31
0.0
  0
LINE
  5
357
100
AcDbEntity
  8
Frei
  6
CONTINUOUS
 62
           2
100
AcDbLine
 10
191.903508353413
 20
611.924936378221
 30
0.0
 11
193.903508353415
 21
613.924936378221
 31
0.0
  0
LINE
  5
358
100
AcDbEntity
  8
Frei
  6
CONTINUOUS
 62
           2
100
AcDbLine
 10
191.903508353413
 20
610.864276206441
 30
0.0
 11
193.903508353415
 21
612.864276206441
 31
0.0
  0
LINE
  5
359
100
AcDbEntity
  8
Frei
  6
CONTINUOUS
 62
           2
100
AcDbLine
 10
191.903508353415
 20
609.803616034661
 30
0.0
 11
193.903508353415
 21
611.803616034661
 31
0.0
  0
LINE
  5
35A
100
AcDbEntity
  8
Frei
  6
CONTINUOUS
 62
           2
100
AcDbLine
 10
191.903508353413
 20
608.742955862881
 30
0.0
 11
193.903508353413
 21
610.742955862881
 31
0.0
  0
LINE
  5
35B
100
AcDbEntity
  8
Frei
  6
CONTINUOUS
 62
           2
100
AcDbLine
 10
191.903508353413
 20
607.682295691101
 30
0.0
 11
193.903508353413
 21
609.682295691101
 31
0.0
  0
LINE
  5
35C
100
AcDbEntity
  8
Frei
  6
CONTINUOUS
 62
           2
100
AcDbLine
 10
191.903508353413
 20
606.621635519322
 30
0.0
 11
193.903508353413
 21
608.621635519321
 31
0.0
  0
LINE
  5
35D
100
AcDbEntity
  8
Frei
  6
CONTINUOUS
 62
           2
100
AcDbLine
 10
191.903508353411
 20
605.560975347542
 30
0.0
 11
193.903508353413
 21
607.560975347542
 31
0.0
  0
LINE
  5
35E
100
AcDbEntity
  8
Frei
  6
CONTINUOUS
 62
           2
100
AcDbLine
 10
191.903508353413
 20
604.500315175762
 30
0.0
 11
193.903508353413
 21
606.500315175762
 31
0.0
  0
LINE
  5
35F
100
AcDbEntity
  8
Frei
  6
CONTINUOUS
 62
           2
100
AcDbLine
 10
191.903508353411
 20
603.439655003982
 30
0.0
 11
193.903508353415
 21
605.439655003982
 31
0.0
  0
LINE
  5
360
100
AcDbEntity
  8
Frei
  6
CONTINUOUS
 62
           2
100
AcDbLine
 10
191.903508353413
 20
602.378994832203
 30
0.0
 11
193.903508353413
 21
604.378994832202
 31
0.0
  0
LINE
  5
361
100
AcDbEntity
  8
Frei
  6
CONTINUOUS
 62
           2
100
AcDbLine
 10
191.903508353413
 20
601.318334660423
 30
0.0
 11
193.903508353415
 21
603.318334660423
 31
0.0
  0
LINE
  5
362
100
AcDbEntity
  8
Frei
  6
CONTINUOUS
 62
           2
100
AcDbLine
 10
191.903508353413
 20
600.257674488643
 30
0.0
 11
193.903508353415
 21
602.257674488643
 31
0.0
  0
LINE
  5
363
100
AcDbEntity
  8
Frei
  6
CONTINUOUS
 62
           2
100
AcDbLine
 10
191.903508353413
 20
599.197014316863
 30
0.0
 11
193.903508353413
 21
601.197014316864
 31
0.0
  0
LINE
  5
364
100
AcDbEntity
  8
Frei
  6
CONTINUOUS
 62
           2
100
AcDbLine
 10
191.903508353415
 20
598.136354145084
 30
0.0
 11
193.903508353413
 21
600.136354145083
 31
0.0
  0
LINE
  5
365
100
AcDbEntity
  8
Frei
  6
CONTINUOUS
 62
           2
100
AcDbLine
 10
191.903508353411
 20
597.075693973304
 30
0.0
 11
193.903508353415
 21
599.075693973304
 31
0.0
  0
LINE
  5
366
100
AcDbEntity
  8
Frei
  6
CONTINUOUS
 62
           2
100
AcDbLine
 10
191.903508353413
 20
596.015033801524
 30
0.0
 11
193.903508353413
 21
598.015033801524
 31
0.0
  0
LINE
  5
367
100
AcDbEntity
  8
Frei
  6
CONTINUOUS
 62
           2
100
AcDbLine
 10
192.445901744646
 20
595.496767020979
 30
0.0
 11
193.903508353415
 21
596.954373629744
 31
0.0
  0
LINE
  5
368
100
AcDbEntity
  8
Frei
  6
CONTINUOUS
 62
           2
100
AcDbLine
 10
193.506561916427
 20
595.496767020979
 30
0.0
 11
193.903508353415
 21
595.893713457964
 31
0.0
  0
LINE
  5
369
100
AcDbEntity
  8
Frei
  6
CONTINUOUS
 62
           2
100
AcDbLine
 10
192.573740611431
 20
595.496767020979
 30
0.0
 11
191.903508353413
 21
596.166999278997
 31
0.0
  0
LINE
  5
36A
100
AcDbEntity
  8
Frei
  6
CONTINUOUS
 62
           2
100
AcDbLine
 10
193.63440078321
 20
595.496767020979
 30
0.0
 11
191.903508353413
 21
597.227659450777
 31
0.0
  0
LINE
  5
36B
100
AcDbEntity
  8
Frei
  6
CONTINUOUS
 62
           2
100
AcDbLine
 10
193.903508353415
 20
596.288319622557
 30
0.0
 11
191.903508353413
 21
598.288319622557
 31
0.0
  0
LINE
  5
36C
100
AcDbEntity
  8
Frei
  6
CONTINUOUS
 62
           2
100
AcDbLine
 10
193.903508353413
 20
597.348979794336
 30
0.0
 11
191.903508353413
 21
599.348979794336
 31
0.0
  0
LINE
  5
36D
100
AcDbEntity
  8
Frei
  6
CONTINUOUS
 62
           2
100
AcDbLine
 10
193.903508353415
 20
598.409639966116
 30
0.0
 11
191.903508353411
 21
600.409639966116
 31
0.0
  0
LINE
  5
36E
100
AcDbEntity
  8
Frei
  6
CONTINUOUS
 62
           2
100
AcDbLine
 10
193.903508353413
 20
599.470300137896
 30
0.0
 11
191.903508353413
 21
601.470300137896
 31
0.0
  0
LINE
  5
36F
100
AcDbEntity
  8
Frei
  6
CONTINUOUS
 62
           2
100
AcDbLine
 10
193.903508353413
 20
600.530960309676
 30
0.0
 11
191.903508353411
 21
602.530960309676
 31
0.0
  0
LINE
  5
370
100
AcDbEntity
  8
Frei
  6
CONTINUOUS
 62
           2
100
AcDbLine
 10
193.903508353413
 20
601.591620481455
 30
0.0
 11
191.903508353411
 21
603.591620481455
 31
0.0
  0
LINE
  5
371
100
AcDbEntity
  8
Frei
  6
CONTINUOUS
 62
           2
100
AcDbLine
 10
193.903508353413
 20
602.652280653235
 30
0.0
 11
191.903508353413
 21
604.652280653235
 31
0.0
  0
LINE
  5
372
100
AcDbEntity
  8
Frei
  6
CONTINUOUS
 62
           2
100
AcDbLine
 10
193.903508353413
 20
603.712940825015
 30
0.0
 11
191.903508353413
 21
605.712940825015
 31
0.0
  0
LINE
  5
373
100
AcDbEntity
  8
Frei
  6
CONTINUOUS
 62
           2
100
AcDbLine
 10
193.903508353415
 20
604.773600996795
 30
0.0
 11
191.903508353415
 21
606.773600996795
 31
0.0
  0
LINE
  5
374
100
AcDbEntity
  8
Frei
  6
CONTINUOUS
 62
           2
100
AcDbLine
 10
193.903508353415
 20
605.834261168574
 30
0.0
 11
191.903508353413
 21
607.834261168574
 31
0.0
  0
LINE
  5
375
100
AcDbEntity
  8
Frei
  6
CONTINUOUS
 62
           2
100
AcDbLine
 10
193.903508353415
 20
606.894921340354
 30
0.0
 11
191.903508353413
 21
608.894921340354
 31
0.0
  0
LINE
  5
376
100
AcDbEntity
  8
Frei
  6
CONTINUOUS
 62
           2
100
AcDbLine
 10
193.903508353415
 20
607.955581512134
 30
0.0
 11
191.903508353413
 21
609.955581512134
 31
0.0
  0
LINE
  5
377
100
AcDbEntity
  8
Frei
  6
CONTINUOUS
 62
           2
100
AcDbLine
 10
193.903508353413
 20
609.016241683914
 30
0.0
 11
191.903508353413
 21
611.016241683914
 31
0.0
  0
LINE
  5
378
100
AcDbEntity
  8
Frei
  6
CONTINUOUS
 62
           2
100
AcDbLine
 10
193.903508353415
 20
610.076901855693
 30
0.0
 11
191.903508353411
 21
612.076901855693
 31
0.0
  0
LINE
  5
379
100
AcDbEntity
  8
Frei
  6
CONTINUOUS
 62
           2
100
AcDbLine
 10
193.903508353413
 20
611.137562027473
 30
0.0
 11
191.903508353415
 21
613.137562027473
 31
0.0
  0
LINE
  5
37A
100
AcDbEntity
  8
Frei
  6
CONTINUOUS
 62
           2
100
AcDbLine
 10
193.903508353413
 20
612.198222199253
 30
0.0
 11
191.903508353413
 21
614.198222199253
 31
0.0
  0
LINE
  5
37B
100
AcDbEntity
  8
Frei
  6
CONTINUOUS
 62
           2
100
AcDbLine
 10
193.903508353415
 20
613.258882371033
 30
0.0
 11
191.903508353413
 21
615.258882371033
 31
0.0
  0
LINE
  5
37C
100
AcDbEntity
  8
Frei
  6
CONTINUOUS
 62
           2
100
AcDbLine
 10
193.903508353415
 20
614.319542542813
 30
0.0
 11
192.726283875247
 21
615.496767020979
 31
0.0
  0
LINE
  5
37D
100
AcDbEntity
  8
Frei
  6
CONTINUOUS
 62
           2
100
AcDbLine
 10
193.903508353413
 20
615.380202714593
 30
0.0
 11
193.786944047026
 21
615.496767020979
 31
0.0
  0
ENDBLK
  5
37E
100
AcDbEntity
  8
0
  6
BYBLOCK
 62
           0
100
AcDbBlockEnd
  0
BLOCK
  5
37F
100
AcDbEntity
  8
0
100
AcDbBlockBegin
  2
MAK2
 70
          64
 10
0.0
 20
0.0
 30
0.0
  3
MAK2
  1

  0
LINE
  5
380
100
AcDbEntity
  8
Frei
  6
CONTINUOUS
 62
           2
100
AcDbLine
 10
-32.096491646587
 20
614.906213139102
 30
0.0
 11
-31.505937764712
 21
615.496767020979
 31
0.0
  0
LINE
  5
381
100
AcDbEntity
  8
Frei
  6
CONTINUOUS
 62
           2
100
AcDbLine
 10
-32.096491646589
 20
613.845552967322
 30
0.0
 11
-30.445277592931
 21
615.496767020979
 31
0.0
  0
LINE
  5
382
100
AcDbEntity
  8
Frei
  6
CONTINUOUS
 62
           2
100
AcDbLine
 10
-32.096491646587
 20
612.784892795542
 30
0.0
 11
-30.096491646587
 21
614.784892795542
 31
0.0
  0
LINE
  5
383
100
AcDbEntity
  8
Frei
  6
CONTINUOUS
 62
           2
100
AcDbLine
 10
-32.096491646589
 20
611.724232623763
 30
0.0
 11
-30.096491646587
 21
613.724232623762
 31
0.0
  0
LINE
  5
384
100
AcDbEntity
  8
Frei
  6
CONTINUOUS
 62
           2
100
AcDbLine
 10
-32.096491646587
 20
610.663572451983
 30
0.0
 11
-30.096491646589
 21
612.663572451983
 31
0.0
  0
LINE
  5
385
100
AcDbEntity
  8
Frei
  6
CONTINUOUS
 62
           2
100
AcDbLine
 10
-32.096491646587
 20
609.602912280203
 30
0.0
 11
-30.096491646589
 21
611.602912280203
 31
0.0
  0
LINE
  5
386
100
AcDbEntity
  8
Frei
  6
CONTINUOUS
 62
           2
100
AcDbLine
 10
-32.096491646587
 20
608.542252108423
 30
0.0
 11
-30.096491646589
 21
610.542252108423
 31
0.0
  0
LINE
  5
387
100
AcDbEntity
  8
Frei
  6
CONTINUOUS
 62
           2
100
AcDbLine
 10
-32.096491646589
 20
607.481591936644
 30
0.0
 11
-30.096491646589
 21
609.481591936643
 31
0.0
  0
LINE
  5
388
100
AcDbEntity
  8
Frei
  6
CONTINUOUS
 62
           2
100
AcDbLine
 10
-32.096491646587
 20
606.420931764864
 30
0.0
 11
-30.096491646589
 21
608.420931764863
 31
0.0
  0
LINE
  5
389
100
AcDbEntity
  8
Frei
  6
CONTINUOUS
 62
           2
100
AcDbLine
 10
-32.096491646589
 20
605.360271593084
 30
0.0
 11
-30.096491646587
 21
607.360271593084
 31
0.0
  0
LINE
  5
38A
100
AcDbEntity
  8
Frei
  6
CONTINUOUS
 62
           2
100
AcDbLine
 10
-32.096491646587
 20
604.299611421304
 30
0.0
 11
-30.096491646589
 21
606.299611421304
 31
0.0
  0
LINE
  5
38B
100
AcDbEntity
  8
Frei
  6
CONTINUOUS
 62
           2
100
AcDbLine
 10
-32.096491646587
 20
603.238951249525
 30
0.0
 11
-30.096491646587
 21
605.238951249525
 31
0.0
  0
LINE
  5
38C
100
AcDbEntity
  8
Frei
  6
CONTINUOUS
 62
           2
100
AcDbLine
 10
-32.096491646587
 20
602.178291077745
 30
0.0
 11
-30.096491646587
 21
604.178291077745
 31
0.0
  0
LINE
  5
38D
100
AcDbEntity
  8
Frei
  6
CONTINUOUS
 62
           2
100
AcDbLine
 10
-32.096491646587
 20
601.117630905965
 30
0.0
 11
-30.096491646589
 21
603.117630905965
 31
0.0
  0
LINE
  5
38E
100
AcDbEntity
  8
Frei
  6
CONTINUOUS
 62
           2
100
AcDbLine
 10
-32.096491646585
 20
600.056970734185
 30
0.0
 11
-30.096491646589
 21
602.056970734185
 31
0.0
  0
LINE
  5
38F
100
AcDbEntity
  8
Frei
  6
CONTINUOUS
 62
           2
100
AcDbLine
 10
-32.096491646587
 20
598.996310562406
 30
0.0
 11
-30.096491646589
 21
600.996310562406
 31
0.0
  0
LINE
  5
390
100
AcDbEntity
  8
Frei
  6
CONTINUOUS
 62
           2
100
AcDbLine
 10
-32.096491646589
 20
597.935650390626
 30
0.0
 11
-30.096491646589
 21
599.935650390626
 31
0.0
  0
LINE
  5
391
100
AcDbEntity
  8
Frei
  6
CONTINUOUS
 62
           2
100
AcDbLine
 10
-32.096491646589
 20
596.874990218846
 30
0.0
 11
-30.096491646587
 21
598.874990218846
 31
0.0
  0
LINE
  5
392
100
AcDbEntity
  8
Frei
  6
CONTINUOUS
 62
           2
100
AcDbLine
 10
-32.096491646589
 20
595.814330047066
 30
0.0
 11
-30.096491646589
 21
597.814330047066
 31
0.0
  0
LINE
  5
393
100
AcDbEntity
  8
Frei
  6
CONTINUOUS
 62
           2
100
AcDbLine
 10
-31.353394500897
 20
595.496767020979
 30
0.0
 11
-30.096491646589
 21
596.753669875286
 31
0.0
  0
LINE
  5
394
100
AcDbEntity
  8
Frei
  6
CONTINUOUS
 62
           2
100
AcDbLine
 10
-30.292734329116
 20
595.496767020978
 30
0.0
 11
-30.096491646587
 21
595.693009703507
 31
0.0
  0
LINE
  5
395
100
AcDbEntity
  8
Frei
  6
CONTINUOUS
 62
           2
100
AcDbLine
 10
-31.225555634112
 20
595.496767020979
 30
0.0
 11
-32.096491646589
 21
596.367703033455
 31
0.0
  0
LINE
  5
396
100
AcDbEntity
  8
Frei
  6
CONTINUOUS
 62
           2
100
AcDbLine
 10
-30.164895462332
 20
595.496767020979
 30
0.0
 11
-32.096491646589
 21
597.428363205235
 31
0.0
  0
LINE
  5
397
100
AcDbEntity
  8
Frei
  6
CONTINUOUS
 62
           2
100
AcDbLine
 10
-30.096491646589
 20
596.489023377015
 30
0.0
 11
-32.096491646587
 21
598.489023377014
 31
0.0
  0
LINE
  5
398
100
AcDbEntity
  8
Frei
  6
CONTINUOUS
 62
           2
100
AcDbLine
 10
-30.096491646589
 20
597.549683548794
 30
0.0
 11
-32.096491646587
 21
599.549683548794
 31
0.0
  0
LINE
  5
399
100
AcDbEntity
  8
Frei
  6
CONTINUOUS
 62
           2
100
AcDbLine
 10
-30.096491646587
 20
598.610343720574
 30
0.0
 11
-32.096491646587
 21
600.610343720574
 31
0.0
  0
LINE
  5
39A
100
AcDbEntity
  8
Frei
  6
CONTINUOUS
 62
           2
100
AcDbLine
 10
-30.096491646589
 20
599.671003892353
 30
0.0
 11
-32.096491646587
 21
601.671003892354
 31
0.0
  0
LINE
  5
39B
100
AcDbEntity
  8
Frei
  6
CONTINUOUS
 62
           2
100
AcDbLine
 10
-30.096491646589
 20
600.731664064133
 30
0.0
 11
-32.096491646587
 21
602.731664064134
 31
0.0
  0
LINE
  5
39C
100
AcDbEntity
  8
Frei
  6
CONTINUOUS
 62
           2
100
AcDbLine
 10
-30.096491646587
 20
601.792324235913
 30
0.0
 11
-32.096491646589
 21
603.792324235913
 31
0.0
  0
LINE
  5
39D
100
AcDbEntity
  8
Frei
  6
CONTINUOUS
 62
           2
100
AcDbLine
 10
-30.096491646589
 20
602.852984407693
 30
0.0
 11
-32.096491646587
 21
604.852984407693
 31
0.0
  0
LINE
  5
39E
100
AcDbEntity
  8
Frei
  6
CONTINUOUS
 62
           2
100
AcDbLine
 10
-30.096491646589
 20
603.913644579473
 30
0.0
 11
-32.096491646589
 21
605.913644579473
 31
0.0
  0
LINE
  5
39F
100
AcDbEntity
  8
Frei
  6
CONTINUOUS
 62
           2
100
AcDbLine
 10
-30.096491646589
 20
604.974304751252
 30
0.0
 11
-32.096491646587
 21
606.974304751253
 31
0.0
  0
LINE
  5
3A0
100
AcDbEntity
  8
Frei
  6
CONTINUOUS
 62
           2
100
AcDbLine
 10
-30.096491646589
 20
606.034964923032
 30
0.0
 11
-32.096491646587
 21
608.034964923032
 31
0.0
  0
LINE
  5
3A1
100
AcDbEntity
  8
Frei
  6
CONTINUOUS
 62
           2
100
AcDbLine
 10
-30.096491646587
 20
607.095625094812
 30
0.0
 11
-32.096491646587
 21
609.095625094812
 31
0.0
  0
LINE
  5
3A2
100
AcDbEntity
  8
Frei
  6
CONTINUOUS
 62
           2
100
AcDbLine
 10
-30.096491646587
 20
608.156285266592
 30
0.0
 11
-32.096491646587
 21
610.156285266592
 31
0.0
  0
LINE
  5
3A3
100
AcDbEntity
  8
Frei
  6
CONTINUOUS
 62
           2
100
AcDbLine
 10
-30.096491646589
 20
609.216945438372
 30
0.0
 11
-32.096491646587
 21
611.216945438372
 31
0.0
  0
LINE
  5
3A4
100
AcDbEntity
  8
Frei
  6
CONTINUOUS
 62
           2
100
AcDbLine
 10
-30.096491646587
 20
610.277605610151
 30
0.0
 11
-32.096491646589
 21
612.277605610151
 31
0.0
  0
LINE
  5
3A5
100
AcDbEntity
  8
Frei
  6
CONTINUOUS
 62
           2
100
AcDbLine
 10
-30.096491646589
 20
611.338265781931
 30
0.0
 11
-32.096491646587
 21
613.338265781931
 31
0.0
  0
LINE
  5
3A6
100
AcDbEntity
  8
Frei
  6
CONTINUOUS
 62
           2
100
AcDbLine
 10
-30.096491646589
 20
612.398925953711
 30
0.0
 11
-32.096491646589
 21
614.398925953711
 31
0.0
  0
LINE
  5
3A7
100
AcDbEntity
  8
Frei
  6
CONTINUOUS
 62
           2
100
AcDbLine
 10
-30.096491646589
 20
613.459586125491
 30
0.0
 11
-32.096491646589
 21
615.459586125491
 31
0.0
  0
LINE
  5
3A8
100
AcDbEntity
  8
Frei
  6
CONTINUOUS
 62
           2
100
AcDbLine
 10
-30.096491646589
 20
614.52024629727
 30
0.0
 11
-31.073012370296
 21
615.496767020979
 31
0.0
  0
ENDBLK
  5
3A9
100
AcDbEntity
  8
0
  6
BYBLOCK
 62
           0
100
AcDbBlockEnd
  0
ENDSEC
  0
SECTION
  2
ENTITIES
  0
INSERT
  5
26
100
AcDbEntity
  8
FREI
  6
CONTINUOUS
 62
           7
100
AcDbBlockReference
  2
MAK1
 10
-14467.394442108496
 20
-1324.62809557935
 30
0.0
 50
353.682999999999
  0
INSERT
  5
27
100
AcDbEntity
  8
FREI
  6
CONTINUOUS
 62
           7
100
AcDbBlockReference
  2
MAK2
 10
-14467.394442108496
 20
-1324.62809557935
 30
0.0
 50
353.682999999999
  0
LINE
  5
28
100
AcDbEntity
  8
FREI
  6
STRICHPUNKT
 62
          15
100
AcDbLine
 10
-14622.209804475142
 20
-698.650639091722
 30
0.0
 11
-14542.209804475142
 21
-837.214703697232
 31
0.0
  0
LINE
  5
29
100
AcDbEntity
  8
FREI
  6
CONTINUOUS
 62
          15
100
AcDbLine
 10
-14497.694596419913
 20
-771.317305758388
 30
0.0
 11
-14480.288988104554
 21
-801.464703697232
 31
0.0
  0
LINE
  5
2A
100
AcDbEntity
  8
FREI
  6
GESTRICHELT
 62
          15
100
AcDbLine
 10
-14539.648715981026
 20
-698.650639091722
 30
0.0
 11
-14497.694596419913
 21
-771.317305758388
 31
0.0
  0
LINE
  5
2B
100
AcDbEntity
  8
FREI
  6
CONTINUOUS
 62
          15
100
AcDbLine
 10
-14622.209804475142
 20
-841.650639091722
 30
0.0
 11
-14604.13062084573
 21
-872.964703697232
 31
0.0
  0
LINE
  5
2C
100
AcDbEntity
  8
FREI
  6
STRICHPUNKT
 62
          15
100
AcDbLine
 10
-14622.209804475142
 20
-653.650639091722
 30
0.0
 11
-14622.209804475142
 21
-698.650639091722
 31
0.0
  0
LINE
  5
2D
100
AcDbEntity
  8
FREI
  6
STRICHPUNKT
 62
          15
100
AcDbLine
 10
-14622.209804475142
 20
-698.650639091722
 30
0.0
 11
-14702.209804475142
 21
-837.214703697232
 31
0.0
  0
LINE
  5
2E
100
AcDbEntity
  8
FREI
  6
CONTINUOUS
 62
          15
100
AcDbLine
 10
-14704.770892969258
 20
-698.650639091722
 30
0.0
 11
-14764.13062084573
 21
-801.464703697232
 31
0.0
  0
LINE
  5
2F
100
AcDbEntity
  8
FREI
  6
CONTINUOUS
 62
          15
100
AcDbLine
 10
-14622.209804475142
 20
-841.650639091722
 30
0.0
 11
-14640.288988104554
 21
-872.964703697232
 31
0.0
  0
LINE
  5
30
100
AcDbEntity
  8
FREI
  6
CONTINUOUS
 62
          15
100
AcDbLine
 10
-14693.709804475142
 20
-653.650639091722
 30
0.0
 11
-14550.709804475142
 21
-653.650639091722
 31
0.0
  0
LINE
  5
31
100
AcDbEntity
  8
FREI
  6
GESTRICHELT
 62
          15
100
AcDbLine
 10
-14542.262940750548
 20
-688.015147413748
 30
0.0
 11
-14539.648715981026
 21
-698.650639091722
 31
0.0
  0
LINE
  5
32
100
AcDbEntity
  8
FREI
  6
CONTINUOUS
 62
          15
100
AcDbLine
 10
-14550.709804475142
 20
-653.650639091722
 30
0.0
 11
-14542.262940750548
 21
-688.015147413748
 31
0.0
  0
LINE
  5
33
100
AcDbEntity
  8
FREI
  6
CONTINUOUS
 62
          15
100
AcDbLine
 10
-14704.770892969258
 20
-698.650639091722
 30
0.0
 11
-14693.709804475142
 21
-653.650639091722
 31
0.0
  0
LINE
  5
34
100
AcDbEntity
  8
FREI
  6
GESTRICHELT
 62
          15
100
AcDbLine
 10
-14572.597380045801
 20
-698.650639091722
 30
0.0
 11
-14539.648715981026
 21
-698.650639091722
 31
0.0
  0
LINE
  5
35
100
AcDbEntity
  8
FREI
  6
CONTINUOUS
 62
          15
100
AcDbLine
 10
-14704.770892969258
 20
-698.650639091722
 30
0.0
 11
-14572.597380045801
 21
-698.650639091722
 31
0.0
  0
LINE
  5
36
100
AcDbEntity
  8
FREI
  6
CONTINUOUS
 62
          15
100
AcDbLine
 10
-14622.209804475142
 20
-771.317305758388
 30
0.0
 11
-14622.209804475142
 21
-841.650639091722
 31
0.0
  0
LINE
  5
37
100
AcDbEntity
  8
FREI
  6
GESTRICHELT
 62
          15
100
AcDbLine
 10
-14622.209804475142
 20
-753.565272082593
 30
0.0
 11
-14622.209804475142
 21
-771.317305758388
 31
0.0
  0
LINE
  5
38
100
AcDbEntity
  8
FREI
  6
GESTRICHELT
 62
          15
100
AcDbLine
 10
-14622.209804475142
 20
-698.650639091722
 30
0.0
 11
-14622.209804475142
 21
-739.069339434184
 31
0.0
  0
LINE
  5
39
100
AcDbEntity
  8
FREI
  6
CONTINUOUS
 62
          15
100
AcDbLine
 10
-14764.13062084573
 20
-801.464703697232
 30
0.0
 11
-14640.288988104554
 21
-872.964703697232
 31
0.0
  0
LINE
  5
3A
100
AcDbEntity
  8
FREI
  6
CONTINUOUS
 62
          15
100
AcDbLine
 10
-14604.13062084573
 20
-872.964703697232
 30
0.0
 11
-14480.288988104554
 21
-801.464703697232
 31
0.0
  0
CIRCLE
  5
3B
100
AcDbEntity
  8
FREI
  6
CONTINUOUS
 62
          15
100
AcDbCircle
 10
-14622.209804475142
 20
-746.317305758389
 30
0.0
 40
7.247966324205
  0
ARC
  5
3C
100
AcDbEntity
  8
FREI
  6
CONTINUOUS
 62
          15
100
AcDbCircle
 10
-14622.209804475142
 20
-746.317305758389
 30
0.0
 40
17.25
100
AcDbArc
 50
119.192990506928
 51
300.807009493073
  0
LINE
  5
3D
100
AcDbEntity
  8
FREI
  6
CONTINUOUS
 62
          15
100
AcDbLine
 10
-14558.229060301499
 20
-690.576379134614
 30
0.0
 11
-14630.623541367191
 21
-731.258370486884
 31
0.0
  0
LINE
  5
3E
100
AcDbEntity
  8
FREI
  6
GESTRICHELT
 62
          15
100
AcDbLine
 10
-14557.497537698388
 20
-690.165300889757
 30
0.0
 11
-14558.229060301499
 21
-690.576379134614
 31
0.0
  0
LINE
  5
3F
100
AcDbEntity
  8
FREI
  6
CONTINUOUS
 62
          15
100
AcDbLine
 10
-14555.657603778422
 20
-689.131352241754
 30
0.0
 11
-14557.497537698388
 21
-690.165300889757
 31
0.0
  0
LINE
  5
40
100
AcDbEntity
  8
FREI
  6
CONTINUOUS
 62
          15
100
AcDbLine
 10
-14609.332085630946
 20
-758.722401691887
 30
0.0
 11
-14613.375252422098
 21
-761.133283283415
 31
0.0
  0
ARC
  5
41
100
AcDbEntity
  8
FREI
  6
CONTINUOUS
 62
          15
100
AcDbCircle
 10
-14547.73161974968
 20
-703.317305758389
 30
0.0
 40
16.25
100
AcDbArc
 50
41.271052753469
 51
119.192990506929
  0
ARC
  5
42
100
AcDbEntity
  8
FREI
  6
GESTRICHELT
 62
          15
100
AcDbCircle
 10
-14547.73161974968
 20
-703.317305758389
 30
0.0
 40
16.25
100
AcDbArc
 50
306.069996507533
 51
41.271052753469
  0
ARC
  5
43
100
AcDbEntity
  8
FREI
  6
CONTINUOUS
 62
          15
100
AcDbCircle
 10
-14547.73161974968
 20
-703.317305758389
 30
0.0
 40
16.25
100
AcDbArc
 50
221.296003492467
 51
306.069996507533
  0
ARC
  5
44
100
AcDbEntity
  8
FREI
  6
GESTRICHELT
 62
          15
100
AcDbCircle
 10
-14547.73161974968
 20
-703.317305758389
 30
0.0
 40
16.25
100
AcDbArc
 50
217.634979203191
 51
221.296003492467
  0
LINE
  5
45
100
AcDbEntity
  8
FREI
  6
CONTINUOUS
 62
          15
100
AcDbLine
 10
-14568.304239421368
 20
-712.979619708042
 30
0.0
 11
-14606.274286990461
 21
-755.886637875004
 31
0.0
  0
ARC
  5
46
100
AcDbEntity
  8
FREI
  6
CONTINUOUS
 62
          15
100
AcDbCircle
 10
-14614.453565081993
 20
-750.133429213599
 30
0.0
 40
10.000000000014
100
AcDbArc
 50
300.807009493082
 51
324.877894256036
  0
ARC
  5
47
100
AcDbEntity
  8
FREI
  6
CONTINUOUS
 62
          15
100
AcDbCircle
 10
-14564.55985601509
 20
-716.293166585152
 30
0.0
 40
5.0
100
AcDbArc
 50
46.128156733688
 51
138.493166028592
  0
ARC
  5
48
100
AcDbEntity
  8
FREI
  6
GESTRICHELT
 62
          15
100
AcDbCircle
 10
-14564.55985601509
 20
-716.293166585152
 30
0.0
 40
5.0
100
AcDbArc
 50
37.634979203188
 51
46.128156733688
  0
LINE
  5
49
100
AcDbEntity
  8
Frei
  6
GESTRICHELT
 62
           7
100
AcDbLine
 10
-14176.813956898068
 20
-744.380433870762
 30
0.0
 11
-14174.888445540913
 21
-726.986687695384
 31
0.0
  0
LINE
  5
4A
100
AcDbEntity
  8
Frei
  6
GESTRICHELT
 62
           7
100
AcDbLine
 10
-14174.888445540913
 20
-726.986687695384
 30
0.0
 11
-14178.864158952429
 21
-726.546570813749
 31
0.0
  0
LINE
  5
4B
100
AcDbEntity
  8
Frei
  6
CONTINUOUS
 62
           7
100
AcDbLine
 10
-14178.864158952429
 20
-726.546570813749
 30
0.0
 11
-14177.818881358546
 21
-717.104251461401
 31
0.0
  0
LINE
  5
4C
100
AcDbEntity
  8
Frei
  6
CONTINUOUS
 62
           7
100
AcDbLine
 10
-14177.818881358546
 20
-717.104251461401
 30
0.0
 11
-14207.239160603756
 21
-713.847386537301
 31
0.0
  0
LINE
  5
4D
100
AcDbEntity
  8
Frei
  6
CONTINUOUS
 62
           7
100
AcDbLine
 10
-14207.239160603756
 20
-713.847386537301
 30
0.0
 11
-14207.294175213961
 21
-714.344350713741
 31
0.0
  0
LINE
  5
4E
100
AcDbEntity
  8
Frei
  6
CONTINUOUS
 62
           7
100
AcDbLine
 10
-14207.294175213961
 20
-714.344350713741
 30
0.0
 11
-14426.889717240412
 21
-690.035187551764
 31
0.0
  0
LINE
  5
4F
100
AcDbEntity
  8
Frei
  6
CONTINUOUS
 62
           7
100
AcDbLine
 10
-14426.889717240412
 20
-690.035187551764
 30
0.0
 11
-14426.834702630207
 21
-689.538223375324
 31
0.0
  0
LINE
  5
50
100
AcDbEntity
  8
Frei
  6
CONTINUOUS
 62
           7
100
AcDbLine
 10
-14426.834702630207
 20
-689.538223375324
 30
0.0
 11
-14456.254981875418
 21
-686.281358451225
 31
0.0
  0
LINE
  5
51
100
AcDbEntity
  8
Frei
  6
CONTINUOUS
 62
           7
100
AcDbLine
 10
-14456.254981875418
 20
-686.281358451225
 30
0.0
 11
-14457.300259469303
 21
-695.723677803573
 31
0.0
  0
LINE
  5
52
100
AcDbEntity
  8
Frei
  6
CONTINUOUS
 62
           7
100
AcDbLine
 10
-14457.300259469303
 20
-695.723677803573
 30
0.0
 11
-14467.73650717453
 21
-694.568370989281
 31
0.0
  0
LINE
  5
53
100
AcDbEntity
  8
Frei
  6
CONTINUOUS
 62
           7
100
AcDbLine
 10
-14467.73650717453
 20
-694.568370989281
 30
0.0
 11
-14467.791521784733
 21
-695.06533516572
 31
0.0
  0
LINE
  5
54
100
AcDbEntity
  8
Frei
  6
CONTINUOUS
 62
           7
100
AcDbLine
 10
-14467.791521784733
 20
-695.06533516572
 30
0.0
 11
-14478.724733666399
 21
-693.855013741224
 31
0.0
  0
LINE
  5
55
100
AcDbEntity
  8
Frei
  6
CONTINUOUS
 62
           7
100
AcDbLine
 10
-14478.724733666399
 20
-693.855013741224
 30
0.0
 11
-14482.465727160297
 21
-727.6485777391
 31
0.0
  0
LINE
  5
56
100
AcDbEntity
  8
Frei
  6
CONTINUOUS
 62
           7
100
AcDbLine
 10
-14482.465727160297
 20
-727.6485777391
 30
0.0
 11
-14471.532515278632
 21
-728.858899163597
 31
0.0
  0
LINE
  5
57
100
AcDbEntity
  8
Frei
  6
CONTINUOUS
 62
           7
100
AcDbLine
 10
-14471.532515278632
 20
-728.858899163597
 30
0.0
 11
-14471.587529888837
 21
-729.355863340036
 31
0.0
  0
LINE
  5
58
100
AcDbEntity
  8
Frei
  6
CONTINUOUS
 62
           7
100
AcDbLine
 10
-14471.587529888837
 20
-729.355863340036
 30
0.0
 11
-14461.15128218361
 21
-730.511170154328
 31
0.0
  0
LINE
  5
59
100
AcDbEntity
  8
Frei
  6
CONTINUOUS
 62
           7
100
AcDbLine
 10
-14461.15128218361
 20
-730.511170154328
 30
0.0
 11
-14462.196559777492
 21
-739.953489506676
 31
0.0
  0
LINE
  5
5A
100
AcDbEntity
  8
Frei
  6
CONTINUOUS
 62
           7
100
AcDbLine
 10
-14462.196559777492
 20
-739.953489506676
 30
0.0
 11
-14432.776280532282
 21
-743.210354430776
 31
0.0
  0
LINE
  5
5B
100
AcDbEntity
  8
Frei
  6
CONTINUOUS
 62
           7
100
AcDbLine
 10
-14432.776280532282
 20
-743.210354430776
 30
0.0
 11
-14432.721265922077
 21
-742.713390254337
 31
0.0
  0
LINE
  5
5C
100
AcDbEntity
  8
Frei
  6
CONTINUOUS
 62
           7
100
AcDbLine
 10
-14214.088320648292
 20
-766.915994233446
 30
0.0
 11
-14213.125723895626
 21
-767.022553416313
 31
0.0
  0
LINE
  5
5D
100
AcDbEntity
  8
Frei
  6
GESTRICHELT
 62
           7
100
AcDbLine
 10
-14241.91831954597
 20
-763.835221382785
 30
0.0
 11
-14214.088320648292
 21
-766.915994233446
 31
0.0
  0
LINE
  5
5E
100
AcDbEntity
  8
Frei
  6
CONTINUOUS
 62
           7
100
AcDbLine
 10
-14403.928670271735
 20
-745.900722287865
 30
0.0
 11
-14241.91831954597
 21
-763.835221382785
 31
0.0
  0
LINE
  5
5F
100
AcDbEntity
  8
Frei
  6
GESTRICHELT
 62
           7
100
AcDbLine
 10
-14431.758669169412
 20
-742.819949437204
 30
0.0
 11
-14403.928670271735
 21
-745.900722287865
 31
0.0
  0
LINE
  5
60
100
AcDbEntity
  8
Frei
  6
CONTINUOUS
 62
           7
100
AcDbLine
 10
-14432.721265922077
 20
-742.713390254337
 30
0.0
 11
-14431.758669169412
 21
-742.819949437204
 31
0.0
  0
LINE
  5
61
100
AcDbEntity
  8
Frei
  6
CONTINUOUS
 62
           7
100
AcDbLine
 10
-14213.125723895626
 20
-767.022553416313
 30
0.0
 11
-14213.180738505831
 21
-767.519517592753
 31
0.0
  0
LINE
  5
62
100
AcDbEntity
  8
Frei
  6
CONTINUOUS
 62
           7
100
AcDbLine
 10
-14213.180738505831
 20
-767.519517592753
 30
0.0
 11
-14183.76045926062
 21
-770.776382516853
 31
0.0
  0
LINE
  5
63
100
AcDbEntity
  8
Frei
  6
CONTINUOUS
 62
           7
100
AcDbLine
 10
-14183.76045926062
 20
-770.776382516853
 30
0.0
 11
-14182.715181666736
 21
-761.334063164505
 31
0.0
  0
LINE
  5
64
100
AcDbEntity
  8
Frei
  6
GESTRICHELT
 62
           7
100
AcDbLine
 10
-14182.715181666736
 20
-761.334063164505
 30
0.0
 11
-14178.73946825522
 21
-761.77418004614
 31
0.0
  0
LINE
  5
65
100
AcDbEntity
  8
Frei
  6
GESTRICHELT
 62
           7
100
AcDbLine
 10
-14178.73946825522
 20
-761.77418004614
 30
0.0
 11
-14176.813956898068
 21
-744.380433870762
 31
0.0
  0
LINE
  5
66
100
AcDbEntity
  8
Frei
  6
CONTINUOUS
 62
           7
100
AcDbLine
 10
-14178.864158952429
 20
-726.546570813749
 30
0.0
 11
-14182.715181666736
 21
-761.334063164505
 31
0.0
  0
LINE
  5
67
100
AcDbEntity
  8
Frei
  6
CONTINUOUS
 62
           7
100
AcDbLine
 10
-14211.60387197789
 20
-753.275189177057
 30
0.0
 11
-14213.125723895626
 21
-767.022553416313
 31
0.0
  0
LINE
  5
68
100
AcDbEntity
  8
Frei
  6
GESTRICHELT
 62
           7
100
AcDbLine
 10
-14209.520253730054
 20
-734.453214019852
 30
0.0
 11
-14211.60387197789
 21
-753.275189177057
 31
0.0
  0
LINE
  5
69
100
AcDbEntity
  8
Frei
  6
CONTINUOUS
 62
           7
100
AcDbLine
 10
-14207.294175213961
 20
-714.344350713741
 30
0.0
 11
-14209.520253730054
 21
-734.453214019852
 31
0.0
  0
LINE
  5
6A
100
AcDbEntity
  8
Frei
  6
CONTINUOUS
 62
           7
100
AcDbLine
 10
-14431.199374416601
 20
-728.965668406647
 30
0.0
 11
-14432.721265922077
 21
-742.713390254337
 31
0.0
  0
LINE
  5
6B
100
AcDbEntity
  8
Frei
  6
GESTRICHELT
 62
           7
100
AcDbLine
 10
-14429.115756168765
 20
-710.143693249443
 30
0.0
 11
-14431.199374416601
 21
-728.965668406647
 31
0.0
  0
LINE
  5
6C
100
AcDbEntity
  8
Frei
  6
CONTINUOUS
 62
           7
100
AcDbLine
 10
-14426.889717240412
 20
-690.035187551764
 30
0.0
 11
-14429.115756168765
 21
-710.143693249443
 31
0.0
  0
LINE
  5
6D
100
AcDbEntity
  8
Frei
  6
CONTINUOUS
 62
           7
100
AcDbLine
 10
-14457.300259469303
 20
-695.723677803573
 30
0.0
 11
-14461.15128218361
 21
-730.511170154328
 31
0.0
  0
LINE
  5
6E
100
AcDbEntity
  8
Frei
  6
CONTINUOUS
 62
           7
100
AcDbLine
 10
-14467.73650717453
 20
-694.568370989281
 30
0.0
 11
-14471.587529888837
 21
-729.355863340036
 31
0.0
  0
LINE
  5
6F
100
AcDbEntity
  8
Frei
  6
GESTRICHELT
 62
           7
100
AcDbLine
 10
-14493.407799975424
 20
-703.296774441205
 30
0.0
 11
-14511.475582298468
 21
-701.296646365814
 31
0.0
  0
LINE
  5
70
100
AcDbEntity
  8
Frei
  6
CONTINUOUS
 62
           7
100
AcDbLine
 10
-14488.383446090364
 20
-703.852977249415
 30
0.0
 11
-14493.407799975424
 21
-703.296774441205
 31
0.0
  0
LINE
  5
71
100
AcDbEntity
  8
Frei
  6
GESTRICHELT
 62
           7
100
AcDbLine
 10
-14494.728150620331
 20
-715.223914675749
 30
0.0
 11
-14512.795932943374
 21
-713.223786600359
 31
0.0
  0
LINE
  5
72
100
AcDbEntity
  8
Frei
  6
CONTINUOUS
 62
           7
100
AcDbLine
 10
-14489.70379673527
 20
-715.78011748396
 30
0.0
 11
-14494.728150620331
 21
-715.223914675749
 31
0.0
  0
LINE
  5
73
100
AcDbEntity
  8
Frei
  6
GESTRICHELT
 62
           7
100
AcDbLine
 10
-14512.322095865371
 20
-701.974410281308
 30
0.0
 11
-14511.475582298468
 21
-701.296646365814
 31
0.0
  0
LINE
  5
74
100
AcDbEntity
  8
Frei
  6
GESTRICHELT
 62
           7
100
AcDbLine
 10
-14513.473707898442
 20
-712.377281872445
 30
0.0
 11
-14512.795932943374
 21
-713.223786600359
 31
0.0
  0
LINE
  5
75
100
AcDbEntity
  8
Frei
  6
GESTRICHELT
 62
           7
100
AcDbLine
 10
-14512.322095865371
 20
-701.974410281308
 30
0.0
 11
-14513.473707898442
 21
-712.377281872445
 31
0.0
  0
LINE
  5
76
100
AcDbEntity
  8
Frei
  6
CONTINUOUS
 62
           7
100
AcDbLine
 10
-14493.492169281342
 20
-704.058908762908
 30
0.0
 11
-14488.467815396281
 21
-704.615111571119
 31
0.0
  0
LINE
  5
77
100
AcDbEntity
  8
Frei
  6
GESTRICHELT
 62
           7
100
AcDbLine
 10
-14512.322095865371
 20
-701.974410281308
 30
0.0
 11
-14493.492169281342
 21
-704.058908762908
 31
0.0
  0
LINE
  5
78
100
AcDbEntity
  8
Frei
  6
CONTINUOUS
 62
           7
100
AcDbLine
 10
-14494.643781314413
 20
-714.461780354045
 30
0.0
 11
-14489.619427429352
 21
-715.017983162256
 31
0.0
  0
LINE
  5
79
100
AcDbEntity
  8
Frei
  6
GESTRICHELT
 62
           7
100
AcDbLine
 10
-14513.473707898442
 20
-712.377281872445
 30
0.0
 11
-14494.643781314413
 21
-714.461780354045
 31
0.0
  0
LINE
  5
7A
100
AcDbEntity
  8
Frei
  6
GESTRICHELT
 62
           7
100
AcDbLine
 10
-14511.475582298468
 20
-701.296646365814
 30
0.0
 11
-14512.795932943374
 21
-713.223786600359
 31
0.0
  0
LINE
  5
7B
100
AcDbEntity
  8
Frei
  6
CONTINUOUS
 62
           7
100
AcDbLine
 10
-14479.714996650078
 20
-702.800368917132
 30
0.0
 11
-14488.163387649547
 21
-701.865120543657
 31
0.0
  0
LINE
  5
7C
100
AcDbEntity
  8
Frei
  6
CONTINUOUS
 62
           7
100
AcDbLine
 10
-14488.163387649547
 20
-701.865120543657
 30
0.0
 11
-14489.923855176086
 21
-717.767974189717
 31
0.0
  0
LINE
  5
7D
100
AcDbEntity
  8
Frei
  6
CONTINUOUS
 62
           7
100
AcDbLine
 10
-14489.923855176086
 20
-717.767974189717
 30
0.0
 11
-14481.475464176618
 21
-718.703222563192
 31
0.0
  0
LINE
  5
7E
100
AcDbEntity
  8
Frei
  6
CONTINUOUS
 62
           7
100
AcDbLine
 10
-14488.530479237888
 20
-705.18117364665
 30
0.0
 11
-14483.229531335632
 21
-705.767995788733
 31
0.0
  0
LINE
  5
7F
100
AcDbEntity
  8
Frei
  6
CONTINUOUS
 62
           7
100
AcDbLine
 10
-14489.556763587745
 20
-714.451921086724
 30
0.0
 11
-14484.255815685488
 21
-715.038743228807
 31
0.0
  0
LINE
  5
80
100
AcDbEntity
  8
Frei
  6
CONTINUOUS
 62
           7
100
AcDbLine
 10
-14483.229531335632
 20
-705.767995788733
 30
0.0
 11
-14484.255815685488
 21
-715.038743228807
 31
0.0
  0
LINE
  5
81
100
AcDbEntity
  8
Frei
  6
CONTINUOUS
 62
           7
100
AcDbLine
 10
-14488.530479237888
 20
-705.18117364665
 30
0.0
 11
-14484.255815685488
 21
-715.038743228807
 31
0.0
  0
LINE
  5
82
100
AcDbEntity
  8
Frei
  6
CONTINUOUS
 62
           7
100
AcDbLine
 10
-14483.229531335632
 20
-705.767995788733
 30
0.0
 11
-14489.556763587745
 21
-714.451921086724
 31
0.0
  0
CIRCLE
  5
83
100
AcDbEntity
  8
Frei
  6
CONTINUOUS
 62
           7
100
AcDbCircle
 10
-14445.970949208606
 20
-720.621403181946
 30
0.0
 40
5.7225
  0
ARC
  5
84
100
AcDbEntity
  8
Frei
  6
CONTINUOUS
 62
           7
100
AcDbCircle
 10
-14445.970949208606
 20
-720.621403181946
 30
0.0
 40
6.5785
100
AcDbArc
 50
103.683
 51
13.683
  0
CIRCLE
  5
85
100
AcDbEntity
  8
Frei
  6
CONTINUOUS
 62
           7
100
AcDbCircle
 10
-14194.044491927432
 20
-736.436337786132
 30
0.0
 40
5.7225
  0
ARC
  5
86
100
AcDbEntity
  8
Frei
  6
CONTINUOUS
 62
           7
100
AcDbCircle
 10
-14194.044491927432
 20
-736.436337786132
 30
0.0
 40
6.57849
100
AcDbArc
 50
103.682999999994
 51
13.683
  0
LINE
  5
87
100
AcDbEntity
  8
Frei
  6
CONTINUOUS
 62
           7
100
AcDbLine
 10
-14436.589340650304
 20
-704.489808909872
 30
0.0
 11
-14444.334270902918
 21
-710.690941360047
 31
0.0
  0
LINE
  5
88
100
AcDbEntity
  8
Frei
  6
CONTINUOUS
 62
           7
100
AcDbLine
 10
-14437.370530703582
 20
-703.514131206601
 30
0.0
 11
-14445.115451053569
 21
-709.715174203223
 31
0.0
  0
CIRCLE
  5
89
100
AcDbEntity
  8
Frei
  6
CONTINUOUS
 62
           7
100
AcDbCircle
 10
-14440.852398052521
 20
-707.102511435115
 30
0.0
 40
5.0
  0
LINE
  5
8A
100
AcDbEntity
  8
Frei
  6
CONTINUOUS
 62
           7
100
AcDbLine
 10
-14194.899691903966
 20
-747.34259977362
 30
0.0
 11
-14202.645009825292
 21
-753.543598758554
 31
0.0
  0
LINE
  5
8B
100
AcDbEntity
  8
Frei
  6
CONTINUOUS
 62
           7
100
AcDbLine
 10
-14195.681070840283
 20
-746.366810610953
 30
0.0
 11
-14203.426398664242
 21
-752.567899049439
 31
0.0
  0
CIRCLE
  5
8C
100
AcDbEntity
  8
Frei
  6
CONTINUOUS
 62
           7
100
AcDbCircle
 10
-14199.163043083519
 20
-749.955229532962
 30
0.0
 40
5.0
  0
LINE
  5
8D
100
AcDbEntity
  8
Frei
  6
CONTINUOUS
 62
           7
100
AcDbLine
 10
-14493.248467536212
 20
-698.314052334944
 30
0.0
 11
-14495.838764095215
 21
-698.027302983053
 31
0.0
  0
LINE
  5
8E
100
AcDbEntity
  8
Frei
  6
CONTINUOUS
 62
           7
100
AcDbLine
 10
-14498.429040775654
 20
-697.740555831745
 30
0.0
 11
-14495.838764095215
 21
-698.027302983053
 31
0.0
  0
LINE
  5
8F
100
AcDbEntity
  8
Frei
  6
CONTINUOUS
 62
           7
100
AcDbLine
 10
-14500.843081871424
 20
-719.547343893905
 30
0.0
 11
-14498.252805190985
 21
-719.834091045213
 31
0.0
  0
LINE
  5
90
100
AcDbEntity
  8
Frei
  6
CONTINUOUS
 62
           7
100
AcDbLine
 10
-14495.662508631982
 20
-720.120840397104
 30
0.0
 11
-14498.252805190985
 21
-719.834091045213
 31
0.0
  0
LINE
  5
91
100
AcDbEntity
  8
Frei
  6
CONTINUOUS
 62
           7
100
AcDbLine
 10
-14493.851978910447
 20
-703.765759289768
 30
0.0
 11
-14496.44227546945
 21
-703.479009937876
 31
0.0
  0
LINE
  5
92
100
AcDbEntity
  8
Frei
  6
CONTINUOUS
 62
           7
100
AcDbLine
 10
-14499.032552149889
 20
-703.192262786569
 30
0.0
 11
-14496.44227546945
 21
-703.479009937876
 31
0.0
  0
LINE
  5
93
100
AcDbEntity
  8
Frei
  6
CONTINUOUS
 62
           7
100
AcDbLine
 10
-14500.23957049719
 20
-714.095636939081
 30
0.0
 11
-14497.64929381675
 21
-714.382384090389
 31
0.0
  0
LINE
  5
94
100
AcDbEntity
  8
Frei
  6
CONTINUOUS
 62
           7
100
AcDbLine
 10
-14495.058997257747
 20
-714.669133442281
 30
0.0
 11
-14497.64929381675
 21
-714.382384090389
 31
0.0
  0
ARC
  5
95
100
AcDbEntity
  8
Frei
  6
CONTINUOUS
 62
           7
100
AcDbCircle
 10
-14532.610131394467
 20
-704.993675461154
 30
0.0
 40
38.7776
100
AcDbArc
 50
354.542436999999
 51
1.81461
  0
ARC
  5
96
100
AcDbEntity
  8
Frei
  6
CONTINUOUS
 62
           7
100
AcDbCircle
 10
-14461.481437891734
 20
-712.867718567111
 30
0.0
 40
38.7776
100
AcDbArc
 50
165.551
 51
172.824
  0
ARC
  5
97
100
AcDbEntity
  8
Frei
  6
CONTINUOUS
 62
           7
100
AcDbCircle
 10
-14461.481437891734
 20
-712.867718567111
 30
0.0
 40
38.7776
100
AcDbArc
 50
174.541999999999
 51
181.814999999999
  0
ARC
  5
98
100
AcDbEntity
  8
Frei
  6
CONTINUOUS
 62
           7
100
AcDbCircle
 10
-14532.610131394467
 20
-704.993675461154
 30
0.0
 40
38.7776
100
AcDbArc
 50
345.551389999999
 51
352.823562999999
  0
LINE
  5
99
100
AcDbEntity
  8
Frei
  6
CONTINUOUS
 62
           7
100
AcDbLine
 10
-14494.008311209678
 20
-708.681754356051
 30
0.0
 11
-14494.067975297878
 21
-709.260344558477
 31
0.0
  0
LINE
  5
9A
100
AcDbEntity
  8
Frei
  6
CONTINUOUS
 62
           7
100
AcDbLine
 10
-14499.955223087756
 20
-708.023423123333
 30
0.0
 11
-14500.023593988326
 21
-708.601049469788
 31
0.0
  0
LINE
  5
9B
100
AcDbEntity
  8
Frei
  6
CONTINUOUS
 62
           7
100
AcDbLine
 10
-14500.083218319389
 20
-709.179644073383
 30
0.0
 11
-14500.023593988326
 21
-708.601049469788
 31
0.0
  0
LINE
  5
9C
100
AcDbEntity
  8
Frei
  6
CONTINUOUS
 62
           7
100
AcDbLine
 10
-14494.136306441311
 20
-709.837975306101
 30
0.0
 11
-14494.067975297878
 21
-709.260344558477
 31
0.0
  0
ARC
  5
9D
100
AcDbEntity
  8
Frei
  6
CONTINUOUS
 62
           7
100
AcDbCircle
 10
-14503.235678979798
 20
-699.967727779502
 30
0.0
 40
10.1345
100
AcDbArc
 50
337.964499999999
 51
353.682999999999
  0
ARC
  5
9E
100
AcDbEntity
  8
Frei
  6
CONTINUOUS
 62
           7
100
AcDbCircle
 10
-14489.045353946465
 20
-701.53861605957
 30
0.0
 40
10.1232
100
AcDbArc
 50
173.683
 51
189.401999999999
  0
ARC
  5
9F
100
AcDbEntity
  8
Frei
  6
CONTINUOUS
 62
           7
100
AcDbCircle
 10
-14490.855880367122
 20
-717.893667349055
 30
0.0
 40
10.1345
100
AcDbArc
 50
157.964
 51
173.683
  0
ARC
  5
A0
100
AcDbEntity
  8
Frei
  6
CONTINUOUS
 62
           7
100
AcDbCircle
 10
-14505.046205400455
 20
-716.322779068987
 30
0.0
 40
10.1232
100
AcDbArc
 50
353.682999999999
 51
9.4015
  0
ARC
  5
A1
100
AcDbEntity
  8
Frei
  6
CONTINUOUS
 62
           7
100
AcDbCircle
 10
-14503.235678979798
 20
-699.967727779502
 30
0.0
 40
10.1232
100
AcDbArc
 50
353.682999999999
 51
9.4015
  0
ARC
  5
A2
100
AcDbEntity
  8
Frei
  6
CONTINUOUS
 62
           7
100
AcDbCircle
 10
-14489.045353946465
 20
-701.53861605957
 30
0.0
 40
10.1345
100
AcDbArc
 50
157.964
 51
173.683
  0
ARC
  5
A3
100
AcDbEntity
  8
Frei
  6
CONTINUOUS
 62
           7
100
AcDbCircle
 10
-14490.855880367122
 20
-717.893667349055
 30
0.0
 40
10.1232
100
AcDbArc
 50
173.683
 51
189.401999999999
  0
ARC
  5
A4
100
AcDbEntity
  8
Frei
  6
CONTINUOUS
 62
           7
100
AcDbCircle
 10
-14505.046205400455
 20
-716.322779068987
 30
0.0
 40
10.1345
100
AcDbArc
 50
337.964499999999
 51
353.682999999999
  0
LINE
  5
A5
100
AcDbEntity
  8
Frei
  6
CONTINUOUS
 62
           7
100
AcDbLine
 10
-14493.162712087549
 20
-701.082818913734
 30
0.0
 11
-14494.067975297878
 21
-709.260344558477
 31
0.0
  0
LINE
  5
A6
100
AcDbEntity
  8
Frei
  6
CONTINUOUS
 62
           7
100
AcDbLine
 10
-14499.118330777997
 20
-700.423523825045
 30
0.0
 11
-14500.023593988326
 21
-708.601049469788
 31
0.0
  0
LINE
  5
A7
100
AcDbEntity
  8
Frei
  6
CONTINUOUS
 62
           7
100
AcDbLine
 10
-14500.928857198654
 20
-716.77857511453
 30
0.0
 11
-14500.023593988326
 21
-708.601049469788
 31
0.0
  0
LINE
  5
A8
100
AcDbEntity
  8
Frei
  6
CONTINUOUS
 62
           7
100
AcDbLine
 10
-14494.973238508206
 20
-717.43787020322
 30
0.0
 11
-14494.067975297878
 21
-709.260344558477
 31
0.0
  0
LINE
  5
A9
100
AcDbEntity
  8
Frei
  6
CONTINUOUS
 62
           7
100
AcDbLine
 10
-14174.096108701706
 20
-756.310133445911
 30
0.0
 11
-14174.934499742003
 21
-756.232107357345
 31
0.0
  0
LINE
  5
AA
100
AcDbEntity
  8
Frei
  6
CONTINUOUS
 62
           7
100
AcDbLine
 10
-14173.226833202729
 20
-755.601599024277
 30
0.0
 11
-14174.017846644676
 21
-762.747070786585
 31
0.0
  0
LINE
  5
AB
100
AcDbEntity
  8
Frei
  6
CONTINUOUS
 62
           7
100
AcDbLine
 10
-14170.859447581252
 20
-734.216264450034
 30
0.0
 11
-14170.875615383931
 21
-734.362313267132
 31
0.0
  0
LINE
  5
AC
100
AcDbEntity
  8
Frei
  6
CONTINUOUS
 62
           7
100
AcDbLine
 10
-14172.387860384255
 20
-733.2275177327
 30
0.0
 11
-14171.552703140347
 21
-733.334755715225
 31
0.0
  0
LINE
  5
AD
100
AcDbEntity
  8
Frei
  6
CONTINUOUS
 62
           7
100
AcDbLine
 10
-14170.699933843447
 20
-734.956565735647
 30
0.0
 11
-14172.909261331151
 21
-754.914111764463
 31
0.0
  0
LINE
  5
AE
100
AcDbEntity
  8
Frei
  6
CONTINUOUS
 62
           7
100
AcDbLine
 10
-14160.210451275223
 20
-755.875999333917
 30
0.0
 11
-14172.341389901074
 21
-754.747015785546
 31
0.0
  0
LINE
  5
AF
100
AcDbEntity
  8
Frei
  6
CONTINUOUS
 62
           7
100
AcDbLine
 10
-14158.098211996652
 20
-736.79548145661
 30
0.0
 11
-14170.182359824836
 21
-735.243822001941
 31
0.0
  0
LINE
  5
B0
100
AcDbEntity
  8
Frei
  6
CONTINUOUS
 62
           7
100
AcDbLine
 10
-14173.210665400049
 20
-755.455550207179
 30
0.0
 11
-14173.226833202729
 21
-755.601599024277
 31
0.0
  0
LINE
  5
B1
100
AcDbEntity
  8
Frei
  6
CONTINUOUS
 62
           7
100
AcDbLine
 10
-14172.981699933058
 20
-724.304050117123
 30
0.0
 11
-14172.106702683363
 21
-724.431963564748
 31
0.0
  0
LINE
  5
B2
100
AcDbEntity
  8
Frei
  6
CONTINUOUS
 62
           7
100
AcDbLine
 10
-14170.068434139304
 20
-727.070792687727
 30
0.0
 11
-14170.859447581252
 21
-734.216264450034
 31
0.0
  0
LINE
  5
B3
100
AcDbEntity
  8
Frei
  6
CONTINUOUS
 62
           7
100
AcDbLine
 10
-14176.583933717922
 20
-764.876191480795
 30
0.0
 11
-14177.465722309345
 21
-764.809626346574
 31
0.0
  0
LINE
  5
B4
100
AcDbEntity
  8
Frei
  6
CONTINUOUS
 62
           7
100
AcDbLine
 10
-14173.960405899934
 20
-719.110909662746
 30
0.0
 11
-14177.976035698894
 21
-718.523875758185
 31
0.0
  0
LINE
  5
B5
100
AcDbEntity
  8
Frei
  6
CONTINUOUS
 62
           7
100
AcDbLine
 10
-14179.556586754008
 20
-769.662961181769
 30
0.0
 11
-14183.603384095753
 21
-769.357473436932
 31
0.0
  0
LINE
  5
B6
100
AcDbEntity
  8
Frei
  6
CONTINUOUS
 62
           7
100
AcDbLine
 10
-14176.673050739957
 20
-757.649176200612
 30
0.0
 11
-14177.465722309345
 21
-764.809626346574
 31
0.0
  0
LINE
  5
B7
100
AcDbEntity
  8
Frei
  6
CONTINUOUS
 62
           7
100
AcDbLine
 10
-14172.981699933058
 20
-724.304050117123
 30
0.0
 11
-14173.774371502446
 21
-731.464500263083
 31
0.0
  0
LINE
  5
B8
100
AcDbEntity
  8
Frei
  6
CONTINUOUS
 62
           7
100
AcDbLine
 10
-14172.601560203893
 20
-720.870129078066
 30
0.0
 11
-14172.981699933058
 21
-724.304050117123
 31
0.0
  0
LINE
  5
B9
100
AcDbEntity
  8
Frei
  6
CONTINUOUS
 62
           7
100
AcDbLine
 10
-14177.465722309345
 20
-764.809626346574
 30
0.0
 11
-14177.84586203851
 21
-768.243547385629
 31
0.0
  0
ARC
  5
BA
100
AcDbEntity
  8
Frei
  6
CONTINUOUS
 62
           7
100
AcDbCircle
 10
-14159.320857475142
 20
-746.317305758388
 30
0.0
 40
9.6
100
AcDbArc
 50
264.682999999997
 51
82.683000000002
  0
ARC
  5
BB
100
AcDbEntity
  8
Frei
  6
CONTINUOUS
 62
           7
100
AcDbCircle
 10
-14159.320857475142
 20
-746.317305758389
 30
0.0
 40
4.799999999999
100
AcDbArc
 50
173.682999999991
 51
353.683000000007
  0
ARC
  5
BC
100
AcDbEntity
  8
Frei
  6
CONTINUOUS
 62
           7
100
AcDbCircle
 10
-14159.320857475139
 20
-746.317305758385
 30
0.0
 40
4.799999999995
100
AcDbArc
 50
353.682999999957
 51
63.886117282784
  0
ARC
  5
BD
100
AcDbEntity
  8
Frei
  6
CONTINUOUS
 62
           7
100
AcDbCircle
 10
-14159.320857475141
 20
-746.317305758388
 30
0.0
 40
4.8
100
AcDbArc
 50
63.886117282778
 51
173.683
  0
ARC
  5
BE
100
AcDbEntity
  8
Frei
  6
CONTINUOUS
 62
           7
100
AcDbCircle
 10
-14172.415522717747
 20
-755.543573583501
 30
0.0
 40
0.799999999995
100
AcDbArc
 50
84.682999999852
 51
128.110004000953
  0
ARC
  5
BF
100
AcDbEntity
  8
Frei
  6
CONTINUOUS
 62
           7
100
AcDbCircle
 10
-14172.415522717758
 20
-755.543573583499
 30
0.0
 40
0.799999999986
100
AcDbArc
 50
128.110004000438
 51
173.683000000423
  0
ARC
  5
C0
100
AcDbEntity
  8
Frei
  6
CONTINUOUS
 62
           7
100
AcDbCircle
 10
-14174.021975885033
 20
-755.51357564795
 30
0.0
 40
0.8
100
AcDbArc
 50
264.682999999975
 51
353.682999999991
  0
ARC
  5
C1
100
AcDbEntity
  8
Frei
  6
CONTINUOUS
 62
           7
100
AcDbCircle
 10
-14175.082765375351
 20
-757.825222953266
 30
0.0
 40
1.599999999999
100
AcDbArc
 50
84.682999999911
 51
173.682999999991
  0
ARC
  5
C2
100
AcDbEntity
  8
Frei
  6
CONTINUOUS
 62
           7
100
AcDbCircle
 10
-14170.08047270164
 20
-734.450336643464
 30
0.0
 40
0.799999999987
100
AcDbArc
 50
173.682999999556
 51
219.255995999584
  0
ARC
  5
C3
100
AcDbEntity
  8
Frei
  6
CONTINUOUS
 62
           7
100
AcDbCircle
 10
-14170.080472701629
 20
-734.450336643465
 30
0.0
 40
0.799999999995
100
AcDbArc
 50
219.2559959991
 51
262.683000000148
  0
ARC
  5
C4
100
AcDbEntity
  8
Frei
  6
CONTINUOUS
 62
           7
100
AcDbCircle
 10
-14172.18408613784
 20
-731.640547015736
 30
0.0
 40
1.600000000001
100
AcDbArc
 50
173.683000000032
 51
262.683000000024
  0
ARC
  5
C5
100
AcDbEntity
  8
Frei
  6
CONTINUOUS
 62
           7
100
AcDbCircle
 10
-14171.654590263555
 20
-734.128241073707
 30
0.0
 40
0.8
100
AcDbArc
 50
353.682999999999
 51
82.683000000024
  0
ARC
  5
C6
100
AcDbEntity
  8
Frei
  6
CONTINUOUS
 62
           7
100
AcDbCircle
 10
-14179.436147403114
 20
-768.067500632977
 30
0.0
 40
1.599999999999
100
AcDbArc
 50
265.682999999913
 51
353.683000000036
  0
ARC
  5
C7
100
AcDbEntity
  8
Frei
  6
CONTINUOUS
 62
           7
100
AcDbCircle
 10
-14176.403274691587
 20
-762.483000657604
 30
0.0
 40
2.4
100
AcDbArc
 50
265.68300000002
 51
353.682999999997
  0
ARC
  5
C8
100
AcDbEntity
  8
Frei
  6
CONTINUOUS
 62
           7
100
AcDbCircle
 10
-14172.453862186216
 20
-726.806722558747
 30
0.0
 40
2.400000000001
100
AcDbArc
 50
353.683000000013
 51
81.682999999936
  0
ARC
  5
C9
100
AcDbEntity
  8
Frei
  6
CONTINUOUS
 62
           7
100
AcDbCircle
 10
-14174.191845568497
 20
-720.694082325411
 30
0.0
 40
1.599999999999
100
AcDbArc
 50
353.682999999963
 51
81.683000000086
  0
LINE
  5
CA
100
AcDbEntity
  8
Frei
  6
CONTINUOUS
 62
           7
100
AcDbLine
 10
-14500.683769310779
 20
-714.56461958706
 30
0.0
 11
-14500.617751778533
 21
-713.968262575333
 31
0.0
  0
LINE
  5
CB
100
AcDbEntity
  8
Frei
  6
CONTINUOUS
 62
           7
100
AcDbLine
 10
-14500.617751778533
 20
-713.968262575333
 30
0.0
 11
-14499.429436198119
 21
-703.233836364243
 31
0.0
  0
LINE
  5
CC
100
AcDbEntity
  8
Frei
  6
CONTINUOUS
 62
           7
100
AcDbLine
 10
-14499.429436198119
 20
-703.233836364243
 30
0.0
 11
-14499.363418665873
 21
-702.637479352515
 31
0.0
  0
LINE
  5
CD
100
AcDbEntity
  8
Frei
  6
CONTINUOUS
 62
           7
100
AcDbLine
 10
-14499.363418665873
 20
-702.637479352515
 30
0.0
 11
-14499.000322238524
 21
-699.357515788015
 31
0.0
  0
LINE
  5
CE
100
AcDbEntity
  8
Frei
  6
CONTINUOUS
 62
           7
100
AcDbLine
 10
-14525.198225102322
 20
-717.887488414522
 30
0.0
 11
-14523.901971616318
 21
-718.030985438331
 31
0.0
  0
LINE
  5
CF
100
AcDbEntity
  8
Frei
  6
CONTINUOUS
 62
           7
100
AcDbLine
 10
-14521.261270326508
 20
-694.176704969241
 30
0.0
 11
-14522.557523812511
 21
-694.033207945432
 31
0.0
  0
LINE
  5
D0
100
AcDbEntity
  8
Frei
  6
CONTINUOUS
 62
           7
100
AcDbLine
 10
-14523.901971616318
 20
-718.030985438331
 30
0.0
 11
-14520.129190502641
 21
-718.448637438607
 31
0.0
  0
LINE
  5
D1
100
AcDbEntity
  8
Frei
  6
CONTINUOUS
 62
           7
100
AcDbLine
 10
-14517.48848921283
 20
-694.594356969517
 30
0.0
 11
-14521.261270326508
 21
-694.176704969241
 31
0.0
  0
LINE
  5
D2
100
AcDbEntity
  8
Frei
  6
CONTINUOUS
 62
           7
100
AcDbLine
 10
-14557.877660762244
 20
-690.123220749621
 30
0.0
 11
-14522.557523812511
 21
-694.033207945432
 31
0.0
  0
LINE
  5
D3
100
AcDbEntity
  8
Frei
  6
CONTINUOUS
 62
           7
100
AcDbLine
 10
-14560.518362052055
 20
-713.97750121871
 30
0.0
 11
-14525.198225102322
 21
-717.887488414522
 31
0.0
  0
LINE
  5
D4
100
AcDbEntity
  8
Frei
  6
CONTINUOUS
 62
           7
100
AcDbLine
 10
-14516.792006291975
 20
-696.482454303067
 30
0.0
 11
-14519.036602388313
 21
-716.758592701793
 31
0.0
  0
LINE
  5
D5
100
AcDbEntity
  8
Frei
  6
CONTINUOUS
 62
           7
100
AcDbLine
 10
-14499.795831457748
 20
-698.363953972057
 30
0.0
 11
-14502.499693821315
 21
-698.06463273115
 31
0.0
  0
LINE
  5
D6
100
AcDbEntity
  8
Frei
  6
CONTINUOUS
 62
           7
100
AcDbLine
 10
-14501.046865738128
 20
-717.84458315156
 30
0.0
 11
-14500.683769310779
 21
-714.56461958706
 31
0.0
  0
LINE
  5
D7
100
AcDbEntity
  8
Frei
  6
CONTINUOUS
 62
           7
100
AcDbLine
 10
-14518.14206687072
 20
-716.857619000161
 30
0.0
 11
-14516.31270309046
 21
-717.060132058575
 31
0.0
  0
LINE
  5
D8
100
AcDbEntity
  8
Frei
  6
CONTINUOUS
 62
           7
100
AcDbLine
 10
-14513.936071929631
 20
-695.591279636395
 30
0.0
 11
-14514.068106994122
 21
-696.783993659849
 31
0.0
  0
LINE
  5
D9
100
AcDbEntity
  8
Frei
  6
CONTINUOUS
 62
           7
100
AcDbLine
 10
-14514.068106994122
 20
-696.783993659849
 30
0.0
 11
-14515.897470774382
 21
-696.581480601435
 31
0.0
  0
LINE
  5
DA
100
AcDbEntity
  8
Frei
  6
CONTINUOUS
 62
           7
100
AcDbLine
 10
-14514.068106994122
 20
-696.783993659849
 30
0.0
 11
-14516.31270309046
 21
-717.060132058575
 31
0.0
  0
LINE
  5
DB
100
AcDbEntity
  8
Frei
  6
CONTINUOUS
 62
           7
100
AcDbLine
 10
-14516.31270309046
 20
-717.060132058575
 30
0.0
 11
-14516.444738154951
 21
-718.25284608203
 31
0.0
  0
LINE
  5
DC
100
AcDbEntity
  8
Frei
  6
CONTINUOUS
 62
           7
100
AcDbLine
 10
-14504.876324982144
 20
-719.533485153331
 30
0.0
 11
-14504.744289917653
 21
-718.340771129876
 31
0.0
  0
LINE
  5
DD
100
AcDbEntity
  8
Frei
  6
CONTINUOUS
 62
           7
100
AcDbLine
 10
-14504.744289917653
 20
-718.340771129876
 30
0.0
 11
-14502.040427554086
 21
-718.640092370783
 31
0.0
  0
LINE
  5
DE
100
AcDbEntity
  8
Frei
  6
CONTINUOUS
 62
           7
100
AcDbLine
 10
-14504.744289917653
 20
-718.340771129876
 30
0.0
 11
-14502.499693821315
 21
-698.06463273115
 31
0.0
  0
LINE
  5
DF
100
AcDbEntity
  8
Frei
  6
CONTINUOUS
 62
           7
100
AcDbLine
 10
-14502.499693821315
 20
-698.06463273115
 30
0.0
 11
-14502.367658756824
 21
-696.871918707696
 31
0.0
  0
LINE
  5
E0
100
AcDbEntity
  8
Frei
  6
CONTINUOUS
 62
           7
100
AcDbLine
 10
-14513.936071929631
 20
-695.591279636395
 30
0.0
 11
-14502.367658756824
 21
-696.871918707696
 31
0.0
  0
LINE
  5
E1
100
AcDbEntity
  8
Frei
  6
CONTINUOUS
 62
           7
100
AcDbLine
 10
-14516.444738154951
 20
-718.25284608203
 30
0.0
 11
-14504.876324982144
 21
-719.533485153331
 31
0.0
  0
ARC
  5
E2
100
AcDbEntity
  8
Frei
  6
CONTINUOUS
 62
           7
100
AcDbCircle
 10
-14539.548255528958
 20
-704.225615683599
 30
0.0
 40
20.866107311614
100
AcDbArc
 50
318.576694434247
 51
28.789305565753
  0
ARC
  5
E3
100
AcDbEntity
  8
Frei
  6
CONTINUOUS
 62
           7
100
AcDbCircle
 10
-14529.717843965349
 20
-705.313855613076
 30
0.0
 40
29.660254037844
100
AcDbArc
 50
149.81807458395
 51
197.54792541605
  0
ARC
  5
E4
100
AcDbEntity
  8
Frei
  6
CONTINUOUS
 62
           7
100
AcDbCircle
 10
-14540.261132938187
 20
-704.146699184883
 30
0.0
 40
22.516660498395
100
AcDbArc
 50
141.478772496028
 51
205.887227503973
  0
CIRCLE
  5
E5
100
AcDbEntity
  8
Frei
  6
CONTINUOUS
 62
           7
100
AcDbCircle
 10
-14547.732154926505
 20
-703.319646890167
 30
0.0
 40
6.0
  0
CIRCLE
  5
E6
100
AcDbEntity
  8
Frei
  6
CONTINUOUS
 62
           7
100
AcDbCircle
 10
-14547.732154926505
 20
-703.319646890167
 30
0.0
 40
5.1
  0
ARC
  5
E7
100
AcDbEntity
  8
Frei
  6
CONTINUOUS
 62
           7
100
AcDbCircle
 10
-14517.587515511197
 20
-695.488892487108
 30
0.0
 40
0.9
100
AcDbArc
 50
353.682999999999
 51
83.683
  0
ARC
  5
E8
100
AcDbEntity
  8
Frei
  6
CONTINUOUS
 62
           7
100
AcDbCircle
 10
-14515.798444476013
 20
-695.686945083844
 30
0.0
 40
0.9
100
AcDbArc
 50
173.683
 51
263.682999999999
  0
ARC
  5
E9
100
AcDbEntity
  8
Frei
  6
CONTINUOUS
 62
           7
100
AcDbCircle
 10
-14499.894857756115
 20
-699.258489489648
 30
0.0
 40
0.9
100
AcDbArc
 50
353.682999999999
 51
83.683
  0
ARC
  5
EA
100
AcDbEntity
  8
Frei
  6
CONTINUOUS
 62
           7
100
AcDbCircle
 10
-14501.941401255719
 20
-717.745556853192
 30
0.0
 40
0.9
100
AcDbArc
 50
263.682999999999
 51
353.682999999999
  0
ARC
  5
EB
100
AcDbEntity
  8
Frei
  6
CONTINUOUS
 62
           7
100
AcDbCircle
 10
-14518.241093169088
 20
-717.752154517752
 30
0.0
 40
0.9
100
AcDbArc
 50
83.683
 51
173.683
  0
ARC
  5
EC
100
AcDbEntity
  8
Frei
  6
CONTINUOUS
 62
           7
100
AcDbCircle
 10
-14520.030164204272
 20
-717.554101921016
 30
0.0
 40
0.9
100
AcDbArc
 50
263.682999999999
 51
353.682999999999
  0
LINE
  5
ED
100
AcDbEntity
  8
Frei
  6
CONTINUOUS
 62
           7
100
AcDbLine
 10
-14247.630669744165
 20
-756.361450566407
 30
0.0
 11
-14244.15192050909
 21
-756.746552837838
 31
0.0
  0
LINE
  5
EE
100
AcDbEntity
  8
Frei
  6
CONTINUOUS
 62
           7
100
AcDbLine
 10
-14247.410611303349
 20
-754.373593860649
 30
0.0
 11
-14247.630669744165
 21
-756.361450566407
 31
0.0
  0
LINE
  5
EF
100
AcDbEntity
  8
Frei
  6
CONTINUOUS
 62
           7
100
AcDbLine
 10
-14242.112714562329
 20
-747.414262705898
 30
0.0
 11
-14243.047962935803
 21
-755.862653705367
 31
0.0
  0
LINE
  5
F0
100
AcDbEntity
  8
Frei
  6
CONTINUOUS
 62
           7
100
AcDbLine
 10
-14246.585392150282
 20
-746.919131214059
 30
0.0
 11
-14242.112714562329
 21
-747.414262705898
 31
0.0
  0
LINE
  5
F1
100
AcDbEntity
  8
Frei
  6
CONTINUOUS
 62
           7
100
AcDbLine
 10
-14246.640406760487
 20
-747.416095390498
 30
0.0
 11
-14246.585392150282
 21
-746.919131214059
 31
0.0
  0
LINE
  5
F2
100
AcDbEntity
  8
Frei
  6
CONTINUOUS
 62
           7
100
AcDbLine
 10
-14243.162712588468
 20
-748.2488863026
 30
0.0
 11
-14246.640406760487
 21
-747.416095390498
 31
0.0
  0
LINE
  5
F3
100
AcDbEntity
  8
Frei
  6
CONTINUOUS
 62
           7
100
AcDbLine
 10
-14243.00871785848
 20
-750.836454502711
 30
0.0
 11
-14242.782189541394
 21
-748.790153381581
 31
0.0
  0
LINE
  5
F4
100
AcDbEntity
  8
Frei
  6
CONTINUOUS
 62
           7
100
AcDbLine
 10
-14247.410611303349
 20
-754.373593860649
 30
0.0
 11
-14246.640406760487
 21
-747.416095390498
 31
0.0
  0
LINE
  5
F5
100
AcDbEntity
  8
Frei
  6
CONTINUOUS
 62
           7
100
AcDbLine
 10
-14243.834972085491
 20
-754.321616547359
 30
0.0
 11
-14247.410611303349
 21
-754.373593860649
 31
0.0
  0
LINE
  5
F6
100
AcDbEntity
  8
Frei
  6
CONTINUOUS
 62
           7
100
AcDbLine
 10
-14243.118747078888
 20
-751.83038285559
 30
0.0
 11
-14243.345275395972
 21
-753.87668397672
 31
0.0
  0
LINE
  5
F7
100
AcDbEntity
  8
Frei
  6
CONTINUOUS
 62
           2
100
AcDbLine
 10
-14244.640418126874
 20
-751.158877432492
 30
0.0
 11
-14241.880423880499
 21
-751.464412549165
 31
0.0
  0
LINE
  5
F8
100
AcDbEntity
  8
Frei
  6
CONTINUOUS
 62
           7
100
AcDbLine
 10
-14244.58540351667
 20
-750.661913256053
 30
0.0
 11
-14243.00871785848
 21
-750.836454502711
 31
0.0
  0
LINE
  5
F9
100
AcDbEntity
  8
Frei
  6
CONTINUOUS
 62
           7
100
AcDbLine
 10
-14244.640418126874
 20
-751.158877432492
 30
0.0
 11
-14244.58540351667
 21
-750.661913256053
 31
0.0
  0
LINE
  5
FA
100
AcDbEntity
  8
Frei
  6
CONTINUOUS
 62
           7
100
AcDbLine
 10
-14244.695432737079
 20
-751.655841608932
 30
0.0
 11
-14244.640418126874
 21
-751.158877432492
 31
0.0
  0
LINE
  5
FB
100
AcDbEntity
  8
Frei
  6
CONTINUOUS
 62
           7
100
AcDbLine
 10
-14243.118747078888
 20
-751.83038285559
 30
0.0
 11
-14244.695432737079
 21
-751.655841608932
 31
0.0
  0
LINE
  5
FC
100
AcDbEntity
  8
Frei
  6
CONTINUOUS
 62
           7
100
AcDbLine
 10
-14386.283674970751
 20
-741.012374319383
 30
0.0
 11
-14382.652710697263
 21
-708.212738674385
 31
0.0
  0
LINE
  5
FD
100
AcDbEntity
  8
Frei
  6
CONTINUOUS
 62
           7
100
AcDbLine
 10
-14400.198671911054
 20
-739.47196523366
 30
0.0
 11
-14386.283674970751
 21
-741.012374319383
 31
0.0
  0
LINE
  5
FE
100
AcDbEntity
  8
Frei
  6
CONTINUOUS
 62
           7
100
AcDbLine
 10
-14392.59199422605
 20
-707.112446470297
 30
0.0
 11
-14383.149674873701
 21
-708.15772406418
 31
0.0
  0
LINE
  5
FF
100
AcDbEntity
  8
Frei
  6
CONTINUOUS
 62
           7
100
AcDbLine
 10
-14392.812052666866
 20
-709.100303176054
 30
0.0
 11
-14392.59199422605
 21
-707.112446470297
 31
0.0
  0
LINE
  5
100
100
AcDbEntity
  8
Frei
  6
CONTINUOUS
 62
           7
100
AcDbLine
 10
-14393.582257209728
 20
-716.057801646205
 30
0.0
 11
-14393.637271819933
 21
-716.554765822645
 31
0.0
  0
LINE
  5
101
100
AcDbEntity
  8
Frei
  6
CONTINUOUS
 62
           7
100
AcDbLine
 10
-14398.606913584326
 20
-716.004619720601
 30
0.0
 11
-14397.671665210852
 21
-707.556228721132
 31
0.0
  0
LINE
  5
102
100
AcDbEntity
  8
Frei
  6
CONTINUOUS
 62
           7
100
AcDbLine
 10
-14393.637271819933
 20
-716.554765822645
 30
0.0
 11
-14398.606913584326
 21
-716.004619720601
 31
0.0
  0
LINE
  5
103
100
AcDbEntity
  8
Frei
  6
CONTINUOUS
 62
           7
100
AcDbLine
 10
-14396.567707637565
 20
-706.672329588662
 30
0.0
 11
-14392.59199422605
 21
-707.112446470297
 31
0.0
  0
LINE
  5
104
100
AcDbEntity
  8
Frei
  6
CONTINUOUS
 62
           7
100
AcDbLine
 10
-14397.059951381747
 20
-715.225010734104
 30
0.0
 11
-14393.582257209728
 21
-716.057801646205
 31
0.0
  0
LINE
  5
105
100
AcDbEntity
  8
Frei
  6
CONTINUOUS
 62
           7
100
AcDbLine
 10
-14397.213946111735
 20
-712.637442533992
 30
0.0
 11
-14397.44047442882
 21
-714.683743655123
 31
0.0
  0
LINE
  5
106
100
AcDbEntity
  8
Frei
  6
CONTINUOUS
 62
           7
100
AcDbLine
 10
-14392.812052666866
 20
-709.100303176054
 30
0.0
 11
-14393.582257209728
 21
-716.057801646205
 31
0.0
  0
LINE
  5
107
100
AcDbEntity
  8
Frei
  6
CONTINUOUS
 62
           7
100
AcDbLine
 10
-14396.387691884724
 20
-709.152280489344
 30
0.0
 11
-14392.812052666866
 21
-709.100303176054
 31
0.0
  0
LINE
  5
108
100
AcDbEntity
  8
Frei
  6
CONTINUOUS
 62
           7
100
AcDbLine
 10
-14397.103916891327
 20
-711.643514181113
 30
0.0
 11
-14396.877388574243
 21
-709.597213059984
 31
0.0
  0
LINE
  5
109
100
AcDbEntity
  8
Frei
  6
CONTINUOUS
 62
           2
100
AcDbLine
 10
-14395.582245843343
 20
-712.315019604212
 30
0.0
 11
-14398.342240089716
 21
-712.009484487539
 31
0.0
  0
LINE
  5
10A
100
AcDbEntity
  8
Frei
  6
CONTINUOUS
 62
           7
100
AcDbLine
 10
-14395.637260453546
 20
-712.81198378065
 30
0.0
 11
-14397.213946111735
 21
-712.637442533992
 31
0.0
  0
LINE
  5
10B
100
AcDbEntity
  8
Frei
  6
CONTINUOUS
 62
           7
100
AcDbLine
 10
-14395.582245843343
 20
-712.315019604212
 30
0.0
 11
-14395.637260453546
 21
-712.81198378065
 31
0.0
  0
LINE
  5
10C
100
AcDbEntity
  8
Frei
  6
CONTINUOUS
 62
           7
100
AcDbLine
 10
-14395.527231233138
 20
-711.818055427771
 30
0.0
 11
-14395.582245843343
 21
-712.315019604212
 31
0.0
  0
LINE
  5
10D
100
AcDbEntity
  8
Frei
  6
CONTINUOUS
 62
           7
100
AcDbLine
 10
-14397.103916891327
 20
-711.643514181113
 30
0.0
 11
-14395.527231233138
 21
-711.818055427771
 31
0.0
  0
LINE
  5
10E
100
AcDbEntity
  8
Frei
  6
CONTINUOUS
 62
           7
100
AcDbLine
 10
-14360.804634223252
 20
-747.153097614511
 30
0.0
 11
-14360.859648833457
 21
-747.65006179095
 31
0.0
  0
LINE
  5
10F
100
AcDbEntity
  8
Frei
  6
CONTINUOUS
 62
           7
100
AcDbLine
 10
-14360.859648833457
 20
-747.65006179095
 30
0.0
 11
-14284.327165661793
 21
-756.122311762426
 31
0.0
  0
LINE
  5
110
100
AcDbEntity
  8
Frei
  6
CONTINUOUS
 62
           7
100
AcDbLine
 10
-14284.327165661793
 20
-756.122311762426
 30
0.0
 11
-14279.155792302581
 21
-709.407679177126
 31
0.0
  0
LINE
  5
111
100
AcDbEntity
  8
Frei
  6
CONTINUOUS
 62
           7
100
AcDbLine
 10
-14279.155792302581
 20
-709.407679177126
 30
0.0
 11
-14355.688275474246
 21
-700.935429205651
 31
0.0
  0
LINE
  5
112
100
AcDbEntity
  8
Frei
  6
CONTINUOUS
 62
           7
100
AcDbLine
 10
-14383.149674873701
 20
-708.15772406418
 30
0.0
 11
-14382.652710697263
 21
-708.212738674385
 31
0.0
  0
LINE
  5
113
100
AcDbEntity
  8
Frei
  6
CONTINUOUS
 62
           7
100
AcDbLine
 10
-14356.682203827126
 20
-700.825399985242
 30
0.0
 11
-14382.027376825532
 21
-698.019654864818
 31
0.0
  0
LINE
  5
114
100
AcDbEntity
  8
Frei
  6
CONTINUOUS
 62
           7
100
AcDbLine
 10
-14386.701786008305
 20
-744.789302060322
 30
0.0
 11
-14386.283674970751
 21
-741.012374319383
 31
0.0
  0
LINE
  5
115
100
AcDbEntity
  8
Frei
  6
CONTINUOUS
 62
           7
100
AcDbLine
 10
-14383.149674873701
 20
-708.15772406418
 30
0.0
 11
-14382.027376825532
 21
-698.019654864818
 31
0.0
  0
LINE
  5
116
100
AcDbEntity
  8
Frei
  6
CONTINUOUS
 62
           7
100
AcDbLine
 10
-14360.804634223252
 20
-747.153097614511
 30
0.0
 11
-14361.798562576132
 21
-747.043068394102
 31
0.0
  0
LINE
  5
117
100
AcDbEntity
  8
Frei
  6
CONTINUOUS
 62
           7
100
AcDbLine
 10
-14355.743290084449
 20
-701.432393382089
 30
0.0
 11
-14360.804634223252
 21
-747.153097614511
 31
0.0
  0
LINE
  5
118
100
AcDbEntity
  8
Frei
  6
CONTINUOUS
 62
           7
100
AcDbLine
 10
-14355.743290084449
 20
-701.432393382089
 30
0.0
 11
-14356.737218437329
 21
-701.32236416168
 31
0.0
  0
LINE
  5
119
100
AcDbEntity
  8
Frei
  6
CONTINUOUS
 62
           7
100
AcDbLine
 10
-14355.688275474246
 20
-700.935429205651
 30
0.0
 11
-14355.743290084449
 21
-701.432393382089
 31
0.0
  0
LINE
  5
11A
100
AcDbEntity
  8
Frei
  6
CONTINUOUS
 62
           7
100
AcDbLine
 10
-14361.798562576132
 20
-747.043068394102
 30
0.0
 11
-14356.682203827126
 21
-700.825399985242
 31
0.0
  0
LINE
  5
11B
100
AcDbEntity
  8
Frei
  6
CONTINUOUS
 62
           7
100
AcDbLine
 10
-14361.853577186337
 20
-747.540032570542
 30
0.0
 11
-14361.798562576132
 21
-747.043068394102
 31
0.0
  0
LINE
  5
11C
100
AcDbEntity
  8
Frei
  6
CONTINUOUS
 62
           7
100
AcDbLine
 10
-14386.701786008305
 20
-744.789302060322
 30
0.0
 11
-14361.853577186337
 21
-747.540032570542
 31
0.0
  0
LINE
  5
11D
100
AcDbEntity
  8
Frei
  6
CONTINUOUS
 62
           7
100
AcDbLine
 10
-14283.333237308914
 20
-756.232340982835
 30
0.0
 11
-14258.485028486946
 21
-758.983071493054
 31
0.0
  0
LINE
  5
11E
100
AcDbEntity
  8
Frei
  6
CONTINUOUS
 62
           7
100
AcDbLine
 10
-14283.278222698709
 20
-755.735376806395
 30
0.0
 11
-14283.333237308914
 21
-756.232340982835
 31
0.0
  0
LINE
  5
11F
100
AcDbEntity
  8
Frei
  6
CONTINUOUS
 62
           7
100
AcDbLine
 10
-14278.161863949703
 20
-709.517708397535
 30
0.0
 11
-14283.278222698709
 21
-755.735376806395
 31
0.0
  0
LINE
  5
120
100
AcDbEntity
  8
Frei
  6
CONTINUOUS
 62
           7
100
AcDbLine
 10
-14278.216878559906
 20
-710.014672573973
 30
0.0
 11
-14279.210806912784
 21
-709.904643353565
 31
0.0
  0
LINE
  5
121
100
AcDbEntity
  8
Frei
  6
CONTINUOUS
 62
           7
100
AcDbLine
 10
-14283.278222698709
 20
-755.735376806395
 30
0.0
 11
-14284.272151051588
 21
-755.625347585986
 31
0.0
  0
LINE
  5
122
100
AcDbEntity
  8
Frei
  6
CONTINUOUS
 62
           7
100
AcDbLine
 10
-14252.816690951295
 20
-712.323453517959
 30
0.0
 11
-14253.938988999464
 21
-722.461522717321
 31
0.0
  0
LINE
  5
123
100
AcDbEntity
  8
Frei
  6
CONTINUOUS
 62
           7
100
AcDbLine
 10
-14252.816690951295
 20
-712.323453517959
 30
0.0
 11
-14278.161863949703
 21
-709.517708397535
 31
0.0
  0
LINE
  5
124
100
AcDbEntity
  8
Frei
  6
CONTINUOUS
 62
           7
100
AcDbLine
 10
-14254.435953175904
 20
-722.406508107116
 30
0.0
 11
-14253.938988999464
 21
-722.461522717321
 31
0.0
  0
LINE
  5
125
100
AcDbEntity
  8
Frei
  6
CONTINUOUS
 62
           7
100
AcDbLine
 10
-14254.435953175904
 20
-722.406508107116
 30
0.0
 11
-14258.485028486946
 21
-758.983071493054
 31
0.0
  0
LINE
  5
126
100
AcDbEntity
  8
Frei
  6
CONTINUOUS
 62
           7
100
AcDbLine
 10
-14429.58556903878
 20
-709.556914219089
 30
0.0
 11
-14431.573425744537
 21
-709.336855778271
 31
0.0
  0
LINE
  5
127
100
AcDbEntity
  8
Frei
  6
CONTINUOUS
 62
           7
100
AcDbLine
 10
-14430.682195873669
 20
-728.551582144193
 30
0.0
 11
-14428.70166990631
 21
-710.660871792376
 31
0.0
  0
LINE
  5
128
100
AcDbEntity
  8
Frei
  6
CONTINUOUS
 62
           7
100
AcDbLine
 10
-14433.774010152712
 20
-729.215422835846
 30
0.0
 11
-14431.786153446956
 21
-729.435481276663
 31
0.0
  0
LINE
  5
129
100
AcDbEntity
  8
Frei
  6
CONTINUOUS
 62
           7
100
AcDbLine
 10
-14434.107763183139
 20
-723.141823498165
 30
0.0
 11
-14434.657909285184
 21
-728.111465262558
 31
0.0
  0
LINE
  5
12A
100
AcDbEntity
  8
Frei
  6
CONTINUOUS
 62
           7
100
AcDbLine
 10
-14431.573425744537
 20
-709.336855778271
 30
0.0
 11
-14432.677383317825
 21
-710.220754910741
 31
0.0
  0
LINE
  5
12B
100
AcDbEntity
  8
Frei
  6
CONTINUOUS
 62
           7
100
AcDbLine
 10
-14429.58556903878
 20
-709.556914219089
 30
0.0
 11
-14428.70166990631
 21
-710.660871792376
 31
0.0
  0
LINE
  5
12C
100
AcDbEntity
  8
Frei
  6
CONTINUOUS
 62
           7
100
AcDbLine
 10
-14430.682195873669
 20
-728.551582144193
 30
0.0
 11
-14431.786153446956
 21
-729.435481276663
 31
0.0
  0
LINE
  5
12D
100
AcDbEntity
  8
Frei
  6
CONTINUOUS
 62
           7
100
AcDbLine
 10
-14433.774010152712
 20
-729.215422835846
 30
0.0
 11
-14434.657909285184
 21
-728.111465262558
 31
0.0
  0
LINE
  5
12E
100
AcDbEntity
  8
Frei
  6
CONTINUOUS
 62
           7
100
AcDbLine
 10
-14433.774010152712
 20
-729.215422835846
 30
0.0
 11
-14431.573425744537
 21
-709.336855778271
 31
0.0
  0
LINE
  5
12F
100
AcDbEntity
  8
Frei
  6
CONTINUOUS
 62
           7
100
AcDbLine
 10
-14431.786153446956
 20
-729.435481276663
 30
0.0
 11
-14429.58556903878
 21
-709.556914219089
 31
0.0
  0
LINE
  5
130
100
AcDbEntity
  8
Frei
  6
CONTINUOUS
 62
           7
100
AcDbLine
 10
-14431.507415026734
 20
-736.006044790784
 30
0.0
 11
-14430.682195873669
 21
-728.551582144193
 31
0.0
  0
LINE
  5
131
100
AcDbEntity
  8
Frei
  6
CONTINUOUS
 62
           7
100
AcDbLine
 10
-14401.638215199368
 20
-729.75457283029
 30
0.0
 11
-14402.68349279325
 21
-739.196892182638
 31
0.0
  0
LINE
  5
132
100
AcDbEntity
  8
Frei
  6
CONTINUOUS
 62
           7
100
AcDbLine
 10
-14434.331486993156
 20
-716.074295807605
 30
0.0
 11
-14433.22752941987
 21
-715.190396675135
 31
0.0
  0
LINE
  5
133
100
AcDbEntity
  8
Frei
  6
CONTINUOUS
 62
           7
100
AcDbLine
 10
-14432.677383317825
 20
-710.220754910741
 30
0.0
 11
-14433.22752941987
 21
-715.190396675135
 31
0.0
  0
LINE
  5
134
100
AcDbEntity
  8
Frei
  6
CONTINUOUS
 62
           7
100
AcDbLine
 10
-14434.386501603361
 20
-716.571259984044
 30
0.0
 11
-14434.331486993156
 21
-716.074295807605
 31
0.0
  0
LINE
  5
135
100
AcDbEntity
  8
Frei
  6
CONTINUOUS
 62
           7
100
AcDbLine
 10
-14434.107763183139
 20
-723.141823498165
 30
0.0
 11
-14434.99166231561
 21
-722.037865924877
 31
0.0
  0
LINE
  5
136
100
AcDbEntity
  8
Frei
  6
CONTINUOUS
 62
           7
100
AcDbLine
 10
-14433.997733962731
 20
-722.147895145286
 30
0.0
 11
-14434.107763183139
 21
-723.141823498165
 31
0.0
  0
LINE
  5
137
100
AcDbEntity
  8
Frei
  6
CONTINUOUS
 62
           2
100
AcDbLine
 10
-14433.337558640278
 20
-716.184325028014
 30
0.0
 11
-14434.331486993156
 21
-716.074295807605
 31
0.0
  0
LINE
  5
138
100
AcDbEntity
  8
Frei
  6
CONTINUOUS
 62
           7
100
AcDbLine
 10
-14433.22752941987
 20
-715.190396675135
 30
0.0
 11
-14433.337558640278
 21
-716.184325028014
 31
0.0
  0
LINE
  5
139
100
AcDbEntity
  8
Frei
  6
CONTINUOUS
 62
           2
100
AcDbLine
 10
-14433.997733962731
 20
-722.147895145286
 30
0.0
 11
-14434.99166231561
 21
-722.037865924877
 31
0.0
  0
LINE
  5
13A
100
AcDbEntity
  8
Frei
  6
CONTINUOUS
 62
           7
100
AcDbLine
 10
-14433.337558640278
 20
-716.184325028014
 30
0.0
 11
-14433.997733962731
 21
-722.147895145286
 31
0.0
  0
LINE
  5
13B
100
AcDbEntity
  8
Frei
  6
CONTINUOUS
 62
           1
100
AcDbLine
 10
-14431.913259049286
 20
-716.845051298396
 30
0.0
 11
-14434.386501603361
 21
-716.571259984044
 31
0.0
  0
LINE
  5
13C
100
AcDbEntity
  8
Frei
  6
CONTINUOUS
 62
           7
100
AcDbLine
 10
-14434.441516213565
 20
-717.068224160483
 30
0.0
 11
-14434.386501603361
 21
-716.571259984044
 31
0.0
  0
LINE
  5
13D
100
AcDbEntity
  8
Frei
  6
CONTINUOUS
 62
           1
100
AcDbLine
 10
-14432.463405151329
 20
-721.81469306279
 30
0.0
 11
-14434.936647705405
 21
-721.540901748438
 31
0.0
  0
LINE
  5
13E
100
AcDbEntity
  8
Frei
  6
CONTINUOUS
 62
           7
100
AcDbLine
 10
-14434.99166231561
 20
-722.037865924877
 30
0.0
 11
-14434.936647705405
 21
-721.540901748438
 31
0.0
  0
LINE
  5
13F
100
AcDbEntity
  8
Frei
  6
CONTINUOUS
 62
           1
100
AcDbLine
 10
-14431.96827365949
 20
-717.342015474836
 30
0.0
 11
-14434.441516213565
 21
-717.068224160483
 31
0.0
  0
LINE
  5
140
100
AcDbEntity
  8
Frei
  6
CONTINUOUS
 62
           7
100
AcDbLine
 10
-14434.881633095201
 20
-721.043937571998
 30
0.0
 11
-14434.441516213565
 21
-717.068224160483
 31
0.0
  0
LINE
  5
141
100
AcDbEntity
  8
Frei
  6
CONTINUOUS
 62
           1
100
AcDbLine
 10
-14432.408390541126
 20
-721.317728886351
 30
0.0
 11
-14434.881633095201
 21
-721.043937571998
 31
0.0
  0
LINE
  5
142
100
AcDbEntity
  8
Frei
  6
CONTINUOUS
 62
           7
100
AcDbLine
 10
-14434.936647705405
 20
-721.540901748438
 30
0.0
 11
-14434.881633095201
 21
-721.043937571998
 31
0.0
  0
LINE
  5
143
100
AcDbEntity
  8
Frei
  6
CONTINUOUS
 62
           7
100
AcDbLine
 10
-14426.50209655286
 20
-708.334059762965
 30
0.0
 11
-14399.492645401397
 21
-710.372969949155
 31
0.0
  0
LINE
  5
144
100
AcDbEntity
  8
Frei
  6
CONTINUOUS
 62
           7
100
AcDbLine
 10
-14428.640502447233
 20
-710.108327008139
 30
0.0
 11
-14428.70166990631
 21
-710.660871792376
 31
0.0
  0
LINE
  5
145
100
AcDbEntity
  8
Frei
  6
CONTINUOUS
 62
           7
100
AcDbLine
 10
-14402.68349279325
 20
-739.196892182638
 30
0.0
 11
-14431.507415026734
 21
-736.006044790784
 31
0.0
  0
LINE
  5
146
100
AcDbEntity
  8
Frei
  6
CONTINUOUS
 62
           7
100
AcDbLine
 10
-14431.617444247144
 20
-736.999973143663
 30
0.0
 11
-14431.507415026734
 21
-736.006044790784
 31
0.0
  0
LINE
  5
147
100
AcDbEntity
  8
Frei
  6
CONTINUOUS
 62
           7
100
AcDbLine
 10
-14431.120480070704
 20
-737.054987753867
 30
0.0
 11
-14431.617444247144
 21
-736.999973143663
 31
0.0
  0
LINE
  5
148
100
AcDbEntity
  8
Frei
  6
CONTINUOUS
 62
           7
100
AcDbLine
 10
-14402.68349279325
 20
-739.196892182638
 30
0.0
 11
-14402.793522013661
 21
-740.190820535517
 31
0.0
  0
LINE
  5
149
100
AcDbEntity
  8
Frei
  6
CONTINUOUS
 62
           7
100
AcDbLine
 10
-14442.987107641244
 20
-748.820749526999
 30
0.0
 11
-14432.550859936016
 21
-749.976056341291
 31
0.0
  0
LINE
  5
14A
100
AcDbEntity
  8
Frei
  6
CONTINUOUS
 62
           7
100
AcDbLine
 10
-14446.238467697103
 20
-764.558559342445
 30
0.0
 11
-14446.293482307308
 21
-765.055523518884
 31
0.0
  0
LINE
  5
14B
100
AcDbEntity
  8
Frei
  6
CONTINUOUS
 62
           7
100
AcDbLine
 10
-14444.967633608601
 20
-766.711459878816
 30
0.0
 11
-14434.531385903374
 21
-767.866766693108
 31
0.0
  0
LINE
  5
14C
100
AcDbEntity
  8
Frei
  6
CONTINUOUS
 62
           7
100
AcDbLine
 10
-14434.146283631944
 20
-764.388017458032
 30
0.0
 11
-14431.120480070704
 21
-737.054987753867
 31
0.0
  0
LINE
  5
14D
100
AcDbEntity
  8
Frei
  6
CONTINUOUS
 62
           7
100
AcDbLine
 10
-14403.290486190099
 20
-740.135805925313
 30
0.0
 11
-14431.120480070704
 21
-737.054987753867
 31
0.0
  0
LINE
  5
14E
100
AcDbEntity
  8
Frei
  6
CONTINUOUS
 62
           7
100
AcDbLine
 10
-14432.820434933239
 20
-766.043953817963
 30
0.0
 11
-14426.892545238505
 21
-766.700179269116
 31
0.0
  0
LINE
  5
14F
100
AcDbEntity
  8
Frei
  6
CONTINUOUS
 62
           7
100
AcDbLine
 10
-14406.316289751339
 20
-767.468835629478
 30
0.0
 11
-14403.290486190099
 21
-740.135805925313
 31
0.0
  0
LINE
  5
150
100
AcDbEntity
  8
Frei
  6
CONTINUOUS
 62
           7
100
AcDbLine
 10
-14402.793522013661
 20
-740.190820535517
 30
0.0
 11
-14403.290486190099
 21
-740.135805925313
 31
0.0
  0
LINE
  5
151
100
AcDbEntity
  8
Frei
  6
CONTINUOUS
 62
           7
100
AcDbLine
 10
-14426.892545238505
 20
-766.700179269116
 30
0.0
 11
-14434.531385903374
 21
-767.866766693108
 31
0.0
  0
LINE
  5
152
100
AcDbEntity
  8
Frei
  6
CONTINUOUS
 62
           7
100
AcDbLine
 10
-14407.972226111271
 20
-768.794684328183
 30
0.0
 11
-14426.892545238505
 21
-766.700179269116
 31
0.0
  0
LINE
  5
153
100
AcDbEntity
  8
Frei
  6
CONTINUOUS
 62
           7
100
AcDbLine
 10
-14449.667700375774
 20
-750.093416300099
 30
0.0
 11
-14444.69805861138
 21
-750.643562402143
 31
0.0
  0
LINE
  5
154
100
AcDbEntity
  8
Frei
  6
CONTINUOUS
 62
           7
100
AcDbLine
 10
-14444.643044001175
 20
-750.146598225703
 30
0.0
 11
-14444.69805861138
 21
-750.643562402143
 31
0.0
  0
LINE
  5
155
100
AcDbEntity
  8
Frei
  6
CONTINUOUS
 62
           7
100
AcDbLine
 10
-14451.208109461497
 20
-764.008413240401
 30
0.0
 11
-14446.238467697103
 21
-764.558559342445
 31
0.0
  0
LINE
  5
156
100
AcDbEntity
  8
Frei
  6
CONTINUOUS
 62
           7
100
AcDbLine
 10
-14446.128438476695
 20
-763.564630989566
 30
0.0
 11
-14446.238467697103
 21
-764.558559342445
 31
0.0
  0
LINE
  5
157
100
AcDbEntity
  8
Frei
  6
CONTINUOUS
 62
           2
100
AcDbLine
 10
-14444.808087831789
 20
-751.637490755022
 30
0.0
 11
-14449.777729596182
 21
-751.087344652978
 31
0.0
  0
LINE
  5
158
100
AcDbEntity
  8
Frei
  6
CONTINUOUS
 62
           7
100
AcDbLine
 10
-14444.69805861138
 20
-750.643562402143
 30
0.0
 11
-14444.808087831789
 21
-751.637490755022
 31
0.0
  0
LINE
  5
159
100
AcDbEntity
  8
Frei
  6
CONTINUOUS
 62
           2
100
AcDbLine
 10
-14446.128438476695
 20
-763.564630989566
 30
0.0
 11
-14451.098080241089
 21
-763.014484887522
 31
0.0
  0
LINE
  5
15A
100
AcDbEntity
  8
Frei
  6
CONTINUOUS
 62
           7
100
AcDbLine
 10
-14444.808087831789
 20
-751.637490755022
 30
0.0
 11
-14446.128438476695
 21
-763.564630989566
 31
0.0
  0
LINE
  5
15B
100
AcDbEntity
  8
Frei
  6
CONTINUOUS
 62
           7
100
AcDbLine
 10
-14400.097806113645
 20
-715.839575889988
 30
0.0
 11
-14399.346407554129
 21
-715.92275673243
 31
0.0
  0
LINE
  5
15C
100
AcDbEntity
  8
Frei
  6
CONTINUOUS
 62
           7
100
AcDbLine
 10
-14399.492645401397
 20
-710.372969949155
 30
0.0
 11
-14400.097806113645
 21
-715.839575889988
 31
0.0
  0
LINE
  5
15D
100
AcDbEntity
  8
Frei
  6
CONTINUOUS
 62
           7
100
AcDbLine
 10
-14400.482908385076
 20
-719.318325125063
 30
0.0
 11
-14399.73150982556
 21
-719.401505967506
 31
0.0
  0
LINE
  5
15E
100
AcDbEntity
  8
Frei
  6
CONTINUOUS
 62
           7
100
AcDbLine
 10
-14400.097806113645
 20
-715.839575889988
 30
0.0
 11
-14400.482908385076
 21
-719.318325125063
 31
0.0
  0
LINE
  5
15F
100
AcDbEntity
  8
Frei
  6
CONTINUOUS
 62
           7
100
AcDbLine
 10
-14401.253112927938
 20
-726.275823595215
 30
0.0
 11
-14400.501714368422
 21
-726.359004437657
 31
0.0
  0
LINE
  5
160
100
AcDbEntity
  8
Frei
  6
CONTINUOUS
 62
           7
100
AcDbLine
 10
-14400.482908385076
 20
-719.318325125063
 30
0.0
 11
-14401.253112927938
 21
-726.275823595215
 31
0.0
  0
LINE
  5
161
100
AcDbEntity
  8
Frei
  6
CONTINUOUS
 62
           7
100
AcDbLine
 10
-14401.638215199368
 20
-729.75457283029
 30
0.0
 11
-14400.886816639852
 21
-729.837753672732
 31
0.0
  0
LINE
  5
162
100
AcDbEntity
  8
Frei
  6
CONTINUOUS
 62
           7
100
AcDbLine
 10
-14401.253112927938
 20
-726.275823595215
 30
0.0
 11
-14401.638215199368
 21
-729.75457283029
 31
0.0
  0
LINE
  5
163
100
AcDbEntity
  8
Frei
  6
CONTINUOUS
 62
           7
100
AcDbLine
 10
-14399.377118127188
 20
-722.962118190752
 30
0.0
 11
-14398.799464720041
 21
-717.743994338139
 31
0.0
  0
LINE
  5
164
100
AcDbEntity
  8
Frei
  6
CONTINUOUS
 62
           7
100
AcDbLine
 10
-14449.565570897967
 20
-749.170848792295
 30
0.0
 11
-14449.421498518288
 21
-747.869397936814
 31
0.0
  0
LINE
  5
165
100
AcDbEntity
  8
Frei
  6
CONTINUOUS
 62
           7
100
AcDbLine
 10
-14455.672560081628
 20
-765.765465728832
 30
0.0
 11
-14451.454311318983
 21
-766.232431603686
 31
0.0
  0
LINE
  5
166
100
AcDbEntity
  8
Frei
  6
CONTINUOUS
 62
           7
100
AcDbLine
 10
-14454.53521266236
 20
-748.620702690251
 30
0.0
 11
-14449.565570897967
 21
-749.170848792295
 31
0.0
  0
LINE
  5
167
100
AcDbEntity
  8
Frei
  6
CONTINUOUS
 62
           7
100
AcDbLine
 10
-14449.785629338783
 20
-751.158705498053
 30
0.0
 11
-14449.565570897967
 21
-749.170848792295
 31
0.0
  0
LINE
  5
168
100
AcDbEntity
  8
Frei
  6
CONTINUOUS
 62
           7
100
AcDbLine
 10
-14449.785629338783
 20
-751.158705498053
 30
0.0
 11
-14454.755271103177
 21
-750.608559396009
 31
0.0
  0
LINE
  5
169
100
AcDbEntity
  8
Frei
  6
CONTINUOUS
 62
           7
100
AcDbLine
 10
-14454.53521266236
 20
-748.620702690251
 30
0.0
 11
-14454.755271103177
 21
-750.608559396009
 31
0.0
  0
LINE
  5
16A
100
AcDbEntity
  8
Frei
  6
CONTINUOUS
 62
           7
100
AcDbLine
 10
-14449.929701718462
 20
-752.460156353532
 30
0.0
 11
-14449.785629338783
 21
-751.158705498053
 31
0.0
  0
LINE
  5
16B
100
AcDbEntity
  8
Frei
  6
CONTINUOUS
 62
           7
100
AcDbLine
 10
-14450.217846477817
 20
-755.063058064492
 30
0.0
 11
-14449.929701718462
 21
-752.460156353532
 31
0.0
  0
LINE
  5
16C
100
AcDbEntity
  8
Frei
  6
CONTINUOUS
 62
           7
100
AcDbLine
 10
-14450.217846477817
 20
-755.063058064492
 30
0.0
 11
-14455.187488242211
 21
-754.512911962449
 31
0.0
  0
LINE
  5
16D
100
AcDbEntity
  8
Frei
  6
CONTINUOUS
 62
           7
100
AcDbLine
 10
-14454.755271103177
 20
-750.608559396009
 30
0.0
 11
-14455.187488242211
 21
-754.512911962449
 31
0.0
  0
LINE
  5
16E
100
AcDbEntity
  8
Frei
  6
CONTINUOUS
 62
           7
100
AcDbLine
 10
-14450.657963359452
 20
-759.038771476007
 30
0.0
 11
-14450.217846477817
 21
-755.063058064492
 31
0.0
  0
LINE
  5
16F
100
AcDbEntity
  8
Frei
  6
CONTINUOUS
 62
           7
100
AcDbLine
 10
-14450.657963359452
 20
-759.038771476007
 30
0.0
 11
-14455.627605123846
 21
-758.488625373964
 31
0.0
  0
LINE
  5
170
100
AcDbEntity
  8
Frei
  6
CONTINUOUS
 62
           7
100
AcDbLine
 10
-14455.187488242211
 20
-754.512911962449
 30
0.0
 11
-14455.627605123846
 21
-758.488625373964
 31
0.0
  0
LINE
  5
171
100
AcDbEntity
  8
Frei
  6
CONTINUOUS
 62
           7
100
AcDbLine
 10
-14450.946108118809
 20
-761.641673186968
 30
0.0
 11
-14450.657963359452
 21
-759.038771476007
 31
0.0
  0
LINE
  5
172
100
AcDbEntity
  8
Frei
  6
CONTINUOUS
 62
           7
100
AcDbLine
 10
-14451.090180498488
 20
-762.943124042449
 30
0.0
 11
-14450.946108118809
 21
-761.641673186968
 31
0.0
  0
LINE
  5
173
100
AcDbEntity
  8
Frei
  6
CONTINUOUS
 62
           7
100
AcDbLine
 10
-14451.090180498488
 20
-762.943124042449
 30
0.0
 11
-14456.059822262881
 21
-762.392977940405
 31
0.0
  0
LINE
  5
174
100
AcDbEntity
  8
Frei
  6
CONTINUOUS
 62
           7
100
AcDbLine
 10
-14455.627605123846
 20
-758.488625373964
 30
0.0
 11
-14456.059822262881
 21
-762.392977940405
 31
0.0
  0
LINE
  5
175
100
AcDbEntity
  8
Frei
  6
CONTINUOUS
 62
           7
100
AcDbLine
 10
-14451.310238939304
 20
-764.930980748206
 30
0.0
 11
-14451.090180498488
 21
-762.943124042449
 31
0.0
  0
LINE
  5
176
100
AcDbEntity
  8
Frei
  6
CONTINUOUS
 62
           7
100
AcDbLine
 10
-14451.310238939304
 20
-764.930980748206
 30
0.0
 11
-14456.279880703698
 21
-764.380834646162
 31
0.0
  0
LINE
  5
177
100
AcDbEntity
  8
Frei
  6
CONTINUOUS
 62
           7
100
AcDbLine
 10
-14456.059822262881
 20
-762.392977940405
 30
0.0
 11
-14456.279880703698
 21
-764.380834646162
 31
0.0
  0
LINE
  5
178
100
AcDbEntity
  8
Frei
  6
CONTINUOUS
 62
           7
100
AcDbLine
 10
-14451.454311318983
 20
-766.232431603686
 30
0.0
 11
-14451.310238939304
 21
-764.930980748206
 31
0.0
  0
LINE
  5
179
100
AcDbEntity
  8
Frei
  6
CONTINUOUS
 62
           7
100
AcDbLine
 10
-14454.53521266236
 20
-748.620702690251
 30
0.0
 11
-14453.639747280933
 21
-747.402432061961
 31
0.0
  0
LINE
  5
17A
100
AcDbEntity
  8
Frei
  6
CONTINUOUS
 62
           7
100
AcDbLine
 10
-14449.421498518288
 20
-747.869397936814
 30
0.0
 11
-14453.639747280933
 21
-747.402432061961
 31
0.0
  0
LINE
  5
17B
100
AcDbEntity
  8
Frei
  6
CONTINUOUS
 62
           7
100
AcDbLine
 10
-14455.672560081628
 20
-765.765465728832
 30
0.0
 11
-14456.279880703698
 21
-764.380834646162
 31
0.0
  0
LINE
  5
17C
100
AcDbEntity
  8
Frei
  6
CONTINUOUS
 62
           7
100
AcDbLine
 10
-14454.147950481107
 20
-751.993190478678
 30
0.0
 11
-14454.755271103177
 21
-750.608559396009
 31
0.0
  0
LINE
  5
17D
100
AcDbEntity
  8
Frei
  6
CONTINUOUS
 62
           7
100
AcDbLine
 10
-14449.929701718462
 20
-752.460156353532
 30
0.0
 11
-14454.147950481107
 21
-751.993190478678
 31
0.0
  0
LINE
  5
17E
100
AcDbEntity
  8
Frei
  6
CONTINUOUS
 62
           7
100
AcDbLine
 10
-14455.187488242211
 20
-754.512911962449
 30
0.0
 11
-14454.147950481107
 21
-751.993190478678
 31
0.0
  0
LINE
  5
17F
100
AcDbEntity
  8
Frei
  6
CONTINUOUS
 62
           7
100
AcDbLine
 10
-14455.164356881454
 20
-761.174707312114
 30
0.0
 11
-14455.627605123846
 21
-758.488625373964
 31
0.0
  0
LINE
  5
180
100
AcDbEntity
  8
Frei
  6
CONTINUOUS
 62
           7
100
AcDbLine
 10
-14450.946108118809
 20
-761.641673186968
 30
0.0
 11
-14455.164356881454
 21
-761.174707312114
 31
0.0
  0
LINE
  5
181
100
AcDbEntity
  8
Frei
  6
CONTINUOUS
 62
           7
100
AcDbLine
 10
-14456.059822262881
 20
-762.392977940405
 30
0.0
 11
-14455.164356881454
 21
-761.174707312114
 31
0.0
  0
LINE
  5
182
100
AcDbEntity
  8
Frei
  6
CONTINUOUS
 62
           3
100
AcDbLine
 10
-14410.669767881443
 20
-761.352690751313
 30
0.0
 11
-14428.560478233261
 21
-759.372164783955
 31
0.0
  0
LINE
  5
183
100
AcDbEntity
  8
Frei
  6
CONTINUOUS
 62
           3
100
AcDbLine
 10
-14411.332142425417
 20
-761.883030230795
 30
0.0
 11
-14410.669767881443
 21
-761.352690751313
 31
0.0
  0
LINE
  5
184
100
AcDbEntity
  8
Frei
  6
CONTINUOUS
 62
           3
100
AcDbLine
 10
-14410.801802945934
 20
-762.545404774768
 30
0.0
 11
-14411.332142425417
 21
-761.883030230795
 31
0.0
  0
LINE
  5
185
100
AcDbEntity
  8
Frei
  6
CONTINUOUS
 62
           3
100
AcDbLine
 10
-14428.692513297752
 20
-760.56487880741
 30
0.0
 11
-14410.801802945934
 21
-762.545404774768
 31
0.0
  0
LINE
  5
186
100
AcDbEntity
  8
Frei
  6
CONTINUOUS
 62
           3
100
AcDbLine
 10
-14428.03013875378
 20
-760.034539327928
 30
0.0
 11
-14428.692513297752
 21
-760.56487880741
 31
0.0
  0
LINE
  5
187
100
AcDbEntity
  8
Frei
  6
CONTINUOUS
 62
           3
100
AcDbLine
 10
-14428.560478233261
 20
-759.372164783955
 30
0.0
 11
-14428.03013875378
 21
-760.034539327928
 31
0.0
  0
LINE
  5
188
100
AcDbEntity
  8
Frei
  6
CONTINUOUS
 62
           3
100
AcDbLine
 10
-14411.332142425417
 20
-761.883030230795
 30
0.0
 11
-14428.03013875378
 21
-760.034539327928
 31
0.0
  0
LINE
  5
189
100
AcDbEntity
  8
Frei
  6
CONTINUOUS
 62
           3
100
AcDbLine
 10
-14428.472454856934
 20
-758.577022101652
 30
0.0
 11
-14427.810080312962
 21
-758.04668262217
 31
0.0
  0
LINE
  5
18A
100
AcDbEntity
  8
Frei
  6
CONTINUOUS
 62
           3
100
AcDbLine
 10
-14410.581744505116
 20
-760.55754806901
 30
0.0
 11
-14428.472454856934
 21
-758.577022101652
 31
0.0
  0
LINE
  5
18B
100
AcDbEntity
  8
Frei
  6
CONTINUOUS
 62
           3
100
AcDbLine
 10
-14411.112083984599
 20
-759.895173525038
 30
0.0
 11
-14410.581744505116
 21
-760.55754806901
 31
0.0
  0
LINE
  5
18C
100
AcDbEntity
  8
Frei
  6
CONTINUOUS
 62
           3
100
AcDbLine
 10
-14410.449709440627
 20
-759.364834045556
 30
0.0
 11
-14411.112083984599
 21
-759.895173525038
 31
0.0
  0
LINE
  5
18D
100
AcDbEntity
  8
Frei
  6
CONTINUOUS
 62
           3
100
AcDbLine
 10
-14428.340419792445
 20
-757.384308078198
 30
0.0
 11
-14410.449709440627
 21
-759.364834045556
 31
0.0
  0
LINE
  5
18E
100
AcDbEntity
  8
Frei
  6
CONTINUOUS
 62
           3
100
AcDbLine
 10
-14427.810080312962
 20
-758.04668262217
 30
0.0
 11
-14428.340419792445
 21
-757.384308078198
 31
0.0
  0
LINE
  5
18F
100
AcDbEntity
  8
Frei
  6
CONTINUOUS
 62
           3
100
AcDbLine
 10
-14427.810080312962
 20
-758.04668262217
 30
0.0
 11
-14411.112083984599
 21
-759.895173525038
 31
0.0
  0
LINE
  5
190
100
AcDbEntity
  8
Frei
  6
CONTINUOUS
 62
           3
100
AcDbLine
 10
-14428.252396416117
 20
-756.589165395895
 30
0.0
 11
-14427.590021872144
 21
-756.058825916413
 31
0.0
  0
LINE
  5
191
100
AcDbEntity
  8
Frei
  6
CONTINUOUS
 62
           3
100
AcDbLine
 10
-14410.3616860643
 20
-758.569691363253
 30
0.0
 11
-14428.252396416117
 21
-756.589165395895
 31
0.0
  0
LINE
  5
192
100
AcDbEntity
  8
Frei
  6
CONTINUOUS
 62
           3
100
AcDbLine
 10
-14410.892025543781
 20
-757.90731681928
 30
0.0
 11
-14410.3616860643
 21
-758.569691363253
 31
0.0
  0
LINE
  5
193
100
AcDbEntity
  8
Frei
  6
CONTINUOUS
 62
           3
100
AcDbLine
 10
-14410.229650999809
 20
-757.376977339798
 30
0.0
 11
-14410.892025543781
 21
-757.90731681928
 31
0.0
  0
LINE
  5
194
100
AcDbEntity
  8
Frei
  6
CONTINUOUS
 62
           3
100
AcDbLine
 10
-14428.120361351626
 20
-755.39645137244
 30
0.0
 11
-14410.229650999809
 21
-757.376977339798
 31
0.0
  0
LINE
  5
195
100
AcDbEntity
  8
Frei
  6
CONTINUOUS
 62
           3
100
AcDbLine
 10
-14427.590021872144
 20
-756.058825916413
 30
0.0
 11
-14428.120361351626
 21
-755.39645137244
 31
0.0
  0
LINE
  5
196
100
AcDbEntity
  8
Frei
  6
CONTINUOUS
 62
           3
100
AcDbLine
 10
-14428.032337975299
 20
-754.601308690137
 30
0.0
 11
-14427.369963431327
 21
-754.070969210655
 31
0.0
  0
LINE
  5
197
100
AcDbEntity
  8
Frei
  6
CONTINUOUS
 62
           3
100
AcDbLine
 10
-14421.976412743146
 20
-755.27170784941
 30
0.0
 11
-14428.032337975299
 21
-754.601308690137
 31
0.0
  0
LINE
  5
198
100
AcDbEntity
  8
Frei
  6
CONTINUOUS
 62
           3
100
AcDbLine
 10
-14410.671967102964
 20
-755.919460113523
 30
0.0
 11
-14410.141627623481
 21
-756.581834657495
 31
0.0
  0
LINE
  5
199
100
AcDbEntity
  8
Frei
  6
CONTINUOUS
 62
           3
100
AcDbLine
 10
-14410.00959255899
 20
-755.389120634041
 30
0.0
 11
-14410.671967102964
 21
-755.919460113523
 31
0.0
  0
LINE
  5
19A
100
AcDbEntity
  8
Frei
  6
CONTINUOUS
 62
           3
100
AcDbLine
 10
-14416.065517791143
 20
-754.718721474768
 30
0.0
 11
-14410.00959255899
 21
-755.389120634041
 31
0.0
  0
LINE
  5
19B
100
AcDbEntity
  8
Frei
  6
CONTINUOUS
 62
           3
100
AcDbLine
 10
-14427.369963431327
 20
-754.070969210655
 30
0.0
 11
-14427.900302910808
 21
-753.408594666683
 31
0.0
  0
LINE
  5
19C
100
AcDbEntity
  8
Frei
  6
CONTINUOUS
 62
           3
100
AcDbLine
 10
-14427.812279534483
 20
-752.61345198438
 30
0.0
 11
-14427.149904990509
 21
-752.083112504898
 31
0.0
  0
LINE
  5
19D
100
AcDbEntity
  8
Frei
  6
CONTINUOUS
 62
           3
100
AcDbLine
 10
-14422.49803963979
 20
-753.201745568102
 30
0.0
 11
-14427.812279534483
 21
-752.61345198438
 31
0.0
  0
LINE
  5
19E
100
AcDbEntity
  8
Frei
  6
CONTINUOUS
 62
           3
100
AcDbLine
 10
-14410.451908662146
 20
-753.931603407765
 30
0.0
 11
-14409.921569182665
 21
-754.593977951738
 31
0.0
  0
LINE
  5
19F
100
AcDbEntity
  8
Frei
  6
CONTINUOUS
 62
           3
100
AcDbLine
 10
-14415.766148556839
 20
-753.343309824043
 30
0.0
 11
-14410.451908662146
 21
-753.931603407765
 31
0.0
  0
LINE
  5
1A0
100
AcDbEntity
  8
Frei
  6
CONTINUOUS
 62
           3
100
AcDbLine
 10
-14421.314038199176
 20
-754.741368369928
 30
0.0
 11
-14427.369963431327
 21
-754.070969210655
 31
0.0
  0
LINE
  5
1A1
100
AcDbEntity
  8
Frei
  6
CONTINUOUS
 62
           3
100
AcDbLine
 10
-14410.892025543781
 20
-757.90731681928
 30
0.0
 11
-14427.590021872144
 21
-756.058825916413
 31
0.0
  0
LINE
  5
1A2
100
AcDbEntity
  8
Frei
  6
CONTINUOUS
 62
           3
100
AcDbLine
 10
-14421.314038199176
 20
-754.741368369928
 30
0.0
 11
-14421.844377678655
 21
-754.078993825956
 31
0.0
  0
LINE
  5
1A3
100
AcDbEntity
  8
Frei
  6
CONTINUOUS
 62
           3
100
AcDbLine
 10
-14427.900302910808
 20
-753.408594666683
 30
0.0
 11
-14421.844377678655
 21
-754.078993825956
 31
0.0
  0
LINE
  5
1A4
100
AcDbEntity
  8
Frei
  6
CONTINUOUS
 62
           3
100
AcDbLine
 10
-14421.976412743146
 20
-755.27170784941
 30
0.0
 11
-14421.314038199176
 21
-754.741368369928
 31
0.0
  0
LINE
  5
1A5
100
AcDbEntity
  8
Frei
  6
CONTINUOUS
 62
           3
100
AcDbLine
 10
-14421.835665095816
 20
-752.67140608862
 30
0.0
 11
-14422.49803963979
 21
-753.201745568102
 31
0.0
  0
LINE
  5
1A6
100
AcDbEntity
  8
Frei
  6
CONTINUOUS
 62
           3
100
AcDbLine
 10
-14427.149904990509
 20
-752.083112504898
 30
0.0
 11
-14421.835665095816
 21
-752.67140608862
 31
0.0
  0
LINE
  5
1A7
100
AcDbEntity
  8
Frei
  6
CONTINUOUS
 62
           3
100
AcDbLine
 10
-14415.235809077358
 20
-754.005684368016
 30
0.0
 11
-14415.766148556839
 21
-753.343309824043
 31
0.0
  0
LINE
  5
1A8
100
AcDbEntity
  8
Frei
  6
CONTINUOUS
 62
           3
100
AcDbLine
 10
-14409.921569182665
 20
-754.593977951738
 30
0.0
 11
-14415.235809077358
 21
-754.005684368016
 31
0.0
  0
LINE
  5
1A9
100
AcDbEntity
  8
Frei
  6
CONTINUOUS
 62
           3
100
AcDbLine
 10
-14416.727892335117
 20
-755.24906095425
 30
0.0
 11
-14416.065517791143
 21
-754.718721474768
 31
0.0
  0
LINE
  5
1AA
100
AcDbEntity
  8
Frei
  6
CONTINUOUS
 62
           3
100
AcDbLine
 10
-14410.671967102964
 20
-755.919460113523
 30
0.0
 11
-14416.727892335117
 21
-755.24906095425
 31
0.0
  0
LINE
  5
1AB
100
AcDbEntity
  8
Frei
  6
CONTINUOUS
 62
           3
100
AcDbLine
 10
-14416.197552855634
 20
-755.911435498222
 30
0.0
 11
-14416.727892335117
 21
-755.24906095425
 31
0.0
  0
LINE
  5
1AC
100
AcDbEntity
  8
Frei
  6
CONTINUOUS
 62
           3
100
AcDbLine
 10
-14410.141627623481
 20
-756.581834657495
 30
0.0
 11
-14416.197552855634
 21
-755.911435498222
 31
0.0
  0
LINE
  5
1AD
100
AcDbEntity
  8
Frei
  6
CONTINUOUS
 62
           3
100
AcDbLine
 10
-14427.900302910808
 20
-753.408594666683
 30
0.0
 11
-14428.032337975299
 21
-754.601308690137
 31
0.0
  0
LINE
  5
1AE
100
AcDbEntity
  8
Frei
  6
CONTINUOUS
 62
           3
100
AcDbLine
 10
-14428.252396416117
 20
-756.589165395895
 30
0.0
 11
-14428.120361351626
 21
-755.39645137244
 31
0.0
  0
LINE
  5
1AF
100
AcDbEntity
  8
Frei
  6
CONTINUOUS
 62
           3
100
AcDbLine
 10
-14428.472454856934
 20
-758.577022101652
 30
0.0
 11
-14428.340419792445
 21
-757.384308078198
 31
0.0
  0
LINE
  5
1B0
100
AcDbEntity
  8
Frei
  6
CONTINUOUS
 62
           3
100
AcDbLine
 10
-14428.692513297752
 20
-760.56487880741
 30
0.0
 11
-14428.560478233261
 21
-759.372164783955
 31
0.0
  0
LINE
  5
1B1
100
AcDbEntity
  8
Frei
  6
CONTINUOUS
 62
           3
100
AcDbLine
 10
-14427.746262002236
 20
-752.017094972653
 30
0.0
 11
-14427.812279534483
 21
-752.61345198438
 31
0.0
  0
LINE
  5
1B2
100
AcDbEntity
  8
Frei
  6
CONTINUOUS
 62
           3
100
AcDbLine
 10
-14409.921569182665
 20
-754.593977951738
 30
0.0
 11
-14409.855551650418
 21
-753.99762094001
 31
0.0
  0
LINE
  5
1B3
100
AcDbEntity
  8
Frei
  6
CONTINUOUS
 62
           3
100
AcDbLine
 10
-14410.141627623481
 20
-756.581834657495
 30
0.0
 11
-14410.00959255899
 21
-755.389120634041
 31
0.0
  0
LINE
  5
1B4
100
AcDbEntity
  8
Frei
  6
CONTINUOUS
 62
           3
100
AcDbLine
 10
-14410.3616860643
 20
-758.569691363253
 30
0.0
 11
-14410.229650999809
 21
-757.376977339798
 31
0.0
  0
LINE
  5
1B5
100
AcDbEntity
  8
Frei
  6
CONTINUOUS
 62
           3
100
AcDbLine
 10
-14410.581744505116
 20
-760.55754806901
 30
0.0
 11
-14410.449709440627
 21
-759.364834045556
 31
0.0
  0
LINE
  5
1B6
100
AcDbEntity
  8
Frei
  6
CONTINUOUS
 62
           3
100
AcDbLine
 10
-14410.801802945934
 20
-762.545404774768
 30
0.0
 11
-14410.669767881443
 21
-761.352690751313
 31
0.0
  0
LINE
  5
1B7
100
AcDbEntity
  8
Frei
  6
CONTINUOUS
 62
           3
100
AcDbLine
 10
-14409.041335419393
 20
-746.642551128708
 30
0.0
 11
-14408.909300354904
 21
-745.449837105253
 31
0.0
  0
LINE
  5
1B8
100
AcDbEntity
  8
Frei
  6
CONTINUOUS
 62
           3
100
AcDbLine
 10
-14409.261393860212
 20
-748.630407834465
 30
0.0
 11
-14409.129358795721
 21
-747.437693811011
 31
0.0
  0
LINE
  5
1B9
100
AcDbEntity
  8
Frei
  6
CONTINUOUS
 62
           3
100
AcDbLine
 10
-14409.481452301028
 20
-750.618264540223
 30
0.0
 11
-14409.349417236539
 21
-749.425550516768
 31
0.0
  0
LINE
  5
1BA
100
AcDbEntity
  8
Frei
  6
CONTINUOUS
 62
           3
100
AcDbLine
 10
-14409.701510741847
 20
-752.60612124598
 30
0.0
 11
-14409.569475677356
 21
-751.413407222526
 31
0.0
  0
LINE
  5
1BB
100
AcDbEntity
  8
Frei
  6
CONTINUOUS
 62
           3
100
AcDbLine
 10
-14409.855551650418
 20
-753.99762094001
 30
0.0
 11
-14409.789534118174
 21
-753.401263928283
 31
0.0
  0
LINE
  5
1BC
100
AcDbEntity
  8
Frei
  6
CONTINUOUS
 62
           3
100
AcDbLine
 10
-14427.680244469992
 20
-751.420737960925
 30
0.0
 11
-14427.746262002236
 21
-752.017094972653
 31
0.0
  0
LINE
  5
1BD
100
AcDbEntity
  8
Frei
  6
CONTINUOUS
 62
           3
100
AcDbLine
 10
-14426.932045771211
 20
-744.66202516135
 30
0.0
 11
-14426.800010706722
 21
-743.469311137896
 31
0.0
  0
LINE
  5
1BE
100
AcDbEntity
  8
Frei
  6
CONTINUOUS
 62
           3
100
AcDbLine
 10
-14427.152104212029
 20
-746.649881867108
 30
0.0
 11
-14427.020069147538
 21
-745.457167843653
 31
0.0
  0
LINE
  5
1BF
100
AcDbEntity
  8
Frei
  6
CONTINUOUS
 62
           3
100
AcDbLine
 10
-14427.372162652846
 20
-748.637738572865
 30
0.0
 11
-14427.240127588357
 21
-747.44502454941
 31
0.0
  0
LINE
  5
1C0
100
AcDbEntity
  8
Frei
  6
CONTINUOUS
 62
           3
100
AcDbLine
 10
-14427.460186029173
 20
-749.432881255168
 30
0.0
 11
-14427.592221093664
 21
-750.625595278622
 31
0.0
  0
LINE
  5
1C1
100
AcDbEntity
  8
Frei
  6
CONTINUOUS
 62
           3
100
AcDbLine
 10
-14415.625400909508
 20
-750.743008063253
 30
0.0
 11
-14409.569475677356
 21
-751.413407222526
 31
0.0
  0
LINE
  5
1C2
100
AcDbEntity
  8
Frei
  6
CONTINUOUS
 62
           3
100
AcDbLine
 10
-14416.287775453482
 20
-751.273347542735
 30
0.0
 11
-14415.625400909508
 21
-750.743008063253
 31
0.0
  0
LINE
  5
1C3
100
AcDbEntity
  8
Frei
  6
CONTINUOUS
 62
           3
100
AcDbLine
 10
-14416.287775453482
 20
-751.273347542735
 30
0.0
 11
-14410.231850221329
 21
-751.943746702008
 31
0.0
  0
LINE
  5
1C4
100
AcDbEntity
  8
Frei
  6
CONTINUOUS
 62
           3
100
AcDbLine
 10
-14415.757435973999
 20
-751.935722086707
 30
0.0
 11
-14416.287775453482
 21
-751.273347542735
 31
0.0
  0
LINE
  5
1C5
100
AcDbEntity
  8
Frei
  6
CONTINUOUS
 62
           3
100
AcDbLine
 10
-14415.103774012867
 20
-752.812970344561
 30
0.0
 11
-14409.789534118174
 21
-753.401263928283
 31
0.0
  0
LINE
  5
1C6
100
AcDbEntity
  8
Frei
  6
CONTINUOUS
 62
           3
100
AcDbLine
 10
-14415.766148556839
 20
-753.343309824043
 30
0.0
 11
-14415.103774012867
 21
-752.812970344561
 31
0.0
  0
LINE
  5
1C7
100
AcDbEntity
  8
Frei
  6
CONTINUOUS
 62
           3
100
AcDbLine
 10
-14422.366004575299
 20
-752.009031544648
 30
0.0
 11
-14421.835665095816
 21
-752.67140608862
 31
0.0
  0
LINE
  5
1C8
100
AcDbEntity
  8
Frei
  6
CONTINUOUS
 62
           3
100
AcDbLine
 10
-14420.873921317541
 20
-750.765654958413
 30
0.0
 11
-14421.40426079702
 21
-750.103280414441
 31
0.0
  0
LINE
  5
1C9
100
AcDbEntity
  8
Frei
  6
CONTINUOUS
 62
           3
100
AcDbLine
 10
-14421.536295861511
 20
-751.295994437895
 30
0.0
 11
-14427.592221093664
 21
-750.625595278622
 31
0.0
  0
LINE
  5
1CA
100
AcDbEntity
  8
Frei
  6
CONTINUOUS
 62
           3
100
AcDbLine
 10
-14421.536295861511
 20
-751.295994437895
 30
0.0
 11
-14420.873921317541
 21
-750.765654958413
 31
0.0
  0
LINE
  5
1CB
100
AcDbEntity
  8
Frei
  6
CONTINUOUS
 62
           3
100
AcDbLine
 10
-14426.709788108874
 20
-748.107399093383
 30
0.0
 11
-14410.011791780511
 21
-749.95588999625
 31
0.0
  0
LINE
  5
1CC
100
AcDbEntity
  8
Frei
  6
CONTINUOUS
 62
           3
100
AcDbLine
 10
-14426.929846549692
 20
-750.09525579914
 30
0.0
 11
-14420.873921317541
 21
-750.765654958413
 31
0.0
  0
LINE
  5
1CD
100
AcDbEntity
  8
Frei
  6
CONTINUOUS
 62
           3
100
AcDbLine
 10
-14409.789534118174
 20
-753.401263928283
 30
0.0
 11
-14410.451908662146
 21
-753.931603407765
 31
0.0
  0
LINE
  5
1CE
100
AcDbEntity
  8
Frei
  6
CONTINUOUS
 62
           3
100
AcDbLine
 10
-14427.680244469992
 20
-751.420737960925
 30
0.0
 11
-14422.366004575299
 21
-752.009031544648
 31
0.0
  0
LINE
  5
1CF
100
AcDbEntity
  8
Frei
  6
CONTINUOUS
 62
           3
100
AcDbLine
 10
-14427.149904990509
 20
-752.083112504898
 30
0.0
 11
-14427.680244469992
 21
-751.420737960925
 31
0.0
  0
LINE
  5
1D0
100
AcDbEntity
  8
Frei
  6
CONTINUOUS
 62
           3
100
AcDbLine
 10
-14427.592221093664
 20
-750.625595278622
 30
0.0
 11
-14426.929846549692
 21
-750.09525579914
 31
0.0
  0
LINE
  5
1D1
100
AcDbEntity
  8
Frei
  6
CONTINUOUS
 62
           3
100
AcDbLine
 10
-14409.701510741847
 20
-752.60612124598
 30
0.0
 11
-14415.757435973999
 21
-751.935722086707
 31
0.0
  0
LINE
  5
1D2
100
AcDbEntity
  8
Frei
  6
CONTINUOUS
 62
           3
100
AcDbLine
 10
-14410.231850221329
 20
-751.943746702008
 30
0.0
 11
-14409.701510741847
 21
-752.60612124598
 31
0.0
  0
LINE
  5
1D3
100
AcDbEntity
  8
Frei
  6
CONTINUOUS
 62
           3
100
AcDbLine
 10
-14409.569475677356
 20
-751.413407222526
 30
0.0
 11
-14410.231850221329
 21
-751.943746702008
 31
0.0
  0
LINE
  5
1D4
100
AcDbEntity
  8
Frei
  6
CONTINUOUS
 62
           3
100
AcDbLine
 10
-14427.460186029173
 20
-749.432881255168
 30
0.0
 11
-14421.40426079702
 21
-750.103280414441
 31
0.0
  0
LINE
  5
1D5
100
AcDbEntity
  8
Frei
  6
CONTINUOUS
 62
           3
100
AcDbLine
 10
-14426.929846549692
 20
-750.09525579914
 30
0.0
 11
-14427.460186029173
 21
-749.432881255168
 31
0.0
  0
LINE
  5
1D6
100
AcDbEntity
  8
Frei
  6
CONTINUOUS
 62
           3
100
AcDbLine
 10
-14427.372162652846
 20
-748.637738572865
 30
0.0
 11
-14426.709788108874
 21
-748.107399093383
 31
0.0
  0
LINE
  5
1D7
100
AcDbEntity
  8
Frei
  6
CONTINUOUS
 62
           3
100
AcDbLine
 10
-14409.481452301028
 20
-750.618264540223
 30
0.0
 11
-14427.372162652846
 21
-748.637738572865
 31
0.0
  0
LINE
  5
1D8
100
AcDbEntity
  8
Frei
  6
CONTINUOUS
 62
           3
100
AcDbLine
 10
-14410.011791780511
 20
-749.95588999625
 30
0.0
 11
-14409.481452301028
 21
-750.618264540223
 31
0.0
  0
LINE
  5
1D9
100
AcDbEntity
  8
Frei
  6
CONTINUOUS
 62
           3
100
AcDbLine
 10
-14409.349417236539
 20
-749.425550516768
 30
0.0
 11
-14410.011791780511
 21
-749.95588999625
 31
0.0
  0
LINE
  5
1DA
100
AcDbEntity
  8
Frei
  6
CONTINUOUS
 62
           3
100
AcDbLine
 10
-14427.240127588357
 20
-747.44502454941
 30
0.0
 11
-14409.349417236539
 21
-749.425550516768
 31
0.0
  0
LINE
  5
1DB
100
AcDbEntity
  8
Frei
  6
CONTINUOUS
 62
           3
100
AcDbLine
 10
-14426.709788108874
 20
-748.107399093383
 30
0.0
 11
-14427.240127588357
 21
-747.44502454941
 31
0.0
  0
LINE
  5
1DC
100
AcDbEntity
  8
Frei
  6
CONTINUOUS
 62
           3
100
AcDbLine
 10
-14409.791733339693
 20
-747.968033290493
 30
0.0
 11
-14426.489729668056
 21
-746.119542387625
 31
0.0
  0
LINE
  5
1DD
100
AcDbEntity
  8
Frei
  6
CONTINUOUS
 62
           3
100
AcDbLine
 10
-14427.152104212029
 20
-746.649881867108
 30
0.0
 11
-14426.489729668056
 21
-746.119542387625
 31
0.0
  0
LINE
  5
1DE
100
AcDbEntity
  8
Frei
  6
CONTINUOUS
 62
           3
100
AcDbLine
 10
-14409.261393860212
 20
-748.630407834465
 30
0.0
 11
-14427.152104212029
 21
-746.649881867108
 31
0.0
  0
LINE
  5
1DF
100
AcDbEntity
  8
Frei
  6
CONTINUOUS
 62
           3
100
AcDbLine
 10
-14409.791733339693
 20
-747.968033290493
 30
0.0
 11
-14409.261393860212
 21
-748.630407834465
 31
0.0
  0
LINE
  5
1E0
100
AcDbEntity
  8
Frei
  6
CONTINUOUS
 62
           3
100
AcDbLine
 10
-14409.129358795721
 20
-747.437693811011
 30
0.0
 11
-14409.791733339693
 21
-747.968033290493
 31
0.0
  0
LINE
  5
1E1
100
AcDbEntity
  8
Frei
  6
CONTINUOUS
 62
           3
100
AcDbLine
 10
-14427.020069147538
 20
-745.457167843653
 30
0.0
 11
-14409.129358795721
 21
-747.437693811011
 31
0.0
  0
LINE
  5
1E2
100
AcDbEntity
  8
Frei
  6
CONTINUOUS
 62
           3
100
AcDbLine
 10
-14426.489729668056
 20
-746.119542387625
 30
0.0
 11
-14427.020069147538
 21
-745.457167843653
 31
0.0
  0
LINE
  5
1E3
100
AcDbEntity
  8
Frei
  6
CONTINUOUS
 62
           3
100
AcDbLine
 10
-14426.269671227239
 20
-744.131685681868
 30
0.0
 11
-14409.571674898876
 21
-745.980176584736
 31
0.0
  0
LINE
  5
1E4
100
AcDbEntity
  8
Frei
  6
CONTINUOUS
 62
           3
100
AcDbLine
 10
-14426.269671227239
 20
-744.131685681868
 30
0.0
 11
-14426.932045771211
 21
-744.66202516135
 31
0.0
  0
LINE
  5
1E5
100
AcDbEntity
  8
Frei
  6
CONTINUOUS
 62
           3
100
AcDbLine
 10
-14426.800010706722
 20
-743.469311137896
 30
0.0
 11
-14426.269671227239
 21
-744.131685681868
 31
0.0
  0
LINE
  5
1E6
100
AcDbEntity
  8
Frei
  6
CONTINUOUS
 62
           3
100
AcDbLine
 10
-14408.909300354904
 20
-745.449837105253
 30
0.0
 11
-14426.800010706722
 21
-743.469311137896
 31
0.0
  0
LINE
  5
1E7
100
AcDbEntity
  8
Frei
  6
CONTINUOUS
 62
           3
100
AcDbLine
 10
-14409.571674898876
 20
-745.980176584736
 30
0.0
 11
-14408.909300354904
 21
-745.449837105253
 31
0.0
  0
LINE
  5
1E8
100
AcDbEntity
  8
Frei
  6
CONTINUOUS
 62
           3
100
AcDbLine
 10
-14409.041335419393
 20
-746.642551128708
 30
0.0
 11
-14409.571674898876
 21
-745.980176584736
 31
0.0
  0
LINE
  5
1E9
100
AcDbEntity
  8
Frei
  6
CONTINUOUS
 62
           3
100
AcDbLine
 10
-14426.932045771211
 20
-744.66202516135
 30
0.0
 11
-14409.041335419393
 21
-746.642551128708
 31
0.0
  0
LINE
  5
1EA
100
AcDbEntity
  8
Frei
  6
CONTINUOUS
 62
           3
100
AcDbLine
 10
-14237.09173037137
 20
-765.677606259425
 30
0.0
 11
-14219.201020019555
 21
-767.658132226783
 31
0.0
  0
LINE
  5
1EB
100
AcDbEntity
  8
Frei
  6
CONTINUOUS
 62
           3
100
AcDbLine
 10
-14236.4293558274
 20
-765.147266779943
 30
0.0
 11
-14237.09173037137
 21
-765.677606259425
 31
0.0
  0
LINE
  5
1EC
100
AcDbEntity
  8
Frei
  6
CONTINUOUS
 62
           3
100
AcDbLine
 10
-14236.959695306881
 20
-764.484892235971
 30
0.0
 11
-14236.4293558274
 21
-765.147266779943
 31
0.0
  0
LINE
  5
1ED
100
AcDbEntity
  8
Frei
  6
CONTINUOUS
 62
           3
100
AcDbLine
 10
-14219.068984955065
 20
-766.465418203329
 30
0.0
 11
-14236.959695306881
 21
-764.484892235971
 31
0.0
  0
LINE
  5
1EE
100
AcDbEntity
  8
Frei
  6
CONTINUOUS
 62
           3
100
AcDbLine
 10
-14219.731359499037
 20
-766.995757682811
 30
0.0
 11
-14219.068984955065
 21
-766.465418203329
 31
0.0
  0
LINE
  5
1EF
100
AcDbEntity
  8
Frei
  6
CONTINUOUS
 62
           3
100
AcDbLine
 10
-14219.201020019555
 20
-767.658132226783
 30
0.0
 11
-14219.731359499037
 21
-766.995757682811
 31
0.0
  0
LINE
  5
1F0
100
AcDbEntity
  8
Frei
  6
CONTINUOUS
 62
           3
100
AcDbLine
 10
-14236.4293558274
 20
-765.147266779943
 30
0.0
 11
-14219.731359499037
 21
-766.995757682811
 31
0.0
  0
LINE
  5
1F1
100
AcDbEntity
  8
Frei
  6
CONTINUOUS
 62
           3
100
AcDbLine
 10
-14219.289043395882
 20
-768.453274909086
 30
0.0
 11
-14219.951417939854
 21
-768.983614388568
 31
0.0
  0
LINE
  5
1F2
100
AcDbEntity
  8
Frei
  6
CONTINUOUS
 62
           3
100
AcDbLine
 10
-14237.179753747698
 20
-766.472748941728
 30
0.0
 11
-14219.289043395882
 21
-768.453274909086
 31
0.0
  0
LINE
  5
1F3
100
AcDbEntity
  8
Frei
  6
CONTINUOUS
 62
           3
100
AcDbLine
 10
-14236.649414268217
 20
-767.135123485701
 30
0.0
 11
-14237.179753747698
 21
-766.472748941728
 31
0.0
  0
LINE
  5
1F4
100
AcDbEntity
  8
Frei
  6
CONTINUOUS
 62
           3
100
AcDbLine
 10
-14237.311788812189
 20
-767.665462965183
 30
0.0
 11
-14236.649414268217
 21
-767.135123485701
 31
0.0
  0
LINE
  5
1F5
100
AcDbEntity
  8
Frei
  6
CONTINUOUS
 62
           3
100
AcDbLine
 10
-14219.421078460373
 20
-769.645988932541
 30
0.0
 11
-14237.311788812189
 21
-767.665462965183
 31
0.0
  0
LINE
  5
1F6
100
AcDbEntity
  8
Frei
  6
CONTINUOUS
 62
           3
100
AcDbLine
 10
-14219.951417939854
 20
-768.983614388568
 30
0.0
 11
-14219.421078460373
 21
-769.645988932541
 31
0.0
  0
LINE
  5
1F7
100
AcDbEntity
  8
Frei
  6
CONTINUOUS
 62
           3
100
AcDbLine
 10
-14219.951417939854
 20
-768.983614388568
 30
0.0
 11
-14236.649414268217
 21
-767.135123485701
 31
0.0
  0
LINE
  5
1F8
100
AcDbEntity
  8
Frei
  6
CONTINUOUS
 62
           3
100
AcDbLine
 10
-14219.5091018367
 20
-770.441131614844
 30
0.0
 11
-14220.171476380672
 21
-770.971471094326
 31
0.0
  0
LINE
  5
1F9
100
AcDbEntity
  8
Frei
  6
CONTINUOUS
 62
           3
100
AcDbLine
 10
-14237.399812188516
 20
-768.460605647486
 30
0.0
 11
-14219.5091018367
 21
-770.441131614844
 31
0.0
  0
LINE
  5
1FA
100
AcDbEntity
  8
Frei
  6
CONTINUOUS
 62
           3
100
AcDbLine
 10
-14236.869472709035
 20
-769.122980191458
 30
0.0
 11
-14237.399812188516
 21
-768.460605647486
 31
0.0
  0
LINE
  5
1FB
100
AcDbEntity
  8
Frei
  6
CONTINUOUS
 62
           3
100
AcDbLine
 10
-14237.531847253005
 20
-769.65331967094
 30
0.0
 11
-14236.869472709035
 21
-769.122980191458
 31
0.0
  0
LINE
  5
1FC
100
AcDbEntity
  8
Frei
  6
CONTINUOUS
 62
           3
100
AcDbLine
 10
-14219.641136901189
 20
-771.633845638298
 30
0.0
 11
-14237.531847253005
 21
-769.65331967094
 31
0.0
  0
LINE
  5
1FD
100
AcDbEntity
  8
Frei
  6
CONTINUOUS
 62
           3
100
AcDbLine
 10
-14220.171476380672
 20
-770.971471094326
 30
0.0
 11
-14219.641136901189
 21
-771.633845638298
 31
0.0
  0
LINE
  5
1FE
100
AcDbEntity
  8
Frei
  6
CONTINUOUS
 62
           3
100
AcDbLine
 10
-14219.729160277517
 20
-772.428988320601
 30
0.0
 11
-14220.39153482149
 21
-772.959327800083
 31
0.0
  0
LINE
  5
1FF
100
AcDbEntity
  8
Frei
  6
CONTINUOUS
 62
           3
100
AcDbLine
 10
-14225.785085509669
 20
-771.758589161328
 30
0.0
 11
-14219.729160277517
 21
-772.428988320601
 31
0.0
  0
LINE
  5
200
100
AcDbEntity
  8
Frei
  6
CONTINUOUS
 62
           3
100
AcDbLine
 10
-14237.089531149853
 20
-771.110836897216
 30
0.0
 11
-14237.619870629333
 21
-770.448462353243
 31
0.0
  0
LINE
  5
201
100
AcDbEntity
  8
Frei
  6
CONTINUOUS
 62
           3
100
AcDbLine
 10
-14237.751905693824
 20
-771.641176376698
 30
0.0
 11
-14237.089531149853
 21
-771.110836897216
 31
0.0
  0
LINE
  5
202
100
AcDbEntity
  8
Frei
  6
CONTINUOUS
 62
           3
100
AcDbLine
 10
-14231.695980461673
 20
-772.311575535971
 30
0.0
 11
-14237.751905693824
 21
-771.641176376698
 31
0.0
  0
LINE
  5
203
100
AcDbEntity
  8
Frei
  6
CONTINUOUS
 62
           3
100
AcDbLine
 10
-14220.39153482149
 20
-772.959327800083
 30
0.0
 11
-14219.861195342008
 21
-773.621702344056
 31
0.0
  0
LINE
  5
204
100
AcDbEntity
  8
Frei
  6
CONTINUOUS
 62
           3
100
AcDbLine
 10
-14219.949218718335
 20
-774.416845026359
 30
0.0
 11
-14220.611593262307
 21
-774.947184505841
 31
0.0
  0
LINE
  5
205
100
AcDbEntity
  8
Frei
  6
CONTINUOUS
 62
           3
100
AcDbLine
 10
-14225.263458613028
 20
-773.828551442636
 30
0.0
 11
-14219.949218718335
 21
-774.416845026359
 31
0.0
  0
LINE
  5
206
100
AcDbEntity
  8
Frei
  6
CONTINUOUS
 62
           3
100
AcDbLine
 10
-14237.30958959067
 20
-773.098693602973
 30
0.0
 11
-14237.839929070151
 21
-772.436319059001
 31
0.0
  0
LINE
  5
207
100
AcDbEntity
  8
Frei
  6
CONTINUOUS
 62
           3
100
AcDbLine
 10
-14226.447460053641
 20
-772.28892864081
 30
0.0
 11
-14220.39153482149
 21
-772.959327800083
 31
0.0
  0
LINE
  5
208
100
AcDbEntity
  8
Frei
  6
CONTINUOUS
 62
           3
100
AcDbLine
 10
-14236.869472709035
 20
-769.122980191458
 30
0.0
 11
-14220.171476380672
 21
-770.971471094326
 31
0.0
  0
LINE
  5
209
100
AcDbEntity
  8
Frei
  6
CONTINUOUS
 62
           3
100
AcDbLine
 10
-14226.447460053641
 20
-772.28892864081
 30
0.0
 11
-14225.91712057416
 21
-772.951303184783
 31
0.0
  0
LINE
  5
20A
100
AcDbEntity
  8
Frei
  6
CONTINUOUS
 62
           3
100
AcDbLine
 10
-14219.861195342008
 20
-773.621702344056
 30
0.0
 11
-14225.91712057416
 21
-772.951303184783
 31
0.0
  0
LINE
  5
20B
100
AcDbEntity
  8
Frei
  6
CONTINUOUS
 62
           3
100
AcDbLine
 10
-14225.785085509669
 20
-771.758589161328
 30
0.0
 11
-14226.447460053641
 21
-772.28892864081
 31
0.0
  0
LINE
  5
20C
100
AcDbEntity
  8
Frei
  6
CONTINUOUS
 62
           3
100
AcDbLine
 10
-14225.925833157
 20
-774.358890922118
 30
0.0
 11
-14225.263458613028
 21
-773.828551442636
 31
0.0
  0
LINE
  5
20D
100
AcDbEntity
  8
Frei
  6
CONTINUOUS
 62
           3
100
AcDbLine
 10
-14232.52568917546
 20
-773.024612642723
 30
0.0
 11
-14231.995349695977
 21
-773.686987186695
 31
0.0
  0
LINE
  5
20E
100
AcDbEntity
  8
Frei
  6
CONTINUOUS
 62
           3
100
AcDbLine
 10
-14237.839929070151
 20
-772.436319059001
 30
0.0
 11
-14232.52568917546
 21
-773.024612642723
 31
0.0
  0
LINE
  5
20F
100
AcDbEntity
  8
Frei
  6
CONTINUOUS
 62
           3
100
AcDbLine
 10
-14231.033605917701
 20
-771.781236056489
 30
0.0
 11
-14231.695980461673
 21
-772.311575535971
 31
0.0
  0
LINE
  5
210
100
AcDbEntity
  8
Frei
  6
CONTINUOUS
 62
           3
100
AcDbLine
 10
-14237.089531149853
 20
-771.110836897216
 30
0.0
 11
-14231.033605917701
 21
-771.781236056489
 31
0.0
  0
LINE
  5
211
100
AcDbEntity
  8
Frei
  6
CONTINUOUS
 62
           3
100
AcDbLine
 10
-14231.563945397182
 20
-771.118861512516
 30
0.0
 11
-14231.033605917701
 21
-771.781236056489
 31
0.0
  0
LINE
  5
212
100
AcDbEntity
  8
Frei
  6
CONTINUOUS
 62
           3
100
AcDbLine
 10
-14237.619870629333
 20
-770.448462353243
 30
0.0
 11
-14231.563945397182
 21
-771.118861512516
 31
0.0
  0
LINE
  5
213
100
AcDbEntity
  8
Frei
  6
CONTINUOUS
 62
           3
100
AcDbLine
 10
-14219.861195342008
 20
-773.621702344056
 30
0.0
 11
-14219.729160277517
 21
-772.428988320601
 31
0.0
  0
LINE
  5
214
100
AcDbEntity
  8
Frei
  6
CONTINUOUS
 62
           3
100
AcDbLine
 10
-14219.5091018367
 20
-770.441131614844
 30
0.0
 11
-14219.641136901189
 21
-771.633845638298
 31
0.0
  0
LINE
  5
215
100
AcDbEntity
  8
Frei
  6
CONTINUOUS
 62
           3
100
AcDbLine
 10
-14219.289043395882
 20
-768.453274909086
 30
0.0
 11
-14219.421078460373
 21
-769.645988932541
 31
0.0
  0
LINE
  5
216
100
AcDbEntity
  8
Frei
  6
CONTINUOUS
 62
           3
100
AcDbLine
 10
-14219.068984955065
 20
-766.465418203329
 30
0.0
 11
-14219.201020019555
 21
-767.658132226783
 31
0.0
  0
LINE
  5
217
100
AcDbEntity
  8
Frei
  6
CONTINUOUS
 62
           3
100
AcDbLine
 10
-14220.01523625058
 20
-775.013202038086
 30
0.0
 11
-14219.949218718335
 21
-774.416845026359
 31
0.0
  0
LINE
  5
218
100
AcDbEntity
  8
Frei
  6
CONTINUOUS
 62
           3
100
AcDbLine
 10
-14237.839929070151
 20
-772.436319059001
 30
0.0
 11
-14237.905946602395
 21
-773.032676070728
 31
0.0
  0
LINE
  5
219
100
AcDbEntity
  8
Frei
  6
CONTINUOUS
 62
           3
100
AcDbLine
 10
-14237.619870629333
 20
-770.448462353243
 30
0.0
 11
-14237.751905693824
 21
-771.641176376698
 31
0.0
  0
LINE
  5
21A
100
AcDbEntity
  8
Frei
  6
CONTINUOUS
 62
           3
100
AcDbLine
 10
-14237.399812188516
 20
-768.460605647486
 30
0.0
 11
-14237.531847253005
 21
-769.65331967094
 31
0.0
  0
LINE
  5
21B
100
AcDbEntity
  8
Frei
  6
CONTINUOUS
 62
           3
100
AcDbLine
 10
-14237.179753747698
 20
-766.472748941728
 30
0.0
 11
-14237.311788812189
 21
-767.665462965183
 31
0.0
  0
LINE
  5
21C
100
AcDbEntity
  8
Frei
  6
CONTINUOUS
 62
           3
100
AcDbLine
 10
-14236.959695306881
 20
-764.484892235971
 30
0.0
 11
-14237.09173037137
 21
-765.677606259425
 31
0.0
  0
LINE
  5
21D
100
AcDbEntity
  8
Frei
  6
CONTINUOUS
 62
           3
100
AcDbLine
 10
-14238.720162833421
 20
-780.387745882031
 30
0.0
 11
-14238.852197897912
 21
-781.580459905485
 31
0.0
  0
LINE
  5
21E
100
AcDbEntity
  8
Frei
  6
CONTINUOUS
 62
           3
100
AcDbLine
 10
-14238.500104392604
 20
-778.399889176273
 30
0.0
 11
-14238.632139457093
 21
-779.592603199728
 31
0.0
  0
LINE
  5
21F
100
AcDbEntity
  8
Frei
  6
CONTINUOUS
 62
           3
100
AcDbLine
 10
-14238.280045951786
 20
-776.412032470516
 30
0.0
 11
-14238.412081016277
 21
-777.60474649397
 31
0.0
  0
LINE
  5
220
100
AcDbEntity
  8
Frei
  6
CONTINUOUS
 62
           3
100
AcDbLine
 10
-14238.059987510967
 20
-774.424175764758
 30
0.0
 11
-14238.192022575458
 21
-775.616889788213
 31
0.0
  0
LINE
  5
221
100
AcDbEntity
  8
Frei
  6
CONTINUOUS
 62
           3
100
AcDbLine
 10
-14237.905946602395
 20
-773.032676070728
 30
0.0
 11
-14237.971964134642
 21
-773.629033082455
 31
0.0
  0
LINE
  5
222
100
AcDbEntity
  8
Frei
  6
CONTINUOUS
 62
           3
100
AcDbLine
 10
-14220.081253782826
 20
-775.609559049813
 30
0.0
 11
-14220.01523625058
 21
-775.013202038086
 31
0.0
  0
LINE
  5
223
100
AcDbEntity
  8
Frei
  6
CONTINUOUS
 62
           3
100
AcDbLine
 10
-14220.829452481605
 20
-782.368271849389
 30
0.0
 11
-14220.961487546096
 21
-783.560985872843
 31
0.0
  0
LINE
  5
224
100
AcDbEntity
  8
Frei
  6
CONTINUOUS
 62
           3
100
AcDbLine
 10
-14220.609394040788
 20
-780.380415143631
 30
0.0
 11
-14220.741429105277
 21
-781.573129167086
 31
0.0
  0
LINE
  5
225
100
AcDbEntity
  8
Frei
  6
CONTINUOUS
 62
           3
100
AcDbLine
 10
-14220.38933559997
 20
-778.392558437874
 30
0.0
 11
-14220.521370664461
 21
-779.585272461328
 31
0.0
  0
LINE
  5
226
100
AcDbEntity
  8
Frei
  6
CONTINUOUS
 62
           3
100
AcDbLine
 10
-14220.301312223643
 20
-777.597415755571
 30
0.0
 11
-14220.169277159152
 21
-776.404701732116
 31
0.0
  0
LINE
  5
227
100
AcDbEntity
  8
Frei
  6
CONTINUOUS
 62
           3
100
AcDbLine
 10
-14232.136097343307
 20
-776.287288947486
 30
0.0
 11
-14238.192022575458
 21
-775.616889788213
 31
0.0
  0
LINE
  5
228
100
AcDbEntity
  8
Frei
  6
CONTINUOUS
 62
           3
100
AcDbLine
 10
-14231.473722799336
 20
-775.756949468004
 30
0.0
 11
-14232.136097343307
 21
-776.287288947486
 31
0.0
  0
LINE
  5
229
100
AcDbEntity
  8
Frei
  6
CONTINUOUS
 62
           3
100
AcDbLine
 10
-14231.473722799336
 20
-775.756949468004
 30
0.0
 11
-14237.529648031488
 21
-775.086550308731
 31
0.0
  0
LINE
  5
22A
100
AcDbEntity
  8
Frei
  6
CONTINUOUS
 62
           3
100
AcDbLine
 10
-14232.004062278816
 20
-775.094574924031
 30
0.0
 11
-14231.473722799336
 21
-775.756949468004
 31
0.0
  0
LINE
  5
22B
100
AcDbEntity
  8
Frei
  6
CONTINUOUS
 62
           3
100
AcDbLine
 10
-14232.657724239951
 20
-774.217326666178
 30
0.0
 11
-14237.971964134642
 21
-773.629033082455
 31
0.0
  0
LINE
  5
22C
100
AcDbEntity
  8
Frei
  6
CONTINUOUS
 62
           3
100
AcDbLine
 10
-14231.995349695977
 20
-773.686987186695
 30
0.0
 11
-14232.657724239951
 21
-774.217326666178
 31
0.0
  0
LINE
  5
22D
100
AcDbEntity
  8
Frei
  6
CONTINUOUS
 62
           3
100
AcDbLine
 10
-14225.925833157
 20
-774.358890922118
 30
0.0
 11
-14220.611593262307
 21
-774.947184505841
 31
0.0
  0
LINE
  5
22E
100
AcDbEntity
  8
Frei
  6
CONTINUOUS
 62
           3
100
AcDbLine
 10
-14225.395493677519
 20
-775.021265466091
 30
0.0
 11
-14225.925833157
 21
-774.358890922118
 31
0.0
  0
LINE
  5
22F
100
AcDbEntity
  8
Frei
  6
CONTINUOUS
 62
           3
100
AcDbLine
 10
-14226.887576935276
 20
-776.264642052325
 30
0.0
 11
-14226.357237455795
 21
-776.927016596298
 31
0.0
  0
LINE
  5
230
100
AcDbEntity
  8
Frei
  6
CONTINUOUS
 62
           3
100
AcDbLine
 10
-14226.225202391304
 20
-775.734302572843
 30
0.0
 11
-14220.169277159152
 21
-776.404701732116
 31
0.0
  0
LINE
  5
231
100
AcDbEntity
  8
Frei
  6
CONTINUOUS
 62
           3
100
AcDbLine
 10
-14226.225202391304
 20
-775.734302572843
 30
0.0
 11
-14226.887576935276
 21
-776.264642052325
 31
0.0
  0
LINE
  5
232
100
AcDbEntity
  8
Frei
  6
CONTINUOUS
 62
           3
100
AcDbLine
 10
-14221.051710143942
 20
-778.922897917356
 30
0.0
 11
-14237.749706472305
 21
-777.074407014488
 31
0.0
  0
LINE
  5
233
100
AcDbEntity
  8
Frei
  6
CONTINUOUS
 62
           3
100
AcDbLine
 10
-14220.831651703125
 20
-776.935041211598
 30
0.0
 11
-14226.887576935276
 21
-776.264642052325
 31
0.0
  0
LINE
  5
234
100
AcDbEntity
  8
Frei
  6
CONTINUOUS
 62
           3
100
AcDbLine
 10
-14237.30958959067
 20
-773.098693602973
 30
0.0
 11
-14231.995349695977
 21
-773.686987186695
 31
0.0
  0
LINE
  5
235
100
AcDbEntity
  8
Frei
  6
CONTINUOUS
 62
           3
100
AcDbLine
 10
-14237.971964134642
 20
-773.629033082455
 30
0.0
 11
-14237.30958959067
 21
-773.098693602973
 31
0.0
  0
LINE
  5
236
100
AcDbEntity
  8
Frei
  6
CONTINUOUS
 62
           3
100
AcDbLine
 10
-14220.081253782826
 20
-775.609559049813
 30
0.0
 11
-14225.395493677519
 21
-775.021265466091
 31
0.0
  0
LINE
  5
237
100
AcDbEntity
  8
Frei
  6
CONTINUOUS
 62
           3
100
AcDbLine
 10
-14220.611593262307
 20
-774.947184505841
 30
0.0
 11
-14220.081253782826
 21
-775.609559049813
 31
0.0
  0
LINE
  5
238
100
AcDbEntity
  8
Frei
  6
CONTINUOUS
 62
           3
100
AcDbLine
 10
-14220.169277159152
 20
-776.404701732116
 30
0.0
 11
-14220.831651703125
 21
-776.935041211598
 31
0.0
  0
LINE
  5
239
100
AcDbEntity
  8
Frei
  6
CONTINUOUS
 62
           3
100
AcDbLine
 10
-14238.059987510967
 20
-774.424175764758
 30
0.0
 11
-14232.004062278816
 21
-775.094574924031
 31
0.0
  0
LINE
  5
23A
100
AcDbEntity
  8
Frei
  6
CONTINUOUS
 62
           3
100
AcDbLine
 10
-14237.529648031488
 20
-775.086550308731
 30
0.0
 11
-14238.059987510967
 21
-774.424175764758
 31
0.0
  0
LINE
  5
23B
100
AcDbEntity
  8
Frei
  6
CONTINUOUS
 62
           3
100
AcDbLine
 10
-14238.192022575458
 20
-775.616889788213
 30
0.0
 11
-14237.529648031488
 21
-775.086550308731
 31
0.0
  0
LINE
  5
23C
100
AcDbEntity
  8
Frei
  6
CONTINUOUS
 62
           3
100
AcDbLine
 10
-14220.301312223643
 20
-777.597415755571
 30
0.0
 11
-14226.357237455795
 21
-776.927016596298
 31
0.0
  0
LINE
  5
23D
100
AcDbEntity
  8
Frei
  6
CONTINUOUS
 62
           3
100
AcDbLine
 10
-14220.831651703125
 20
-776.935041211598
 30
0.0
 11
-14220.301312223643
 21
-777.597415755571
 31
0.0
  0
LINE
  5
23E
100
AcDbEntity
  8
Frei
  6
CONTINUOUS
 62
           3
100
AcDbLine
 10
-14220.38933559997
 20
-778.392558437874
 30
0.0
 11
-14221.051710143942
 21
-778.922897917356
 31
0.0
  0
LINE
  5
23F
100
AcDbEntity
  8
Frei
  6
CONTINUOUS
 62
           3
100
AcDbLine
 10
-14238.280045951786
 20
-776.412032470516
 30
0.0
 11
-14220.38933559997
 21
-778.392558437874
 31
0.0
  0
LINE
  5
240
100
AcDbEntity
  8
Frei
  6
CONTINUOUS
 62
           3
100
AcDbLine
 10
-14237.749706472305
 20
-777.074407014488
 30
0.0
 11
-14238.280045951786
 21
-776.412032470516
 31
0.0
  0
LINE
  5
241
100
AcDbEntity
  8
Frei
  6
CONTINUOUS
 62
           3
100
AcDbLine
 10
-14238.412081016277
 20
-777.60474649397
 30
0.0
 11
-14237.749706472305
 21
-777.074407014488
 31
0.0
  0
LINE
  5
242
100
AcDbEntity
  8
Frei
  6
CONTINUOUS
 62
           3
100
AcDbLine
 10
-14220.521370664461
 20
-779.585272461328
 30
0.0
 11
-14238.412081016277
 21
-777.60474649397
 31
0.0
  0
LINE
  5
243
100
AcDbEntity
  8
Frei
  6
CONTINUOUS
 62
           3
100
AcDbLine
 10
-14221.051710143942
 20
-778.922897917356
 30
0.0
 11
-14220.521370664461
 21
-779.585272461328
 31
0.0
  0
LINE
  5
244
100
AcDbEntity
  8
Frei
  6
CONTINUOUS
 62
           3
100
AcDbLine
 10
-14237.969764913123
 20
-779.062263720245
 30
0.0
 11
-14221.27176858476
 21
-780.910754623113
 31
0.0
  0
LINE
  5
245
100
AcDbEntity
  8
Frei
  6
CONTINUOUS
 62
           3
100
AcDbLine
 10
-14220.609394040788
 20
-780.380415143631
 30
0.0
 11
-14221.27176858476
 21
-780.910754623113
 31
0.0
  0
LINE
  5
246
100
AcDbEntity
  8
Frei
  6
CONTINUOUS
 62
           3
100
AcDbLine
 10
-14238.500104392604
 20
-778.399889176273
 30
0.0
 11
-14220.609394040788
 21
-780.380415143631
 31
0.0
  0
LINE
  5
247
100
AcDbEntity
  8
Frei
  6
CONTINUOUS
 62
           3
100
AcDbLine
 10
-14237.969764913123
 20
-779.062263720245
 30
0.0
 11
-14238.500104392604
 21
-778.399889176273
 31
0.0
  0
LINE
  5
248
100
AcDbEntity
  8
Frei
  6
CONTINUOUS
 62
           3
100
AcDbLine
 10
-14238.632139457093
 20
-779.592603199728
 30
0.0
 11
-14237.969764913123
 21
-779.062263720245
 31
0.0
  0
LINE
  5
249
100
AcDbEntity
  8
Frei
  6
CONTINUOUS
 62
           3
100
AcDbLine
 10
-14220.741429105277
 20
-781.573129167086
 30
0.0
 11
-14238.632139457093
 21
-779.592603199728
 31
0.0
  0
LINE
  5
24A
100
AcDbEntity
  8
Frei
  6
CONTINUOUS
 62
           3
100
AcDbLine
 10
-14221.27176858476
 20
-780.910754623113
 30
0.0
 11
-14220.741429105277
 21
-781.573129167086
 31
0.0
  0
LINE
  5
24B
100
AcDbEntity
  8
Frei
  6
CONTINUOUS
 62
           3
100
AcDbLine
 10
-14221.491827025578
 20
-782.898611328871
 30
0.0
 11
-14238.189823353941
 21
-781.050120426003
 31
0.0
  0
LINE
  5
24C
100
AcDbEntity
  8
Frei
  6
CONTINUOUS
 62
           3
100
AcDbLine
 10
-14221.491827025578
 20
-782.898611328871
 30
0.0
 11
-14220.829452481605
 21
-782.368271849389
 31
0.0
  0
LINE
  5
24D
100
AcDbEntity
  8
Frei
  6
CONTINUOUS
 62
           3
100
AcDbLine
 10
-14220.961487546096
 20
-783.560985872843
 30
0.0
 11
-14221.491827025578
 21
-782.898611328871
 31
0.0
  0
LINE
  5
24E
100
AcDbEntity
  8
Frei
  6
CONTINUOUS
 62
           3
100
AcDbLine
 10
-14238.852197897912
 20
-781.580459905485
 30
0.0
 11
-14220.961487546096
 21
-783.560985872843
 31
0.0
  0
LINE
  5
24F
100
AcDbEntity
  8
Frei
  6
CONTINUOUS
 62
           3
100
AcDbLine
 10
-14238.189823353941
 20
-781.050120426003
 30
0.0
 11
-14238.852197897912
 21
-781.580459905485
 31
0.0
  0
LINE
  5
250
100
AcDbEntity
  8
Frei
  6
CONTINUOUS
 62
           3
100
AcDbLine
 10
-14238.720162833421
 20
-780.387745882031
 30
0.0
 11
-14238.189823353941
 21
-781.050120426003
 31
0.0
  0
LINE
  5
251
100
AcDbEntity
  8
Frei
  6
CONTINUOUS
 62
           3
100
AcDbLine
 10
-14220.829452481605
 20
-782.368271849389
 30
0.0
 11
-14238.720162833421
 21
-780.387745882031
 31
0.0
  0
LINE
  5
252
100
AcDbEntity
  8
Frei
  6
CONTINUOUS
 62
           7
100
AcDbLine
 10
-14195.263986077842
 20
-789.946031825241
 30
0.0
 11
-14194.656665455772
 21
-791.330662907912
 31
0.0
  0
LINE
  5
253
100
AcDbEntity
  8
Frei
  6
CONTINUOUS
 62
           7
100
AcDbLine
 10
-14195.263986077842
 20
-789.946031825241
 30
0.0
 11
-14199.482234840487
 21
-789.479065950388
 31
0.0
  0
LINE
  5
254
100
AcDbEntity
  8
Frei
  6
CONTINUOUS
 62
           7
100
AcDbLine
 10
-14194.224448316736
 20
-787.426310341471
 30
0.0
 11
-14195.263986077842
 21
-789.946031825241
 31
0.0
  0
LINE
  5
255
100
AcDbEntity
  8
Frei
  6
CONTINUOUS
 62
           7
100
AcDbLine
 10
-14194.247579677494
 20
-780.764514991805
 30
0.0
 11
-14193.784331435101
 21
-783.450596929956
 31
0.0
  0
LINE
  5
256
100
AcDbEntity
  8
Frei
  6
CONTINUOUS
 62
           7
100
AcDbLine
 10
-14194.247579677494
 20
-780.764514991805
 30
0.0
 11
-14198.465828440139
 21
-780.297549116952
 31
0.0
  0
LINE
  5
257
100
AcDbEntity
  8
Frei
  6
CONTINUOUS
 62
           7
100
AcDbLine
 10
-14193.352114296067
 20
-779.546244363516
 30
0.0
 11
-14194.247579677494
 21
-780.764514991805
 31
0.0
  0
LINE
  5
258
100
AcDbEntity
  8
Frei
  6
CONTINUOUS
 62
           7
100
AcDbLine
 10
-14194.876723896588
 20
-793.318519613669
 30
0.0
 11
-14195.772189278016
 21
-794.536790241959
 31
0.0
  0
LINE
  5
259
100
AcDbEntity
  8
Frei
  6
CONTINUOUS
 62
           7
100
AcDbLine
 10
-14193.739376477321
 20
-776.173756575088
 30
0.0
 11
-14197.957625239966
 21
-775.706790700234
 31
0.0
  0
LINE
  5
25A
100
AcDbEntity
  8
Frei
  6
CONTINUOUS
 62
           7
100
AcDbLine
 10
-14193.739376477321
 20
-776.173756575088
 30
0.0
 11
-14193.132055855251
 21
-777.558387657758
 31
0.0
  0
LINE
  5
25B
100
AcDbEntity
  8
Frei
  6
CONTINUOUS
 62
           7
100
AcDbLine
 10
-14199.846365660982
 20
-792.768373511626
 30
0.0
 11
-14199.990438040661
 21
-794.069824367106
 31
0.0
  0
LINE
  5
25C
100
AcDbEntity
  8
Frei
  6
CONTINUOUS
 62
           7
100
AcDbLine
 10
-14194.876723896588
 20
-793.318519613669
 30
0.0
 11
-14194.656665455772
 21
-791.330662907912
 31
0.0
  0
LINE
  5
25D
100
AcDbEntity
  8
Frei
  6
CONTINUOUS
 62
           7
100
AcDbLine
 10
-14194.876723896588
 20
-793.318519613669
 30
0.0
 11
-14199.846365660982
 21
-792.768373511626
 31
0.0
  0
LINE
  5
25E
100
AcDbEntity
  8
Frei
  6
CONTINUOUS
 62
           7
100
AcDbLine
 10
-14199.626307220165
 20
-790.780516805868
 30
0.0
 11
-14199.846365660982
 21
-792.768373511626
 31
0.0
  0
LINE
  5
25F
100
AcDbEntity
  8
Frei
  6
CONTINUOUS
 62
           7
100
AcDbLine
 10
-14194.656665455772
 20
-791.330662907912
 30
0.0
 11
-14194.224448316736
 21
-787.426310341471
 31
0.0
  0
LINE
  5
260
100
AcDbEntity
  8
Frei
  6
CONTINUOUS
 62
           7
100
AcDbLine
 10
-14194.656665455772
 20
-791.330662907912
 30
0.0
 11
-14199.626307220165
 21
-790.780516805868
 31
0.0
  0
LINE
  5
261
100
AcDbEntity
  8
Frei
  6
CONTINUOUS
 62
           7
100
AcDbLine
 10
-14199.482234840487
 20
-789.479065950388
 30
0.0
 11
-14199.626307220165
 21
-790.780516805868
 31
0.0
  0
LINE
  5
262
100
AcDbEntity
  8
Frei
  6
CONTINUOUS
 62
           7
100
AcDbLine
 10
-14199.19409008113
 20
-786.876164239427
 30
0.0
 11
-14199.482234840487
 21
-789.479065950388
 31
0.0
  0
LINE
  5
263
100
AcDbEntity
  8
Frei
  6
CONTINUOUS
 62
           7
100
AcDbLine
 10
-14194.224448316736
 20
-787.426310341471
 30
0.0
 11
-14193.784331435101
 21
-783.450596929956
 31
0.0
  0
LINE
  5
264
100
AcDbEntity
  8
Frei
  6
CONTINUOUS
 62
           7
100
AcDbLine
 10
-14194.224448316736
 20
-787.426310341471
 30
0.0
 11
-14199.19409008113
 21
-786.876164239427
 31
0.0
  0
LINE
  5
265
100
AcDbEntity
  8
Frei
  6
CONTINUOUS
 62
           7
100
AcDbLine
 10
-14198.753973199495
 20
-782.900450827912
 30
0.0
 11
-14199.19409008113
 21
-786.876164239427
 31
0.0
  0
LINE
  5
266
100
AcDbEntity
  8
Frei
  6
CONTINUOUS
 62
           7
100
AcDbLine
 10
-14193.784331435101
 20
-783.450596929956
 30
0.0
 11
-14193.352114296067
 21
-779.546244363516
 31
0.0
  0
LINE
  5
267
100
AcDbEntity
  8
Frei
  6
CONTINUOUS
 62
           7
100
AcDbLine
 10
-14193.784331435101
 20
-783.450596929956
 30
0.0
 11
-14198.753973199495
 21
-782.900450827912
 31
0.0
  0
LINE
  5
268
100
AcDbEntity
  8
Frei
  6
CONTINUOUS
 62
           7
100
AcDbLine
 10
-14198.465828440139
 20
-780.297549116952
 30
0.0
 11
-14198.753973199495
 21
-782.900450827912
 31
0.0
  0
LINE
  5
269
100
AcDbEntity
  8
Frei
  6
CONTINUOUS
 62
           7
100
AcDbLine
 10
-14198.321756060461
 20
-778.996098261472
 30
0.0
 11
-14198.465828440139
 21
-780.297549116952
 31
0.0
  0
LINE
  5
26A
100
AcDbEntity
  8
Frei
  6
CONTINUOUS
 62
           7
100
AcDbLine
 10
-14193.352114296067
 20
-779.546244363516
 30
0.0
 11
-14193.132055855251
 21
-777.558387657758
 31
0.0
  0
LINE
  5
26B
100
AcDbEntity
  8
Frei
  6
CONTINUOUS
 62
           7
100
AcDbLine
 10
-14193.352114296067
 20
-779.546244363516
 30
0.0
 11
-14198.321756060461
 21
-778.996098261472
 31
0.0
  0
LINE
  5
26C
100
AcDbEntity
  8
Frei
  6
CONTINUOUS
 62
           7
100
AcDbLine
 10
-14198.101697619644
 20
-777.008241555714
 30
0.0
 11
-14198.321756060461
 21
-778.996098261472
 31
0.0
  0
LINE
  5
26D
100
AcDbEntity
  8
Frei
  6
CONTINUOUS
 62
           7
100
AcDbLine
 10
-14198.101697619644
 20
-777.008241555714
 30
0.0
 11
-14193.132055855251
 21
-777.558387657758
 31
0.0
  0
LINE
  5
26E
100
AcDbEntity
  8
Frei
  6
CONTINUOUS
 62
           7
100
AcDbLine
 10
-14199.990438040661
 20
-794.069824367106
 30
0.0
 11
-14195.772189278016
 21
-794.536790241959
 31
0.0
  0
LINE
  5
26F
100
AcDbEntity
  8
Frei
  6
CONTINUOUS
 62
           7
100
AcDbLine
 10
-14197.957625239966
 20
-775.706790700234
 30
0.0
 11
-14198.101697619644
 21
-777.008241555714
 31
0.0
  0
LINE
  5
270
100
AcDbEntity
  8
Frei
  6
CONTINUOUS
 62
           7
100
AcDbLine
 10
-14241.342510019467
 20
-740.456764235747
 30
0.0
 11
-14241.920163426614
 21
-745.67488808836
 31
0.0
  0
LINE
  5
271
100
AcDbEntity
  8
Frei
  6
CONTINUOUS
 62
           7
100
AcDbLine
 10
-14240.62182203301
 20
-747.579306536511
 30
0.0
 11
-14240.23671976158
 21
-744.100557301436
 31
0.0
  0
LINE
  5
272
100
AcDbEntity
  8
Frei
  6
CONTINUOUS
 62
           7
100
AcDbLine
 10
-14241.373220592523
 20
-747.496125694069
 30
0.0
 11
-14240.62182203301
 21
-747.579306536511
 31
0.0
  0
LINE
  5
273
100
AcDbEntity
  8
Frei
  6
CONTINUOUS
 62
           7
100
AcDbLine
 10
-14240.23671976158
 20
-744.100557301436
 30
0.0
 11
-14239.466515218719
 21
-737.143058831285
 31
0.0
  0
LINE
  5
274
100
AcDbEntity
  8
Frei
  6
CONTINUOUS
 62
           7
100
AcDbLine
 10
-14240.988118321093
 20
-744.017376458994
 30
0.0
 11
-14240.23671976158
 21
-744.100557301436
 31
0.0
  0
LINE
  5
275
100
AcDbEntity
  8
Frei
  6
CONTINUOUS
 62
           7
100
AcDbLine
 10
-14239.466515218719
 20
-737.143058831285
 30
0.0
 11
-14239.081412947287
 21
-733.664309596209
 31
0.0
  0
LINE
  5
276
100
AcDbEntity
  8
Frei
  6
CONTINUOUS
 62
           7
100
AcDbLine
 10
-14240.217913778231
 20
-737.059877988843
 30
0.0
 11
-14239.466515218719
 21
-737.143058831285
 31
0.0
  0
LINE
  5
277
100
AcDbEntity
  8
Frei
  6
CONTINUOUS
 62
           7
100
AcDbLine
 10
-14239.081412947287
 20
-733.664309596209
 30
0.0
 11
-14238.476252235039
 21
-728.197703655376
 31
0.0
  0
LINE
  5
278
100
AcDbEntity
  8
Frei
  6
CONTINUOUS
 62
           7
100
AcDbLine
 10
-14239.8328115068
 20
-733.581128753767
 30
0.0
 11
-14239.081412947287
 21
-733.664309596209
 31
0.0
  0
LINE
  5
279
100
AcDbEntity
  8
Frei
  6
CONTINUOUS
 62
           7
100
AcDbLine
 10
-14204.60384872716
 20
-790.301731548898
 30
0.0
 11
-14203.283498082254
 21
-778.374591314353
 31
0.0
  0
LINE
  5
27A
100
AcDbEntity
  8
Frei
  6
CONTINUOUS
 62
           2
100
AcDbLine
 10
-14199.634206962766
 20
-790.851877650942
 30
0.0
 11
-14204.60384872716
 21
-790.301731548898
 31
0.0
  0
LINE
  5
27B
100
AcDbEntity
  8
Frei
  6
CONTINUOUS
 62
           7
100
AcDbLine
 10
-14203.283498082254
 20
-778.374591314353
 30
0.0
 11
-14203.173468861845
 21
-777.380662961474
 31
0.0
  0
LINE
  5
27C
100
AcDbEntity
  8
Frei
  6
CONTINUOUS
 62
           2
100
AcDbLine
 10
-14198.31385631786
 20
-778.924737416397
 30
0.0
 11
-14203.283498082254
 21
-778.374591314353
 31
0.0
  0
LINE
  5
27D
100
AcDbEntity
  8
Frei
  6
CONTINUOUS
 62
           7
100
AcDbLine
 10
-14204.713877947568
 20
-791.295659901777
 30
0.0
 11
-14204.60384872716
 21
-790.301731548898
 31
0.0
  0
LINE
  5
27E
100
AcDbEntity
  8
Frei
  6
CONTINUOUS
 62
           7
100
AcDbLine
 10
-14204.713877947568
 20
-791.295659901777
 30
0.0
 11
-14199.744236183175
 21
-791.845806003821
 31
0.0
  0
LINE
  5
27F
100
AcDbEntity
  8
Frei
  6
CONTINUOUS
 62
           7
100
AcDbLine
 10
-14203.173468861845
 20
-777.380662961474
 30
0.0
 11
-14203.11845425164
 21
-776.883698785035
 31
0.0
  0
LINE
  5
280
100
AcDbEntity
  8
Frei
  6
CONTINUOUS
 62
           7
100
AcDbLine
 10
-14203.173468861845
 20
-777.380662961474
 30
0.0
 11
-14198.203827097452
 21
-777.930809063518
 31
0.0
  0
LINE
  5
281
100
AcDbEntity
  8
Frei
  6
CONTINUOUS
 62
           7
100
AcDbLine
 10
-14224.059800406167
 20
-789.154039975106
 30
0.0
 11
-14242.9801195334
 21
-787.059534916039
 31
0.0
  0
LINE
  5
282
100
AcDbEntity
  8
Frei
  6
CONTINUOUS
 62
           7
100
AcDbLine
 10
-14216.861076622929
 20
-791.963165962629
 30
0.0
 11
-14224.059800406167
 21
-789.154039975106
 31
0.0
  0
LINE
  5
283
100
AcDbEntity
  8
Frei
  6
CONTINUOUS
 62
           7
100
AcDbLine
 10
-14241.280164670863
 20
-758.070568851943
 30
0.0
 11
-14241.777128847303
 21
-758.015554241738
 31
0.0
  0
LINE
  5
284
100
AcDbEntity
  8
Frei
  6
CONTINUOUS
 62
           7
100
AcDbLine
 10
-14241.280164670863
 20
-758.070568851943
 30
0.0
 11
-14244.305968232104
 21
-785.403598556108
 31
0.0
  0
LINE
  5
285
100
AcDbEntity
  8
Frei
  6
CONTINUOUS
 62
           7
100
AcDbLine
 10
-14224.059800406167
 20
-789.154039975106
 30
0.0
 11
-14218.13191071143
 21
-789.810265426258
 31
0.0
  0
LINE
  5
286
100
AcDbEntity
  8
Frei
  6
CONTINUOUS
 62
           7
100
AcDbLine
 10
-14213.450170790258
 20
-761.151387023388
 30
0.0
 11
-14241.280164670863
 21
-758.070568851943
 31
0.0
  0
LINE
  5
287
100
AcDbEntity
  8
Frei
  6
CONTINUOUS
 62
           7
100
AcDbLine
 10
-14213.450170790258
 20
-761.151387023388
 30
0.0
 11
-14216.475974351499
 21
-788.484416727553
 31
0.0
  0
LINE
  5
288
100
AcDbEntity
  8
Frei
  6
CONTINUOUS
 62
           7
100
AcDbLine
 10
-14216.861076622929
 20
-791.963165962629
 30
0.0
 11
-14206.424828917703
 21
-793.118472776921
 31
0.0
  0
LINE
  5
289
100
AcDbEntity
  8
Frei
  6
CONTINUOUS
 62
           7
100
AcDbLine
 10
-14204.768892557773
 20
-791.792624078216
 30
0.0
 11
-14204.713877947568
 21
-791.295659901777
 31
0.0
  0
LINE
  5
28A
100
AcDbEntity
  8
Frei
  6
CONTINUOUS
 62
           7
100
AcDbLine
 10
-14214.880550655571
 20
-774.072455610812
 30
0.0
 11
-14204.444302950345
 21
-775.227762425104
 31
0.0
  0
LINE
  5
28B
100
AcDbEntity
  8
Frei
  6
CONTINUOUS
 62
           7
100
AcDbLine
 10
-14241.777128847303
 20
-758.015554241738
 30
0.0
 11
-14241.667099626893
 21
-757.021625888859
 31
0.0
  0
LINE
  5
28C
100
AcDbEntity
  8
Frei
  6
CONTINUOUS
 62
           7
100
AcDbLine
 10
-14212.95320661382
 20
-761.206401633593
 30
0.0
 11
-14213.450170790258
 21
-761.151387023388
 31
0.0
  0
LINE
  5
28D
100
AcDbEntity
  8
Frei
  6
CONTINUOUS
 62
           7
100
AcDbLine
 10
-14212.84317739341
 20
-760.212473280714
 30
0.0
 11
-14212.95320661382
 21
-761.206401633593
 31
0.0
  0
LINE
  5
28E
100
AcDbEntity
  8
Frei
  6
CONTINUOUS
 62
           7
100
AcDbLine
 10
-14212.84317739341
 20
-760.212473280714
 30
0.0
 11
-14241.667099626893
 21
-757.021625888859
 31
0.0
  0
LINE
  5
28F
100
AcDbEntity
  8
Frei
  6
CONTINUOUS
 62
           7
100
AcDbLine
 10
-14210.037432272986
 20
-734.867300282306
 30
0.0
 11
-14209.976264813909
 21
-734.314755498069
 31
0.0
  0
LINE
  5
290
100
AcDbEntity
  8
Frei
  6
CONTINUOUS
 62
           7
100
AcDbLine
 10
-14238.476252235039
 20
-728.197703655376
 30
0.0
 11
-14211.674821933957
 21
-732.115731228919
 31
0.0
  0
LINE
  5
291
100
AcDbEntity
  8
Frei
  6
CONTINUOUS
 62
           7
100
AcDbLine
 10
-14206.27811193309
 20
-746.350658266016
 30
0.0
 11
-14206.333126543293
 21
-746.847622442455
 31
0.0
  0
LINE
  5
292
100
AcDbEntity
  8
Frei
  6
CONTINUOUS
 62
           1
100
AcDbLine
 10
-14206.27811193309
 20
-746.350658266016
 30
0.0
 11
-14208.751354487165
 21
-746.076866951664
 31
0.0
  0
LINE
  5
293
100
AcDbEntity
  8
Frei
  6
CONTINUOUS
 62
           7
100
AcDbLine
 10
-14205.837995051454
 20
-742.374944854501
 30
0.0
 11
-14206.27811193309
 21
-746.350658266016
 31
0.0
  0
LINE
  5
294
100
AcDbEntity
  8
Frei
  6
CONTINUOUS
 62
           1
100
AcDbLine
 10
-14205.837995051454
 20
-742.374944854501
 30
0.0
 11
-14208.311237605529
 21
-742.101153540149
 31
0.0
  0
LINE
  5
295
100
AcDbEntity
  8
Frei
  6
CONTINUOUS
 62
           7
100
AcDbLine
 10
-14206.333126543293
 20
-746.847622442455
 30
0.0
 11
-14206.388141153499
 21
-747.344586618895
 31
0.0
  0
LINE
  5
296
100
AcDbEntity
  8
Frei
  6
CONTINUOUS
 62
           1
100
AcDbLine
 10
-14206.333126543293
 20
-746.847622442455
 30
0.0
 11
-14208.806369097369
 21
-746.573831128103
 31
0.0
  0
LINE
  5
297
100
AcDbEntity
  8
Frei
  6
CONTINUOUS
 62
           7
100
AcDbLine
 10
-14205.78298044125
 20
-741.877980678062
 30
0.0
 11
-14205.837995051454
 21
-742.374944854501
 31
0.0
  0
LINE
  5
298
100
AcDbEntity
  8
Frei
  6
CONTINUOUS
 62
           1
100
AcDbLine
 10
-14205.78298044125
 20
-741.877980678062
 30
0.0
 11
-14208.256222995326
 21
-741.604189363709
 31
0.0
  0
LINE
  5
299
100
AcDbEntity
  8
Frei
  6
CONTINUOUS
 62
           7
100
AcDbLine
 10
-14207.382069506377
 20
-747.234557398486
 30
0.0
 11
-14206.721894183924
 21
-741.270987281214
 31
0.0
  0
LINE
  5
29A
100
AcDbEntity
  8
Frei
  6
CONTINUOUS
 62
           2
100
AcDbLine
 10
-14206.388141153499
 20
-747.344586618895
 30
0.0
 11
-14207.382069506377
 21
-747.234557398486
 31
0.0
  0
LINE
  5
29B
100
AcDbEntity
  8
Frei
  6
CONTINUOUS
 62
           7
100
AcDbLine
 10
-14206.721894183924
 20
-741.270987281214
 30
0.0
 11
-14206.611864963515
 21
-740.277058928335
 31
0.0
  0
LINE
  5
29C
100
AcDbEntity
  8
Frei
  6
CONTINUOUS
 62
           2
100
AcDbLine
 10
-14205.727965831045
 20
-741.381016501622
 30
0.0
 11
-14206.721894183924
 21
-741.270987281214
 31
0.0
  0
LINE
  5
29D
100
AcDbEntity
  8
Frei
  6
CONTINUOUS
 62
           7
100
AcDbLine
 10
-14207.492098726785
 20
-748.228485751365
 30
0.0
 11
-14207.382069506377
 21
-747.234557398486
 31
0.0
  0
LINE
  5
29E
100
AcDbEntity
  8
Frei
  6
CONTINUOUS
 62
           7
100
AcDbLine
 10
-14206.388141153499
 20
-747.344586618895
 30
0.0
 11
-14207.492098726785
 21
-748.228485751365
 31
0.0
  0
LINE
  5
29F
100
AcDbEntity
  8
Frei
  6
CONTINUOUS
 62
           7
100
AcDbLine
 10
-14205.727965831045
 20
-741.381016501622
 30
0.0
 11
-14205.78298044125
 21
-741.877980678062
 31
0.0
  0
LINE
  5
2A0
100
AcDbEntity
  8
Frei
  6
CONTINUOUS
 62
           7
100
AcDbLine
 10
-14206.611864963515
 20
-740.277058928335
 30
0.0
 11
-14206.061718861471
 21
-735.307417163941
 31
0.0
  0
LINE
  5
2A1
100
AcDbEntity
  8
Frei
  6
CONTINUOUS
 62
           7
100
AcDbLine
 10
-14206.611864963515
 20
-740.277058928335
 30
0.0
 11
-14205.727965831045
 21
-741.381016501622
 31
0.0
  0
LINE
  5
2A2
100
AcDbEntity
  8
Frei
  6
CONTINUOUS
 62
           7
100
AcDbLine
 10
-14241.667099626893
 20
-757.021625888859
 30
0.0
 11
-14240.62182203301
 21
-747.579306536511
 31
0.0
  0
LINE
  5
2A3
100
AcDbEntity
  8
Frei
  6
CONTINUOUS
 62
           7
100
AcDbLine
 10
-14212.017958240345
 20
-752.758010634123
 30
0.0
 11
-14212.84317739341
 21
-760.212473280714
 31
0.0
  0
LINE
  5
2A4
100
AcDbEntity
  8
Frei
  6
CONTINUOUS
 62
           7
100
AcDbLine
 10
-14208.933474699699
 20
-733.983401149836
 30
0.0
 11
-14211.134059107875
 21
-753.861968207411
 31
0.0
  0
LINE
  5
2A5
100
AcDbEntity
  8
Frei
  6
CONTINUOUS
 62
           7
100
AcDbLine
 10
-14206.945617993941
 20
-734.203459590654
 30
0.0
 11
-14209.146202402117
 21
-754.082026648228
 31
0.0
  0
LINE
  5
2A6
100
AcDbEntity
  8
Frei
  6
CONTINUOUS
 62
           7
100
AcDbLine
 10
-14208.04224482883
 20
-753.198127515758
 30
0.0
 11
-14209.146202402117
 21
-754.082026648228
 31
0.0
  0
LINE
  5
2A7
100
AcDbEntity
  8
Frei
  6
CONTINUOUS
 62
           7
100
AcDbLine
 10
-14211.134059107875
 20
-753.861968207411
 30
0.0
 11
-14212.017958240345
 21
-752.758010634123
 31
0.0
  0
LINE
  5
2A8
100
AcDbEntity
  8
Frei
  6
CONTINUOUS
 62
           7
100
AcDbLine
 10
-14210.037432272986
 20
-734.867300282306
 30
0.0
 11
-14208.933474699699
 21
-733.983401149836
 31
0.0
  0
LINE
  5
2A9
100
AcDbEntity
  8
Frei
  6
CONTINUOUS
 62
           7
100
AcDbLine
 10
-14206.061718861471
 20
-735.307417163941
 30
0.0
 11
-14206.945617993941
 21
-734.203459590654
 31
0.0
  0
LINE
  5
2AA
100
AcDbEntity
  8
Frei
  6
CONTINUOUS
 62
           7
100
AcDbLine
 10
-14208.04224482883
 20
-753.198127515758
 30
0.0
 11
-14207.492098726785
 21
-748.228485751365
 31
0.0
  0
LINE
  5
2AB
100
AcDbEntity
  8
Frei
  6
CONTINUOUS
 62
           7
100
AcDbLine
 10
-14211.134059107875
 20
-753.861968207411
 30
0.0
 11
-14209.146202402117
 21
-754.082026648228
 31
0.0
  0
LINE
  5
2AC
100
AcDbEntity
  8
Frei
  6
CONTINUOUS
 62
           7
100
AcDbLine
 10
-14210.037432272986
 20
-734.867300282306
 30
0.0
 11
-14212.017958240345
 21
-752.758010634123
 31
0.0
  0
LINE
  5
2AD
100
AcDbEntity
  8
Frei
  6
CONTINUOUS
 62
           7
100
AcDbLine
 10
-14206.945617993941
 20
-734.203459590654
 30
0.0
 11
-14208.933474699699
 21
-733.983401149836
 31
0.0
  0
LINE
  5
2AE
100
AcDbEntity
  8
Frei
  6
CONTINUOUS
 62
           7
100
AcDbLine
 10
-14258.066917449392
 20
-755.206143752115
 30
0.0
 11
-14247.630669744165
 21
-756.361450566407
 31
0.0
  0
LINE
  5
2AF
100
AcDbEntity
  8
Frei
  6
CONTINUOUS
 62
           7
100
AcDbLine
 10
-14240.520956235601
 20
-723.946917192839
 30
0.0
 11
-14254.435953175904
 21
-722.406508107116
 31
0.0
  0
LINE
  5
2B0
100
AcDbEntity
  8
Frei
  6
CONTINUOUS
 62
           7
100
AcDbLine
 10
-14239.637057103131
 20
-725.050874766127
 30
0.0
 11
-14242.112714562329
 21
-747.414262705898
 31
0.0
  0
LINE
  5
2B1
100
AcDbEntity
  8
Frei
  6
CONTINUOUS
 62
           7
100
AcDbLine
 10
-14401.082571043524
 20
-738.368007660373
 30
0.0
 11
-14398.606913584326
 21
-716.004619720601
 31
0.0
  0
LINE
  5
2B2
100
AcDbEntity
  8
Frei
  6
CONTINUOUS
 62
           7
100
AcDbLine
 10
-14399.954771534334
 20
-728.180242043366
 30
0.0
 11
-14399.377118127188
 21
-722.962118190752
 31
0.0
  0
LINE
  5
2B3
100
AcDbEntity
  8
Frei
  6
CONTINUOUS
 62
           7
100
AcDbLine
 10
-14240.764856612321
 20
-735.238640383134
 30
0.0
 11
-14241.342510019467
 21
-740.456764235747
 31
0.0
  0
ARC
  5
2B4
100
AcDbEntity
  8
Frei
  6
CONTINUOUS
 62
           7
100
AcDbCircle
 10
-14407.929282234256
 20
-722.015381993135
 30
0.0
 40
8.604407030244
100
AcDbArc
 50
329.681014671726
 51
353.682999999999
  0
ARC
  5
2B5
100
AcDbEntity
  8
Frei
  6
CONTINUOUS
 62
           7
100
AcDbCircle
 10
-14401.214815985484
 20
-717.476611668171
 30
0.0
 40
2.430106011614
100
AcDbArc
 50
307.617521857266
 51
353.682999999999
  0
ARC
  5
2B6
100
AcDbEntity
  8
Frei
  6
CONTINUOUS
 62
           7
100
AcDbCircle
 10
-14402.370122799777
 20
-727.912859373397
 30
0.0
 40
2.430106011614
100
AcDbArc
 50
307.617521857266
 51
353.682999999999
  0
ARC
  5
2B7
100
AcDbEntity
  8
Frei
  6
CONTINUOUS
 62
           7
100
AcDbCircle
 10
-14401.214815985484
 20
-717.476611668171
 30
0.0
 40
2.430106011614
100
AcDbArc
 50
353.682999999999
 51
39.748478142733
  0
ARC
  5
2B8
100
AcDbEntity
  8
Frei
  6
CONTINUOUS
 62
           7
100
AcDbCircle
 10
-14402.370122799777
 20
-727.912859373397
 30
0.0
 40
2.430106011614
100
AcDbArc
 50
353.682999999999
 51
39.748478142733
  0
ARC
  5
2B9
100
AcDbEntity
  8
Frei
  6
CONTINUOUS
 62
           7
100
AcDbCircle
 10
-14239.504812161169
 20
-745.942270758329
 30
0.0
 40
2.430106011614
100
AcDbArc
 50
127.617521857263
 51
173.683
  0
ARC
  5
2BA
100
AcDbEntity
  8
Frei
  6
CONTINUOUS
 62
           7
100
AcDbCircle
 10
-14238.349505346876
 20
-735.506023053102
 30
0.0
 40
2.430106011614
100
AcDbArc
 50
127.617521857263
 51
173.683
  0
ARC
  5
2BB
100
AcDbEntity
  8
Frei
  6
CONTINUOUS
 62
           7
100
AcDbCircle
 10
-14239.504812161169
 20
-745.942270758329
 30
0.0
 40
2.430106011614
100
AcDbArc
 50
173.683
 51
219.748478142737
  0
ARC
  5
2BC
100
AcDbEntity
  8
Frei
  6
CONTINUOUS
 62
           7
100
AcDbCircle
 10
-14238.349505346876
 20
-735.506023053102
 30
0.0
 40
2.430106011614
100
AcDbArc
 50
173.683
 51
219.748478142737
  0
ARC
  5
2BD
100
AcDbEntity
  8
Frei
  6
CONTINUOUS
 62
           7
100
AcDbCircle
 10
-14232.790345912399
 20
-741.403500433365
 30
0.0
 40
8.604407030244
100
AcDbArc
 50
149.681014671724
 51
173.683
  0
ARC
  5
2BE
100
AcDbEntity
  8
Frei
  6
CONTINUOUS
 62
           7
100
AcDbCircle
 10
-14377.024907726354
 20
-733.246876153222
 30
0.0
 40
4.481959213903
100
AcDbArc
 50
182.061955885586
 51
345.304044114414
  0
ARC
  5
2BF
100
AcDbEntity
  8
Frei
  6
CONTINUOUS
 62
           7
100
AcDbCircle
 10
-14407.929282234256
 20
-722.015381993135
 30
0.0
 40
8.604407030244
100
AcDbArc
 50
353.682999999999
 51
17.684985328274
  0
ARC
  5
2C0
100
AcDbEntity
  8
Frei
  6
CONTINUOUS
 62
           7
100
AcDbCircle
 10
-14232.790345912399
 20
-741.403500433365
 30
0.0
 40
8.604407030244
100
AcDbArc
 50
173.683
 51
197.684985328276
  0
POLYLINE
  5
2C1
100
AcDbEntity
  8
Frei
  6
CONTINUOUS
 62
           7
100
AcDb2dPolyline
 66
           1
 10
0.0
 20
0.0
 30
0.0
  0
VERTEX
  5
2C2
100
AcDbEntity
  8
Frei
  6
CONTINUOUS
 62
           7
100
AcDbVertex
100
AcDb2dVertex
 10
-14381.18275514213
 20
-733.08875846002
 30
0.0
 42
0.046286845788
  0
VERTEX
  5
2C3
100
AcDbEntity
  8
Frei
  6
CONTINUOUS
 62
           7
100
AcDbVertex
100
AcDb2dVertex
 10
-14381.194599712202
 20
-733.768763996206
 30
0.0
  0
VERTEX
  5
2C4
100
AcDbEntity
  8
Frei
  6
CONTINUOUS
 62
           7
100
AcDbVertex
100
AcDb2dVertex
 10
-14381.153164962239
 20
-734.107990409232
 30
0.0
  0
VERTEX
  5
2C5
100
AcDbEntity
  8
Frei
  6
CONTINUOUS
 62
           7
100
AcDbVertex
100
AcDb2dVertex
 10
-14381.080754349297
 20
-734.441982114342
 30
0.0
 42
0.045273723548
  0
VERTEX
  5
2C6
100
AcDbEntity
  8
Frei
  6
CONTINUOUS
 62
           7
100
AcDbVertex
100
AcDb2dVertex
 10
-14380.844678187159
 20
-735.087957422571
 30
0.0
  0
VERTEX
  5
2C7
100
AcDbEntity
  8
Frei
  6
CONTINUOUS
 62
           7
100
AcDbVertex
100
AcDb2dVertex
 10
-14380.682439994856
 20
-735.395318499133
 30
0.0
  0
VERTEX
  5
2C8
100
AcDbEntity
  8
Frei
  6
CONTINUOUS
 62
           7
100
AcDbVertex
100
AcDb2dVertex
 10
-14380.493544280511
 20
-735.687062288033
 30
0.0
 42
0.04348253534
  0
VERTEX
  5
2C9
100
AcDbEntity
  8
Frei
  6
CONTINUOUS
 62
           7
100
AcDbVertex
100
AcDb2dVertex
 10
-14380.038021655431
 20
-736.221093212552
 30
0.0
  0
VERTEX
  5
2CA
100
AcDbEntity
  8
Frei
  6
CONTINUOUS
 62
           7
100
AcDbVertex
100
AcDb2dVertex
 10
-14379.77464260448
 20
-736.459101774542
 30
0.0
  0
VERTEX
  5
2CB
100
AcDbEntity
  8
Frei
  6
CONTINUOUS
 62
           7
100
AcDbVertex
100
AcDb2dVertex
 10
-14379.491951136373
 20
-736.673823936719
 30
0.0
 42
0.041825507476
  0
VERTEX
  5
2CC
100
AcDbEntity
  8
Frei
  6
CONTINUOUS
 62
           7
100
AcDbVertex
100
AcDb2dVertex
 10
-14378.871924799731
 20
-737.031498466574
 30
0.0
  0
VERTEX
  5
2CD
100
AcDbEntity
  8
Frei
  6
CONTINUOUS
 62
           7
100
AcDbVertex
100
AcDb2dVertex
 10
-14378.539557760398
 20
-737.171327656979
 30
0.0
  0
VERTEX
  5
2CE
100
AcDbEntity
  8
Frei
  6
CONTINUOUS
 62
           7
100
AcDbVertex
100
AcDb2dVertex
 10
-14378.196781832001
 20
-737.283249042519
 30
0.0
 42
0.040993490696
  0
VERTEX
  5
2CF
100
AcDbEntity
  8
Frei
  6
CONTINUOUS
 62
           7
100
AcDbVertex
100
AcDb2dVertex
 10
-14377.487036110613
 20
-737.421426350696
 30
0.0
  0
VERTEX
  5
2D0
100
AcDbEntity
  8
Frei
  6
CONTINUOUS
 62
           7
100
AcDbVertex
100
AcDb2dVertex
 10
-14377.126062944386
 20
-737.446464634061
 30
0.0
  0
VERTEX
  5
2D1
100
AcDbEntity
  8
Frei
  6
CONTINUOUS
 62
           7
100
AcDbVertex
100
AcDb2dVertex
 10
-14376.764252900168
 20
-737.441831943516
 30
0.0
 42
0.041278481646
  0
VERTEX
  5
2D2
100
AcDbEntity
  8
Frei
  6
CONTINUOUS
 62
           7
100
AcDbVertex
100
AcDb2dVertex
 10
-14376.050393602764
 20
-737.343845807368
 30
0.0
  0
VERTEX
  5
2D3
100
AcDbEntity
  8
Frei
  6
CONTINUOUS
 62
           7
100
AcDbVertex
100
AcDb2dVertex
 10
-14375.704299959412
 20
-737.251454282645
 30
0.0
  0
VERTEX
  5
2D4
100
AcDbEntity
  8
Frei
  6
CONTINUOUS
 62
           7
100
AcDbVertex
100
AcDb2dVertex
 10
-14375.367148471925
 20
-737.130445201416
 30
0.0
 42
0.042584509173
  0
VERTEX
  5
2D5
100
AcDbEntity
  8
Frei
  6
CONTINUOUS
 62
           7
100
AcDbVertex
100
AcDb2dVertex
 10
-14374.735277565216
 20
-736.808114195084
 30
0.0
  0
VERTEX
  5
2D6
100
AcDbEntity
  8
Frei
  6
CONTINUOUS
 62
           7
100
AcDbVertex
100
AcDb2dVertex
 10
-14374.445448880348
 20
-736.609601232554
 30
0.0
  0
VERTEX
  5
2D7
100
AcDbEntity
  8
Frei
  6
CONTINUOUS
 62
           7
100
AcDbVertex
100
AcDb2dVertex
 10
-14374.173979960387
 20
-736.386646652894
 30
0.0
 42
0.044417198743
  0
VERTEX
  5
2D8
100
AcDbEntity
  8
Frei
  6
CONTINUOUS
 62
           7
100
AcDbVertex
100
AcDb2dVertex
 10
-14373.70031040114
 20
-735.878848652842
 30
0.0
  0
VERTEX
  5
2D9
100
AcDbEntity
  8
Frei
  6
CONTINUOUS
 62
           7
100
AcDbVertex
100
AcDb2dVertex
 10
-14373.501362125297
 20
-735.597924229031
 30
0.0
  0
VERTEX
  5
2DA
100
AcDbEntity
  8
Frei
  6
CONTINUOUS
 62
           7
100
AcDbVertex
100
AcDb2dVertex
 10
-14373.328661097339
 20
-735.3001493802
 30
0.0
 42
0.045929593742
  0
VERTEX
  5
2DB
100
AcDbEntity
  8
Frei
  6
CONTINUOUS
 62
           7
100
AcDbVertex
100
AcDb2dVertex
 10
-14373.070324425016
 20
-734.668132319533
 30
0.0
  0
VERTEX
  5
2DC
100
AcDbEntity
  8
Frei
  6
CONTINUOUS
 62
           7
100
AcDbVertex
100
AcDb2dVertex
 10
-14372.986292867263
 20
-734.3382464161
 30
0.0
  0
VERTEX
  5
2DD
100
AcDbEntity
  8
Frei
  6
CONTINUOUS
 62
           7
100
AcDbVertex
100
AcDb2dVertex
 10
-14372.933149813238
 20
-734.002000989413
 30
0.0
 42
0.046286845788
  0
VERTEX
  5
2DE
100
AcDbEntity
  8
Frei
  6
CONTINUOUS
 62
           7
100
AcDbVertex
100
AcDb2dVertex
 10
-14372.921305243166
 20
-733.321995453227
 30
0.0
  0
VERTEX
  5
2DF
100
AcDbEntity
  8
Frei
  6
CONTINUOUS
 62
           7
100
AcDbVertex
100
AcDb2dVertex
 10
-14372.962739993131
 20
-732.982769040202
 30
0.0
  0
VERTEX
  5
2E0
100
AcDbEntity
  8
Frei
  6
CONTINUOUS
 62
           7
100
AcDbVertex
100
AcDb2dVertex
 10
-14373.035150606072
 20
-732.648777335092
 30
0.0
 42
0.045273723548
  0
VERTEX
  5
2E1
100
AcDbEntity
  8
Frei
  6
CONTINUOUS
 62
           7
100
AcDbVertex
100
AcDb2dVertex
 10
-14373.271226768211
 20
-732.002802026862
 30
0.0
  0
VERTEX
  5
2E2
100
AcDbEntity
  8
Frei
  6
CONTINUOUS
 62
           7
100
AcDbVertex
100
AcDb2dVertex
 10
-14373.433464960513
 20
-731.695440950301
 30
0.0
  0
VERTEX
  5
2E3
100
AcDbEntity
  8
Frei
  6
CONTINUOUS
 62
           7
100
AcDbVertex
100
AcDb2dVertex
 10
-14373.622360674855
 20
-731.403697161401
 30
0.0
 42
0.04348253534
  0
VERTEX
  5
2E4
100
AcDbEntity
  8
Frei
  6
CONTINUOUS
 62
           7
100
AcDbVertex
100
AcDb2dVertex
 10
-14374.077883299939
 20
-730.869666236882
 30
0.0
  0
VERTEX
  5
2E5
100
AcDbEntity
  8
Frei
  6
CONTINUOUS
 62
           7
100
AcDbVertex
100
AcDb2dVertex
 10
-14374.341262350888
 20
-730.631657674892
 30
0.0
  0
VERTEX
  5
2E6
100
AcDbEntity
  8
Frei
  6
CONTINUOUS
 62
           7
100
AcDbVertex
100
AcDb2dVertex
 10
-14374.623953818995
 20
-730.416935512714
 30
0.0
 42
0.041825507476
  0
VERTEX
  5
2E7
100
AcDbEntity
  8
Frei
  6
CONTINUOUS
 62
           7
100
AcDbVertex
100
AcDb2dVertex
 10
-14375.243980155637
 20
-730.059260982859
 30
0.0
  0
VERTEX
  5
2E8
100
AcDbEntity
  8
Frei
  6
CONTINUOUS
 62
           7
100
AcDbVertex
100
AcDb2dVertex
 10
-14375.57634719497
 20
-729.919431792454
 30
0.0
  0
VERTEX
  5
2E9
100
AcDbEntity
  8
Frei
  6
CONTINUOUS
 62
           7
100
AcDbVertex
100
AcDb2dVertex
 10
-14375.919123123369
 20
-729.807510406915
 30
0.0
 42
0.040993490696
  0
VERTEX
  5
2EA
100
AcDbEntity
  8
Frei
  6
CONTINUOUS
 62
           7
100
AcDbVertex
100
AcDb2dVertex
 10
-14376.628868844755
 20
-729.669333098739
 30
0.0
  0
VERTEX
  5
2EB
100
AcDbEntity
  8
Frei
  6
CONTINUOUS
 62
           7
100
AcDbVertex
100
AcDb2dVertex
 10
-14376.98984201098
 20
-729.644294815373
 30
0.0
  0
VERTEX
  5
2EC
100
AcDbEntity
  8
Frei
  6
CONTINUOUS
 62
           7
100
AcDbVertex
100
AcDb2dVertex
 10
-14377.351652055202
 20
-729.648927505918
 30
0.0
 42
0.041278481646
  0
VERTEX
  5
2ED
100
AcDbEntity
  8
Frei
  6
CONTINUOUS
 62
           7
100
AcDbVertex
100
AcDb2dVertex
 10
-14378.065511352605
 20
-729.746913642065
 30
0.0
  0
VERTEX
  5
2EE
100
AcDbEntity
  8
Frei
  6
CONTINUOUS
 62
           7
100
AcDbVertex
100
AcDb2dVertex
 10
-14378.411604995956
 20
-729.839305166788
 30
0.0
  0
VERTEX
  5
2EF
100
AcDbEntity
  8
Frei
  6
CONTINUOUS
 62
           7
100
AcDbVertex
100
AcDb2dVertex
 10
-14378.748756483443
 20
-729.960314248018
 30
0.0
 42
0.042584509172
  0
VERTEX
  5
2F0
100
AcDbEntity
  8
Frei
  6
CONTINUOUS
 62
           7
100
AcDbVertex
100
AcDb2dVertex
 10
-14379.380627390154
 20
-730.28264525435
 30
0.0
  0
VERTEX
  5
2F1
100
AcDbEntity
  8
Frei
  6
CONTINUOUS
 62
           7
100
AcDbVertex
100
AcDb2dVertex
 10
-14379.670456075022
 20
-730.48115821688
 30
0.0
  0
VERTEX
  5
2F2
100
AcDbEntity
  8
Frei
  6
CONTINUOUS
 62
           7
100
AcDbVertex
100
AcDb2dVertex
 10
-14379.941924994979
 20
-730.70411279654
 30
0.0
 42
0.044417198743
  0
VERTEX
  5
2F3
100
AcDbEntity
  8
Frei
  6
CONTINUOUS
 62
           7
100
AcDbVertex
100
AcDb2dVertex
 10
-14380.41559455423
 20
-731.211910796592
 30
0.0
  0
VERTEX
  5
2F4
100
AcDbEntity
  8
Frei
  6
CONTINUOUS
 62
           7
100
AcDbVertex
100
AcDb2dVertex
 10
-14380.614542830073
 20
-731.492835220403
 30
0.0
  0
VERTEX
  5
2F5
100
AcDbEntity
  8
Frei
  6
CONTINUOUS
 62
           7
100
AcDbVertex
100
AcDb2dVertex
 10
-14380.787243858031
 20
-731.790610069234
 30
0.0
 42
0.045929593742
  0
VERTEX
  5
2F6
100
AcDbEntity
  8
Frei
  6
CONTINUOUS
 62
           7
100
AcDbVertex
100
AcDb2dVertex
 10
-14381.045580530352
 20
-732.4226271299
 30
0.0
  0
VERTEX
  5
2F7
100
AcDbEntity
  8
Frei
  6
CONTINUOUS
 62
           7
100
AcDbVertex
100
AcDb2dVertex
 10
-14381.129612088107
 20
-732.752513033334
 30
0.0
  0
VERTEX
  5
2F8
100
AcDbEntity
  8
Frei
  6
CONTINUOUS
 62
           7
100
AcDbVertex
100
AcDb2dVertex
 10
-14381.18275514213
 20
-733.08875846002
 30
0.0
  0
SEQEND
  5
2F9
100
AcDbEntity
  8
Frei
  6
CONTINUOUS
 62
           7
  0
POLYLINE
  5
2FA
100
AcDbEntity
  8
Frei
  6
CONTINUOUS
 62
           7
100
AcDb2dPolyline
 66
           1
 10
0.0
 20
0.0
 30
0.0
  0
VERTEX
  5
2FB
100
AcDbEntity
  8
Frei
  6
CONTINUOUS
 62
           7
100
AcDbVertex
100
AcDb2dVertex
 10
-14376.619689943565
 20
-729.586417214149
 30
0.0
 42
0.046286845788
  0
VERTEX
  5
2FC
100
AcDbEntity
  8
Frei
  6
CONTINUOUS
 62
           7
100
AcDbVertex
100
AcDb2dVertex
 10
-14377.395648535523
 20
-729.572901300785
 30
0.0
  0
VERTEX
  5
2FD
100
AcDbEntity
  8
Frei
  6
CONTINUOUS
 62
           7
100
AcDbVertex
100
AcDb2dVertex
 10
-14377.782741927853
 20
-729.620182754432
 30
0.0
  0
VERTEX
  5
2FE
100
AcDbEntity
  8
Frei
  6
CONTINUOUS
 62
           7
100
AcDbVertex
100
AcDb2dVertex
 10
-14378.163861962075
 20
-729.702810960045
 30
0.0
 42
0.045273723548
  0
VERTEX
  5
2FF
100
AcDbEntity
  8
Frei
  6
CONTINUOUS
 62
           7
100
AcDbVertex
100
AcDb2dVertex
 10
-14378.900988446994
 20
-729.972198952671
 30
0.0
  0
VERTEX
  5
300
100
AcDbEntity
  8
Frei
  6
CONTINUOUS
 62
           7
100
AcDbVertex
100
AcDb2dVertex
 10
-14379.251720103575
 20
-730.157329973759
 30
0.0
  0
VERTEX
  5
301
100
AcDbEntity
  8
Frei
  6
CONTINUOUS
 62
           7
100
AcDbVertex
100
AcDb2dVertex
 10
-14379.584630775034
 20
-730.372880060824
 30
0.0
 42
0.04348253534
  0
VERTEX
  5
302
100
AcDbEntity
  8
Frei
  6
CONTINUOUS
 62
           7
100
AcDbVertex
100
AcDb2dVertex
 10
-14380.194016820002
 20
-730.892679791787
 30
0.0
  0
VERTEX
  5
303
100
AcDbEntity
  8
Frei
  6
CONTINUOUS
 62
           7
100
AcDbVertex
100
AcDb2dVertex
 10
-14380.465609886245
 20
-731.193223282468
 30
0.0
  0
VERTEX
  5
304
100
AcDbEntity
  8
Frei
  6
CONTINUOUS
 62
           7
100
AcDbVertex
100
AcDb2dVertex
 10
-14380.710630695281
 20
-731.515804293766
 30
0.0
 42
0.041825507476
  0
VERTEX
  5
305
100
AcDbEntity
  8
Frei
  6
CONTINUOUS
 62
           7
100
AcDbVertex
100
AcDb2dVertex
 10
-14381.118775349692
 20
-732.223320244084
 30
0.0
  0
VERTEX
  5
306
100
AcDbEntity
  8
Frei
  6
CONTINUOUS
 62
           7
100
AcDbVertex
100
AcDb2dVertex
 10
-14381.278335317853
 20
-732.602586361975
 30
0.0
  0
VERTEX
  5
307
100
AcDbEntity
  8
Frei
  6
CONTINUOUS
 62
           7
100
AcDbVertex
100
AcDb2dVertex
 10
-14381.406049514446
 20
-732.993730128611
 30
0.0
 42
0.040993490695
  0
VERTEX
  5
308
100
AcDbEntity
  8
Frei
  6
CONTINUOUS
 62
           7
100
AcDbVertex
100
AcDb2dVertex
 10
-14381.563724509409
 20
-733.803625432854
 30
0.0
  0
VERTEX
  5
309
100
AcDbEntity
  8
Frei
  6
CONTINUOUS
 62
           7
100
AcDbVertex
100
AcDb2dVertex
 10
-14381.592295851951
 20
-734.215534181965
 30
0.0
  0
VERTEX
  5
30A
100
AcDbEntity
  8
Frei
  6
CONTINUOUS
 62
           7
100
AcDbVertex
100
AcDb2dVertex
 10
-14381.587009459648
 20
-734.628397897817
 30
0.0
 42
0.041278481646
  0
VERTEX
  5
30B
100
AcDbEntity
  8
Frei
  6
CONTINUOUS
 62
           7
100
AcDbVertex
100
AcDb2dVertex
 10
-14381.475196863736
 20
-735.442987229509
 30
0.0
  0
VERTEX
  5
30C
100
AcDbEntity
  8
Frei
  6
CONTINUOUS
 62
           7
100
AcDbVertex
100
AcDb2dVertex
 10
-14381.369768314087
 20
-735.837916861534
 30
0.0
  0
VERTEX
  5
30D
100
AcDbEntity
  8
Frei
  6
CONTINUOUS
 62
           7
100
AcDbVertex
100
AcDb2dVertex
 10
-14381.231684090815
 20
-736.22264254329
 30
0.0
 42
0.042584509173
  0
VERTEX
  5
30E
100
AcDbEntity
  8
Frei
  6
CONTINUOUS
 62
           7
100
AcDbVertex
100
AcDb2dVertex
 10
-14380.863870153271
 20
-736.943674406972
 30
0.0
  0
VERTEX
  5
30F
100
AcDbEntity
  8
Frei
  6
CONTINUOUS
 62
           7
100
AcDbVertex
100
AcDb2dVertex
 10
-14380.637345763844
 20
-737.274399741179
 30
0.0
  0
VERTEX
  5
310
100
AcDbEntity
  8
Frei
  6
CONTINUOUS
 62
           7
100
AcDbVertex
100
AcDb2dVertex
 10
-14380.38293089147
 20
-737.584174632238
 30
0.0
 42
0.044417198743
  0
VERTEX
  5
311
100
AcDbEntity
  8
Frei
  6
CONTINUOUS
 62
           7
100
AcDbVertex
100
AcDb2dVertex
 10
-14379.803479401517
 20
-738.124681943854
 30
0.0
  0
VERTEX
  5
312
100
AcDbEntity
  8
Frei
  6
CONTINUOUS
 62
           7
100
AcDbVertex
100
AcDb2dVertex
 10
-14379.482914775572
 20
-738.35170307204
 30
0.0
  0
VERTEX
  5
313
100
AcDbEntity
  8
Frei
  6
CONTINUOUS
 62
           7
100
AcDbVertex
100
AcDb2dVertex
 10
-14379.143122023714
 20
-738.548773300666
 30
0.0
 42
0.045929593742
  0
VERTEX
  5
314
100
AcDbEntity
  8
Frei
  6
CONTINUOUS
 62
           7
100
AcDbVertex
100
AcDb2dVertex
 10
-14378.421923382833
 20
-738.843562901395
 30
0.0
  0
VERTEX
  5
315
100
AcDbEntity
  8
Frei
  6
CONTINUOUS
 62
           7
100
AcDbVertex
100
AcDb2dVertex
 10
-14378.045488504715
 20
-738.939451840183
 30
0.0
  0
VERTEX
  5
316
100
AcDbEntity
  8
Frei
  6
CONTINUOUS
 62
           7
100
AcDbVertex
100
AcDb2dVertex
 10
-14377.661796734634
 20
-739.000093713196
 30
0.0
 42
0.046286845788
  0
VERTEX
  5
317
100
AcDbEntity
  8
Frei
  6
CONTINUOUS
 62
           7
100
AcDbVertex
100
AcDb2dVertex
 10
-14376.885838142676
 20
-739.013609626561
 30
0.0
  0
VERTEX
  5
318
100
AcDbEntity
  8
Frei
  6
CONTINUOUS
 62
           7
100
AcDbVertex
100
AcDb2dVertex
 10
-14376.498744750344
 20
-738.966328172913
 30
0.0
  0
VERTEX
  5
319
100
AcDbEntity
  8
Frei
  6
CONTINUOUS
 62
           7
100
AcDbVertex
100
AcDb2dVertex
 10
-14376.117624716122
 20
-738.8836999673
 30
0.0
 42
0.045273723548
  0
VERTEX
  5
31A
100
AcDbEntity
  8
Frei
  6
CONTINUOUS
 62
           7
100
AcDbVertex
100
AcDb2dVertex
 10
-14375.380498231205
 20
-738.614311974673
 30
0.0
  0
VERTEX
  5
31B
100
AcDbEntity
  8
Frei
  6
CONTINUOUS
 62
           7
100
AcDbVertex
100
AcDb2dVertex
 10
-14375.029766574622
 20
-738.429180953586
 30
0.0
  0
VERTEX
  5
31C
100
AcDbEntity
  8
Frei
  6
CONTINUOUS
 62
           7
100
AcDbVertex
100
AcDb2dVertex
 10
-14374.696855903165
 20
-738.21363086652
 30
0.0
 42
0.04348253534
  0
VERTEX
  5
31D
100
AcDbEntity
  8
Frei
  6
CONTINUOUS
 62
           7
100
AcDbVertex
100
AcDb2dVertex
 10
-14374.087469858197
 20
-737.693831135558
 30
0.0
  0
VERTEX
  5
31E
100
AcDbEntity
  8
Frei
  6
CONTINUOUS
 62
           7
100
AcDbVertex
100
AcDb2dVertex
 10
-14373.815876791954
 20
-737.393287644877
 30
0.0
  0
VERTEX
  5
31F
100
AcDbEntity
  8
Frei
  6
CONTINUOUS
 62
           7
100
AcDbVertex
100
AcDb2dVertex
 10
-14373.570855982918
 20
-737.07070663358
 30
0.0
 42
0.041825507476
  0
VERTEX
  5
320
100
AcDbEntity
  8
Frei
  6
CONTINUOUS
 62
           7
100
AcDbVertex
100
AcDb2dVertex
 10
-14373.162711328505
 20
-736.363190683261
 30
0.0
  0
VERTEX
  5
321
100
AcDbEntity
  8
Frei
  6
CONTINUOUS
 62
           7
100
AcDbVertex
100
AcDb2dVertex
 10
-14373.003151360346
 20
-735.983924565369
 30
0.0
  0
VERTEX
  5
322
100
AcDbEntity
  8
Frei
  6
CONTINUOUS
 62
           7
100
AcDbVertex
100
AcDb2dVertex
 10
-14372.875437163751
 20
-735.592780798733
 30
0.0
 42
0.040993490695
  0
VERTEX
  5
323
100
AcDbEntity
  8
Frei
  6
CONTINUOUS
 62
           7
100
AcDbVertex
100
AcDb2dVertex
 10
-14372.717762168788
 20
-734.782885494492
 30
0.0
  0
VERTEX
  5
324
100
AcDbEntity
  8
Frei
  6
CONTINUOUS
 62
           7
100
AcDbVertex
100
AcDb2dVertex
 10
-14372.689190826246
 20
-734.370976745379
 30
0.0
  0
VERTEX
  5
325
100
AcDbEntity
  8
Frei
  6
CONTINUOUS
 62
           7
100
AcDbVertex
100
AcDb2dVertex
 10
-14372.694477218549
 20
-733.958113029527
 30
0.0
 42
0.041278481646
  0
VERTEX
  5
326
100
AcDbEntity
  8
Frei
  6
CONTINUOUS
 62
           7
100
AcDbVertex
100
AcDb2dVertex
 10
-14372.806289814462
 20
-733.143523697835
 30
0.0
  0
VERTEX
  5
327
100
AcDbEntity
  8
Frei
  6
CONTINUOUS
 62
           7
100
AcDbVertex
100
AcDb2dVertex
 10
-14372.91171836411
 20
-732.748594065811
 30
0.0
  0
VERTEX
  5
328
100
AcDbEntity
  8
Frei
  6
CONTINUOUS
 62
           7
100
AcDbVertex
100
AcDb2dVertex
 10
-14373.049802587384
 20
-732.363868384056
 30
0.0
 42
0.042584509173
  0
VERTEX
  5
329
100
AcDbEntity
  8
Frei
  6
CONTINUOUS
 62
           7
100
AcDbVertex
100
AcDb2dVertex
 10
-14373.417616524928
 20
-731.642836520373
 30
0.0
  0
VERTEX
  5
32A
100
AcDbEntity
  8
Frei
  6
CONTINUOUS
 62
           7
100
AcDbVertex
100
AcDb2dVertex
 10
-14373.644140914354
 20
-731.312111186165
 30
0.0
  0
VERTEX
  5
32B
100
AcDbEntity
  8
Frei
  6
CONTINUOUS
 62
           7
100
AcDbVertex
100
AcDb2dVertex
 10
-14373.898555786729
 20
-731.002336295106
 30
0.0
 42
0.044417198743
  0
VERTEX
  5
32C
100
AcDbEntity
  8
Frei
  6
CONTINUOUS
 62
           7
100
AcDbVertex
100
AcDb2dVertex
 10
-14374.478007276683
 20
-730.46182898349
 30
0.0
  0
VERTEX
  5
32D
100
AcDbEntity
  8
Frei
  6
CONTINUOUS
 62
           7
100
AcDbVertex
100
AcDb2dVertex
 10
-14374.798571902627
 20
-730.234807855305
 30
0.0
  0
VERTEX
  5
32E
100
AcDbEntity
  8
Frei
  6
CONTINUOUS
 62
           7
100
AcDbVertex
100
AcDb2dVertex
 10
-14375.138364654484
 20
-730.037737626679
 30
0.0
 42
0.045929593741
  0
VERTEX
  5
32F
100
AcDbEntity
  8
Frei
  6
CONTINUOUS
 62
           7
100
AcDbVertex
100
AcDb2dVertex
 10
-14375.859563295366
 20
-729.74294802595
 30
0.0
  0
VERTEX
  5
330
100
AcDbEntity
  8
Frei
  6
CONTINUOUS
 62
           7
100
AcDbVertex
100
AcDb2dVertex
 10
-14376.235998173484
 20
-729.647059087162
 30
0.0
  0
VERTEX
  5
331
100
AcDbEntity
  8
Frei
  6
CONTINUOUS
 62
           7
100
AcDbVertex
100
AcDb2dVertex
 10
-14376.619689943565
 20
-729.586417214149
 30
0.0
  0
SEQEND
  5
332
100
AcDbEntity
  8
Frei
  6
CONTINUOUS
 62
           7
  0
ARC
  5
333
100
AcDbEntity
  8
Frei
  6
CONTINUOUS
 62
           7
100
AcDbCircle
 10
-14243.842239572412
 20
-753.821669366515
 30
0.0
 40
0.5
100
AcDbArc
 50
270.832821982568
 51
353.682999999999
  0
ARC
  5
334
100
AcDbEntity
  8
Frei
  6
CONTINUOUS
 62
           7
100
AcDbCircle
 10
-14243.279153717835
 20
-748.735138771377
 30
0.0
 40
0.5
100
AcDbArc
 50
353.682999999999
 51
76.533178017423
  0
ARC
  5
335
100
AcDbEntity
  8
Frei
  6
CONTINUOUS
 62
           7
100
AcDbCircle
 10
-14396.380424397803
 20
-709.652227670188
 30
0.0
 40
0.5
100
AcDbArc
 50
90.832821982565
 51
173.683
  0
ARC
  5
336
100
AcDbEntity
  8
Frei
  6
CONTINUOUS
 62
           7
100
AcDbCircle
 10
-14396.94351025238
 20
-714.738758265327
 30
0.0
 40
0.5
100
AcDbArc
 50
173.683
 51
256.533178017419
  0
ARC
  5
337
100
AcDbEntity
  8
Frei
  6
CONTINUOUS
 62
           7
100
AcDbCircle
 10
-14426.652645741475
 20
-710.328385448957
 30
0.0
 40
2.0
100
AcDbArc
 50
85.683
 51
173.683
  0
ARC
  5
338
100
AcDbEntity
  8
Frei
  6
CONTINUOUS
 62
           7
100
AcDbCircle
 10
-14444.80258977799
 20
-765.220567349498
 30
0.0
 40
1.5
100
AcDbArc
 50
173.683
 51
263.683
  0
ARC
  5
339
100
AcDbEntity
  8
Frei
  6
CONTINUOUS
 62
           7
100
AcDbCircle
 10
-14443.152151471857
 20
-750.311642056316
 30
0.0
 40
1.5
100
AcDbArc
 50
83.683
 51
173.683
  0
ARC
  5
33A
100
AcDbEntity
  8
Frei
  6
CONTINUOUS
 62
           7
100
AcDbCircle
 10
-14432.655391102626
 20
-764.553061288645
 30
0.0
 40
1.5
100
AcDbArc
 50
173.683
 51
263.683
  0
ARC
  5
33B
100
AcDbEntity
  8
Frei
  6
CONTINUOUS
 62
           7
100
AcDbCircle
 10
-14407.807182280658
 20
-767.303791798865
 30
0.0
 40
1.5
100
AcDbArc
 50
263.683
 51
353.682999999999
  0
ARC
  5
33C
100
AcDbEntity
  8
Frei
  6
CONTINUOUS
 62
           7
100
AcDbCircle
 10
-14242.815075702787
 20
-785.568642386721
 30
0.0
 40
1.5
100
AcDbArc
 50
173.683
 51
263.683
  0
ARC
  5
33D
100
AcDbEntity
  8
Frei
  6
CONTINUOUS
 62
           7
100
AcDbCircle
 10
-14217.966866880817
 20
-788.31937289694
 30
0.0
 40
1.5
100
AcDbArc
 50
263.683
 51
353.682999999999
  0
ARC
  5
33E
100
AcDbEntity
  8
Frei
  6
CONTINUOUS
 62
           7
100
AcDbCircle
 10
-14204.609346780959
 20
-776.718654954422
 30
0.0
 40
1.5
100
AcDbArc
 50
353.682999999999
 51
83.683
  0
ARC
  5
33F
100
AcDbEntity
  8
Frei
  6
CONTINUOUS
 62
           7
100
AcDbCircle
 10
-14206.259785087092
 20
-791.627580247603
 30
0.0
 40
1.5
100
AcDbArc
 50
263.683
 51
353.682999999999
  0
ARC
  5
340
100
AcDbEntity
  8
Frei
  6
CONTINUOUS
 62
           7
100
AcDbCircle
 10
-14211.964121519666
 20
-734.094697057252
 30
0.0
 40
2.0
100
AcDbArc
 50
353.682999999999
 51
81.683
  0
ARC
  5
341
100
AcDbEntity
  8
Frei
  6
CONTINUOUS
 62
           7
100
AcDbCircle
 10
-14240.63098545601
 20
-724.940845545718
 30
0.0
 40
1.0
100
AcDbArc
 50
353.682999999999
 51
83.683
  0
ARC
  5
342
100
AcDbEntity
  8
Frei
  6
CONTINUOUS
 62
           7
100
AcDbCircle
 10
-14244.041891288682
 20
-755.752624484959
 30
0.0
 40
1.0
100
AcDbArc
 50
263.682999999999
 51
353.682999999999
  0
ARC
  5
343
100
AcDbEntity
  8
Frei
  6
CONTINUOUS
 62
           7
100
AcDbCircle
 10
-14400.088642690645
 20
-738.478036880781
 30
0.0
 40
1.0
100
AcDbArc
 50
173.683
 51
263.683
  0
ARC
  5
344
100
AcDbEntity
  8
Frei
  6
CONTINUOUS
 62
           7
100
AcDbCircle
 10
-14396.677736857973
 20
-707.666257941541
 30
0.0
 40
1.0
100
AcDbArc
 50
83.683
 51
173.683
  0
LINE
  5
345
100
AcDbEntity
  8
Frei
  6
CONTINUOUS
 62
           7
100
AcDbLine
 10
-14657.209804475142
 20
-701.317305758388
 30
0.0
 11
-14657.209804475142
 21
-771.317305758388
 31
0.0
  0
LINE
  5
346
100
AcDbEntity
  8
Frei
  6
CONTINUOUS
 62
           7
100
AcDbLine
 10
-14139.320919475143
 20
-771.317305758388
 30
0.0
 11
-14139.320919475143
 21
-701.317305758388
 31
0.0
  0
LINE
  5
347
100
AcDbEntity
  8
Frei
  6
CONTINUOUS
 62
          15
100
AcDbLine
 10
-14577.342770895448
 20
-701.317305758388
 30
0.0
 11
-14657.209804475142
 21
-701.317305758388
 31
0.0
  0
LINE
  5
348
100
AcDbEntity
  8
Frei
  6
GESTRICHELT
 62
          15
100
AcDbLine
 10
-14493.191440356144
 20
-701.317305758388
 30
0.0
 11
-14577.342770895448
 21
-701.317305758388
 31
0.0
  0
LINE
  5
349
100
AcDbEntity
  8
Frei
  6
CONTINUOUS
 62
          15
100
AcDbLine
 10
-14479.550819541435
 20
-701.317305758388
 30
0.0
 11
-14493.191440356144
 21
-701.317305758388
 31
0.0
  0
LINE
  5
34A
100
AcDbEntity
  8
Frei
  6
GESTRICHELT
 62
          15
100
AcDbLine
 10
-14324.973298057979
 20
-701.317305758388
 30
0.0
 11
-14479.550819541435
 21
-701.317305758388
 31
0.0
  0
LINE
  5
34B
100
AcDbEntity
  8
Frei
  6
CONTINUOUS
 62
          15
100
AcDbLine
 10
-14139.320919475143
 20
-701.317305758388
 30
0.0
 11
-14324.973298057979
 21
-701.317305758388
 31
0.0
  0
LINE
  5
34C
100
AcDbEntity
  8
Frei
  6
CONTINUOUS
 62
          15
100
AcDbLine
 10
-14242.746596462002
 20
-771.317305758388
 30
0.0
 11
-14657.209804475142
 21
-771.317305758388
 31
0.0
  0
LINE
  5
34D
100
AcDbEntity
  8
Frei
  6
GESTRICHELT
 62
          15
100
AcDbLine
 10
-14214.575551819898
 20
-771.317305758388
 30
0.0
 11
-14242.746596462002
 21
-771.317305758388
 31
0.0
  0
LINE
  5
34E
100
AcDbEntity
  8
Frei
  6
CONTINUOUS
 62
          15
100
AcDbLine
 10
-14139.320919475143
 20
-771.317305758388
 30
0.0
 11
-14214.575551819898
 21
-771.317305758388
 31
0.0
  0
TEXT
  5
34F
100
AcDbEntity
  8
FREI
  6
CONTINUOUS
 62
          15
100
AcDbText
 10
-14726.554480786099
 20
-794.412136304204
 30
0.0
 40
3.527777671814
  1
140-700
 41
0.899999979725
  7
GOTHICG
100
AcDbText
  0
ENDSEC
  0
SECTION
  2
OBJECTS
  0
DICTIONARY
  5
19
100
AcDbDictionary
  3
ACAD_GROUP
350
1A
  3
ACAD_MLINESTYLE
350
1B
  0
DICTIONARY
  5
1A
102
{ACAD_REACTORS
330
19
102
}
100
AcDbDictionary
  0
DICTIONARY
  5
1B
102
{ACAD_REACTORS
330
19
102
}
100
AcDbDictionary
  3
STANDARD
350
1C
  0
MLINESTYLE
  5
1C
102
{ACAD_REACTORS
330
1B
102
}
100
AcDbMlineStyle
  2
STANDARD
 70
           0
  3

 62
           0
 51
90.0
 52
90.0
 71
           2
 49
0.5
 62
         256
  6
BYLAYER
 49
-0.5
 62
         256
  6
BYLAYER
  0
ENDSEC
  0
EOF
