  0
SECTION
  2
HEADER
  9
$ACADVER
  1
AC1012
  9
$DWGCODEPAGE
  3
dos850
  9
$INSBASE
 10
0.0
 20
0.0
 30
0.0
  9
$EXTMIN
 10
-14772.856862250934
 20
-1244.848477014255
 30
0.0
  9
$EXTMAX
 10
-14139.583059265211
 20
-1009.8741583709
 30
0.0
  9
$LIMMIN
 10
-14772.856862250934
 20
-1244.848477014255
  9
$LIMMAX
 10
-14139.583059265211
 20
-1009.8741583709
  9
$ORTHOMODE
 70
           0
  9
$REGENMODE
 70
           1
  9
$FILLMODE
 70
           1
  9
$QTEXTMODE
 70
           0
  9
$MIRRTEXT
 70
           1
  9
$DRAGMODE
 70
           2
  9
$LTSCALE
 40
5.0
  9
$OSMODE
 70
           0
  9
$ATTMODE
 70
           1
  9
$TEXTSIZE
 40
0.2
  9
$TRACEWID
 40
0.05
  9
$TEXTSTYLE
  7
TXT
  9
$CLAYER
  8
0
  9
$CELTYPE
  6
CONTINUOUS
  9
$CECOLOR
 62
         256
  9
$CELTSCALE
 40
1.0
  9
$DELOBJ
 70
           1
  9
$DISPSILH
 70
           0
  9
$DIMSCALE
 40
1.0
  9
$DIMASZ
 40
3.5
  9
$DIMEXO
 40
0.0625
  9
$DIMDLI
 40
0.38
  9
$DIMRND
 40
0.0
  9
$DIMDLE
 40
0.0
  9
$DIMEXE
 40
0.18
  9
$DIMTP
 40
0.0
  9
$DIMTM
 40
0.0
  9
$DIMTXT
 40
3.5
  9
$DIMCEN
 40
0.09
  9
$DIMTSZ
 40
0.0
  9
$DIMTOL
 70
           0
  9
$DIMLIM
 70
           0
  9
$DIMTIH
 70
           1
  9
$DIMTOH
 70
           1
  9
$DIMSE1
 70
           0
  9
$DIMSE2
 70
           0
  9
$DIMTAD
 70
           0
  9
$DIMZIN
 70
           0
  9
$DIMBLK
  1

  9
$DIMASO
 70
           1
  9
$DIMSHO
 70
           1
  9
$DIMPOST
  1

  9
$DIMAPOST
  1

  9
$DIMALT
 70
           0
  9
$DIMALTD
 70
           2
  9
$DIMALTF
 40
25.4
  9
$DIMLFAC
 40
1.0
  9
$DIMTOFL
 70
           0
  9
$DIMTVP
 40
0.0
  9
$DIMTIX
 70
           0
  9
$DIMSOXD
 70
           0
  9
$DIMSAH
 70
           0
  9
$DIMBLK1
  1

  9
$DIMBLK2
  1

  9
$DIMSTYLE
  2
STANDARD
  9
$DIMCLRD
 70
           0
  9
$DIMCLRE
 70
           0
  9
$DIMCLRT
 70
           0
  9
$DIMTFAC
 40
1.0
  9
$DIMGAP
 40
0.09
  9
$DIMJUST
 70
           0
  9
$DIMSD1
 70
           0
  9
$DIMSD2
 70
           0
  9
$DIMTOLJ
 70
           1
  9
$DIMTZIN
 70
           0
  9
$DIMALTZ
 70
           0
  9
$DIMALTTZ
 70
           0
  9
$DIMFIT
 70
           3
  9
$DIMUPT
 70
           0
  9
$DIMUNIT
 70
           2
  9
$DIMDEC
 70
           4
  9
$DIMTDEC
 70
           4
  9
$DIMALTU
 70
           2
  9
$DIMALTTD
 70
           2
  9
$DIMTXSTY
  7
TXT
  9
$DIMAUNIT
 70
           0
  9
$LUNITS
 70
           2
  9
$LUPREC
 70
           3
  9
$SKETCHINC
 40
0.1
  9
$FILLETRAD
 40
0.0
  9
$AUNITS
 70
           0
  9
$AUPREC
 70
           3
  9
$MENU
  1
acad
  9
$ELEVATION
 40
0.0
  9
$PELEVATION
 40
0.0
  9
$THICKNESS
 40
0.0
  9
$LIMCHECK
 70
           0
  9
$BLIPMODE
 70
           1
  9
$CHAMFERA
 40
0.0
  9
$CHAMFERB
 40
0.0
  9
$CHAMFERC
 40
0.0
  9
$CHAMFERD
 40
0.0
  9
$SKPOLY
 70
           0
  9
$TDCREATE
 40
0.000000000
  9
$TDUPDATE
 40
0.000000000
  9
$TDINDWG
 40
0.0000000000
  9
$TDUSRTIMER
 40
0.0000000000
  9
$USRTIMER
 70
           1
  9
$ANGBASE
 50
0.0
  9
$ANGDIR
 70
           0
  9
$PDMODE
 70
           2
  9
$PDSIZE
 40
0.5
  9
$PLINEWID
 40
0.0
  9
$COORDS
 70
           0
  9
$SPLFRAME
 70
           0
  9
$SPLINETYPE
 70
           6
  9
$SPLINESEGS
 70
           8
  9
$ATTDIA
 70
           0
  9
$ATTREQ
 70
           1
  9
$HANDLING
 70
           1
  9
$HANDSEED
  5
3AD
  9
$SURFTAB1
 70
           6
  9
$SURFTAB2
 70
           6
  9
$SURFTYPE
 70
           6
  9
$SURFU
 70
           6
  9
$SURFV
 70
           6
  9
$UCSNAME
  2

  9
$UCSORG
 10
0.0
 20
0.0
 30
0.0
  9
$UCSXDIR
 10
1.0
 20
0.0
 30
0.0
  9
$UCSYDIR
 10
0.0
 20
1.0
 30
0.0
  9
$PUCSNAME
  2

  9
$PUCSORG
 10
0.0
 20
0.0
 30
0.0
  9
$PUCSXDIR
 10
1.0
 20
0.0
 30
0.0
  9
$PUCSYDIR
 10
0.0
 20
1.0
 30
0.0
  9
$USERI1
 70
           0
  9
$USERI2
 70
           0
  9
$USERI3
 70
           0
  9
$USERI4
 70
           0
  9
$USERI5
 70
           0
  9
$USERR1
 40
0.0
  9
$USERR2
 40
0.0
  9
$USERR3
 40
0.0
  9
$USERR4
 40
0.0
  9
$USERR5
 40
0.0
  9
$WORLDVIEW
 70
           1
  9
$SHADEDGE
 70
           3
  9
$SHADEDIF
 70
          70
  9
$TILEMODE
 70
           1
  9
$MAXACTVP
 70
          16
  9
$PINSBASE
 10
0.0
 20
0.0
 30
0.0
  9
$PLIMCHECK
 70
           0
  9
$PEXTMIN
 10
1.000000000000E+20
 20
1.000000000000E+20
 30
1.000000000000E+20
  9
$PEXTMAX
 10
-1.000000000000E+20
 20
-1.000000000000E+20
 30
-1.000000000000E+20
  9
$PLIMMIN
 10
0.0
 20
0.0
  9
$PLIMMAX
 10
12.0
 20
9.0
  9
$UNITMODE
 70
           0
  9
$VISRETAIN
 70
           0
  9
$PLINEGEN
 70
           1
  9
$PSLTSCALE
 70
           0
  9
$TREEDEPTH
 70
        3020
  9
$PICKSTYLE
 70
           1
  9
$CMLSTYLE
  2
STANDARD
  9
$CMLJUST
 70
           0
  9
$CMLSCALE
 40
1.0
  9
$SAVEIMAGES
 70
           0
  0
ENDSEC
  0
SECTION
  2
CLASSES
  0
CLASS
  1
LWPOLYLINE
  2
AcDbPolyline
  3
"AutoCAD"
 90
        0
280
           0
281
           1
  0
CLASS
  1
IMAGE
  2
AcDbRasterImage
  3
ISM
 90
      127
280
           0
281
           1
  0
CLASS
  1
OLE2FRAME
  2
AcDbOle2Frame
  3
""
 90
        0
280
           0
281
           1
  0
CLASS
  1
HATCH
  2
AcDbHatch
  3
"ACAD_SEDONA"
 90
        0
280
           0
281
           1
  0
CLASS
  1
DICTIONARYVAR
  2
AcDbDictionaryVar
  3
"AutoCAD"
 90
        0
280
           0
281
           0
  0
CLASS
  1
RASTERVARIABLES
  2
AcDbRasterVariables
  3
ISM
 90
        0
280
           0
281
           0
  0
CLASS
  1
IMAGEDEF
  2
AcDbRasterImageDef
  3
ISM
 90
        0
280
           0
281
           0
  0
CLASS
  1
IMAGEDEF_REACTOR
  2
AcDbRasterImageDefReactor
  3
ISM
 90
        1
280
           0
281
           0
  0
CLASS
  1
IDBUFFER
  2
AcDbIdBuffer
  3
"Acad"
 90
        0
280
           0
281
           0
  0
CLASS
  1
SPATIAL_FILTER
  2
AcDbSpatialFilter
  3
"Acad"
 90
        0
280
           0
281
           0
  0
CLASS
  1
XRECORD
  2
AcDbXrecord
  3
"<Built In>"
 90
        0
280
           0
281
           0
  0
ENDSEC
  0
SECTION
  2
TABLES
  0
TABLE
  2
VPORT
  5
7
100
AcDbSymbolTable
 70
           1
  0
VPORT
  5
15
100
AcDbSymbolTableRecord
100
AcDbViewportTableRecord
  2
*ACTIVE
 70
           0
 10
0.0
 20
0.0
 11
1.0
 21
1.0
 12
6.591288
 22
4.579184
 13
0.0
 23
0.0
 14
1.0
 24
1.0
 15
0.0
 25
0.0
 16
0.0
 26
0.0
 36
1.0
 17
0.0
 27
0.0
 37
0.0
 40
9.158369
 41
0.688564
 42
50.0
 43
0.0
 44
0.0
 50
0.0
 51
0.0
 71
           0
 72
         100
 73
           1
 74
           1
 75
           0
 76
           0
 77
           0
 78
           0
  0
ENDTAB
  0
TABLE
  2
LTYPE
  5
4
100
AcDbSymbolTable
 70
           5
  0
LTYPE
  5
11
100
AcDbSymbolTableRecord
100
AcDbLinetypeTableRecord
  2
BYBLOCK
 70
           0
  3

 72
          65
 73
           0
 40
0.0
  0
LTYPE
  5
12
100
AcDbSymbolTableRecord
100
AcDbLinetypeTableRecord
  2
BYLAYER
 70
           0
  3

 72
          65
 73
           0
 40
0.0
  0
LTYPE
  5
13
100
AcDbSymbolTableRecord
100
AcDbLinetypeTableRecord
  2
CONTINUOUS
 70
           0
  3
Solid line
 72
          65
 73
           0
 40
0.0
  0
LTYPE
  5
1D
100
AcDbSymbolTableRecord
100
AcDbLinetypeTableRecord
  2
GESTRICHELT
 70
           0
  3

 72
          65
 73
           2
 40
0.75
 49
0.5
 74
           0
 49
-0.25
 74
           0
  0
LTYPE
  5
1E
100
AcDbSymbolTableRecord
100
AcDbLinetypeTableRecord
  2
STRICHPUNKT
 70
           0
  3

 72
          65
 73
           4
 40
1.0
 49
0.5
 74
           0
 49
-0.25
 74
           0
 49
0.0
 74
           0
 49
-0.25
 74
           0
  0
ENDTAB
  0
TABLE
  2
LAYER
  5
2
100
AcDbSymbolTable
 70
           3
  0
LAYER
  5
14
100
AcDbSymbolTableRecord
100
AcDbLayerTableRecord
  2
0
 70
           0
 62
           7
  6
CONTINUOUS
  0
LAYER
  5
20
100
AcDbSymbolTableRecord
100
AcDbLayerTableRecord
  2
FREI
 70
           0
 62
           7
  6
CONTINUOUS
  0
LAYER
  5
21
100
AcDbSymbolTableRecord
100
AcDbLayerTableRecord
  2
Frei
 70
           0
 62
           7
  6
CONTINUOUS
  0
ENDTAB
  0
TABLE
  2
STYLE
  5
3
100
AcDbSymbolTable
 70
           2
  0
STYLE
  5
17
100
AcDbSymbolTableRecord
100
AcDbTextStyleTableRecord
  2
TXT
 70
           0
 40
3.5
 41
1.0
 50
0.0
 71
           0
 42
3.5
  3
TXT
  4

  0
STYLE
  5
1F
100
AcDbSymbolTableRecord
100
AcDbTextStyleTableRecord
  2
GOTHICG
 70
           0
 40
3.5
 41
1.0
 50
0.0
 71
           0
 42
3.5
  3
GOTHICG
  4

  0
ENDTAB
  0
TABLE
  2
VIEW
  5
5
100
AcDbSymbolTable
 70
           0
  0
ENDTAB
  0
TABLE
  2
UCS
  5
6
100
AcDbSymbolTable
 70
           0
  0
ENDTAB
  0
TABLE
  2
APPID
  5
8
100
AcDbSymbolTable
 70
           2
  0
APPID
  5
16
100
AcDbSymbolTableRecord
100
AcDbRegAppTableRecord
  2
ACAD
 70
           0
  0
APPID
  5
22
100
AcDbSymbolTableRecord
100
AcDbRegAppTableRecord
  2
MegaCADPntStyle
 70
           0
  0
ENDTAB
  0
TABLE
  2
DIMSTYLE
  5
9
100
AcDbSymbolTable
 70
           1
  0
DIMSTYLE
105
18
100
AcDbSymbolTableRecord
100
AcDbDimStyleTableRecord
  2
STANDARD
 70
           0
  3

  4

  5

  6

  7

 40
1.0
 41
0.18
 42
0.0625
 43
0.38
 44
0.18
 45
0.0
 46
0.0
 47
0.0
 48
0.0
140
0.18
141
0.09
142
0.0
143
25.4
144
1.0
145
0.0
146
1.0
147
0.09
 71
           0
 72
           0
 73
           1
 74
           1
 75
           0
 76
           0
 77
           0
 78
           0
170
           0
171
           2
172
           0
173
           0
174
           0
175
           0
176
           0
177
           0
178
           0
270
           2
271
           4
272
           4
273
           2
274
           2
340
17
275
           0
280
           0
281
           0
282
           0
283
           1
284
           0
285
           0
286
           0
287
           0
288
           0
  0
ENDTAB
  0
TABLE
  2
BLOCK_RECORD
  5
1
100
AcDbSymbolTable
 70
           3
  0
BLOCK_RECORD
  5
A
100
AcDbSymbolTableRecord
100
AcDbBlockTableRecord
  2
*MODEL_SPACE
  0
BLOCK_RECORD
  5
B
100
AcDbSymbolTableRecord
100
AcDbBlockTableRecord
  2
*PAPER_SPACE
  0
BLOCK_RECORD
  5
23
100
AcDbSymbolTableRecord
100
AcDbBlockTableRecord
  2
ELIPPSE
  0
BLOCK_RECORD
  5
24
100
AcDbSymbolTableRecord
100
AcDbBlockTableRecord
  2
MAK1
  0
BLOCK_RECORD
  5
25
100
AcDbSymbolTableRecord
100
AcDbBlockTableRecord
  2
MAK2
  0
ENDTAB
  0
ENDSEC
  0
SECTION
  2
BLOCKS
  0
BLOCK
  5
D
100
AcDbEntity
  8
0
100
AcDbBlockBegin
  2
*MODEL_SPACE
 70
           0
 10
0.0
 20
0.0
 30
0.0
  3
*MODEL_SPACE
  1

  0
ENDBLK
  5
E
100
AcDbEntity
  8
0
100
AcDbBlockEnd
  0
BLOCK
  5
F
100
AcDbEntity
 67
           1
  8
0
100
AcDbBlockBegin
  2
*PAPER_SPACE
 70
           0
 10
0.0
 20
0.0
 30
0.0
  3
*PAPER_SPACE
  1

  0
ENDBLK
  5
10
100
AcDbEntity
 67
           1
  8
0
100
AcDbBlockEnd
  0
BLOCK
  5
351
100
AcDbEntity
  8
0
100
AcDbBlockBegin
  2
ELIPPSE
 70
          64
 10
0.0
 20
0.0
 30
0.0
  3
ELIPPSE
  1

  0
CIRCLE
  5
352
100
AcDbEntity
  8
0
  6
BYBLOCK
 62
           0
100
AcDbCircle
 10
0.0
 20
0.0
 30
0.0
 40
1.0
  0
ENDBLK
  5
353
100
AcDbEntity
  8
0
  6
BYBLOCK
 62
           0
100
AcDbBlockEnd
  0
BLOCK
  5
354
100
AcDbEntity
  8
0
100
AcDbBlockBegin
  2
MAK1
 70
          64
 10
0.0
 20
0.0
 30
0.0
  3
MAK1
  1

  0
LINE
  5
355
100
AcDbEntity
  8
Frei
  6
CONTINUOUS
 62
           2
100
AcDbLine
 10
191.903508353415
 20
615.10691689356
 30
0.0
 11
192.293358480832
 21
615.496767020979
 31
0.0
  0
LINE
  5
356
100
AcDbEntity
  8
Frei
  6
CONTINUOUS
 62
           2
100
AcDbLine
 10
191.903508353415
 20
614.04625672178
 30
0.0
 11
193.354018652612
 21
615.496767020978
 31
0.0
  0
LINE
  5
357
100
AcDbEntity
  8
Frei
  6
CONTINUOUS
 62
           2
100
AcDbLine
 10
191.903508353415
 20
612.98559655
 30
0.0
 11
193.903508353415
 21
614.98559655
 31
0.0
  0
LINE
  5
358
100
AcDbEntity
  8
Frei
  6
CONTINUOUS
 62
           2
100
AcDbLine
 10
191.903508353415
 20
611.924936378221
 30
0.0
 11
193.903508353415
 21
613.92493637822
 31
0.0
  0
LINE
  5
359
100
AcDbEntity
  8
Frei
  6
CONTINUOUS
 62
           2
100
AcDbLine
 10
191.903508353413
 20
610.864276206441
 30
0.0
 11
193.903508353416
 21
612.864276206441
 31
0.0
  0
LINE
  5
35A
100
AcDbEntity
  8
Frei
  6
CONTINUOUS
 62
           2
100
AcDbLine
 10
191.903508353415
 20
609.803616034661
 30
0.0
 11
193.903508353415
 21
611.803616034661
 31
0.0
  0
LINE
  5
35B
100
AcDbEntity
  8
Frei
  6
CONTINUOUS
 62
           2
100
AcDbLine
 10
191.903508353415
 20
608.742955862881
 30
0.0
 11
193.903508353416
 21
610.742955862881
 31
0.0
  0
LINE
  5
35C
100
AcDbEntity
  8
Frei
  6
CONTINUOUS
 62
           2
100
AcDbLine
 10
191.903508353413
 20
607.682295691101
 30
0.0
 11
193.903508353415
 21
609.682295691101
 31
0.0
  0
LINE
  5
35D
100
AcDbEntity
  8
Frei
  6
CONTINUOUS
 62
           2
100
AcDbLine
 10
191.903508353415
 20
606.621635519322
 30
0.0
 11
193.903508353415
 21
608.621635519321
 31
0.0
  0
LINE
  5
35E
100
AcDbEntity
  8
Frei
  6
CONTINUOUS
 62
           2
100
AcDbLine
 10
191.903508353415
 20
605.560975347542
 30
0.0
 11
193.903508353416
 21
607.560975347542
 31
0.0
  0
LINE
  5
35F
100
AcDbEntity
  8
Frei
  6
CONTINUOUS
 62
           2
100
AcDbLine
 10
191.903508353415
 20
604.500315175762
 30
0.0
 11
193.903508353413
 21
606.500315175762
 31
0.0
  0
LINE
  5
360
100
AcDbEntity
  8
Frei
  6
CONTINUOUS
 62
           2
100
AcDbLine
 10
191.903508353415
 20
603.439655003982
 30
0.0
 11
193.903508353415
 21
605.439655003982
 31
0.0
  0
LINE
  5
361
100
AcDbEntity
  8
Frei
  6
CONTINUOUS
 62
           2
100
AcDbLine
 10
191.903508353413
 20
602.378994832203
 30
0.0
 11
193.903508353415
 21
604.378994832202
 31
0.0
  0
LINE
  5
362
100
AcDbEntity
  8
Frei
  6
CONTINUOUS
 62
           2
100
AcDbLine
 10
191.903508353413
 20
601.318334660423
 30
0.0
 11
193.903508353415
 21
603.318334660423
 31
0.0
  0
LINE
  5
363
100
AcDbEntity
  8
Frei
  6
CONTINUOUS
 62
           2
100
AcDbLine
 10
191.903508353415
 20
600.257674488643
 30
0.0
 11
193.903508353415
 21
602.257674488643
 31
0.0
  0
LINE
  5
364
100
AcDbEntity
  8
Frei
  6
CONTINUOUS
 62
           2
100
AcDbLine
 10
191.903508353413
 20
599.197014316863
 30
0.0
 11
193.903508353416
 21
601.197014316863
 31
0.0
  0
LINE
  5
365
100
AcDbEntity
  8
Frei
  6
CONTINUOUS
 62
           2
100
AcDbLine
 10
191.903508353415
 20
598.136354145084
 30
0.0
 11
193.903508353415
 21
600.136354145083
 31
0.0
  0
LINE
  5
366
100
AcDbEntity
  8
Frei
  6
CONTINUOUS
 62
           2
100
AcDbLine
 10
191.903508353415
 20
597.075693973304
 30
0.0
 11
193.903508353416
 21
599.075693973304
 31
0.0
  0
LINE
  5
367
100
AcDbEntity
  8
Frei
  6
CONTINUOUS
 62
           2
100
AcDbLine
 10
191.903508353415
 20
596.015033801524
 30
0.0
 11
193.903508353416
 21
598.015033801524
 31
0.0
  0
LINE
  5
368
100
AcDbEntity
  8
Frei
  6
CONTINUOUS
 62
           2
100
AcDbLine
 10
192.445901744648
 20
595.496767020978
 30
0.0
 11
193.903508353415
 21
596.954373629744
 31
0.0
  0
LINE
  5
369
100
AcDbEntity
  8
Frei
  6
CONTINUOUS
 62
           2
100
AcDbLine
 10
193.506561916431
 20
595.496767020978
 30
0.0
 11
193.903508353415
 21
595.893713457964
 31
0.0
  0
LINE
  5
36A
100
AcDbEntity
  8
Frei
  6
CONTINUOUS
 62
           2
100
AcDbLine
 10
192.573740611431
 20
595.496767020978
 30
0.0
 11
191.903508353413
 21
596.166999278997
 31
0.0
  0
LINE
  5
36B
100
AcDbEntity
  8
Frei
  6
CONTINUOUS
 62
           2
100
AcDbLine
 10
193.63440078321
 20
595.496767020979
 30
0.0
 11
191.903508353415
 21
597.227659450777
 31
0.0
  0
LINE
  5
36C
100
AcDbEntity
  8
Frei
  6
CONTINUOUS
 62
           2
100
AcDbLine
 10
193.903508353415
 20
596.288319622557
 30
0.0
 11
191.903508353413
 21
598.288319622556
 31
0.0
  0
LINE
  5
36D
100
AcDbEntity
  8
Frei
  6
CONTINUOUS
 62
           2
100
AcDbLine
 10
193.903508353415
 20
597.348979794336
 30
0.0
 11
191.903508353413
 21
599.348979794336
 31
0.0
  0
LINE
  5
36E
100
AcDbEntity
  8
Frei
  6
CONTINUOUS
 62
           2
100
AcDbLine
 10
193.903508353415
 20
598.409639966116
 30
0.0
 11
191.903508353415
 21
600.409639966116
 31
0.0
  0
LINE
  5
36F
100
AcDbEntity
  8
Frei
  6
CONTINUOUS
 62
           2
100
AcDbLine
 10
193.903508353415
 20
599.470300137896
 30
0.0
 11
191.903508353415
 21
601.470300137896
 31
0.0
  0
LINE
  5
370
100
AcDbEntity
  8
Frei
  6
CONTINUOUS
 62
           2
100
AcDbLine
 10
193.903508353416
 20
600.530960309676
 30
0.0
 11
191.903508353413
 21
602.530960309675
 31
0.0
  0
LINE
  5
371
100
AcDbEntity
  8
Frei
  6
CONTINUOUS
 62
           2
100
AcDbLine
 10
193.903508353415
 20
601.591620481455
 30
0.0
 11
191.903508353415
 21
603.591620481455
 31
0.0
  0
LINE
  5
372
100
AcDbEntity
  8
Frei
  6
CONTINUOUS
 62
           2
100
AcDbLine
 10
193.903508353415
 20
602.652280653235
 30
0.0
 11
191.903508353413
 21
604.652280653235
 31
0.0
  0
LINE
  5
373
100
AcDbEntity
  8
Frei
  6
CONTINUOUS
 62
           2
100
AcDbLine
 10
193.903508353415
 20
603.712940825015
 30
0.0
 11
191.903508353415
 21
605.712940825015
 31
0.0
  0
LINE
  5
374
100
AcDbEntity
  8
Frei
  6
CONTINUOUS
 62
           2
100
AcDbLine
 10
193.903508353415
 20
604.773600996795
 30
0.0
 11
191.903508353415
 21
606.773600996795
 31
0.0
  0
LINE
  5
375
100
AcDbEntity
  8
Frei
  6
CONTINUOUS
 62
           2
100
AcDbLine
 10
193.903508353416
 20
605.834261168574
 30
0.0
 11
191.903508353413
 21
607.834261168574
 31
0.0
  0
LINE
  5
376
100
AcDbEntity
  8
Frei
  6
CONTINUOUS
 62
           2
100
AcDbLine
 10
193.903508353415
 20
606.894921340354
 30
0.0
 11
191.903508353415
 21
608.894921340354
 31
0.0
  0
LINE
  5
377
100
AcDbEntity
  8
Frei
  6
CONTINUOUS
 62
           2
100
AcDbLine
 10
193.903508353415
 20
607.955581512134
 30
0.0
 11
191.903508353415
 21
609.955581512134
 31
0.0
  0
LINE
  5
378
100
AcDbEntity
  8
Frei
  6
CONTINUOUS
 62
           2
100
AcDbLine
 10
193.903508353416
 20
609.016241683914
 30
0.0
 11
191.903508353415
 21
611.016241683914
 31
0.0
  0
LINE
  5
379
100
AcDbEntity
  8
Frei
  6
CONTINUOUS
 62
           2
100
AcDbLine
 10
193.903508353416
 20
610.076901855693
 30
0.0
 11
191.903508353415
 21
612.076901855693
 31
0.0
  0
LINE
  5
37A
100
AcDbEntity
  8
Frei
  6
CONTINUOUS
 62
           2
100
AcDbLine
 10
193.903508353415
 20
611.137562027473
 30
0.0
 11
191.903508353415
 21
613.137562027473
 31
0.0
  0
LINE
  5
37B
100
AcDbEntity
  8
Frei
  6
CONTINUOUS
 62
           2
100
AcDbLine
 10
193.903508353416
 20
612.198222199253
 30
0.0
 11
191.903508353413
 21
614.198222199253
 31
0.0
  0
LINE
  5
37C
100
AcDbEntity
  8
Frei
  6
CONTINUOUS
 62
           2
100
AcDbLine
 10
193.903508353415
 20
613.258882371032
 30
0.0
 11
191.903508353415
 21
615.258882371032
 31
0.0
  0
LINE
  5
37D
100
AcDbEntity
  8
Frei
  6
CONTINUOUS
 62
           2
100
AcDbLine
 10
193.903508353415
 20
614.319542542813
 30
0.0
 11
192.726283875249
 21
615.496767020978
 31
0.0
  0
LINE
  5
37E
100
AcDbEntity
  8
Frei
  6
CONTINUOUS
 62
           2
100
AcDbLine
 10
193.903508353415
 20
615.380202714592
 30
0.0
 11
193.786944047029
 21
615.496767020979
 31
0.0
  0
ENDBLK
  5
37F
100
AcDbEntity
  8
0
  6
BYBLOCK
 62
           0
100
AcDbBlockEnd
  0
BLOCK
  5
380
100
AcDbEntity
  8
0
100
AcDbBlockBegin
  2
MAK2
 70
          64
 10
0.0
 20
0.0
 30
0.0
  3
MAK2
  1

  0
LINE
  5
381
100
AcDbEntity
  8
Frei
  6
CONTINUOUS
 62
           2
100
AcDbLine
 10
-32.096491646585
 20
614.906213139102
 30
0.0
 11
-31.50593776471
 21
615.496767020978
 31
0.0
  0
LINE
  5
382
100
AcDbEntity
  8
Frei
  6
CONTINUOUS
 62
           2
100
AcDbLine
 10
-32.096491646585
 20
613.845552967322
 30
0.0
 11
-30.445277592931
 21
615.496767020978
 31
0.0
  0
LINE
  5
383
100
AcDbEntity
  8
Frei
  6
CONTINUOUS
 62
           2
100
AcDbLine
 10
-32.096491646587
 20
612.784892795542
 30
0.0
 11
-30.096491646587
 21
614.784892795542
 31
0.0
  0
LINE
  5
384
100
AcDbEntity
  8
Frei
  6
CONTINUOUS
 62
           2
100
AcDbLine
 10
-32.096491646587
 20
611.724232623762
 30
0.0
 11
-30.096491646587
 21
613.724232623762
 31
0.0
  0
LINE
  5
385
100
AcDbEntity
  8
Frei
  6
CONTINUOUS
 62
           2
100
AcDbLine
 10
-32.096491646587
 20
610.663572451983
 30
0.0
 11
-30.096491646587
 21
612.663572451983
 31
0.0
  0
LINE
  5
386
100
AcDbEntity
  8
Frei
  6
CONTINUOUS
 62
           2
100
AcDbLine
 10
-32.096491646587
 20
609.602912280203
 30
0.0
 11
-30.096491646587
 21
611.602912280203
 31
0.0
  0
LINE
  5
387
100
AcDbEntity
  8
Frei
  6
CONTINUOUS
 62
           2
100
AcDbLine
 10
-32.096491646585
 20
608.542252108423
 30
0.0
 11
-30.096491646587
 21
610.542252108423
 31
0.0
  0
LINE
  5
388
100
AcDbEntity
  8
Frei
  6
CONTINUOUS
 62
           2
100
AcDbLine
 10
-32.096491646587
 20
607.481591936643
 30
0.0
 11
-30.096491646585
 21
609.481591936643
 31
0.0
  0
LINE
  5
389
100
AcDbEntity
  8
Frei
  6
CONTINUOUS
 62
           2
100
AcDbLine
 10
-32.096491646585
 20
606.420931764864
 30
0.0
 11
-30.096491646587
 21
608.420931764864
 31
0.0
  0
LINE
  5
38A
100
AcDbEntity
  8
Frei
  6
CONTINUOUS
 62
           2
100
AcDbLine
 10
-32.096491646585
 20
605.360271593084
 30
0.0
 11
-30.096491646587
 21
607.360271593084
 31
0.0
  0
LINE
  5
38B
100
AcDbEntity
  8
Frei
  6
CONTINUOUS
 62
           2
100
AcDbLine
 10
-32.096491646585
 20
604.299611421304
 30
0.0
 11
-30.096491646587
 21
606.299611421304
 31
0.0
  0
LINE
  5
38C
100
AcDbEntity
  8
Frei
  6
CONTINUOUS
 62
           2
100
AcDbLine
 10
-32.096491646587
 20
603.238951249524
 30
0.0
 11
-30.096491646587
 21
605.238951249524
 31
0.0
  0
LINE
  5
38D
100
AcDbEntity
  8
Frei
  6
CONTINUOUS
 62
           2
100
AcDbLine
 10
-32.096491646585
 20
602.178291077745
 30
0.0
 11
-30.096491646587
 21
604.178291077745
 31
0.0
  0
LINE
  5
38E
100
AcDbEntity
  8
Frei
  6
CONTINUOUS
 62
           2
100
AcDbLine
 10
-32.096491646587
 20
601.117630905965
 30
0.0
 11
-30.096491646585
 21
603.117630905965
 31
0.0
  0
LINE
  5
38F
100
AcDbEntity
  8
Frei
  6
CONTINUOUS
 62
           2
100
AcDbLine
 10
-32.096491646585
 20
600.056970734185
 30
0.0
 11
-30.096491646587
 21
602.056970734185
 31
0.0
  0
LINE
  5
390
100
AcDbEntity
  8
Frei
  6
CONTINUOUS
 62
           2
100
AcDbLine
 10
-32.096491646585
 20
598.996310562406
 30
0.0
 11
-30.096491646585
 21
600.996310562406
 31
0.0
  0
LINE
  5
391
100
AcDbEntity
  8
Frei
  6
CONTINUOUS
 62
           2
100
AcDbLine
 10
-32.096491646587
 20
597.935650390626
 30
0.0
 11
-30.096491646587
 21
599.935650390626
 31
0.0
  0
LINE
  5
392
100
AcDbEntity
  8
Frei
  6
CONTINUOUS
 62
           2
100
AcDbLine
 10
-32.096491646585
 20
596.874990218846
 30
0.0
 11
-30.096491646587
 21
598.874990218846
 31
0.0
  0
LINE
  5
393
100
AcDbEntity
  8
Frei
  6
CONTINUOUS
 62
           2
100
AcDbLine
 10
-32.096491646585
 20
595.814330047066
 30
0.0
 11
-30.096491646587
 21
597.814330047066
 31
0.0
  0
LINE
  5
394
100
AcDbEntity
  8
Frei
  6
CONTINUOUS
 62
           2
100
AcDbLine
 10
-31.353394500895
 20
595.496767020978
 30
0.0
 11
-30.096491646589
 21
596.753669875286
 31
0.0
  0
LINE
  5
395
100
AcDbEntity
  8
Frei
  6
CONTINUOUS
 62
           2
100
AcDbLine
 10
-30.292734329114
 20
595.496767020978
 30
0.0
 11
-30.096491646587
 21
595.693009703506
 31
0.0
  0
LINE
  5
396
100
AcDbEntity
  8
Frei
  6
CONTINUOUS
 62
           2
100
AcDbLine
 10
-31.225555634112
 20
595.496767020979
 30
0.0
 11
-32.096491646587
 21
596.367703033455
 31
0.0
  0
LINE
  5
397
100
AcDbEntity
  8
Frei
  6
CONTINUOUS
 62
           2
100
AcDbLine
 10
-30.164895462331
 20
595.496767020978
 30
0.0
 11
-32.096491646585
 21
597.428363205235
 31
0.0
  0
LINE
  5
398
100
AcDbEntity
  8
Frei
  6
CONTINUOUS
 62
           2
100
AcDbLine
 10
-30.096491646587
 20
596.489023377014
 30
0.0
 11
-32.096491646587
 21
598.489023377014
 31
0.0
  0
LINE
  5
399
100
AcDbEntity
  8
Frei
  6
CONTINUOUS
 62
           2
100
AcDbLine
 10
-30.096491646587
 20
597.549683548794
 30
0.0
 11
-32.096491646587
 21
599.549683548794
 31
0.0
  0
LINE
  5
39A
100
AcDbEntity
  8
Frei
  6
CONTINUOUS
 62
           2
100
AcDbLine
 10
-30.096491646587
 20
598.610343720574
 30
0.0
 11
-32.096491646585
 21
600.610343720574
 31
0.0
  0
LINE
  5
39B
100
AcDbEntity
  8
Frei
  6
CONTINUOUS
 62
           2
100
AcDbLine
 10
-30.096491646589
 20
599.671003892353
 30
0.0
 11
-32.096491646587
 21
601.671003892354
 31
0.0
  0
LINE
  5
39C
100
AcDbEntity
  8
Frei
  6
CONTINUOUS
 62
           2
100
AcDbLine
 10
-30.096491646587
 20
600.731664064133
 30
0.0
 11
-32.096491646585
 21
602.731664064133
 31
0.0
  0
LINE
  5
39D
100
AcDbEntity
  8
Frei
  6
CONTINUOUS
 62
           2
100
AcDbLine
 10
-30.096491646587
 20
601.792324235913
 30
0.0
 11
-32.096491646585
 21
603.792324235913
 31
0.0
  0
LINE
  5
39E
100
AcDbEntity
  8
Frei
  6
CONTINUOUS
 62
           2
100
AcDbLine
 10
-30.096491646585
 20
602.852984407693
 30
0.0
 11
-32.096491646585
 21
604.852984407693
 31
0.0
  0
LINE
  5
39F
100
AcDbEntity
  8
Frei
  6
CONTINUOUS
 62
           2
100
AcDbLine
 10
-30.096491646585
 20
603.913644579473
 30
0.0
 11
-32.096491646585
 21
605.913644579473
 31
0.0
  0
LINE
  5
3A0
100
AcDbEntity
  8
Frei
  6
CONTINUOUS
 62
           2
100
AcDbLine
 10
-30.096491646587
 20
604.974304751252
 30
0.0
 11
-32.096491646585
 21
606.974304751252
 31
0.0
  0
LINE
  5
3A1
100
AcDbEntity
  8
Frei
  6
CONTINUOUS
 62
           2
100
AcDbLine
 10
-30.096491646585
 20
606.034964923032
 30
0.0
 11
-32.096491646587
 21
608.034964923032
 31
0.0
  0
LINE
  5
3A2
100
AcDbEntity
  8
Frei
  6
CONTINUOUS
 62
           2
100
AcDbLine
 10
-30.096491646587
 20
607.095625094812
 30
0.0
 11
-32.096491646585
 21
609.095625094812
 31
0.0
  0
LINE
  5
3A3
100
AcDbEntity
  8
Frei
  6
CONTINUOUS
 62
           2
100
AcDbLine
 10
-30.096491646587
 20
608.156285266592
 30
0.0
 11
-32.096491646587
 21
610.156285266592
 31
0.0
  0
LINE
  5
3A4
100
AcDbEntity
  8
Frei
  6
CONTINUOUS
 62
           2
100
AcDbLine
 10
-30.096491646587
 20
609.216945438371
 30
0.0
 11
-32.096491646587
 21
611.216945438372
 31
0.0
  0
LINE
  5
3A5
100
AcDbEntity
  8
Frei
  6
CONTINUOUS
 62
           2
100
AcDbLine
 10
-30.096491646587
 20
610.277605610151
 30
0.0
 11
-32.096491646587
 21
612.277605610151
 31
0.0
  0
LINE
  5
3A6
100
AcDbEntity
  8
Frei
  6
CONTINUOUS
 62
           2
100
AcDbLine
 10
-30.096491646589
 20
611.338265781931
 30
0.0
 11
-32.096491646585
 21
613.338265781931
 31
0.0
  0
LINE
  5
3A7
100
AcDbEntity
  8
Frei
  6
CONTINUOUS
 62
           2
100
AcDbLine
 10
-30.096491646585
 20
612.398925953711
 30
0.0
 11
-32.096491646587
 21
614.398925953711
 31
0.0
  0
LINE
  5
3A8
100
AcDbEntity
  8
Frei
  6
CONTINUOUS
 62
           2
100
AcDbLine
 10
-30.096491646587
 20
613.45958612549
 30
0.0
 11
-32.096491646585
 21
615.459586125491
 31
0.0
  0
LINE
  5
3A9
100
AcDbEntity
  8
Frei
  6
CONTINUOUS
 62
           2
100
AcDbLine
 10
-30.096491646587
 20
614.52024629727
 30
0.0
 11
-31.073012370294
 21
615.496767020978
 31
0.0
  0
ENDBLK
  5
3AA
100
AcDbEntity
  8
0
  6
BYBLOCK
 62
           0
100
AcDbBlockEnd
  0
ENDSEC
  0
SECTION
  2
ENTITIES
  0
INSERT
  5
26
100
AcDbEntity
  8
FREI
  6
CONTINUOUS
 62
           7
100
AcDbBlockReference
  2
MAK1
 10
-14467.656581898564
 20
-1688.518281525195
 30
0.0
 50
353.682999999999
  0
INSERT
  5
27
100
AcDbEntity
  8
FREI
  6
CONTINUOUS
 62
           7
100
AcDbBlockReference
  2
MAK2
 10
-14467.656581898564
 20
-1688.518281525195
 30
0.0
 50
353.682999999999
  0
LINE
  5
28
100
AcDbEntity
  8
FREI
  6
STRICHPUNKT
 62
          15
100
AcDbLine
 10
-14622.471944265209
 20
-1009.8741583709
 30
0.0
 11
-14622.471944265209
 21
-1059.8741583709
 31
0.0
  0
LINE
  5
29
100
AcDbEntity
  8
FREI
  6
STRICHPUNKT
 62
          15
100
AcDbLine
 10
-14622.471944265209
 20
-1059.8741583709
 30
0.0
 11
-14537.471944265209
 21
-1207.098477014255
 31
0.0
  0
LINE
  5
2A
100
AcDbEntity
  8
FREI
  6
CONTINUOUS
 62
          15
100
AcDbLine
 10
-14491.798333338624
 20
-1135.207491704234
 30
0.0
 11
-14472.087026279483
 21
-1169.348477014255
 31
0.0
  0
LINE
  5
2B
100
AcDbEntity
  8
FREI
  6
GESTRICHELT
 62
          15
100
AcDbLine
 10
-14535.292053617575
 20
-1059.8741583709
 30
0.0
 11
-14491.798333338624
 21
-1135.207491704234
 31
0.0
  0
LINE
  5
2C
100
AcDbEntity
  8
FREI
  6
CONTINUOUS
 62
          15
100
AcDbLine
 10
-14622.471944265209
 20
-1210.8741583709
 30
0.0
 11
-14602.856862250934
 21
-1244.848477014255
 31
0.0
  0
LINE
  5
2D
100
AcDbEntity
  8
FREI
  6
STRICHPUNKT
 62
          15
100
AcDbLine
 10
-14622.471944265209
 20
-1059.8741583709
 30
0.0
 11
-14707.471944265209
 21
-1207.098477014255
 31
0.0
  0
LINE
  5
2E
100
AcDbEntity
  8
FREI
  6
CONTINUOUS
 62
          15
100
AcDbLine
 10
-14709.651834912844
 20
-1059.8741583709
 30
0.0
 11
-14772.856862250934
 21
-1169.348477014255
 31
0.0
  0
LINE
  5
2F
100
AcDbEntity
  8
FREI
  6
CONTINUOUS
 62
          15
100
AcDbLine
 10
-14622.471944265209
 20
-1210.8741583709
 30
0.0
 11
-14642.087026279483
 21
-1244.848477014255
 31
0.0
  0
LINE
  5
30
100
AcDbEntity
  8
FREI
  6
CONTINUOUS
 62
          15
100
AcDbLine
 10
-14622.471944265209
 20
-1065.207491704234
 30
0.0
 11
-14622.471944265209
 21
-1059.8741583709
 31
0.0
  0
LINE
  5
31
100
AcDbEntity
  8
FREI
  6
GESTRICHELT
 62
          15
100
AcDbLine
 10
-14622.471944265209
 20
-1102.959525380029
 30
0.0
 11
-14622.471944265209
 21
-1065.207491704234
 31
0.0
  0
LINE
  5
32
100
AcDbEntity
  8
FREI
  6
GESTRICHELT
 62
          15
100
AcDbLine
 10
-14622.471944265209
 20
-1135.207491704234
 30
0.0
 11
-14622.471944265209
 21
-1117.455458028439
 31
0.0
  0
LINE
  5
33
100
AcDbEntity
  8
FREI
  6
CONTINUOUS
 62
          15
100
AcDbLine
 10
-14622.471944265209
 20
-1210.8741583709
 30
0.0
 11
-14622.471944265209
 21
-1135.207491704234
 31
0.0
  0
LINE
  5
34
100
AcDbEntity
  8
FREI
  6
CONTINUOUS
 62
          15
100
AcDbLine
 10
-14709.651834912844
 20
-1059.8741583709
 30
0.0
 11
-14697.971944265209
 21
-1009.8741583709
 31
0.0
  0
LINE
  5
35
100
AcDbEntity
  8
FREI
  6
CONTINUOUS
 62
          15
100
AcDbLine
 10
-14697.971944265209
 20
-1009.8741583709
 30
0.0
 11
-14546.971944265209
 21
-1009.8741583709
 31
0.0
  0
LINE
  5
36
100
AcDbEntity
  8
FREI
  6
GESTRICHELT
 62
          15
100
AcDbLine
 10
-14536.187242026326
 20
-1056.04198033192
 30
0.0
 11
-14535.292053617575
 21
-1059.8741583709
 31
0.0
  0
LINE
  5
37
100
AcDbEntity
  8
FREI
  6
CONTINUOUS
 62
          15
100
AcDbLine
 10
-14546.971944265209
 20
-1009.8741583709
 30
0.0
 11
-14536.187242026326
 21
-1056.04198033192
 31
0.0
  0
LINE
  5
38
100
AcDbEntity
  8
FREI
  6
CONTINUOUS
 62
          15
100
AcDbLine
 10
-14472.087026279483
 20
-1169.348477014255
 30
0.0
 11
-14602.856862250934
 21
-1244.848477014255
 31
0.0
  0
LINE
  5
39
100
AcDbEntity
  8
FREI
  6
CONTINUOUS
 62
          15
100
AcDbLine
 10
-14642.087026279483
 20
-1244.848477014255
 30
0.0
 11
-14772.856862250934
 21
-1169.348477014255
 31
0.0
  0
LINE
  5
3A
100
AcDbEntity
  8
FREI
  6
GESTRICHELT
 62
          15
100
AcDbLine
 10
-14568.114128986221
 20
-1059.8741583709
 30
0.0
 11
-14535.292053617575
 21
-1059.8741583709
 31
0.0
  0
LINE
  5
3B
100
AcDbEntity
  8
FREI
  6
CONTINUOUS
 62
          15
100
AcDbLine
 10
-14709.651834912844
 20
-1059.8741583709
 30
0.0
 11
-14568.114128986221
 21
-1059.8741583709
 31
0.0
  0
CIRCLE
  5
3C
100
AcDbEntity
  8
FREI
  6
CONTINUOUS
 62
          15
100
AcDbCircle
 10
-14622.471944265209
 20
-1110.207491704234
 30
0.0
 40
7.247966324205
  0
ARC
  5
3D
100
AcDbEntity
  8
FREI
  6
CONTINUOUS
 62
          15
100
AcDbCircle
 10
-14622.471944265209
 20
-1110.207491704234
 30
0.0
 40
17.25
100
AcDbArc
 50
119.192990506928
 51
300.807009493073
  0
LINE
  5
3E
100
AcDbEntity
  8
FREI
  6
CONTINUOUS
 62
          15
100
AcDbLine
 10
-14558.491200091566
 20
-1054.466565080459
 30
0.0
 11
-14630.885681157259
 21
-1095.14855643273
 31
0.0
  0
LINE
  5
3F
100
AcDbEntity
  8
FREI
  6
GESTRICHELT
 62
          15
100
AcDbLine
 10
-14557.759677488455
 20
-1054.055486835603
 30
0.0
 11
-14558.491200091566
 21
-1054.466565080459
 31
0.0
  0
LINE
  5
40
100
AcDbEntity
  8
FREI
  6
CONTINUOUS
 62
          15
100
AcDbLine
 10
-14555.919743568489
 20
-1053.021538187599
 30
0.0
 11
-14557.759677488455
 21
-1054.055486835603
 31
0.0
  0
LINE
  5
41
100
AcDbEntity
  8
FREI
  6
CONTINUOUS
 62
          15
100
AcDbLine
 10
-14609.594225421013
 20
-1122.612587637732
 30
0.0
 11
-14613.637392212166
 21
-1125.02346922926
 31
0.0
  0
ARC
  5
42
100
AcDbEntity
  8
FREI
  6
CONTINUOUS
 62
          15
100
AcDbCircle
 10
-14547.993759539748
 20
-1067.207491704234
 30
0.0
 40
16.25
100
AcDbArc
 50
41.271052753469
 51
119.192990506929
  0
ARC
  5
43
100
AcDbEntity
  8
FREI
  6
GESTRICHELT
 62
          15
100
AcDbCircle
 10
-14547.993759539748
 20
-1067.207491704234
 30
0.0
 40
16.25
100
AcDbArc
 50
306.069996507533
 51
41.271052753469
  0
ARC
  5
44
100
AcDbEntity
  8
FREI
  6
CONTINUOUS
 62
          15
100
AcDbCircle
 10
-14547.993759539748
 20
-1067.207491704234
 30
0.0
 40
16.25
100
AcDbArc
 50
221.296003492467
 51
306.069996507533
  0
ARC
  5
45
100
AcDbEntity
  8
FREI
  6
GESTRICHELT
 62
          15
100
AcDbCircle
 10
-14547.993759539748
 20
-1067.207491704234
 30
0.0
 40
16.25
100
AcDbArc
 50
217.634979203191
 51
221.296003492467
  0
LINE
  5
46
100
AcDbEntity
  8
FREI
  6
CONTINUOUS
 62
          15
100
AcDbLine
 10
-14568.566379211436
 20
-1076.869805653887
 30
0.0
 11
-14606.536426780529
 21
-1119.776823820849
 31
0.0
  0
ARC
  5
47
100
AcDbEntity
  8
FREI
  6
CONTINUOUS
 62
          15
100
AcDbCircle
 10
-14614.71570487206
 20
-1114.023615159445
 30
0.0
 40
10.000000000014
100
AcDbArc
 50
300.807009493082
 51
324.877894256036
  0
ARC
  5
48
100
AcDbEntity
  8
FREI
  6
CONTINUOUS
 62
          15
100
AcDbCircle
 10
-14564.821995805158
 20
-1080.183352530997
 30
0.0
 40
5.0
100
AcDbArc
 50
46.128156733688
 51
138.493166028592
  0
ARC
  5
49
100
AcDbEntity
  8
FREI
  6
GESTRICHELT
 62
          15
100
AcDbCircle
 10
-14564.821995805158
 20
-1080.183352530997
 30
0.0
 40
5.0
100
AcDbArc
 50
37.634979203188
 51
46.128156733688
  0
LINE
  5
4A
100
AcDbEntity
  8
Frei
  6
GESTRICHELT
 62
           7
100
AcDbLine
 10
-14177.076096688135
 20
-1108.270619816607
 30
0.0
 11
-14175.150585330981
 21
-1090.876873641229
 31
0.0
  0
LINE
  5
4B
100
AcDbEntity
  8
Frei
  6
GESTRICHELT
 62
           7
100
AcDbLine
 10
-14175.150585330981
 20
-1090.876873641229
 30
0.0
 11
-14179.126298742496
 21
-1090.436756759594
 31
0.0
  0
LINE
  5
4C
100
AcDbEntity
  8
Frei
  6
CONTINUOUS
 62
           7
100
AcDbLine
 10
-14179.126298742496
 20
-1090.436756759594
 30
0.0
 11
-14178.081021148613
 21
-1080.994437407246
 31
0.0
  0
LINE
  5
4D
100
AcDbEntity
  8
Frei
  6
CONTINUOUS
 62
           7
100
AcDbLine
 10
-14178.081021148613
 20
-1080.994437407246
 30
0.0
 11
-14207.501300393824
 21
-1077.737572483147
 31
0.0
  0
LINE
  5
4E
100
AcDbEntity
  8
Frei
  6
CONTINUOUS
 62
           7
100
AcDbLine
 10
-14207.501300393824
 20
-1077.737572483147
 30
0.0
 11
-14207.556315004029
 21
-1078.234536659586
 31
0.0
  0
LINE
  5
4F
100
AcDbEntity
  8
Frei
  6
CONTINUOUS
 62
           7
100
AcDbLine
 10
-14207.556315004029
 20
-1078.234536659586
 30
0.0
 11
-14427.15185703048
 21
-1053.925373497609
 31
0.0
  0
LINE
  5
50
100
AcDbEntity
  8
Frei
  6
CONTINUOUS
 62
           7
100
AcDbLine
 10
-14427.15185703048
 20
-1053.925373497609
 30
0.0
 11
-14427.096842420275
 21
-1053.42840932117
 31
0.0
  0
LINE
  5
51
100
AcDbEntity
  8
Frei
  6
CONTINUOUS
 62
           7
100
AcDbLine
 10
-14427.096842420275
 20
-1053.42840932117
 30
0.0
 11
-14456.517121665485
 21
-1050.17154439707
 31
0.0
  0
LINE
  5
52
100
AcDbEntity
  8
Frei
  6
CONTINUOUS
 62
           7
100
AcDbLine
 10
-14456.517121665485
 20
-1050.17154439707
 30
0.0
 11
-14457.56239925937
 21
-1059.613863749418
 31
0.0
  0
LINE
  5
53
100
AcDbEntity
  8
Frei
  6
CONTINUOUS
 62
           7
100
AcDbLine
 10
-14457.56239925937
 20
-1059.613863749418
 30
0.0
 11
-14467.998646964597
 21
-1058.458556935126
 31
0.0
  0
LINE
  5
54
100
AcDbEntity
  8
Frei
  6
CONTINUOUS
 62
           7
100
AcDbLine
 10
-14467.998646964597
 20
-1058.458556935126
 30
0.0
 11
-14468.053661574801
 21
-1058.955521111565
 31
0.0
  0
LINE
  5
55
100
AcDbEntity
  8
Frei
  6
CONTINUOUS
 62
           7
100
AcDbLine
 10
-14468.053661574801
 20
-1058.955521111565
 30
0.0
 11
-14478.986873456466
 21
-1057.745199687069
 31
0.0
  0
LINE
  5
56
100
AcDbEntity
  8
Frei
  6
CONTINUOUS
 62
           7
100
AcDbLine
 10
-14478.986873456466
 20
-1057.745199687069
 30
0.0
 11
-14482.727866950365
 21
-1091.538763684946
 31
0.0
  0
LINE
  5
57
100
AcDbEntity
  8
Frei
  6
CONTINUOUS
 62
           7
100
AcDbLine
 10
-14482.727866950365
 20
-1091.538763684946
 30
0.0
 11
-14471.794655068699
 21
-1092.749085109442
 31
0.0
  0
LINE
  5
58
100
AcDbEntity
  8
Frei
  6
CONTINUOUS
 62
           7
100
AcDbLine
 10
-14471.794655068699
 20
-1092.749085109442
 30
0.0
 11
-14471.849669678904
 21
-1093.246049285882
 31
0.0
  0
LINE
  5
59
100
AcDbEntity
  8
Frei
  6
CONTINUOUS
 62
           7
100
AcDbLine
 10
-14471.849669678904
 20
-1093.246049285882
 30
0.0
 11
-14461.413421973677
 21
-1094.401356100174
 31
0.0
  0
LINE
  5
5A
100
AcDbEntity
  8
Frei
  6
CONTINUOUS
 62
           7
100
AcDbLine
 10
-14461.413421973677
 20
-1094.401356100174
 30
0.0
 11
-14462.45869956756
 21
-1103.843675452522
 31
0.0
  0
LINE
  5
5B
100
AcDbEntity
  8
Frei
  6
CONTINUOUS
 62
           7
100
AcDbLine
 10
-14462.45869956756
 20
-1103.843675452522
 30
0.0
 11
-14433.038420322349
 21
-1107.100540376621
 31
0.0
  0
LINE
  5
5C
100
AcDbEntity
  8
Frei
  6
CONTINUOUS
 62
           7
100
AcDbLine
 10
-14433.038420322349
 20
-1107.100540376621
 30
0.0
 11
-14432.983405712144
 21
-1106.603576200182
 31
0.0
  0
LINE
  5
5D
100
AcDbEntity
  8
Frei
  6
CONTINUOUS
 62
           7
100
AcDbLine
 10
-14214.35046043836
 20
-1130.806180179291
 30
0.0
 11
-14213.387863685693
 21
-1130.912739362159
 31
0.0
  0
LINE
  5
5E
100
AcDbEntity
  8
Frei
  6
GESTRICHELT
 62
           7
100
AcDbLine
 10
-14242.180459336038
 20
-1127.72540732863
 30
0.0
 11
-14214.35046043836
 21
-1130.806180179291
 31
0.0
  0
LINE
  5
5F
100
AcDbEntity
  8
Frei
  6
CONTINUOUS
 62
           7
100
AcDbLine
 10
-14404.190810061802
 20
-1109.790908233711
 30
0.0
 11
-14242.180459336038
 21
-1127.72540732863
 31
0.0
  0
LINE
  5
60
100
AcDbEntity
  8
Frei
  6
GESTRICHELT
 62
           7
100
AcDbLine
 10
-14432.02080895948
 20
-1106.71013538305
 30
0.0
 11
-14404.190810061802
 21
-1109.790908233711
 31
0.0
  0
LINE
  5
61
100
AcDbEntity
  8
Frei
  6
CONTINUOUS
 62
           7
100
AcDbLine
 10
-14432.983405712144
 20
-1106.603576200182
 30
0.0
 11
-14432.02080895948
 21
-1106.71013538305
 31
0.0
  0
LINE
  5
62
100
AcDbEntity
  8
Frei
  6
CONTINUOUS
 62
           7
100
AcDbLine
 10
-14213.387863685693
 20
-1130.912739362159
 30
0.0
 11
-14213.442878295898
 21
-1131.409703538598
 31
0.0
  0
LINE
  5
63
100
AcDbEntity
  8
Frei
  6
CONTINUOUS
 62
           7
100
AcDbLine
 10
-14213.442878295898
 20
-1131.409703538598
 30
0.0
 11
-14184.022599050688
 21
-1134.666568462698
 31
0.0
  0
LINE
  5
64
100
AcDbEntity
  8
Frei
  6
CONTINUOUS
 62
           7
100
AcDbLine
 10
-14184.022599050688
 20
-1134.666568462698
 30
0.0
 11
-14182.977321456803
 21
-1125.22424911035
 31
0.0
  0
LINE
  5
65
100
AcDbEntity
  8
Frei
  6
GESTRICHELT
 62
           7
100
AcDbLine
 10
-14182.977321456803
 20
-1125.22424911035
 30
0.0
 11
-14179.001608045288
 21
-1125.664365991985
 31
0.0
  0
LINE
  5
66
100
AcDbEntity
  8
Frei
  6
GESTRICHELT
 62
           7
100
AcDbLine
 10
-14179.001608045288
 20
-1125.664365991985
 30
0.0
 11
-14177.076096688135
 21
-1108.270619816607
 31
0.0
  0
LINE
  5
67
100
AcDbEntity
  8
Frei
  6
CONTINUOUS
 62
           7
100
AcDbLine
 10
-14179.126298742496
 20
-1090.436756759594
 30
0.0
 11
-14182.977321456803
 21
-1125.22424911035
 31
0.0
  0
LINE
  5
68
100
AcDbEntity
  8
Frei
  6
CONTINUOUS
 62
           7
100
AcDbLine
 10
-14211.866011767957
 20
-1117.165375122903
 30
0.0
 11
-14213.387863685693
 21
-1130.912739362159
 31
0.0
  0
LINE
  5
69
100
AcDbEntity
  8
Frei
  6
GESTRICHELT
 62
           7
100
AcDbLine
 10
-14209.782393520121
 20
-1098.343399965697
 30
0.0
 11
-14211.866011767957
 21
-1117.165375122903
 31
0.0
  0
LINE
  5
6A
100
AcDbEntity
  8
Frei
  6
CONTINUOUS
 62
           7
100
AcDbLine
 10
-14207.556315004029
 20
-1078.234536659586
 30
0.0
 11
-14209.782393520121
 21
-1098.343399965697
 31
0.0
  0
LINE
  5
6B
100
AcDbEntity
  8
Frei
  6
CONTINUOUS
 62
           7
100
AcDbLine
 10
-14431.461514206669
 20
-1092.855854352493
 30
0.0
 11
-14432.983405712144
 21
-1106.603576200182
 31
0.0
  0
LINE
  5
6C
100
AcDbEntity
  8
Frei
  6
GESTRICHELT
 62
           7
100
AcDbLine
 10
-14429.377895958833
 20
-1074.033879195288
 30
0.0
 11
-14431.461514206669
 21
-1092.855854352493
 31
0.0
  0
LINE
  5
6D
100
AcDbEntity
  8
Frei
  6
CONTINUOUS
 62
           7
100
AcDbLine
 10
-14427.15185703048
 20
-1053.925373497609
 30
0.0
 11
-14429.377895958833
 21
-1074.033879195288
 31
0.0
  0
LINE
  5
6E
100
AcDbEntity
  8
Frei
  6
CONTINUOUS
 62
           7
100
AcDbLine
 10
-14457.56239925937
 20
-1059.613863749418
 30
0.0
 11
-14461.413421973677
 21
-1094.401356100174
 31
0.0
  0
LINE
  5
6F
100
AcDbEntity
  8
Frei
  6
CONTINUOUS
 62
           7
100
AcDbLine
 10
-14467.998646964597
 20
-1058.458556935126
 30
0.0
 11
-14471.849669678904
 21
-1093.246049285882
 31
0.0
  0
LINE
  5
70
100
AcDbEntity
  8
Frei
  6
GESTRICHELT
 62
           7
100
AcDbLine
 10
-14493.669939765492
 20
-1067.18696038705
 30
0.0
 11
-14511.737722088536
 21
-1065.186832311659
 31
0.0
  0
LINE
  5
71
100
AcDbEntity
  8
Frei
  6
CONTINUOUS
 62
           7
100
AcDbLine
 10
-14488.645585880431
 20
-1067.74316319526
 30
0.0
 11
-14493.669939765492
 21
-1067.18696038705
 31
0.0
  0
LINE
  5
72
100
AcDbEntity
  8
Frei
  6
GESTRICHELT
 62
           7
100
AcDbLine
 10
-14494.990290410398
 20
-1079.114100621595
 30
0.0
 11
-14513.058072733442
 21
-1077.113972546204
 31
0.0
  0
LINE
  5
73
100
AcDbEntity
  8
Frei
  6
CONTINUOUS
 62
           7
100
AcDbLine
 10
-14489.965936525337
 20
-1079.670303429805
 30
0.0
 11
-14494.990290410398
 21
-1079.114100621595
 31
0.0
  0
LINE
  5
74
100
AcDbEntity
  8
Frei
  6
GESTRICHELT
 62
           7
100
AcDbLine
 10
-14512.584235655439
 20
-1065.864596227154
 30
0.0
 11
-14511.737722088536
 21
-1065.186832311659
 31
0.0
  0
LINE
  5
75
100
AcDbEntity
  8
Frei
  6
GESTRICHELT
 62
           7
100
AcDbLine
 10
-14513.735847688509
 20
-1076.267467818291
 30
0.0
 11
-14513.058072733442
 21
-1077.113972546204
 31
0.0
  0
LINE
  5
76
100
AcDbEntity
  8
Frei
  6
GESTRICHELT
 62
           7
100
AcDbLine
 10
-14512.584235655439
 20
-1065.864596227154
 30
0.0
 11
-14513.735847688509
 21
-1076.267467818291
 31
0.0
  0
LINE
  5
77
100
AcDbEntity
  8
Frei
  6
CONTINUOUS
 62
           7
100
AcDbLine
 10
-14493.75430907141
 20
-1067.949094708754
 30
0.0
 11
-14488.729955186349
 21
-1068.505297516964
 31
0.0
  0
LINE
  5
78
100
AcDbEntity
  8
Frei
  6
GESTRICHELT
 62
           7
100
AcDbLine
 10
-14512.584235655439
 20
-1065.864596227154
 30
0.0
 11
-14493.75430907141
 21
-1067.949094708754
 31
0.0
  0
LINE
  5
79
100
AcDbEntity
  8
Frei
  6
CONTINUOUS
 62
           7
100
AcDbLine
 10
-14494.905921104481
 20
-1078.351966299891
 30
0.0
 11
-14489.88156721942
 21
-1078.908169108101
 31
0.0
  0
LINE
  5
7A
100
AcDbEntity
  8
Frei
  6
GESTRICHELT
 62
           7
100
AcDbLine
 10
-14513.735847688509
 20
-1076.267467818291
 30
0.0
 11
-14494.905921104481
 21
-1078.351966299891
 31
0.0
  0
LINE
  5
7B
100
AcDbEntity
  8
Frei
  6
GESTRICHELT
 62
           7
100
AcDbLine
 10
-14511.737722088536
 20
-1065.186832311659
 30
0.0
 11
-14513.058072733442
 21
-1077.113972546204
 31
0.0
  0
LINE
  5
7C
100
AcDbEntity
  8
Frei
  6
CONTINUOUS
 62
           7
100
AcDbLine
 10
-14479.977136440146
 20
-1066.690554862977
 30
0.0
 11
-14488.425527439615
 21
-1065.755306489503
 31
0.0
  0
LINE
  5
7D
100
AcDbEntity
  8
Frei
  6
CONTINUOUS
 62
           7
100
AcDbLine
 10
-14488.425527439615
 20
-1065.755306489503
 30
0.0
 11
-14490.185994966154
 21
-1081.658160135562
 31
0.0
  0
LINE
  5
7E
100
AcDbEntity
  8
Frei
  6
CONTINUOUS
 62
           7
100
AcDbLine
 10
-14490.185994966154
 20
-1081.658160135562
 30
0.0
 11
-14481.737603966685
 21
-1082.593408509037
 31
0.0
  0
LINE
  5
7F
100
AcDbEntity
  8
Frei
  6
CONTINUOUS
 62
           7
100
AcDbLine
 10
-14488.792619027956
 20
-1069.071359592496
 30
0.0
 11
-14483.491671125699
 21
-1069.658181734578
 31
0.0
  0
LINE
  5
80
100
AcDbEntity
  8
Frei
  6
CONTINUOUS
 62
           7
100
AcDbLine
 10
-14489.818903377813
 20
-1078.34210703257
 30
0.0
 11
-14484.517955475556
 21
-1078.928929174653
 31
0.0
  0
LINE
  5
81
100
AcDbEntity
  8
Frei
  6
CONTINUOUS
 62
           7
100
AcDbLine
 10
-14483.491671125699
 20
-1069.658181734578
 30
0.0
 11
-14484.517955475556
 21
-1078.928929174653
 31
0.0
  0
LINE
  5
82
100
AcDbEntity
  8
Frei
  6
CONTINUOUS
 62
           7
100
AcDbLine
 10
-14488.792619027956
 20
-1069.071359592496
 30
0.0
 11
-14484.517955475556
 21
-1078.928929174653
 31
0.0
  0
LINE
  5
83
100
AcDbEntity
  8
Frei
  6
CONTINUOUS
 62
           7
100
AcDbLine
 10
-14483.491671125699
 20
-1069.658181734578
 30
0.0
 11
-14489.818903377813
 21
-1078.34210703257
 31
0.0
  0
CIRCLE
  5
84
100
AcDbEntity
  8
Frei
  6
CONTINUOUS
 62
           7
100
AcDbCircle
 10
-14446.233088998673
 20
-1084.511589127791
 30
0.0
 40
5.7225
  0
ARC
  5
85
100
AcDbEntity
  8
Frei
  6
CONTINUOUS
 62
           7
100
AcDbCircle
 10
-14446.233088998673
 20
-1084.511589127791
 30
0.0
 40
6.5785
100
AcDbArc
 50
103.683
 51
13.683
  0
CIRCLE
  5
86
100
AcDbEntity
  8
Frei
  6
CONTINUOUS
 62
           7
100
AcDbCircle
 10
-14194.3066317175
 20
-1100.326523731977
 30
0.0
 40
5.7225
  0
ARC
  5
87
100
AcDbEntity
  8
Frei
  6
CONTINUOUS
 62
           7
100
AcDbCircle
 10
-14194.3066317175
 20
-1100.326523731977
 30
0.0
 40
6.57849
100
AcDbArc
 50
103.682999999994
 51
13.683
  0
LINE
  5
88
100
AcDbEntity
  8
Frei
  6
CONTINUOUS
 62
           7
100
AcDbLine
 10
-14436.851480440371
 20
-1068.379994855718
 30
0.0
 11
-14444.596410692986
 21
-1074.581127305892
 31
0.0
  0
LINE
  5
89
100
AcDbEntity
  8
Frei
  6
CONTINUOUS
 62
           7
100
AcDbLine
 10
-14437.632670493649
 20
-1067.404317152447
 30
0.0
 11
-14445.377590843636
 21
-1073.605360149069
 31
0.0
  0
CIRCLE
  5
8A
100
AcDbEntity
  8
Frei
  6
CONTINUOUS
 62
           7
100
AcDbCircle
 10
-14441.114537842588
 20
-1070.99269738096
 30
0.0
 40
5.0
  0
LINE
  5
8B
100
AcDbEntity
  8
Frei
  6
CONTINUOUS
 62
           7
100
AcDbLine
 10
-14195.161831694033
 20
-1111.232785719466
 30
0.0
 11
-14202.907149615359
 21
-1117.4337847044
 31
0.0
  0
LINE
  5
8C
100
AcDbEntity
  8
Frei
  6
CONTINUOUS
 62
           7
100
AcDbLine
 10
-14195.94321063035
 20
-1110.256996556798
 30
0.0
 11
-14203.688538454309
 21
-1116.458084995284
 31
0.0
  0
CIRCLE
  5
8D
100
AcDbEntity
  8
Frei
  6
CONTINUOUS
 62
           7
100
AcDbCircle
 10
-14199.425182873587
 20
-1113.845415478808
 30
0.0
 40
5.0
  0
LINE
  5
8E
100
AcDbEntity
  8
Frei
  6
CONTINUOUS
 62
           7
100
AcDbLine
 10
-14493.51060732628
 20
-1062.20423828079
 30
0.0
 11
-14496.100903885283
 21
-1061.917488928898
 31
0.0
  0
LINE
  5
8F
100
AcDbEntity
  8
Frei
  6
CONTINUOUS
 62
           7
100
AcDbLine
 10
-14498.691180565722
 20
-1061.630741777591
 30
0.0
 11
-14496.100903885283
 21
-1061.917488928898
 31
0.0
  0
LINE
  5
90
100
AcDbEntity
  8
Frei
  6
CONTINUOUS
 62
           7
100
AcDbLine
 10
-14501.105221661492
 20
-1083.43752983975
 30
0.0
 11
-14498.514944981052
 21
-1083.724276991058
 31
0.0
  0
LINE
  5
91
100
AcDbEntity
  8
Frei
  6
CONTINUOUS
 62
           7
100
AcDbLine
 10
-14495.924648422049
 20
-1084.011026342949
 30
0.0
 11
-14498.514944981052
 21
-1083.724276991058
 31
0.0
  0
LINE
  5
92
100
AcDbEntity
  8
Frei
  6
CONTINUOUS
 62
           7
100
AcDbLine
 10
-14494.114118700514
 20
-1067.655945235613
 30
0.0
 11
-14496.704415259517
 21
-1067.369195883722
 31
0.0
  0
LINE
  5
93
100
AcDbEntity
  8
Frei
  6
CONTINUOUS
 62
           7
100
AcDbLine
 10
-14499.294691939956
 20
-1067.082448732414
 30
0.0
 11
-14496.704415259517
 21
-1067.369195883722
 31
0.0
  0
LINE
  5
94
100
AcDbEntity
  8
Frei
  6
CONTINUOUS
 62
           7
100
AcDbLine
 10
-14500.501710287257
 20
-1077.985822884927
 30
0.0
 11
-14497.911433606818
 21
-1078.272570036234
 31
0.0
  0
LINE
  5
95
100
AcDbEntity
  8
Frei
  6
CONTINUOUS
 62
           7
100
AcDbLine
 10
-14495.321137047815
 20
-1078.559319388126
 30
0.0
 11
-14497.911433606818
 21
-1078.272570036234
 31
0.0
  0
ARC
  5
96
100
AcDbEntity
  8
Frei
  6
CONTINUOUS
 62
           7
100
AcDbCircle
 10
-14532.872271184535
 20
-1068.883861406999
 30
0.0
 40
38.7776
100
AcDbArc
 50
354.542436999999
 51
1.81461
  0
ARC
  5
97
100
AcDbEntity
  8
Frei
  6
CONTINUOUS
 62
           7
100
AcDbCircle
 10
-14461.743577681802
 20
-1076.757904512956
 30
0.0
 40
38.7776
100
AcDbArc
 50
165.551
 51
172.824
  0
ARC
  5
98
100
AcDbEntity
  8
Frei
  6
CONTINUOUS
 62
           7
100
AcDbCircle
 10
-14461.743577681802
 20
-1076.757904512956
 30
0.0
 40
38.7776
100
AcDbArc
 50
174.541999999999
 51
181.814999999999
  0
ARC
  5
99
100
AcDbEntity
  8
Frei
  6
CONTINUOUS
 62
           7
100
AcDbCircle
 10
-14532.872271184535
 20
-1068.883861406999
 30
0.0
 40
38.7776
100
AcDbArc
 50
345.551389999999
 51
352.823562999999
  0
LINE
  5
9A
100
AcDbEntity
  8
Frei
  6
CONTINUOUS
 62
           7
100
AcDbLine
 10
-14494.270450999746
 20
-1072.571940301897
 30
0.0
 11
-14494.330115087945
 21
-1073.150530504322
 31
0.0
  0
LINE
  5
9B
100
AcDbEntity
  8
Frei
  6
CONTINUOUS
 62
           7
100
AcDbLine
 10
-14500.217362877824
 20
-1071.913609069178
 30
0.0
 11
-14500.285733778393
 21
-1072.491235415633
 31
0.0
  0
LINE
  5
9C
100
AcDbEntity
  8
Frei
  6
CONTINUOUS
 62
           7
100
AcDbLine
 10
-14500.345358109456
 20
-1073.069830019228
 30
0.0
 11
-14500.285733778393
 21
-1072.491235415633
 31
0.0
  0
LINE
  5
9D
100
AcDbEntity
  8
Frei
  6
CONTINUOUS
 62
           7
100
AcDbLine
 10
-14494.398446231378
 20
-1073.728161251947
 30
0.0
 11
-14494.330115087945
 21
-1073.150530504322
 31
0.0
  0
ARC
  5
9E
100
AcDbEntity
  8
Frei
  6
CONTINUOUS
 62
           7
100
AcDbCircle
 10
-14503.497818769865
 20
-1063.857913725347
 30
0.0
 40
10.1345
100
AcDbArc
 50
337.964499999999
 51
353.682999999999
  0
ARC
  5
9F
100
AcDbEntity
  8
Frei
  6
CONTINUOUS
 62
           7
100
AcDbCircle
 10
-14489.307493736533
 20
-1065.428802005415
 30
0.0
 40
10.1232
100
AcDbArc
 50
173.683
 51
189.401999999999
  0
ARC
  5
A0
100
AcDbEntity
  8
Frei
  6
CONTINUOUS
 62
           7
100
AcDbCircle
 10
-14491.11802015719
 20
-1081.783853294901
 30
0.0
 40
10.1345
100
AcDbArc
 50
157.964
 51
173.683
  0
ARC
  5
A1
100
AcDbEntity
  8
Frei
  6
CONTINUOUS
 62
           7
100
AcDbCircle
 10
-14505.308345190522
 20
-1080.212965014832
 30
0.0
 40
10.1232
100
AcDbArc
 50
353.682999999999
 51
9.4015
  0
ARC
  5
A2
100
AcDbEntity
  8
Frei
  6
CONTINUOUS
 62
           7
100
AcDbCircle
 10
-14503.497818769865
 20
-1063.857913725347
 30
0.0
 40
10.1232
100
AcDbArc
 50
353.682999999999
 51
9.4015
  0
ARC
  5
A3
100
AcDbEntity
  8
Frei
  6
CONTINUOUS
 62
           7
100
AcDbCircle
 10
-14489.307493736533
 20
-1065.428802005415
 30
0.0
 40
10.1345
100
AcDbArc
 50
157.964
 51
173.683
  0
ARC
  5
A4
100
AcDbEntity
  8
Frei
  6
CONTINUOUS
 62
           7
100
AcDbCircle
 10
-14491.11802015719
 20
-1081.783853294901
 30
0.0
 40
10.1232
100
AcDbArc
 50
173.683
 51
189.401999999999
  0
ARC
  5
A5
100
AcDbEntity
  8
Frei
  6
CONTINUOUS
 62
           7
100
AcDbCircle
 10
-14505.308345190522
 20
-1080.212965014832
 30
0.0
 40
10.1345
100
AcDbArc
 50
337.964499999999
 51
353.682999999999
  0
LINE
  5
A6
100
AcDbEntity
  8
Frei
  6
CONTINUOUS
 62
           7
100
AcDbLine
 10
-14493.424851877617
 20
-1064.97300485958
 30
0.0
 11
-14494.330115087945
 21
-1073.150530504322
 31
0.0
  0
LINE
  5
A7
100
AcDbEntity
  8
Frei
  6
CONTINUOUS
 62
           7
100
AcDbLine
 10
-14499.380470568065
 20
-1064.31370977089
 30
0.0
 11
-14500.285733778393
 21
-1072.491235415633
 31
0.0
  0
LINE
  5
A8
100
AcDbEntity
  8
Frei
  6
CONTINUOUS
 62
           7
100
AcDbLine
 10
-14501.190996988722
 20
-1080.668761060376
 30
0.0
 11
-14500.285733778393
 21
-1072.491235415633
 31
0.0
  0
LINE
  5
A9
100
AcDbEntity
  8
Frei
  6
CONTINUOUS
 62
           7
100
AcDbLine
 10
-14495.235378298274
 20
-1081.328056149065
 30
0.0
 11
-14494.330115087945
 21
-1073.150530504322
 31
0.0
  0
LINE
  5
AA
100
AcDbEntity
  8
Frei
  6
CONTINUOUS
 62
           7
100
AcDbLine
 10
-14174.358248491773
 20
-1120.200319391756
 30
0.0
 11
-14175.196639532071
 21
-1120.122293303191
 31
0.0
  0
LINE
  5
AB
100
AcDbEntity
  8
Frei
  6
CONTINUOUS
 62
           7
100
AcDbLine
 10
-14173.488972992796
 20
-1119.491784970123
 30
0.0
 11
-14174.279986434743
 21
-1126.63725673243
 31
0.0
  0
LINE
  5
AC
100
AcDbEntity
  8
Frei
  6
CONTINUOUS
 62
           7
100
AcDbLine
 10
-14171.121587371319
 20
-1098.106450395879
 30
0.0
 11
-14171.137755173999
 21
-1098.252499212978
 31
0.0
  0
LINE
  5
AD
100
AcDbEntity
  8
Frei
  6
CONTINUOUS
 62
           7
100
AcDbLine
 10
-14172.650000174322
 20
-1097.117703678545
 30
0.0
 11
-14171.814842930415
 21
-1097.22494166107
 31
0.0
  0
LINE
  5
AE
100
AcDbEntity
  8
Frei
  6
CONTINUOUS
 62
           7
100
AcDbLine
 10
-14170.962073633515
 20
-1098.846751681492
 30
0.0
 11
-14173.171401121219
 21
-1118.804297710308
 31
0.0
  0
LINE
  5
AF
100
AcDbEntity
  8
Frei
  6
CONTINUOUS
 62
           7
100
AcDbLine
 10
-14160.472591065291
 20
-1119.766185279763
 30
0.0
 11
-14172.603529691141
 21
-1118.637201731391
 31
0.0
  0
LINE
  5
B0
100
AcDbEntity
  8
Frei
  6
CONTINUOUS
 62
           7
100
AcDbLine
 10
-14158.36035178672
 20
-1100.685667402455
 30
0.0
 11
-14170.444499614903
 21
-1099.134007947786
 31
0.0
  0
LINE
  5
B1
100
AcDbEntity
  8
Frei
  6
CONTINUOUS
 62
           7
100
AcDbLine
 10
-14173.472805190117
 20
-1119.345736153024
 30
0.0
 11
-14173.488972992796
 21
-1119.491784970123
 31
0.0
  0
LINE
  5
B2
100
AcDbEntity
  8
Frei
  6
CONTINUOUS
 62
           7
100
AcDbLine
 10
-14173.243839723125
 20
-1088.194236062969
 30
0.0
 11
-14172.36884247343
 21
-1088.322149510593
 31
0.0
  0
LINE
  5
B3
100
AcDbEntity
  8
Frei
  6
CONTINUOUS
 62
           7
100
AcDbLine
 10
-14170.330573929372
 20
-1090.960978633573
 30
0.0
 11
-14171.121587371319
 21
-1098.106450395879
 31
0.0
  0
LINE
  5
B4
100
AcDbEntity
  8
Frei
  6
CONTINUOUS
 62
           7
100
AcDbLine
 10
-14176.84607350799
 20
-1128.76637742664
 30
0.0
 11
-14177.727862099413
 21
-1128.699812292419
 31
0.0
  0
LINE
  5
B5
100
AcDbEntity
  8
Frei
  6
CONTINUOUS
 62
           7
100
AcDbLine
 10
-14174.222545690001
 20
-1083.001095608591
 30
0.0
 11
-14178.238175488961
 21
-1082.41406170403
 31
0.0
  0
LINE
  5
B6
100
AcDbEntity
  8
Frei
  6
CONTINUOUS
 62
           7
100
AcDbLine
 10
-14179.818726544076
 20
-1133.553147127614
 30
0.0
 11
-14183.865523885821
 21
-1133.247659382778
 31
0.0
  0
LINE
  5
B7
100
AcDbEntity
  8
Frei
  6
CONTINUOUS
 62
           7
100
AcDbLine
 10
-14176.935190530025
 20
-1121.539362146457
 30
0.0
 11
-14177.727862099413
 21
-1128.699812292419
 31
0.0
  0
LINE
  5
B8
100
AcDbEntity
  8
Frei
  6
CONTINUOUS
 62
           7
100
AcDbLine
 10
-14173.243839723125
 20
-1088.194236062969
 30
0.0
 11
-14174.036511292514
 21
-1095.354686208928
 31
0.0
  0
LINE
  5
B9
100
AcDbEntity
  8
Frei
  6
CONTINUOUS
 62
           7
100
AcDbLine
 10
-14172.863699993961
 20
-1084.760315023911
 30
0.0
 11
-14173.243839723125
 21
-1088.194236062969
 31
0.0
  0
LINE
  5
BA
100
AcDbEntity
  8
Frei
  6
CONTINUOUS
 62
           7
100
AcDbLine
 10
-14177.727862099413
 20
-1128.699812292419
 30
0.0
 11
-14178.108001828577
 21
-1132.133733331475
 31
0.0
  0
ARC
  5
BB
100
AcDbEntity
  8
Frei
  6
CONTINUOUS
 62
           7
100
AcDbCircle
 10
-14159.58299726521
 20
-1110.207491704234
 30
0.0
 40
9.6
100
AcDbArc
 50
264.682999999997
 51
82.683000000002
  0
ARC
  5
BC
100
AcDbEntity
  8
Frei
  6
CONTINUOUS
 62
           7
100
AcDbCircle
 10
-14159.58299726521
 20
-1110.207491704234
 30
0.0
 40
4.799999999999
100
AcDbArc
 50
173.682999999991
 51
353.683000000007
  0
ARC
  5
BD
100
AcDbEntity
  8
Frei
  6
CONTINUOUS
 62
           7
100
AcDbCircle
 10
-14159.582997265206
 20
-1110.20749170423
 30
0.0
 40
4.799999999995
100
AcDbArc
 50
353.682999999957
 51
63.886117282784
  0
ARC
  5
BE
100
AcDbEntity
  8
Frei
  6
CONTINUOUS
 62
           7
100
AcDbCircle
 10
-14159.582997265208
 20
-1110.207491704234
 30
0.0
 40
4.8
100
AcDbArc
 50
63.886117282778
 51
173.683
  0
ARC
  5
BF
100
AcDbEntity
  8
Frei
  6
CONTINUOUS
 62
           7
100
AcDbCircle
 10
-14172.677662507815
 20
-1119.433759529347
 30
0.0
 40
0.799999999995
100
AcDbArc
 50
84.682999999852
 51
128.110004000953
  0
ARC
  5
C0
100
AcDbEntity
  8
Frei
  6
CONTINUOUS
 62
           7
100
AcDbCircle
 10
-14172.677662507826
 20
-1119.433759529344
 30
0.0
 40
0.799999999986
100
AcDbArc
 50
128.110004000438
 51
173.683000000423
  0
ARC
  5
C1
100
AcDbEntity
  8
Frei
  6
CONTINUOUS
 62
           7
100
AcDbCircle
 10
-14174.2841156751
 20
-1119.403761593796
 30
0.0
 40
0.8
100
AcDbArc
 50
264.682999999975
 51
353.682999999991
  0
ARC
  5
C2
100
AcDbEntity
  8
Frei
  6
CONTINUOUS
 62
           7
100
AcDbCircle
 10
-14175.344905165419
 20
-1121.715408899112
 30
0.0
 40
1.599999999999
100
AcDbArc
 50
84.682999999911
 51
173.682999999991
  0
ARC
  5
C3
100
AcDbEntity
  8
Frei
  6
CONTINUOUS
 62
           7
100
AcDbCircle
 10
-14170.342612491708
 20
-1098.34052258931
 30
0.0
 40
0.799999999987
100
AcDbArc
 50
173.682999999556
 51
219.255995999584
  0
ARC
  5
C4
100
AcDbEntity
  8
Frei
  6
CONTINUOUS
 62
           7
100
AcDbCircle
 10
-14170.342612491697
 20
-1098.34052258931
 30
0.0
 40
0.799999999995
100
AcDbArc
 50
219.2559959991
 51
262.683000000148
  0
ARC
  5
C5
100
AcDbEntity
  8
Frei
  6
CONTINUOUS
 62
           7
100
AcDbCircle
 10
-14172.446225927908
 20
-1095.530732961581
 30
0.0
 40
1.600000000001
100
AcDbArc
 50
173.683000000032
 51
262.683000000024
  0
ARC
  5
C6
100
AcDbEntity
  8
Frei
  6
CONTINUOUS
 62
           7
100
AcDbCircle
 10
-14171.916730053623
 20
-1098.018427019552
 30
0.0
 40
0.8
100
AcDbArc
 50
353.682999999999
 51
82.683000000024
  0
ARC
  5
C7
100
AcDbEntity
  8
Frei
  6
CONTINUOUS
 62
           7
100
AcDbCircle
 10
-14179.698287193181
 20
-1131.957686578822
 30
0.0
 40
1.599999999999
100
AcDbArc
 50
265.682999999913
 51
353.683000000036
  0
ARC
  5
C8
100
AcDbEntity
  8
Frei
  6
CONTINUOUS
 62
           7
100
AcDbCircle
 10
-14176.665414481655
 20
-1126.373186603449
 30
0.0
 40
2.4
100
AcDbArc
 50
265.68300000002
 51
353.682999999997
  0
ARC
  5
C9
100
AcDbEntity
  8
Frei
  6
CONTINUOUS
 62
           7
100
AcDbCircle
 10
-14172.716001976283
 20
-1090.696908504592
 30
0.0
 40
2.400000000001
100
AcDbArc
 50
353.683000000013
 51
81.682999999936
  0
ARC
  5
CA
100
AcDbEntity
  8
Frei
  6
CONTINUOUS
 62
           7
100
AcDbCircle
 10
-14174.453985358565
 20
-1084.584268271256
 30
0.0
 40
1.599999999999
100
AcDbArc
 50
353.682999999963
 51
81.683000000086
  0
LINE
  5
CB
100
AcDbEntity
  8
Frei
  6
CONTINUOUS
 62
           7
100
AcDbLine
 10
-14500.945909100847
 20
-1078.454805532906
 30
0.0
 11
-14500.8798915686
 21
-1077.858448521178
 31
0.0
  0
LINE
  5
CC
100
AcDbEntity
  8
Frei
  6
CONTINUOUS
 62
           7
100
AcDbLine
 10
-14500.8798915686
 20
-1077.858448521178
 30
0.0
 11
-14499.691575988187
 21
-1067.124022310088
 31
0.0
  0
LINE
  5
CD
100
AcDbEntity
  8
Frei
  6
CONTINUOUS
 62
           7
100
AcDbLine
 10
-14499.691575988187
 20
-1067.124022310088
 30
0.0
 11
-14499.62555845594
 21
-1066.527665298361
 31
0.0
  0
LINE
  5
CE
100
AcDbEntity
  8
Frei
  6
CONTINUOUS
 62
           7
100
AcDbLine
 10
-14499.62555845594
 20
-1066.527665298361
 30
0.0
 11
-14499.262462028591
 21
-1063.247701733861
 31
0.0
  0
LINE
  5
CF
100
AcDbEntity
  8
Frei
  6
CONTINUOUS
 62
           7
100
AcDbLine
 10
-14525.460364892389
 20
-1081.777674360367
 30
0.0
 11
-14524.164111406386
 21
-1081.921171384176
 31
0.0
  0
LINE
  5
D0
100
AcDbEntity
  8
Frei
  6
CONTINUOUS
 62
           7
100
AcDbLine
 10
-14521.523410116575
 20
-1058.066890915087
 30
0.0
 11
-14522.819663602579
 21
-1057.923393891278
 31
0.0
  0
LINE
  5
D1
100
AcDbEntity
  8
Frei
  6
CONTINUOUS
 62
           7
100
AcDbLine
 10
-14524.164111406386
 20
-1081.921171384176
 30
0.0
 11
-14520.391330292709
 21
-1082.338823384452
 31
0.0
  0
LINE
  5
D2
100
AcDbEntity
  8
Frei
  6
CONTINUOUS
 62
           7
100
AcDbLine
 10
-14517.750629002898
 20
-1058.484542915363
 30
0.0
 11
-14521.523410116575
 21
-1058.066890915087
 31
0.0
  0
LINE
  5
D3
100
AcDbEntity
  8
Frei
  6
CONTINUOUS
 62
           7
100
AcDbLine
 10
-14558.139800552311
 20
-1054.013406695466
 30
0.0
 11
-14522.819663602579
 21
-1057.923393891278
 31
0.0
  0
LINE
  5
D4
100
AcDbEntity
  8
Frei
  6
CONTINUOUS
 62
           7
100
AcDbLine
 10
-14560.780501842122
 20
-1077.867687164556
 30
0.0
 11
-14525.460364892389
 21
-1081.777674360367
 31
0.0
  0
LINE
  5
D5
100
AcDbEntity
  8
Frei
  6
CONTINUOUS
 62
           7
100
AcDbLine
 10
-14517.054146082042
 20
-1060.372640248912
 30
0.0
 11
-14519.29874217838
 21
-1080.648778647638
 31
0.0
  0
LINE
  5
D6
100
AcDbEntity
  8
Frei
  6
CONTINUOUS
 62
           7
100
AcDbLine
 10
-14500.057971247816
 20
-1062.254139917902
 30
0.0
 11
-14502.761833611383
 21
-1061.954818676996
 31
0.0
  0
LINE
  5
D7
100
AcDbEntity
  8
Frei
  6
CONTINUOUS
 62
           7
100
AcDbLine
 10
-14501.309005528195
 20
-1081.734769097405
 30
0.0
 11
-14500.945909100847
 21
-1078.454805532906
 31
0.0
  0
LINE
  5
D8
100
AcDbEntity
  8
Frei
  6
CONTINUOUS
 62
           7
100
AcDbLine
 10
-14518.404206660787
 20
-1080.747804946007
 30
0.0
 11
-14516.574842880527
 21
-1080.950318004421
 31
0.0
  0
LINE
  5
D9
100
AcDbEntity
  8
Frei
  6
CONTINUOUS
 62
           7
100
AcDbLine
 10
-14514.198211719699
 20
-1059.48146558224
 30
0.0
 11
-14514.33024678419
 21
-1060.674179605695
 31
0.0
  0
LINE
  5
DA
100
AcDbEntity
  8
Frei
  6
CONTINUOUS
 62
           7
100
AcDbLine
 10
-14514.33024678419
 20
-1060.674179605695
 30
0.0
 11
-14516.159610564449
 21
-1060.47166654728
 31
0.0
  0
LINE
  5
DB
100
AcDbEntity
  8
Frei
  6
CONTINUOUS
 62
           7
100
AcDbLine
 10
-14514.33024678419
 20
-1060.674179605695
 30
0.0
 11
-14516.574842880527
 21
-1080.950318004421
 31
0.0
  0
LINE
  5
DC
100
AcDbEntity
  8
Frei
  6
CONTINUOUS
 62
           7
100
AcDbLine
 10
-14516.574842880527
 20
-1080.950318004421
 30
0.0
 11
-14516.706877945018
 21
-1082.143032027875
 31
0.0
  0
LINE
  5
DD
100
AcDbEntity
  8
Frei
  6
CONTINUOUS
 62
           7
100
AcDbLine
 10
-14505.138464772212
 20
-1083.423671099176
 30
0.0
 11
-14505.006429707721
 21
-1082.230957075722
 31
0.0
  0
LINE
  5
DE
100
AcDbEntity
  8
Frei
  6
CONTINUOUS
 62
           7
100
AcDbLine
 10
-14505.006429707721
 20
-1082.230957075722
 30
0.0
 11
-14502.302567344153
 21
-1082.530278316629
 31
0.0
  0
LINE
  5
DF
100
AcDbEntity
  8
Frei
  6
CONTINUOUS
 62
           7
100
AcDbLine
 10
-14505.006429707721
 20
-1082.230957075722
 30
0.0
 11
-14502.761833611383
 21
-1061.954818676996
 31
0.0
  0
LINE
  5
E0
100
AcDbEntity
  8
Frei
  6
CONTINUOUS
 62
           7
100
AcDbLine
 10
-14502.761833611383
 20
-1061.954818676996
 30
0.0
 11
-14502.629798546892
 21
-1060.762104653541
 31
0.0
  0
LINE
  5
E1
100
AcDbEntity
  8
Frei
  6
CONTINUOUS
 62
           7
100
AcDbLine
 10
-14514.198211719699
 20
-1059.48146558224
 30
0.0
 11
-14502.629798546892
 21
-1060.762104653541
 31
0.0
  0
LINE
  5
E2
100
AcDbEntity
  8
Frei
  6
CONTINUOUS
 62
           7
100
AcDbLine
 10
-14516.706877945018
 20
-1082.143032027875
 30
0.0
 11
-14505.138464772212
 21
-1083.423671099176
 31
0.0
  0
ARC
  5
E3
100
AcDbEntity
  8
Frei
  6
CONTINUOUS
 62
           7
100
AcDbCircle
 10
-14539.810395319026
 20
-1068.115801629445
 30
0.0
 40
20.866107311614
100
AcDbArc
 50
318.576694434247
 51
28.789305565753
  0
ARC
  5
E4
100
AcDbEntity
  8
Frei
  6
CONTINUOUS
 62
           7
100
AcDbCircle
 10
-14529.979983755416
 20
-1069.204041558921
 30
0.0
 40
29.660254037844
100
AcDbArc
 50
149.81807458395
 51
197.54792541605
  0
ARC
  5
E5
100
AcDbEntity
  8
Frei
  6
CONTINUOUS
 62
           7
100
AcDbCircle
 10
-14540.523272728255
 20
-1068.036885130728
 30
0.0
 40
22.516660498395
100
AcDbArc
 50
141.478772496028
 51
205.887227503973
  0
CIRCLE
  5
E6
100
AcDbEntity
  8
Frei
  6
CONTINUOUS
 62
           7
100
AcDbCircle
 10
-14547.994294716573
 20
-1067.209832836012
 30
0.0
 40
6.0
  0
CIRCLE
  5
E7
100
AcDbEntity
  8
Frei
  6
CONTINUOUS
 62
           7
100
AcDbCircle
 10
-14547.994294716573
 20
-1067.209832836012
 30
0.0
 40
5.1
  0
ARC
  5
E8
100
AcDbEntity
  8
Frei
  6
CONTINUOUS
 62
           7
100
AcDbCircle
 10
-14517.849655301265
 20
-1059.379078432954
 30
0.0
 40
0.9
100
AcDbArc
 50
353.682999999999
 51
83.683
  0
ARC
  5
E9
100
AcDbEntity
  8
Frei
  6
CONTINUOUS
 62
           7
100
AcDbCircle
 10
-14516.060584266081
 20
-1059.577131029689
 30
0.0
 40
0.9
100
AcDbArc
 50
173.683
 51
263.682999999999
  0
ARC
  5
EA
100
AcDbEntity
  8
Frei
  6
CONTINUOUS
 62
           7
100
AcDbCircle
 10
-14500.156997546183
 20
-1063.148675435493
 30
0.0
 40
0.9
100
AcDbArc
 50
353.682999999999
 51
83.683
  0
ARC
  5
EB
100
AcDbEntity
  8
Frei
  6
CONTINUOUS
 62
           7
100
AcDbCircle
 10
-14502.203541045787
 20
-1081.635742799038
 30
0.0
 40
0.9
100
AcDbArc
 50
263.682999999999
 51
353.682999999999
  0
ARC
  5
EC
100
AcDbEntity
  8
Frei
  6
CONTINUOUS
 62
           7
100
AcDbCircle
 10
-14518.503232959156
 20
-1081.642340463597
 30
0.0
 40
0.9
100
AcDbArc
 50
83.683
 51
173.683
  0
ARC
  5
ED
100
AcDbEntity
  8
Frei
  6
CONTINUOUS
 62
           7
100
AcDbCircle
 10
-14520.29230399434
 20
-1081.444287866862
 30
0.0
 40
0.9
100
AcDbArc
 50
263.682999999999
 51
353.682999999999
  0
LINE
  5
EE
100
AcDbEntity
  8
Frei
  6
CONTINUOUS
 62
           7
100
AcDbLine
 10
-14247.892809534233
 20
-1120.251636512252
 30
0.0
 11
-14244.414060299157
 21
-1120.636738783683
 31
0.0
  0
LINE
  5
EF
100
AcDbEntity
  8
Frei
  6
CONTINUOUS
 62
           7
100
AcDbLine
 10
-14247.672751093416
 20
-1118.263779806495
 30
0.0
 11
-14247.892809534233
 21
-1120.251636512252
 31
0.0
  0
LINE
  5
F0
100
AcDbEntity
  8
Frei
  6
CONTINUOUS
 62
           7
100
AcDbLine
 10
-14242.374854352396
 20
-1111.304448651744
 30
0.0
 11
-14243.310102725871
 21
-1119.752839651213
 31
0.0
  0
LINE
  5
F1
100
AcDbEntity
  8
Frei
  6
CONTINUOUS
 62
           7
100
AcDbLine
 10
-14246.84753194035
 20
-1110.809317159904
 30
0.0
 11
-14242.374854352396
 21
-1111.304448651744
 31
0.0
  0
LINE
  5
F2
100
AcDbEntity
  8
Frei
  6
CONTINUOUS
 62
           7
100
AcDbLine
 10
-14246.902546550555
 20
-1111.306281336344
 30
0.0
 11
-14246.84753194035
 21
-1110.809317159904
 31
0.0
  0
LINE
  5
F3
100
AcDbEntity
  8
Frei
  6
CONTINUOUS
 62
           7
100
AcDbLine
 10
-14243.424852378535
 20
-1112.139072248445
 30
0.0
 11
-14246.902546550555
 21
-1111.306281336344
 31
0.0
  0
LINE
  5
F4
100
AcDbEntity
  8
Frei
  6
CONTINUOUS
 62
           7
100
AcDbLine
 10
-14243.270857648547
 20
-1114.726640448557
 30
0.0
 11
-14243.044329331462
 21
-1112.680339327426
 31
0.0
  0
LINE
  5
F5
100
AcDbEntity
  8
Frei
  6
CONTINUOUS
 62
           7
100
AcDbLine
 10
-14247.672751093416
 20
-1118.263779806495
 30
0.0
 11
-14246.902546550555
 21
-1111.306281336344
 31
0.0
  0
LINE
  5
F6
100
AcDbEntity
  8
Frei
  6
CONTINUOUS
 62
           7
100
AcDbLine
 10
-14244.097111875559
 20
-1118.211802493205
 30
0.0
 11
-14247.672751093416
 21
-1118.263779806495
 31
0.0
  0
LINE
  5
F7
100
AcDbEntity
  8
Frei
  6
CONTINUOUS
 62
           7
100
AcDbLine
 10
-14243.380886868956
 20
-1115.720568801436
 30
0.0
 11
-14243.607415186039
 21
-1117.766869922565
 31
0.0
  0
LINE
  5
F8
100
AcDbEntity
  8
Frei
  6
CONTINUOUS
 62
           2
100
AcDbLine
 10
-14244.902557916941
 20
-1115.049063378337
 30
0.0
 11
-14242.142563670566
 21
-1115.35459849501
 31
0.0
  0
LINE
  5
F9
100
AcDbEntity
  8
Frei
  6
CONTINUOUS
 62
           7
100
AcDbLine
 10
-14244.847543306738
 20
-1114.552099201899
 30
0.0
 11
-14243.270857648547
 21
-1114.726640448557
 31
0.0
  0
LINE
  5
FA
100
AcDbEntity
  8
Frei
  6
CONTINUOUS
 62
           7
100
AcDbLine
 10
-14244.902557916941
 20
-1115.049063378337
 30
0.0
 11
-14244.847543306738
 21
-1114.552099201899
 31
0.0
  0
LINE
  5
FB
100
AcDbEntity
  8
Frei
  6
CONTINUOUS
 62
           7
100
AcDbLine
 10
-14244.957572527146
 20
-1115.546027554778
 30
0.0
 11
-14244.902557916941
 21
-1115.049063378337
 31
0.0
  0
LINE
  5
FC
100
AcDbEntity
  8
Frei
  6
CONTINUOUS
 62
           7
100
AcDbLine
 10
-14243.380886868956
 20
-1115.720568801436
 30
0.0
 11
-14244.957572527146
 21
-1115.546027554778
 31
0.0
  0
LINE
  5
FD
100
AcDbEntity
  8
Frei
  6
CONTINUOUS
 62
           7
100
AcDbLine
 10
-14386.545814760819
 20
-1104.902560265228
 30
0.0
 11
-14382.91485048733
 21
-1072.10292462023
 31
0.0
  0
LINE
  5
FE
100
AcDbEntity
  8
Frei
  6
CONTINUOUS
 62
           7
100
AcDbLine
 10
-14400.460811701121
 20
-1103.362151179505
 30
0.0
 11
-14386.545814760819
 21
-1104.902560265228
 31
0.0
  0
LINE
  5
FF
100
AcDbEntity
  8
Frei
  6
CONTINUOUS
 62
           7
100
AcDbLine
 10
-14392.854134016117
 20
-1071.002632416142
 30
0.0
 11
-14383.411814663768
 21
-1072.047910010026
 31
0.0
  0
LINE
  5
100
100
AcDbEntity
  8
Frei
  6
CONTINUOUS
 62
           7
100
AcDbLine
 10
-14393.074192456934
 20
-1072.9904891219
 30
0.0
 11
-14392.854134016117
 21
-1071.002632416142
 31
0.0
  0
LINE
  5
101
100
AcDbEntity
  8
Frei
  6
CONTINUOUS
 62
           7
100
AcDbLine
 10
-14393.844396999795
 20
-1079.947987592051
 30
0.0
 11
-14393.89941161
 21
-1080.44495176849
 31
0.0
  0
LINE
  5
102
100
AcDbEntity
  8
Frei
  6
CONTINUOUS
 62
           7
100
AcDbLine
 10
-14398.869053374394
 20
-1079.894805666447
 30
0.0
 11
-14397.933805000919
 21
-1071.446414666977
 31
0.0
  0
LINE
  5
103
100
AcDbEntity
  8
Frei
  6
CONTINUOUS
 62
           7
100
AcDbLine
 10
-14393.89941161
 20
-1080.44495176849
 30
0.0
 11
-14398.869053374394
 21
-1079.894805666447
 31
0.0
  0
LINE
  5
104
100
AcDbEntity
  8
Frei
  6
CONTINUOUS
 62
           7
100
AcDbLine
 10
-14396.829847427633
 20
-1070.562515534507
 30
0.0
 11
-14392.854134016117
 21
-1071.002632416142
 31
0.0
  0
LINE
  5
105
100
AcDbEntity
  8
Frei
  6
CONTINUOUS
 62
           7
100
AcDbLine
 10
-14397.322091171814
 20
-1079.115196679949
 30
0.0
 11
-14393.844396999795
 21
-1079.947987592051
 31
0.0
  0
LINE
  5
106
100
AcDbEntity
  8
Frei
  6
CONTINUOUS
 62
           7
100
AcDbLine
 10
-14397.476085901802
 20
-1076.527628479838
 30
0.0
 11
-14397.702614218888
 21
-1078.573929600968
 31
0.0
  0
LINE
  5
107
100
AcDbEntity
  8
Frei
  6
CONTINUOUS
 62
           7
100
AcDbLine
 10
-14393.074192456934
 20
-1072.9904891219
 30
0.0
 11
-14393.844396999795
 21
-1079.947987592051
 31
0.0
  0
LINE
  5
108
100
AcDbEntity
  8
Frei
  6
CONTINUOUS
 62
           7
100
AcDbLine
 10
-14396.649831674791
 20
-1073.04246643519
 30
0.0
 11
-14393.074192456934
 21
-1072.9904891219
 31
0.0
  0
LINE
  5
109
100
AcDbEntity
  8
Frei
  6
CONTINUOUS
 62
           7
100
AcDbLine
 10
-14397.366056681394
 20
-1075.533700126959
 30
0.0
 11
-14397.139528364311
 21
-1073.487399005829
 31
0.0
  0
LINE
  5
10A
100
AcDbEntity
  8
Frei
  6
CONTINUOUS
 62
           2
100
AcDbLine
 10
-14395.844385633411
 20
-1076.205205550057
 30
0.0
 11
-14398.604379879784
 21
-1075.899670433384
 31
0.0
  0
LINE
  5
10B
100
AcDbEntity
  8
Frei
  6
CONTINUOUS
 62
           7
100
AcDbLine
 10
-14395.899400243614
 20
-1076.702169726496
 30
0.0
 11
-14397.476085901802
 21
-1076.527628479838
 31
0.0
  0
LINE
  5
10C
100
AcDbEntity
  8
Frei
  6
CONTINUOUS
 62
           7
100
AcDbLine
 10
-14395.844385633411
 20
-1076.205205550057
 30
0.0
 11
-14395.899400243614
 21
-1076.702169726496
 31
0.0
  0
LINE
  5
10D
100
AcDbEntity
  8
Frei
  6
CONTINUOUS
 62
           7
100
AcDbLine
 10
-14395.789371023206
 20
-1075.708241373617
 30
0.0
 11
-14395.844385633411
 21
-1076.205205550057
 31
0.0
  0
LINE
  5
10E
100
AcDbEntity
  8
Frei
  6
CONTINUOUS
 62
           7
100
AcDbLine
 10
-14397.366056681394
 20
-1075.533700126959
 30
0.0
 11
-14395.789371023206
 21
-1075.708241373617
 31
0.0
  0
LINE
  5
10F
100
AcDbEntity
  8
Frei
  6
CONTINUOUS
 62
           7
100
AcDbLine
 10
-14361.066774013319
 20
-1111.043283560356
 30
0.0
 11
-14361.121788623524
 21
-1111.540247736796
 31
0.0
  0
LINE
  5
110
100
AcDbEntity
  8
Frei
  6
CONTINUOUS
 62
           7
100
AcDbLine
 10
-14361.121788623524
 20
-1111.540247736796
 30
0.0
 11
-14284.58930545186
 21
-1120.012497708271
 31
0.0
  0
LINE
  5
111
100
AcDbEntity
  8
Frei
  6
CONTINUOUS
 62
           7
100
AcDbLine
 10
-14284.58930545186
 20
-1120.012497708271
 30
0.0
 11
-14279.417932092649
 21
-1073.297865122972
 31
0.0
  0
LINE
  5
112
100
AcDbEntity
  8
Frei
  6
CONTINUOUS
 62
           7
100
AcDbLine
 10
-14279.417932092649
 20
-1073.297865122972
 30
0.0
 11
-14355.950415264313
 21
-1064.825615151496
 31
0.0
  0
LINE
  5
113
100
AcDbEntity
  8
Frei
  6
CONTINUOUS
 62
           7
100
AcDbLine
 10
-14383.411814663768
 20
-1072.047910010026
 30
0.0
 11
-14382.91485048733
 21
-1072.10292462023
 31
0.0
  0
LINE
  5
114
100
AcDbEntity
  8
Frei
  6
CONTINUOUS
 62
           7
100
AcDbLine
 10
-14356.944343617193
 20
-1064.715585931087
 30
0.0
 11
-14382.289516615599
 21
-1061.909840810664
 31
0.0
  0
LINE
  5
115
100
AcDbEntity
  8
Frei
  6
CONTINUOUS
 62
           7
100
AcDbLine
 10
-14386.963925798373
 20
-1108.679488006168
 30
0.0
 11
-14386.545814760819
 21
-1104.902560265228
 31
0.0
  0
LINE
  5
116
100
AcDbEntity
  8
Frei
  6
CONTINUOUS
 62
           7
100
AcDbLine
 10
-14383.411814663768
 20
-1072.047910010026
 30
0.0
 11
-14382.289516615599
 21
-1061.909840810664
 31
0.0
  0
LINE
  5
117
100
AcDbEntity
  8
Frei
  6
CONTINUOUS
 62
           7
100
AcDbLine
 10
-14361.066774013319
 20
-1111.043283560356
 30
0.0
 11
-14362.0607023662
 21
-1110.933254339948
 31
0.0
  0
LINE
  5
118
100
AcDbEntity
  8
Frei
  6
CONTINUOUS
 62
           7
100
AcDbLine
 10
-14356.005429874516
 20
-1065.322579327934
 30
0.0
 11
-14361.066774013319
 21
-1111.043283560356
 31
0.0
  0
LINE
  5
119
100
AcDbEntity
  8
Frei
  6
CONTINUOUS
 62
           7
100
AcDbLine
 10
-14356.005429874516
 20
-1065.322579327934
 30
0.0
 11
-14356.999358227396
 21
-1065.212550107526
 31
0.0
  0
LINE
  5
11A
100
AcDbEntity
  8
Frei
  6
CONTINUOUS
 62
           7
100
AcDbLine
 10
-14355.950415264313
 20
-1064.825615151496
 30
0.0
 11
-14356.005429874516
 21
-1065.322579327934
 31
0.0
  0
LINE
  5
11B
100
AcDbEntity
  8
Frei
  6
CONTINUOUS
 62
           7
100
AcDbLine
 10
-14362.0607023662
 20
-1110.933254339948
 30
0.0
 11
-14356.944343617193
 21
-1064.715585931087
 31
0.0
  0
LINE
  5
11C
100
AcDbEntity
  8
Frei
  6
CONTINUOUS
 62
           7
100
AcDbLine
 10
-14362.115716976405
 20
-1111.430218516387
 30
0.0
 11
-14362.0607023662
 21
-1110.933254339948
 31
0.0
  0
LINE
  5
11D
100
AcDbEntity
  8
Frei
  6
CONTINUOUS
 62
           7
100
AcDbLine
 10
-14386.963925798373
 20
-1108.679488006168
 30
0.0
 11
-14362.115716976405
 21
-1111.430218516387
 31
0.0
  0
LINE
  5
11E
100
AcDbEntity
  8
Frei
  6
CONTINUOUS
 62
           7
100
AcDbLine
 10
-14283.595377098982
 20
-1120.12252692868
 30
0.0
 11
-14258.747168277014
 21
-1122.873257438899
 31
0.0
  0
LINE
  5
11F
100
AcDbEntity
  8
Frei
  6
CONTINUOUS
 62
           7
100
AcDbLine
 10
-14283.540362488777
 20
-1119.625562752241
 30
0.0
 11
-14283.595377098982
 21
-1120.12252692868
 31
0.0
  0
LINE
  5
120
100
AcDbEntity
  8
Frei
  6
CONTINUOUS
 62
           7
100
AcDbLine
 10
-14278.42400373977
 20
-1073.40789434338
 30
0.0
 11
-14283.540362488777
 21
-1119.625562752241
 31
0.0
  0
LINE
  5
121
100
AcDbEntity
  8
Frei
  6
CONTINUOUS
 62
           7
100
AcDbLine
 10
-14278.479018349974
 20
-1073.904858519819
 30
0.0
 11
-14279.472946702852
 21
-1073.79482929941
 31
0.0
  0
LINE
  5
122
100
AcDbEntity
  8
Frei
  6
CONTINUOUS
 62
           7
100
AcDbLine
 10
-14283.540362488777
 20
-1119.625562752241
 30
0.0
 11
-14284.534290841655
 21
-1119.515533531832
 31
0.0
  0
LINE
  5
123
100
AcDbEntity
  8
Frei
  6
CONTINUOUS
 62
           7
100
AcDbLine
 10
-14253.078830741362
 20
-1076.213639463804
 30
0.0
 11
-14254.201128789531
 21
-1086.351708663166
 31
0.0
  0
LINE
  5
124
100
AcDbEntity
  8
Frei
  6
CONTINUOUS
 62
           7
100
AcDbLine
 10
-14253.078830741362
 20
-1076.213639463804
 30
0.0
 11
-14278.42400373977
 21
-1073.40789434338
 31
0.0
  0
LINE
  5
125
100
AcDbEntity
  8
Frei
  6
CONTINUOUS
 62
           7
100
AcDbLine
 10
-14254.698092965971
 20
-1086.296694052962
 30
0.0
 11
-14254.201128789531
 21
-1086.351708663166
 31
0.0
  0
LINE
  5
126
100
AcDbEntity
  8
Frei
  6
CONTINUOUS
 62
           7
100
AcDbLine
 10
-14254.698092965971
 20
-1086.296694052962
 30
0.0
 11
-14258.747168277014
 21
-1122.873257438899
 31
0.0
  0
LINE
  5
127
100
AcDbEntity
  8
Frei
  6
CONTINUOUS
 62
           7
100
AcDbLine
 10
-14429.847708828847
 20
-1073.447100164934
 30
0.0
 11
-14431.835565534604
 21
-1073.227041724116
 31
0.0
  0
LINE
  5
128
100
AcDbEntity
  8
Frei
  6
CONTINUOUS
 62
           7
100
AcDbLine
 10
-14430.944335663737
 20
-1092.441768090039
 30
0.0
 11
-14428.963809696377
 21
-1074.551057738222
 31
0.0
  0
LINE
  5
129
100
AcDbEntity
  8
Frei
  6
CONTINUOUS
 62
           7
100
AcDbLine
 10
-14434.03614994278
 20
-1093.105608781691
 30
0.0
 11
-14432.048293237023
 21
-1093.325667222509
 31
0.0
  0
LINE
  5
12A
100
AcDbEntity
  8
Frei
  6
CONTINUOUS
 62
           7
100
AcDbLine
 10
-14434.369902973207
 20
-1087.03200944401
 30
0.0
 11
-14434.920049075252
 21
-1092.001651208404
 31
0.0
  0
LINE
  5
12B
100
AcDbEntity
  8
Frei
  6
CONTINUOUS
 62
           7
100
AcDbLine
 10
-14431.835565534604
 20
-1073.227041724116
 30
0.0
 11
-14432.939523107892
 21
-1074.110940856587
 31
0.0
  0
LINE
  5
12C
100
AcDbEntity
  8
Frei
  6
CONTINUOUS
 62
           7
100
AcDbLine
 10
-14429.847708828847
 20
-1073.447100164934
 30
0.0
 11
-14428.963809696377
 21
-1074.551057738222
 31
0.0
  0
LINE
  5
12D
100
AcDbEntity
  8
Frei
  6
CONTINUOUS
 62
           7
100
AcDbLine
 10
-14430.944335663737
 20
-1092.441768090039
 30
0.0
 11
-14432.048293237023
 21
-1093.325667222509
 31
0.0
  0
LINE
  5
12E
100
AcDbEntity
  8
Frei
  6
CONTINUOUS
 62
           7
100
AcDbLine
 10
-14434.03614994278
 20
-1093.105608781691
 30
0.0
 11
-14434.920049075252
 21
-1092.001651208404
 31
0.0
  0
LINE
  5
12F
100
AcDbEntity
  8
Frei
  6
CONTINUOUS
 62
           7
100
AcDbLine
 10
-14434.03614994278
 20
-1093.105608781691
 30
0.0
 11
-14431.835565534604
 21
-1073.227041724116
 31
0.0
  0
LINE
  5
130
100
AcDbEntity
  8
Frei
  6
CONTINUOUS
 62
           7
100
AcDbLine
 10
-14432.048293237023
 20
-1093.325667222509
 30
0.0
 11
-14429.847708828847
 21
-1073.447100164934
 31
0.0
  0
LINE
  5
131
100
AcDbEntity
  8
Frei
  6
CONTINUOUS
 62
           7
100
AcDbLine
 10
-14431.769554816801
 20
-1099.896230736629
 30
0.0
 11
-14430.944335663737
 21
-1092.441768090039
 31
0.0
  0
LINE
  5
132
100
AcDbEntity
  8
Frei
  6
CONTINUOUS
 62
           7
100
AcDbLine
 10
-14401.900354989435
 20
-1093.644758776135
 30
0.0
 11
-14402.945632583318
 21
-1103.087078128483
 31
0.0
  0
LINE
  5
133
100
AcDbEntity
  8
Frei
  6
CONTINUOUS
 62
           7
100
AcDbLine
 10
-14434.593626783224
 20
-1079.96448175345
 30
0.0
 11
-14433.489669209937
 21
-1079.08058262098
 31
0.0
  0
LINE
  5
134
100
AcDbEntity
  8
Frei
  6
CONTINUOUS
 62
           7
100
AcDbLine
 10
-14432.939523107892
 20
-1074.110940856587
 30
0.0
 11
-14433.489669209937
 21
-1079.08058262098
 31
0.0
  0
LINE
  5
135
100
AcDbEntity
  8
Frei
  6
CONTINUOUS
 62
           7
100
AcDbLine
 10
-14434.648641393429
 20
-1080.461445929889
 30
0.0
 11
-14434.593626783224
 21
-1079.96448175345
 31
0.0
  0
LINE
  5
136
100
AcDbEntity
  8
Frei
  6
CONTINUOUS
 62
           7
100
AcDbLine
 10
-14434.369902973207
 20
-1087.03200944401
 30
0.0
 11
-14435.253802105677
 21
-1085.928051870723
 31
0.0
  0
LINE
  5
137
100
AcDbEntity
  8
Frei
  6
CONTINUOUS
 62
           7
100
AcDbLine
 10
-14434.259873752799
 20
-1086.038081091131
 30
0.0
 11
-14434.369902973207
 21
-1087.03200944401
 31
0.0
  0
LINE
  5
138
100
AcDbEntity
  8
Frei
  6
CONTINUOUS
 62
           2
100
AcDbLine
 10
-14433.599698430346
 20
-1080.074510973859
 30
0.0
 11
-14434.593626783224
 21
-1079.96448175345
 31
0.0
  0
LINE
  5
139
100
AcDbEntity
  8
Frei
  6
CONTINUOUS
 62
           7
100
AcDbLine
 10
-14433.489669209937
 20
-1079.08058262098
 30
0.0
 11
-14433.599698430346
 21
-1080.074510973859
 31
0.0
  0
LINE
  5
13A
100
AcDbEntity
  8
Frei
  6
CONTINUOUS
 62
           2
100
AcDbLine
 10
-14434.259873752799
 20
-1086.038081091131
 30
0.0
 11
-14435.253802105677
 21
-1085.928051870723
 31
0.0
  0
LINE
  5
13B
100
AcDbEntity
  8
Frei
  6
CONTINUOUS
 62
           7
100
AcDbLine
 10
-14433.599698430346
 20
-1080.074510973859
 30
0.0
 11
-14434.259873752799
 21
-1086.038081091131
 31
0.0
  0
LINE
  5
13C
100
AcDbEntity
  8
Frei
  6
CONTINUOUS
 62
           1
100
AcDbLine
 10
-14432.175398839354
 20
-1080.735237244242
 30
0.0
 11
-14434.648641393429
 21
-1080.461445929889
 31
0.0
  0
LINE
  5
13D
100
AcDbEntity
  8
Frei
  6
CONTINUOUS
 62
           7
100
AcDbLine
 10
-14434.703656003632
 20
-1080.958410106329
 30
0.0
 11
-14434.648641393429
 21
-1080.461445929889
 31
0.0
  0
LINE
  5
13E
100
AcDbEntity
  8
Frei
  6
CONTINUOUS
 62
           1
100
AcDbLine
 10
-14432.725544941397
 20
-1085.704879008635
 30
0.0
 11
-14435.198787495472
 21
-1085.431087694283
 31
0.0
  0
LINE
  5
13F
100
AcDbEntity
  8
Frei
  6
CONTINUOUS
 62
           7
100
AcDbLine
 10
-14435.253802105677
 20
-1085.928051870723
 30
0.0
 11
-14435.198787495472
 21
-1085.431087694283
 31
0.0
  0
LINE
  5
140
100
AcDbEntity
  8
Frei
  6
CONTINUOUS
 62
           1
100
AcDbLine
 10
-14432.230413449557
 20
-1081.232201420681
 30
0.0
 11
-14434.703656003632
 21
-1080.958410106329
 31
0.0
  0
LINE
  5
141
100
AcDbEntity
  8
Frei
  6
CONTINUOUS
 62
           7
100
AcDbLine
 10
-14435.143772885269
 20
-1084.934123517844
 30
0.0
 11
-14434.703656003632
 21
-1080.958410106329
 31
0.0
  0
LINE
  5
142
100
AcDbEntity
  8
Frei
  6
CONTINUOUS
 62
           1
100
AcDbLine
 10
-14432.670530331194
 20
-1085.207914832196
 30
0.0
 11
-14435.143772885269
 21
-1084.934123517844
 31
0.0
  0
LINE
  5
143
100
AcDbEntity
  8
Frei
  6
CONTINUOUS
 62
           7
100
AcDbLine
 10
-14435.198787495472
 20
-1085.431087694283
 30
0.0
 11
-14435.143772885269
 21
-1084.934123517844
 31
0.0
  0
LINE
  5
144
100
AcDbEntity
  8
Frei
  6
CONTINUOUS
 62
           7
100
AcDbLine
 10
-14426.764236342928
 20
-1072.224245708811
 30
0.0
 11
-14399.754785191464
 21
-1074.263155895
 31
0.0
  0
LINE
  5
145
100
AcDbEntity
  8
Frei
  6
CONTINUOUS
 62
           7
100
AcDbLine
 10
-14428.902642237301
 20
-1073.998512953985
 30
0.0
 11
-14428.963809696377
 21
-1074.551057738222
 31
0.0
  0
LINE
  5
146
100
AcDbEntity
  8
Frei
  6
CONTINUOUS
 62
           7
100
AcDbLine
 10
-14402.945632583318
 20
-1103.087078128483
 30
0.0
 11
-14431.769554816801
 21
-1099.896230736629
 31
0.0
  0
LINE
  5
147
100
AcDbEntity
  8
Frei
  6
CONTINUOUS
 62
           7
100
AcDbLine
 10
-14431.879584037211
 20
-1100.890159089508
 30
0.0
 11
-14431.769554816801
 21
-1099.896230736629
 31
0.0
  0
LINE
  5
148
100
AcDbEntity
  8
Frei
  6
CONTINUOUS
 62
           7
100
AcDbLine
 10
-14431.382619860771
 20
-1100.945173699712
 30
0.0
 11
-14431.879584037211
 21
-1100.890159089508
 31
0.0
  0
LINE
  5
149
100
AcDbEntity
  8
Frei
  6
CONTINUOUS
 62
           7
100
AcDbLine
 10
-14402.945632583318
 20
-1103.087078128483
 30
0.0
 11
-14403.055661803728
 21
-1104.081006481362
 31
0.0
  0
LINE
  5
14A
100
AcDbEntity
  8
Frei
  6
CONTINUOUS
 62
           7
100
AcDbLine
 10
-14443.249247431311
 20
-1112.710935472844
 30
0.0
 11
-14432.812999726084
 21
-1113.866242287136
 31
0.0
  0
LINE
  5
14B
100
AcDbEntity
  8
Frei
  6
CONTINUOUS
 62
           7
100
AcDbLine
 10
-14446.500607487171
 20
-1128.44874528829
 30
0.0
 11
-14446.555622097376
 21
-1128.94570946473
 31
0.0
  0
LINE
  5
14C
100
AcDbEntity
  8
Frei
  6
CONTINUOUS
 62
           7
100
AcDbLine
 10
-14445.229773398669
 20
-1130.601645824661
 30
0.0
 11
-14434.793525693442
 21
-1131.756952638953
 31
0.0
  0
LINE
  5
14D
100
AcDbEntity
  8
Frei
  6
CONTINUOUS
 62
           7
100
AcDbLine
 10
-14434.408423422012
 20
-1128.278203403878
 30
0.0
 11
-14431.382619860771
 21
-1100.945173699712
 31
0.0
  0
LINE
  5
14E
100
AcDbEntity
  8
Frei
  6
CONTINUOUS
 62
           7
100
AcDbLine
 10
-14403.552625980166
 20
-1104.025991871158
 30
0.0
 11
-14431.382619860771
 21
-1100.945173699712
 31
0.0
  0
LINE
  5
14F
100
AcDbEntity
  8
Frei
  6
CONTINUOUS
 62
           7
100
AcDbLine
 10
-14433.082574723307
 20
-1129.934139763809
 30
0.0
 11
-14427.154685028572
 21
-1130.590365214961
 31
0.0
  0
LINE
  5
150
100
AcDbEntity
  8
Frei
  6
CONTINUOUS
 62
           7
100
AcDbLine
 10
-14406.578429541407
 20
-1131.359021575323
 30
0.0
 11
-14403.552625980166
 21
-1104.025991871158
 31
0.0
  0
LINE
  5
151
100
AcDbEntity
  8
Frei
  6
CONTINUOUS
 62
           7
100
AcDbLine
 10
-14403.055661803728
 20
-1104.081006481362
 30
0.0
 11
-14403.552625980166
 21
-1104.025991871158
 31
0.0
  0
LINE
  5
152
100
AcDbEntity
  8
Frei
  6
CONTINUOUS
 62
           7
100
AcDbLine
 10
-14427.154685028572
 20
-1130.590365214961
 30
0.0
 11
-14434.793525693442
 21
-1131.756952638953
 31
0.0
  0
LINE
  5
153
100
AcDbEntity
  8
Frei
  6
CONTINUOUS
 62
           7
100
AcDbLine
 10
-14408.234365901339
 20
-1132.684870274028
 30
0.0
 11
-14427.154685028572
 21
-1130.590365214961
 31
0.0
  0
LINE
  5
154
100
AcDbEntity
  8
Frei
  6
CONTINUOUS
 62
           7
100
AcDbLine
 10
-14449.929840165842
 20
-1113.983602245944
 30
0.0
 11
-14444.960198401448
 21
-1114.533748347988
 31
0.0
  0
LINE
  5
155
100
AcDbEntity
  8
Frei
  6
CONTINUOUS
 62
           7
100
AcDbLine
 10
-14444.905183791243
 20
-1114.036784171549
 30
0.0
 11
-14444.960198401448
 21
-1114.533748347988
 31
0.0
  0
LINE
  5
156
100
AcDbEntity
  8
Frei
  6
CONTINUOUS
 62
           7
100
AcDbLine
 10
-14451.470249251564
 20
-1127.898599186246
 30
0.0
 11
-14446.500607487171
 21
-1128.44874528829
 31
0.0
  0
LINE
  5
157
100
AcDbEntity
  8
Frei
  6
CONTINUOUS
 62
           7
100
AcDbLine
 10
-14446.390578266763
 20
-1127.454816935412
 30
0.0
 11
-14446.500607487171
 21
-1128.44874528829
 31
0.0
  0
LINE
  5
158
100
AcDbEntity
  8
Frei
  6
CONTINUOUS
 62
           2
100
AcDbLine
 10
-14445.070227621856
 20
-1115.527676700867
 30
0.0
 11
-14450.03986938625
 21
-1114.977530598823
 31
0.0
  0
LINE
  5
159
100
AcDbEntity
  8
Frei
  6
CONTINUOUS
 62
           7
100
AcDbLine
 10
-14444.960198401448
 20
-1114.533748347988
 30
0.0
 11
-14445.070227621856
 21
-1115.527676700867
 31
0.0
  0
LINE
  5
15A
100
AcDbEntity
  8
Frei
  6
CONTINUOUS
 62
           2
100
AcDbLine
 10
-14446.390578266763
 20
-1127.454816935412
 30
0.0
 11
-14451.360220031156
 21
-1126.904670833368
 31
0.0
  0
LINE
  5
15B
100
AcDbEntity
  8
Frei
  6
CONTINUOUS
 62
           7
100
AcDbLine
 10
-14445.070227621856
 20
-1115.527676700867
 30
0.0
 11
-14446.390578266763
 21
-1127.454816935412
 31
0.0
  0
LINE
  5
15C
100
AcDbEntity
  8
Frei
  6
CONTINUOUS
 62
           7
100
AcDbLine
 10
-14400.359945903712
 20
-1079.729761835833
 30
0.0
 11
-14399.608547344196
 21
-1079.812942678276
 31
0.0
  0
LINE
  5
15D
100
AcDbEntity
  8
Frei
  6
CONTINUOUS
 62
           7
100
AcDbLine
 10
-14399.754785191464
 20
-1074.263155895
 30
0.0
 11
-14400.359945903712
 21
-1079.729761835833
 31
0.0
  0
LINE
  5
15E
100
AcDbEntity
  8
Frei
  6
CONTINUOUS
 62
           7
100
AcDbLine
 10
-14400.745048175144
 20
-1083.208511070909
 30
0.0
 11
-14399.993649615628
 21
-1083.291691913351
 31
0.0
  0
LINE
  5
15F
100
AcDbEntity
  8
Frei
  6
CONTINUOUS
 62
           7
100
AcDbLine
 10
-14400.359945903712
 20
-1079.729761835833
 30
0.0
 11
-14400.745048175144
 21
-1083.208511070909
 31
0.0
  0
LINE
  5
160
100
AcDbEntity
  8
Frei
  6
CONTINUOUS
 62
           7
100
AcDbLine
 10
-14401.515252718005
 20
-1090.16600954106
 30
0.0
 11
-14400.763854158489
 21
-1090.249190383502
 31
0.0
  0
LINE
  5
161
100
AcDbEntity
  8
Frei
  6
CONTINUOUS
 62
           7
100
AcDbLine
 10
-14400.745048175144
 20
-1083.208511070909
 30
0.0
 11
-14401.515252718005
 21
-1090.16600954106
 31
0.0
  0
LINE
  5
162
100
AcDbEntity
  8
Frei
  6
CONTINUOUS
 62
           7
100
AcDbLine
 10
-14401.900354989435
 20
-1093.644758776135
 30
0.0
 11
-14401.148956429919
 21
-1093.727939618578
 31
0.0
  0
LINE
  5
163
100
AcDbEntity
  8
Frei
  6
CONTINUOUS
 62
           7
100
AcDbLine
 10
-14401.515252718005
 20
-1090.16600954106
 30
0.0
 11
-14401.900354989435
 21
-1093.644758776135
 31
0.0
  0
LINE
  5
164
100
AcDbEntity
  8
Frei
  6
CONTINUOUS
 62
           7
100
AcDbLine
 10
-14399.639257917255
 20
-1086.852304136598
 30
0.0
 11
-14399.061604510109
 21
-1081.634180283984
 31
0.0
  0
LINE
  5
165
100
AcDbEntity
  8
Frei
  6
CONTINUOUS
 62
           7
100
AcDbLine
 10
-14449.827710688034
 20
-1113.06103473814
 30
0.0
 11
-14449.683638308356
 21
-1111.75958388266
 31
0.0
  0
LINE
  5
166
100
AcDbEntity
  8
Frei
  6
CONTINUOUS
 62
           7
100
AcDbLine
 10
-14455.934699871696
 20
-1129.655651674678
 30
0.0
 11
-14451.71645110905
 21
-1130.122617549532
 31
0.0
  0
LINE
  5
167
100
AcDbEntity
  8
Frei
  6
CONTINUOUS
 62
           7
100
AcDbLine
 10
-14454.797352452428
 20
-1112.510888636097
 30
0.0
 11
-14449.827710688034
 21
-1113.06103473814
 31
0.0
  0
LINE
  5
168
100
AcDbEntity
  8
Frei
  6
CONTINUOUS
 62
           7
100
AcDbLine
 10
-14450.047769128851
 20
-1115.048891443898
 30
0.0
 11
-14449.827710688034
 21
-1113.06103473814
 31
0.0
  0
LINE
  5
169
100
AcDbEntity
  8
Frei
  6
CONTINUOUS
 62
           7
100
AcDbLine
 10
-14450.047769128851
 20
-1115.048891443898
 30
0.0
 11
-14455.017410893244
 21
-1114.498745341854
 31
0.0
  0
LINE
  5
16A
100
AcDbEntity
  8
Frei
  6
CONTINUOUS
 62
           7
100
AcDbLine
 10
-14454.797352452428
 20
-1112.510888636097
 30
0.0
 11
-14455.017410893244
 21
-1114.498745341854
 31
0.0
  0
LINE
  5
16B
100
AcDbEntity
  8
Frei
  6
CONTINUOUS
 62
           7
100
AcDbLine
 10
-14450.191841508529
 20
-1116.350342299377
 30
0.0
 11
-14450.047769128851
 21
-1115.048891443898
 31
0.0
  0
LINE
  5
16C
100
AcDbEntity
  8
Frei
  6
CONTINUOUS
 62
           7
100
AcDbLine
 10
-14450.479986267885
 20
-1118.953244010338
 30
0.0
 11
-14450.191841508529
 21
-1116.350342299377
 31
0.0
  0
LINE
  5
16D
100
AcDbEntity
  8
Frei
  6
CONTINUOUS
 62
           7
100
AcDbLine
 10
-14450.479986267885
 20
-1118.953244010338
 30
0.0
 11
-14455.449628032278
 21
-1118.403097908294
 31
0.0
  0
LINE
  5
16E
100
AcDbEntity
  8
Frei
  6
CONTINUOUS
 62
           7
100
AcDbLine
 10
-14455.017410893244
 20
-1114.498745341854
 30
0.0
 11
-14455.449628032278
 21
-1118.403097908294
 31
0.0
  0
LINE
  5
16F
100
AcDbEntity
  8
Frei
  6
CONTINUOUS
 62
           7
100
AcDbLine
 10
-14450.920103149519
 20
-1122.928957421853
 30
0.0
 11
-14450.479986267885
 21
-1118.953244010338
 31
0.0
  0
LINE
  5
170
100
AcDbEntity
  8
Frei
  6
CONTINUOUS
 62
           7
100
AcDbLine
 10
-14450.920103149519
 20
-1122.928957421853
 30
0.0
 11
-14455.889744913913
 21
-1122.378811319809
 31
0.0
  0
LINE
  5
171
100
AcDbEntity
  8
Frei
  6
CONTINUOUS
 62
           7
100
AcDbLine
 10
-14455.449628032278
 20
-1118.403097908294
 30
0.0
 11
-14455.889744913913
 21
-1122.378811319809
 31
0.0
  0
LINE
  5
172
100
AcDbEntity
  8
Frei
  6
CONTINUOUS
 62
           7
100
AcDbLine
 10
-14451.208247908877
 20
-1125.531859132814
 30
0.0
 11
-14450.920103149519
 21
-1122.928957421853
 31
0.0
  0
LINE
  5
173
100
AcDbEntity
  8
Frei
  6
CONTINUOUS
 62
           7
100
AcDbLine
 10
-14451.352320288555
 20
-1126.833309988294
 30
0.0
 11
-14451.208247908877
 21
-1125.531859132814
 31
0.0
  0
LINE
  5
174
100
AcDbEntity
  8
Frei
  6
CONTINUOUS
 62
           7
100
AcDbLine
 10
-14451.352320288555
 20
-1126.833309988294
 30
0.0
 11
-14456.321962052949
 21
-1126.28316388625
 31
0.0
  0
LINE
  5
175
100
AcDbEntity
  8
Frei
  6
CONTINUOUS
 62
           7
100
AcDbLine
 10
-14455.889744913913
 20
-1122.378811319809
 30
0.0
 11
-14456.321962052949
 21
-1126.28316388625
 31
0.0
  0
LINE
  5
176
100
AcDbEntity
  8
Frei
  6
CONTINUOUS
 62
           7
100
AcDbLine
 10
-14451.572378729372
 20
-1128.821166694052
 30
0.0
 11
-14451.352320288555
 21
-1126.833309988294
 31
0.0
  0
LINE
  5
177
100
AcDbEntity
  8
Frei
  6
CONTINUOUS
 62
           7
100
AcDbLine
 10
-14451.572378729372
 20
-1128.821166694052
 30
0.0
 11
-14456.542020493765
 21
-1128.271020592008
 31
0.0
  0
LINE
  5
178
100
AcDbEntity
  8
Frei
  6
CONTINUOUS
 62
           7
100
AcDbLine
 10
-14456.321962052949
 20
-1126.28316388625
 30
0.0
 11
-14456.542020493765
 21
-1128.271020592008
 31
0.0
  0
LINE
  5
179
100
AcDbEntity
  8
Frei
  6
CONTINUOUS
 62
           7
100
AcDbLine
 10
-14451.71645110905
 20
-1130.122617549532
 30
0.0
 11
-14451.572378729372
 21
-1128.821166694052
 31
0.0
  0
LINE
  5
17A
100
AcDbEntity
  8
Frei
  6
CONTINUOUS
 62
           7
100
AcDbLine
 10
-14454.797352452428
 20
-1112.510888636097
 30
0.0
 11
-14453.901887071001
 21
-1111.292618007806
 31
0.0
  0
LINE
  5
17B
100
AcDbEntity
  8
Frei
  6
CONTINUOUS
 62
           7
100
AcDbLine
 10
-14449.683638308356
 20
-1111.75958388266
 30
0.0
 11
-14453.901887071001
 21
-1111.292618007806
 31
0.0
  0
LINE
  5
17C
100
AcDbEntity
  8
Frei
  6
CONTINUOUS
 62
           7
100
AcDbLine
 10
-14455.934699871696
 20
-1129.655651674678
 30
0.0
 11
-14456.542020493765
 21
-1128.271020592008
 31
0.0
  0
LINE
  5
17D
100
AcDbEntity
  8
Frei
  6
CONTINUOUS
 62
           7
100
AcDbLine
 10
-14454.410090271174
 20
-1115.883376424524
 30
0.0
 11
-14455.017410893244
 21
-1114.498745341854
 31
0.0
  0
LINE
  5
17E
100
AcDbEntity
  8
Frei
  6
CONTINUOUS
 62
           7
100
AcDbLine
 10
-14450.191841508529
 20
-1116.350342299377
 30
0.0
 11
-14454.410090271174
 21
-1115.883376424524
 31
0.0
  0
LINE
  5
17F
100
AcDbEntity
  8
Frei
  6
CONTINUOUS
 62
           7
100
AcDbLine
 10
-14455.449628032278
 20
-1118.403097908294
 30
0.0
 11
-14454.410090271174
 21
-1115.883376424524
 31
0.0
  0
LINE
  5
180
100
AcDbEntity
  8
Frei
  6
CONTINUOUS
 62
           7
100
AcDbLine
 10
-14455.426496671522
 20
-1125.06489325796
 30
0.0
 11
-14455.889744913913
 21
-1122.378811319809
 31
0.0
  0
LINE
  5
181
100
AcDbEntity
  8
Frei
  6
CONTINUOUS
 62
           7
100
AcDbLine
 10
-14451.208247908877
 20
-1125.531859132814
 30
0.0
 11
-14455.426496671522
 21
-1125.06489325796
 31
0.0
  0
LINE
  5
182
100
AcDbEntity
  8
Frei
  6
CONTINUOUS
 62
           7
100
AcDbLine
 10
-14456.321962052949
 20
-1126.28316388625
 30
0.0
 11
-14455.426496671522
 21
-1125.06489325796
 31
0.0
  0
LINE
  5
183
100
AcDbEntity
  8
Frei
  6
CONTINUOUS
 62
           3
100
AcDbLine
 10
-14410.931907671511
 20
-1125.242876697159
 30
0.0
 11
-14428.822618023329
 21
-1123.262350729801
 31
0.0
  0
LINE
  5
184
100
AcDbEntity
  8
Frei
  6
CONTINUOUS
 62
           3
100
AcDbLine
 10
-14411.594282215485
 20
-1125.773216176641
 30
0.0
 11
-14410.931907671511
 21
-1125.242876697159
 31
0.0
  0
LINE
  5
185
100
AcDbEntity
  8
Frei
  6
CONTINUOUS
 62
           3
100
AcDbLine
 10
-14411.063942736002
 20
-1126.435590720613
 30
0.0
 11
-14411.594282215485
 21
-1125.773216176641
 31
0.0
  0
LINE
  5
186
100
AcDbEntity
  8
Frei
  6
CONTINUOUS
 62
           3
100
AcDbLine
 10
-14428.95465308782
 20
-1124.455064753255
 30
0.0
 11
-14411.063942736002
 21
-1126.435590720613
 31
0.0
  0
LINE
  5
187
100
AcDbEntity
  8
Frei
  6
CONTINUOUS
 62
           3
100
AcDbLine
 10
-14428.292278543848
 20
-1123.924725273773
 30
0.0
 11
-14428.95465308782
 21
-1124.455064753255
 31
0.0
  0
LINE
  5
188
100
AcDbEntity
  8
Frei
  6
CONTINUOUS
 62
           3
100
AcDbLine
 10
-14428.822618023329
 20
-1123.262350729801
 30
0.0
 11
-14428.292278543848
 21
-1123.924725273773
 31
0.0
  0
LINE
  5
189
100
AcDbEntity
  8
Frei
  6
CONTINUOUS
 62
           3
100
AcDbLine
 10
-14411.594282215485
 20
-1125.773216176641
 30
0.0
 11
-14428.292278543848
 21
-1123.924725273773
 31
0.0
  0
LINE
  5
18A
100
AcDbEntity
  8
Frei
  6
CONTINUOUS
 62
           3
100
AcDbLine
 10
-14428.734594647001
 20
-1122.467208047498
 30
0.0
 11
-14428.072220103029
 21
-1121.936868568016
 31
0.0
  0
LINE
  5
18B
100
AcDbEntity
  8
Frei
  6
CONTINUOUS
 62
           3
100
AcDbLine
 10
-14410.843884295184
 20
-1124.447734014856
 30
0.0
 11
-14428.734594647001
 21
-1122.467208047498
 31
0.0
  0
LINE
  5
18C
100
AcDbEntity
  8
Frei
  6
CONTINUOUS
 62
           3
100
AcDbLine
 10
-14411.374223774666
 20
-1123.785359470883
 30
0.0
 11
-14410.843884295184
 21
-1124.447734014856
 31
0.0
  0
LINE
  5
18D
100
AcDbEntity
  8
Frei
  6
CONTINUOUS
 62
           3
100
AcDbLine
 10
-14410.711849230694
 20
-1123.255019991401
 30
0.0
 11
-14411.374223774666
 21
-1123.785359470883
 31
0.0
  0
LINE
  5
18E
100
AcDbEntity
  8
Frei
  6
CONTINUOUS
 62
           3
100
AcDbLine
 10
-14428.602559582512
 20
-1121.274494024043
 30
0.0
 11
-14410.711849230694
 21
-1123.255019991401
 31
0.0
  0
LINE
  5
18F
100
AcDbEntity
  8
Frei
  6
CONTINUOUS
 62
           3
100
AcDbLine
 10
-14428.072220103029
 20
-1121.936868568016
 30
0.0
 11
-14428.602559582512
 21
-1121.274494024043
 31
0.0
  0
LINE
  5
190
100
AcDbEntity
  8
Frei
  6
CONTINUOUS
 62
           3
100
AcDbLine
 10
-14428.072220103029
 20
-1121.936868568016
 30
0.0
 11
-14411.374223774666
 21
-1123.785359470883
 31
0.0
  0
LINE
  5
191
100
AcDbEntity
  8
Frei
  6
CONTINUOUS
 62
           3
100
AcDbLine
 10
-14428.514536206185
 20
-1120.47935134174
 30
0.0
 11
-14427.852161662211
 21
-1119.949011862258
 31
0.0
  0
LINE
  5
192
100
AcDbEntity
  8
Frei
  6
CONTINUOUS
 62
           3
100
AcDbLine
 10
-14410.623825854367
 20
-1122.459877309098
 30
0.0
 11
-14428.514536206185
 21
-1120.47935134174
 31
0.0
  0
LINE
  5
193
100
AcDbEntity
  8
Frei
  6
CONTINUOUS
 62
           3
100
AcDbLine
 10
-14411.154165333848
 20
-1121.797502765126
 30
0.0
 11
-14410.623825854367
 21
-1122.459877309098
 31
0.0
  0
LINE
  5
194
100
AcDbEntity
  8
Frei
  6
CONTINUOUS
 62
           3
100
AcDbLine
 10
-14410.491790789876
 20
-1121.267163285644
 30
0.0
 11
-14411.154165333848
 21
-1121.797502765126
 31
0.0
  0
LINE
  5
195
100
AcDbEntity
  8
Frei
  6
CONTINUOUS
 62
           3
100
AcDbLine
 10
-14428.382501141694
 20
-1119.286637318286
 30
0.0
 11
-14410.491790789876
 21
-1121.267163285644
 31
0.0
  0
LINE
  5
196
100
AcDbEntity
  8
Frei
  6
CONTINUOUS
 62
           3
100
AcDbLine
 10
-14427.852161662211
 20
-1119.949011862258
 30
0.0
 11
-14428.382501141694
 21
-1119.286637318286
 31
0.0
  0
LINE
  5
197
100
AcDbEntity
  8
Frei
  6
CONTINUOUS
 62
           3
100
AcDbLine
 10
-14428.294477765367
 20
-1118.491494635983
 30
0.0
 11
-14427.632103221395
 21
-1117.961155156501
 31
0.0
  0
LINE
  5
198
100
AcDbEntity
  8
Frei
  6
CONTINUOUS
 62
           3
100
AcDbLine
 10
-14422.238552533214
 20
-1119.161893795256
 30
0.0
 11
-14428.294477765367
 21
-1118.491494635983
 31
0.0
  0
LINE
  5
199
100
AcDbEntity
  8
Frei
  6
CONTINUOUS
 62
           3
100
AcDbLine
 10
-14410.934106893032
 20
-1119.809646059368
 30
0.0
 11
-14410.403767413549
 21
-1120.472020603341
 31
0.0
  0
LINE
  5
19A
100
AcDbEntity
  8
Frei
  6
CONTINUOUS
 62
           3
100
AcDbLine
 10
-14410.271732349058
 20
-1119.279306579886
 30
0.0
 11
-14410.934106893032
 21
-1119.809646059368
 31
0.0
  0
LINE
  5
19B
100
AcDbEntity
  8
Frei
  6
CONTINUOUS
 62
           3
100
AcDbLine
 10
-14416.327657581211
 20
-1118.608907420613
 30
0.0
 11
-14410.271732349058
 21
-1119.279306579886
 31
0.0
  0
LINE
  5
19C
100
AcDbEntity
  8
Frei
  6
CONTINUOUS
 62
           3
100
AcDbLine
 10
-14427.632103221395
 20
-1117.961155156501
 30
0.0
 11
-14428.162442700876
 21
-1117.298780612528
 31
0.0
  0
LINE
  5
19D
100
AcDbEntity
  8
Frei
  6
CONTINUOUS
 62
           3
100
AcDbLine
 10
-14428.07441932455
 20
-1116.503637930225
 30
0.0
 11
-14427.412044780576
 21
-1115.973298450743
 31
0.0
  0
LINE
  5
19E
100
AcDbEntity
  8
Frei
  6
CONTINUOUS
 62
           3
100
AcDbLine
 10
-14422.760179429857
 20
-1117.091931513948
 30
0.0
 11
-14428.07441932455
 21
-1116.503637930225
 31
0.0
  0
LINE
  5
19F
100
AcDbEntity
  8
Frei
  6
CONTINUOUS
 62
           3
100
AcDbLine
 10
-14410.714048452213
 20
-1117.821789353611
 30
0.0
 11
-14410.183708972732
 21
-1118.484163897583
 31
0.0
  0
LINE
  5
1A0
100
AcDbEntity
  8
Frei
  6
CONTINUOUS
 62
           3
100
AcDbLine
 10
-14416.028288346906
 20
-1117.233495769888
 30
0.0
 11
-14410.714048452213
 21
-1117.821789353611
 31
0.0
  0
LINE
  5
1A1
100
AcDbEntity
  8
Frei
  6
CONTINUOUS
 62
           3
100
AcDbLine
 10
-14421.576177989244
 20
-1118.631554315774
 30
0.0
 11
-14427.632103221395
 21
-1117.961155156501
 31
0.0
  0
LINE
  5
1A2
100
AcDbEntity
  8
Frei
  6
CONTINUOUS
 62
           3
100
AcDbLine
 10
-14411.154165333848
 20
-1121.797502765126
 30
0.0
 11
-14427.852161662211
 21
-1119.949011862258
 31
0.0
  0
LINE
  5
1A3
100
AcDbEntity
  8
Frei
  6
CONTINUOUS
 62
           3
100
AcDbLine
 10
-14421.576177989244
 20
-1118.631554315774
 30
0.0
 11
-14422.106517468723
 21
-1117.969179771801
 31
0.0
  0
LINE
  5
1A4
100
AcDbEntity
  8
Frei
  6
CONTINUOUS
 62
           3
100
AcDbLine
 10
-14428.162442700876
 20
-1117.298780612528
 30
0.0
 11
-14422.106517468723
 21
-1117.969179771801
 31
0.0
  0
LINE
  5
1A5
100
AcDbEntity
  8
Frei
  6
CONTINUOUS
 62
           3
100
AcDbLine
 10
-14422.238552533214
 20
-1119.161893795256
 30
0.0
 11
-14421.576177989244
 21
-1118.631554315774
 31
0.0
  0
LINE
  5
1A6
100
AcDbEntity
  8
Frei
  6
CONTINUOUS
 62
           3
100
AcDbLine
 10
-14422.097804885883
 20
-1116.561592034466
 30
0.0
 11
-14422.760179429857
 21
-1117.091931513948
 31
0.0
  0
LINE
  5
1A7
100
AcDbEntity
  8
Frei
  6
CONTINUOUS
 62
           3
100
AcDbLine
 10
-14427.412044780576
 20
-1115.973298450743
 30
0.0
 11
-14422.097804885883
 21
-1116.561592034466
 31
0.0
  0
LINE
  5
1A8
100
AcDbEntity
  8
Frei
  6
CONTINUOUS
 62
           3
100
AcDbLine
 10
-14415.497948867425
 20
-1117.895870313861
 30
0.0
 11
-14416.028288346906
 21
-1117.233495769888
 31
0.0
  0
LINE
  5
1A9
100
AcDbEntity
  8
Frei
  6
CONTINUOUS
 62
           3
100
AcDbLine
 10
-14410.183708972732
 20
-1118.484163897583
 30
0.0
 11
-14415.497948867425
 21
-1117.895870313861
 31
0.0
  0
LINE
  5
1AA
100
AcDbEntity
  8
Frei
  6
CONTINUOUS
 62
           3
100
AcDbLine
 10
-14416.990032125184
 20
-1119.139246900095
 30
0.0
 11
-14416.327657581211
 21
-1118.608907420613
 31
0.0
  0
LINE
  5
1AB
100
AcDbEntity
  8
Frei
  6
CONTINUOUS
 62
           3
100
AcDbLine
 10
-14410.934106893032
 20
-1119.809646059368
 30
0.0
 11
-14416.990032125184
 21
-1119.139246900095
 31
0.0
  0
LINE
  5
1AC
100
AcDbEntity
  8
Frei
  6
CONTINUOUS
 62
           3
100
AcDbLine
 10
-14416.459692645702
 20
-1119.801621444068
 30
0.0
 11
-14416.990032125184
 21
-1119.139246900095
 31
0.0
  0
LINE
  5
1AD
100
AcDbEntity
  8
Frei
  6
CONTINUOUS
 62
           3
100
AcDbLine
 10
-14410.403767413549
 20
-1120.472020603341
 30
0.0
 11
-14416.459692645702
 21
-1119.801621444068
 31
0.0
  0
LINE
  5
1AE
100
AcDbEntity
  8
Frei
  6
CONTINUOUS
 62
           3
100
AcDbLine
 10
-14428.162442700876
 20
-1117.298780612528
 30
0.0
 11
-14428.294477765367
 21
-1118.491494635983
 31
0.0
  0
LINE
  5
1AF
100
AcDbEntity
  8
Frei
  6
CONTINUOUS
 62
           3
100
AcDbLine
 10
-14428.514536206185
 20
-1120.47935134174
 30
0.0
 11
-14428.382501141694
 21
-1119.286637318286
 31
0.0
  0
LINE
  5
1B0
100
AcDbEntity
  8
Frei
  6
CONTINUOUS
 62
           3
100
AcDbLine
 10
-14428.734594647001
 20
-1122.467208047498
 30
0.0
 11
-14428.602559582512
 21
-1121.274494024043
 31
0.0
  0
LINE
  5
1B1
100
AcDbEntity
  8
Frei
  6
CONTINUOUS
 62
           3
100
AcDbLine
 10
-14428.95465308782
 20
-1124.455064753255
 30
0.0
 11
-14428.822618023329
 21
-1123.262350729801
 31
0.0
  0
LINE
  5
1B2
100
AcDbEntity
  8
Frei
  6
CONTINUOUS
 62
           3
100
AcDbLine
 10
-14428.008401792304
 20
-1115.907280918498
 30
0.0
 11
-14428.07441932455
 21
-1116.503637930225
 31
0.0
  0
LINE
  5
1B3
100
AcDbEntity
  8
Frei
  6
CONTINUOUS
 62
           3
100
AcDbLine
 10
-14410.183708972732
 20
-1118.484163897583
 30
0.0
 11
-14410.117691440486
 21
-1117.887806885856
 31
0.0
  0
LINE
  5
1B4
100
AcDbEntity
  8
Frei
  6
CONTINUOUS
 62
           3
100
AcDbLine
 10
-14410.403767413549
 20
-1120.472020603341
 30
0.0
 11
-14410.271732349058
 21
-1119.279306579886
 31
0.0
  0
LINE
  5
1B5
100
AcDbEntity
  8
Frei
  6
CONTINUOUS
 62
           3
100
AcDbLine
 10
-14410.623825854367
 20
-1122.459877309098
 30
0.0
 11
-14410.491790789876
 21
-1121.267163285644
 31
0.0
  0
LINE
  5
1B6
100
AcDbEntity
  8
Frei
  6
CONTINUOUS
 62
           3
100
AcDbLine
 10
-14410.843884295184
 20
-1124.447734014856
 30
0.0
 11
-14410.711849230694
 21
-1123.255019991401
 31
0.0
  0
LINE
  5
1B7
100
AcDbEntity
  8
Frei
  6
CONTINUOUS
 62
           3
100
AcDbLine
 10
-14411.063942736002
 20
-1126.435590720613
 30
0.0
 11
-14410.931907671511
 21
-1125.242876697159
 31
0.0
  0
LINE
  5
1B8
100
AcDbEntity
  8
Frei
  6
CONTINUOUS
 62
           3
100
AcDbLine
 10
-14409.303475209461
 20
-1110.532737074553
 30
0.0
 11
-14409.171440144972
 21
-1109.340023051099
 31
0.0
  0
LINE
  5
1B9
100
AcDbEntity
  8
Frei
  6
CONTINUOUS
 62
           3
100
AcDbLine
 10
-14409.523533650279
 20
-1112.520593780311
 30
0.0
 11
-14409.391498585788
 21
-1111.327879756856
 31
0.0
  0
LINE
  5
1BA
100
AcDbEntity
  8
Frei
  6
CONTINUOUS
 62
           3
100
AcDbLine
 10
-14409.743592091096
 20
-1114.508450486068
 30
0.0
 11
-14409.611557026607
 21
-1113.315736462614
 31
0.0
  0
LINE
  5
1BB
100
AcDbEntity
  8
Frei
  6
CONTINUOUS
 62
           3
100
AcDbLine
 10
-14409.963650531914
 20
-1116.496307191826
 30
0.0
 11
-14409.831615467423
 21
-1115.303593168371
 31
0.0
  0
LINE
  5
1BC
100
AcDbEntity
  8
Frei
  6
CONTINUOUS
 62
           3
100
AcDbLine
 10
-14410.117691440486
 20
-1117.887806885856
 30
0.0
 11
-14410.051673908241
 21
-1117.291449874129
 31
0.0
  0
LINE
  5
1BD
100
AcDbEntity
  8
Frei
  6
CONTINUOUS
 62
           3
100
AcDbLine
 10
-14427.942384260059
 20
-1115.310923906771
 30
0.0
 11
-14428.008401792304
 21
-1115.907280918498
 31
0.0
  0
LINE
  5
1BE
100
AcDbEntity
  8
Frei
  6
CONTINUOUS
 62
           3
100
AcDbLine
 10
-14427.194185561279
 20
-1108.552211107195
 30
0.0
 11
-14427.062150496789
 21
-1107.359497083741
 31
0.0
  0
LINE
  5
1BF
100
AcDbEntity
  8
Frei
  6
CONTINUOUS
 62
           3
100
AcDbLine
 10
-14427.414244002097
 20
-1110.540067812953
 30
0.0
 11
-14427.282208937606
 21
-1109.347353789498
 31
0.0
  0
LINE
  5
1C0
100
AcDbEntity
  8
Frei
  6
CONTINUOUS
 62
           3
100
AcDbLine
 10
-14427.634302442913
 20
-1112.52792451871
 30
0.0
 11
-14427.502267378424
 21
-1111.335210495256
 31
0.0
  0
LINE
  5
1C1
100
AcDbEntity
  8
Frei
  6
CONTINUOUS
 62
           3
100
AcDbLine
 10
-14427.722325819241
 20
-1113.323067201013
 30
0.0
 11
-14427.854360883732
 21
-1114.515781224468
 31
0.0
  0
LINE
  5
1C2
100
AcDbEntity
  8
Frei
  6
CONTINUOUS
 62
           3
100
AcDbLine
 10
-14415.887540699576
 20
-1114.633194009098
 30
0.0
 11
-14409.831615467423
 21
-1115.303593168371
 31
0.0
  0
LINE
  5
1C3
100
AcDbEntity
  8
Frei
  6
CONTINUOUS
 62
           3
100
AcDbLine
 10
-14416.54991524355
 20
-1115.16353348858
 30
0.0
 11
-14415.887540699576
 21
-1114.633194009098
 31
0.0
  0
LINE
  5
1C4
100
AcDbEntity
  8
Frei
  6
CONTINUOUS
 62
           3
100
AcDbLine
 10
-14416.54991524355
 20
-1115.16353348858
 30
0.0
 11
-14410.493990011397
 21
-1115.833932647853
 31
0.0
  0
LINE
  5
1C5
100
AcDbEntity
  8
Frei
  6
CONTINUOUS
 62
           3
100
AcDbLine
 10
-14416.019575764067
 20
-1115.825908032552
 30
0.0
 11
-14416.54991524355
 21
-1115.16353348858
 31
0.0
  0
LINE
  5
1C6
100
AcDbEntity
  8
Frei
  6
CONTINUOUS
 62
           3
100
AcDbLine
 10
-14415.365913802934
 20
-1116.703156290407
 30
0.0
 11
-14410.051673908241
 21
-1117.291449874129
 31
0.0
  0
LINE
  5
1C7
100
AcDbEntity
  8
Frei
  6
CONTINUOUS
 62
           3
100
AcDbLine
 10
-14416.028288346906
 20
-1117.233495769888
 30
0.0
 11
-14415.365913802934
 21
-1116.703156290407
 31
0.0
  0
LINE
  5
1C8
100
AcDbEntity
  8
Frei
  6
CONTINUOUS
 62
           3
100
AcDbLine
 10
-14422.628144365366
 20
-1115.899217490493
 30
0.0
 11
-14422.097804885883
 21
-1116.561592034466
 31
0.0
  0
LINE
  5
1C9
100
AcDbEntity
  8
Frei
  6
CONTINUOUS
 62
           3
100
AcDbLine
 10
-14421.136061107609
 20
-1114.655840904259
 30
0.0
 11
-14421.666400587088
 21
-1113.993466360286
 31
0.0
  0
LINE
  5
1CA
100
AcDbEntity
  8
Frei
  6
CONTINUOUS
 62
           3
100
AcDbLine
 10
-14421.798435651579
 20
-1115.186180383741
 30
0.0
 11
-14427.854360883732
 21
-1114.515781224468
 31
0.0
  0
LINE
  5
1CB
100
AcDbEntity
  8
Frei
  6
CONTINUOUS
 62
           3
100
AcDbLine
 10
-14421.798435651579
 20
-1115.186180383741
 30
0.0
 11
-14421.136061107609
 21
-1114.655840904259
 31
0.0
  0
LINE
  5
1CC
100
AcDbEntity
  8
Frei
  6
CONTINUOUS
 62
           3
100
AcDbLine
 10
-14426.971927898941
 20
-1111.997585039228
 30
0.0
 11
-14410.273931570578
 21
-1113.846075942096
 31
0.0
  0
LINE
  5
1CD
100
AcDbEntity
  8
Frei
  6
CONTINUOUS
 62
           3
100
AcDbLine
 10
-14427.19198633976
 20
-1113.985441744986
 30
0.0
 11
-14421.136061107609
 21
-1114.655840904259
 31
0.0
  0
LINE
  5
1CE
100
AcDbEntity
  8
Frei
  6
CONTINUOUS
 62
           3
100
AcDbLine
 10
-14410.051673908241
 20
-1117.291449874129
 30
0.0
 11
-14410.714048452213
 21
-1117.821789353611
 31
0.0
  0
LINE
  5
1CF
100
AcDbEntity
  8
Frei
  6
CONTINUOUS
 62
           3
100
AcDbLine
 10
-14427.942384260059
 20
-1115.310923906771
 30
0.0
 11
-14422.628144365366
 21
-1115.899217490493
 31
0.0
  0
LINE
  5
1D0
100
AcDbEntity
  8
Frei
  6
CONTINUOUS
 62
           3
100
AcDbLine
 10
-14427.412044780576
 20
-1115.973298450743
 30
0.0
 11
-14427.942384260059
 21
-1115.310923906771
 31
0.0
  0
LINE
  5
1D1
100
AcDbEntity
  8
Frei
  6
CONTINUOUS
 62
           3
100
AcDbLine
 10
-14427.854360883732
 20
-1114.515781224468
 30
0.0
 11
-14427.19198633976
 21
-1113.985441744986
 31
0.0
  0
LINE
  5
1D2
100
AcDbEntity
  8
Frei
  6
CONTINUOUS
 62
           3
100
AcDbLine
 10
-14409.963650531914
 20
-1116.496307191826
 30
0.0
 11
-14416.019575764067
 21
-1115.825908032552
 31
0.0
  0
LINE
  5
1D3
100
AcDbEntity
  8
Frei
  6
CONTINUOUS
 62
           3
100
AcDbLine
 10
-14410.493990011397
 20
-1115.833932647853
 30
0.0
 11
-14409.963650531914
 21
-1116.496307191826
 31
0.0
  0
LINE
  5
1D4
100
AcDbEntity
  8
Frei
  6
CONTINUOUS
 62
           3
100
AcDbLine
 10
-14409.831615467423
 20
-1115.303593168371
 30
0.0
 11
-14410.493990011397
 21
-1115.833932647853
 31
0.0
  0
LINE
  5
1D5
100
AcDbEntity
  8
Frei
  6
CONTINUOUS
 62
           3
100
AcDbLine
 10
-14427.722325819241
 20
-1113.323067201013
 30
0.0
 11
-14421.666400587088
 21
-1113.993466360286
 31
0.0
  0
LINE
  5
1D6
100
AcDbEntity
  8
Frei
  6
CONTINUOUS
 62
           3
100
AcDbLine
 10
-14427.19198633976
 20
-1113.985441744986
 30
0.0
 11
-14427.722325819241
 21
-1113.323067201013
 31
0.0
  0
LINE
  5
1D7
100
AcDbEntity
  8
Frei
  6
CONTINUOUS
 62
           3
100
AcDbLine
 10
-14427.634302442913
 20
-1112.52792451871
 30
0.0
 11
-14426.971927898941
 21
-1111.997585039228
 31
0.0
  0
LINE
  5
1D8
100
AcDbEntity
  8
Frei
  6
CONTINUOUS
 62
           3
100
AcDbLine
 10
-14409.743592091096
 20
-1114.508450486068
 30
0.0
 11
-14427.634302442913
 21
-1112.52792451871
 31
0.0
  0
LINE
  5
1D9
100
AcDbEntity
  8
Frei
  6
CONTINUOUS
 62
           3
100
AcDbLine
 10
-14410.273931570578
 20
-1113.846075942096
 30
0.0
 11
-14409.743592091096
 21
-1114.508450486068
 31
0.0
  0
LINE
  5
1DA
100
AcDbEntity
  8
Frei
  6
CONTINUOUS
 62
           3
100
AcDbLine
 10
-14409.611557026607
 20
-1113.315736462614
 30
0.0
 11
-14410.273931570578
 21
-1113.846075942096
 31
0.0
  0
LINE
  5
1DB
100
AcDbEntity
  8
Frei
  6
CONTINUOUS
 62
           3
100
AcDbLine
 10
-14427.502267378424
 20
-1111.335210495256
 30
0.0
 11
-14409.611557026607
 21
-1113.315736462614
 31
0.0
  0
LINE
  5
1DC
100
AcDbEntity
  8
Frei
  6
CONTINUOUS
 62
           3
100
AcDbLine
 10
-14426.971927898941
 20
-1111.997585039228
 30
0.0
 11
-14427.502267378424
 21
-1111.335210495256
 31
0.0
  0
LINE
  5
1DD
100
AcDbEntity
  8
Frei
  6
CONTINUOUS
 62
           3
100
AcDbLine
 10
-14410.05387312976
 20
-1111.858219236338
 30
0.0
 11
-14426.751869458123
 21
-1110.009728333471
 31
0.0
  0
LINE
  5
1DE
100
AcDbEntity
  8
Frei
  6
CONTINUOUS
 62
           3
100
AcDbLine
 10
-14427.414244002097
 20
-1110.540067812953
 30
0.0
 11
-14426.751869458123
 21
-1110.009728333471
 31
0.0
  0
LINE
  5
1DF
100
AcDbEntity
  8
Frei
  6
CONTINUOUS
 62
           3
100
AcDbLine
 10
-14409.523533650279
 20
-1112.520593780311
 30
0.0
 11
-14427.414244002097
 21
-1110.540067812953
 31
0.0
  0
LINE
  5
1E0
100
AcDbEntity
  8
Frei
  6
CONTINUOUS
 62
           3
100
AcDbLine
 10
-14410.05387312976
 20
-1111.858219236338
 30
0.0
 11
-14409.523533650279
 21
-1112.520593780311
 31
0.0
  0
LINE
  5
1E1
100
AcDbEntity
  8
Frei
  6
CONTINUOUS
 62
           3
100
AcDbLine
 10
-14409.391498585788
 20
-1111.327879756856
 30
0.0
 11
-14410.05387312976
 21
-1111.858219236338
 31
0.0
  0
LINE
  5
1E2
100
AcDbEntity
  8
Frei
  6
CONTINUOUS
 62
           3
100
AcDbLine
 10
-14427.282208937606
 20
-1109.347353789498
 30
0.0
 11
-14409.391498585788
 21
-1111.327879756856
 31
0.0
  0
LINE
  5
1E3
100
AcDbEntity
  8
Frei
  6
CONTINUOUS
 62
           3
100
AcDbLine
 10
-14426.751869458123
 20
-1110.009728333471
 30
0.0
 11
-14427.282208937606
 21
-1109.347353789498
 31
0.0
  0
LINE
  5
1E4
100
AcDbEntity
  8
Frei
  6
CONTINUOUS
 62
           3
100
AcDbLine
 10
-14426.531811017307
 20
-1108.021871627713
 30
0.0
 11
-14409.833814688944
 21
-1109.870362530581
 31
0.0
  0
LINE
  5
1E5
100
AcDbEntity
  8
Frei
  6
CONTINUOUS
 62
           3
100
AcDbLine
 10
-14426.531811017307
 20
-1108.021871627713
 30
0.0
 11
-14427.194185561279
 21
-1108.552211107195
 31
0.0
  0
LINE
  5
1E6
100
AcDbEntity
  8
Frei
  6
CONTINUOUS
 62
           3
100
AcDbLine
 10
-14427.062150496789
 20
-1107.359497083741
 30
0.0
 11
-14426.531811017307
 21
-1108.021871627713
 31
0.0
  0
LINE
  5
1E7
100
AcDbEntity
  8
Frei
  6
CONTINUOUS
 62
           3
100
AcDbLine
 10
-14409.171440144972
 20
-1109.340023051099
 30
0.0
 11
-14427.062150496789
 21
-1107.359497083741
 31
0.0
  0
LINE
  5
1E8
100
AcDbEntity
  8
Frei
  6
CONTINUOUS
 62
           3
100
AcDbLine
 10
-14409.833814688944
 20
-1109.870362530581
 30
0.0
 11
-14409.171440144972
 21
-1109.340023051099
 31
0.0
  0
LINE
  5
1E9
100
AcDbEntity
  8
Frei
  6
CONTINUOUS
 62
           3
100
AcDbLine
 10
-14409.303475209461
 20
-1110.532737074553
 30
0.0
 11
-14409.833814688944
 21
-1109.870362530581
 31
0.0
  0
LINE
  5
1EA
100
AcDbEntity
  8
Frei
  6
CONTINUOUS
 62
           3
100
AcDbLine
 10
-14427.194185561279
 20
-1108.552211107195
 30
0.0
 11
-14409.303475209461
 21
-1110.532737074553
 31
0.0
  0
LINE
  5
1EB
100
AcDbEntity
  8
Frei
  6
CONTINUOUS
 62
           3
100
AcDbLine
 10
-14237.353870161438
 20
-1129.567792205271
 30
0.0
 11
-14219.463159809622
 21
-1131.548318172629
 31
0.0
  0
LINE
  5
1EC
100
AcDbEntity
  8
Frei
  6
CONTINUOUS
 62
           3
100
AcDbLine
 10
-14236.691495617468
 20
-1129.037452725789
 30
0.0
 11
-14237.353870161438
 21
-1129.567792205271
 31
0.0
  0
LINE
  5
1ED
100
AcDbEntity
  8
Frei
  6
CONTINUOUS
 62
           3
100
AcDbLine
 10
-14237.221835096949
 20
-1128.375078181816
 30
0.0
 11
-14236.691495617468
 21
-1129.037452725789
 31
0.0
  0
LINE
  5
1EE
100
AcDbEntity
  8
Frei
  6
CONTINUOUS
 62
           3
100
AcDbLine
 10
-14219.331124745133
 20
-1130.355604149174
 30
0.0
 11
-14237.221835096949
 21
-1128.375078181816
 31
0.0
  0
LINE
  5
1EF
100
AcDbEntity
  8
Frei
  6
CONTINUOUS
 62
           3
100
AcDbLine
 10
-14219.993499289105
 20
-1130.885943628656
 30
0.0
 11
-14219.331124745133
 21
-1130.355604149174
 31
0.0
  0
LINE
  5
1F0
100
AcDbEntity
  8
Frei
  6
CONTINUOUS
 62
           3
100
AcDbLine
 10
-14219.463159809622
 20
-1131.548318172629
 30
0.0
 11
-14219.993499289105
 21
-1130.885943628656
 31
0.0
  0
LINE
  5
1F1
100
AcDbEntity
  8
Frei
  6
CONTINUOUS
 62
           3
100
AcDbLine
 10
-14236.691495617468
 20
-1129.037452725789
 30
0.0
 11
-14219.993499289105
 21
-1130.885943628656
 31
0.0
  0
LINE
  5
1F2
100
AcDbEntity
  8
Frei
  6
CONTINUOUS
 62
           3
100
AcDbLine
 10
-14219.551183185949
 20
-1132.343460854932
 30
0.0
 11
-14220.213557729921
 21
-1132.873800334414
 31
0.0
  0
LINE
  5
1F3
100
AcDbEntity
  8
Frei
  6
CONTINUOUS
 62
           3
100
AcDbLine
 10
-14237.441893537765
 20
-1130.362934887574
 30
0.0
 11
-14219.551183185949
 21
-1132.343460854932
 31
0.0
  0
LINE
  5
1F4
100
AcDbEntity
  8
Frei
  6
CONTINUOUS
 62
           3
100
AcDbLine
 10
-14236.911554058284
 20
-1131.025309431546
 30
0.0
 11
-14237.441893537765
 21
-1130.362934887574
 31
0.0
  0
LINE
  5
1F5
100
AcDbEntity
  8
Frei
  6
CONTINUOUS
 62
           3
100
AcDbLine
 10
-14237.573928602256
 20
-1131.555648911028
 30
0.0
 11
-14236.911554058284
 21
-1131.025309431546
 31
0.0
  0
LINE
  5
1F6
100
AcDbEntity
  8
Frei
  6
CONTINUOUS
 62
           3
100
AcDbLine
 10
-14219.68321825044
 20
-1133.536174878386
 30
0.0
 11
-14237.573928602256
 21
-1131.555648911028
 31
0.0
  0
LINE
  5
1F7
100
AcDbEntity
  8
Frei
  6
CONTINUOUS
 62
           3
100
AcDbLine
 10
-14220.213557729921
 20
-1132.873800334414
 30
0.0
 11
-14219.68321825044
 21
-1133.536174878386
 31
0.0
  0
LINE
  5
1F8
100
AcDbEntity
  8
Frei
  6
CONTINUOUS
 62
           3
100
AcDbLine
 10
-14220.213557729921
 20
-1132.873800334414
 30
0.0
 11
-14236.911554058284
 21
-1131.025309431546
 31
0.0
  0
LINE
  5
1F9
100
AcDbEntity
  8
Frei
  6
CONTINUOUS
 62
           3
100
AcDbLine
 10
-14219.771241626768
 20
-1134.331317560689
 30
0.0
 11
-14220.43361617074
 21
-1134.861657040171
 31
0.0
  0
LINE
  5
1FA
100
AcDbEntity
  8
Frei
  6
CONTINUOUS
 62
           3
100
AcDbLine
 10
-14237.661951978584
 20
-1132.350791593331
 30
0.0
 11
-14219.771241626768
 21
-1134.331317560689
 31
0.0
  0
LINE
  5
1FB
100
AcDbEntity
  8
Frei
  6
CONTINUOUS
 62
           3
100
AcDbLine
 10
-14237.131612499103
 20
-1133.013166137304
 30
0.0
 11
-14237.661951978584
 21
-1132.350791593331
 31
0.0
  0
LINE
  5
1FC
100
AcDbEntity
  8
Frei
  6
CONTINUOUS
 62
           3
100
AcDbLine
 10
-14237.793987043073
 20
-1133.543505616786
 30
0.0
 11
-14237.131612499103
 21
-1133.013166137304
 31
0.0
  0
LINE
  5
1FD
100
AcDbEntity
  8
Frei
  6
CONTINUOUS
 62
           3
100
AcDbLine
 10
-14219.903276691257
 20
-1135.524031584144
 30
0.0
 11
-14237.793987043073
 21
-1133.543505616786
 31
0.0
  0
LINE
  5
1FE
100
AcDbEntity
  8
Frei
  6
CONTINUOUS
 62
           3
100
AcDbLine
 10
-14220.43361617074
 20
-1134.861657040171
 30
0.0
 11
-14219.903276691257
 21
-1135.524031584144
 31
0.0
  0
LINE
  5
1FF
100
AcDbEntity
  8
Frei
  6
CONTINUOUS
 62
           3
100
AcDbLine
 10
-14219.991300067584
 20
-1136.319174266447
 30
0.0
 11
-14220.653674611558
 21
-1136.849513745929
 31
0.0
  0
LINE
  5
200
100
AcDbEntity
  8
Frei
  6
CONTINUOUS
 62
           3
100
AcDbLine
 10
-14226.047225299737
 20
-1135.648775107174
 30
0.0
 11
-14219.991300067584
 21
-1136.319174266447
 31
0.0
  0
LINE
  5
201
100
AcDbEntity
  8
Frei
  6
CONTINUOUS
 62
           3
100
AcDbLine
 10
-14237.351670939921
 20
-1135.001022843061
 30
0.0
 11
-14237.8820104194
 21
-1134.338648299089
 31
0.0
  0
LINE
  5
202
100
AcDbEntity
  8
Frei
  6
CONTINUOUS
 62
           3
100
AcDbLine
 10
-14238.014045483891
 20
-1135.531362322543
 30
0.0
 11
-14237.351670939921
 21
-1135.001022843061
 31
0.0
  0
LINE
  5
203
100
AcDbEntity
  8
Frei
  6
CONTINUOUS
 62
           3
100
AcDbLine
 10
-14231.95812025174
 20
-1136.201761481816
 30
0.0
 11
-14238.014045483891
 21
-1135.531362322543
 31
0.0
  0
LINE
  5
204
100
AcDbEntity
  8
Frei
  6
CONTINUOUS
 62
           3
100
AcDbLine
 10
-14220.653674611558
 20
-1136.849513745929
 30
0.0
 11
-14220.123335132075
 21
-1137.511888289901
 31
0.0
  0
LINE
  5
205
100
AcDbEntity
  8
Frei
  6
CONTINUOUS
 62
           3
100
AcDbLine
 10
-14220.211358508403
 20
-1138.307030972204
 30
0.0
 11
-14220.873733052375
 21
-1138.837370451686
 31
0.0
  0
LINE
  5
206
100
AcDbEntity
  8
Frei
  6
CONTINUOUS
 62
           3
100
AcDbLine
 10
-14225.525598403096
 20
-1137.718737388482
 30
0.0
 11
-14220.211358508403
 21
-1138.307030972204
 31
0.0
  0
LINE
  5
207
100
AcDbEntity
  8
Frei
  6
CONTINUOUS
 62
           3
100
AcDbLine
 10
-14237.571729380737
 20
-1136.988879548818
 30
0.0
 11
-14238.102068860218
 21
-1136.326505004846
 31
0.0
  0
LINE
  5
208
100
AcDbEntity
  8
Frei
  6
CONTINUOUS
 62
           3
100
AcDbLine
 10
-14226.709599843709
 20
-1136.179114586656
 30
0.0
 11
-14220.653674611558
 21
-1136.849513745929
 31
0.0
  0
LINE
  5
209
100
AcDbEntity
  8
Frei
  6
CONTINUOUS
 62
           3
100
AcDbLine
 10
-14237.131612499103
 20
-1133.013166137304
 30
0.0
 11
-14220.43361617074
 21
-1134.861657040171
 31
0.0
  0
LINE
  5
20A
100
AcDbEntity
  8
Frei
  6
CONTINUOUS
 62
           3
100
AcDbLine
 10
-14226.709599843709
 20
-1136.179114586656
 30
0.0
 11
-14226.179260364228
 21
-1136.841489130628
 31
0.0
  0
LINE
  5
20B
100
AcDbEntity
  8
Frei
  6
CONTINUOUS
 62
           3
100
AcDbLine
 10
-14220.123335132075
 20
-1137.511888289901
 30
0.0
 11
-14226.179260364228
 21
-1136.841489130628
 31
0.0
  0
LINE
  5
20C
100
AcDbEntity
  8
Frei
  6
CONTINUOUS
 62
           3
100
AcDbLine
 10
-14226.047225299737
 20
-1135.648775107174
 30
0.0
 11
-14226.709599843709
 21
-1136.179114586656
 31
0.0
  0
LINE
  5
20D
100
AcDbEntity
  8
Frei
  6
CONTINUOUS
 62
           3
100
AcDbLine
 10
-14226.187972947067
 20
-1138.249076867964
 30
0.0
 11
-14225.525598403096
 21
-1137.718737388482
 31
0.0
  0
LINE
  5
20E
100
AcDbEntity
  8
Frei
  6
CONTINUOUS
 62
           3
100
AcDbLine
 10
-14232.787828965527
 20
-1136.914798588568
 30
0.0
 11
-14232.257489486045
 21
-1137.577173132541
 31
0.0
  0
LINE
  5
20F
100
AcDbEntity
  8
Frei
  6
CONTINUOUS
 62
           3
100
AcDbLine
 10
-14238.102068860218
 20
-1136.326505004846
 30
0.0
 11
-14232.787828965527
 21
-1136.914798588568
 31
0.0
  0
LINE
  5
210
100
AcDbEntity
  8
Frei
  6
CONTINUOUS
 62
           3
100
AcDbLine
 10
-14231.295745707768
 20
-1135.671422002334
 30
0.0
 11
-14231.95812025174
 21
-1136.201761481816
 31
0.0
  0
LINE
  5
211
100
AcDbEntity
  8
Frei
  6
CONTINUOUS
 62
           3
100
AcDbLine
 10
-14237.351670939921
 20
-1135.001022843061
 30
0.0
 11
-14231.295745707768
 21
-1135.671422002334
 31
0.0
  0
LINE
  5
212
100
AcDbEntity
  8
Frei
  6
CONTINUOUS
 62
           3
100
AcDbLine
 10
-14231.826085187249
 20
-1135.009047458362
 30
0.0
 11
-14231.295745707768
 21
-1135.671422002334
 31
0.0
  0
LINE
  5
213
100
AcDbEntity
  8
Frei
  6
CONTINUOUS
 62
           3
100
AcDbLine
 10
-14237.8820104194
 20
-1134.338648299089
 30
0.0
 11
-14231.826085187249
 21
-1135.009047458362
 31
0.0
  0
LINE
  5
214
100
AcDbEntity
  8
Frei
  6
CONTINUOUS
 62
           3
100
AcDbLine
 10
-14220.123335132075
 20
-1137.511888289901
 30
0.0
 11
-14219.991300067584
 21
-1136.319174266447
 31
0.0
  0
LINE
  5
215
100
AcDbEntity
  8
Frei
  6
CONTINUOUS
 62
           3
100
AcDbLine
 10
-14219.771241626768
 20
-1134.331317560689
 30
0.0
 11
-14219.903276691257
 21
-1135.524031584144
 31
0.0
  0
LINE
  5
216
100
AcDbEntity
  8
Frei
  6
CONTINUOUS
 62
           3
100
AcDbLine
 10
-14219.551183185949
 20
-1132.343460854932
 30
0.0
 11
-14219.68321825044
 21
-1133.536174878386
 31
0.0
  0
LINE
  5
217
100
AcDbEntity
  8
Frei
  6
CONTINUOUS
 62
           3
100
AcDbLine
 10
-14219.331124745133
 20
-1130.355604149174
 30
0.0
 11
-14219.463159809622
 21
-1131.548318172629
 31
0.0
  0
LINE
  5
218
100
AcDbEntity
  8
Frei
  6
CONTINUOUS
 62
           3
100
AcDbLine
 10
-14220.277376040647
 20
-1138.903387983931
 30
0.0
 11
-14220.211358508403
 21
-1138.307030972204
 31
0.0
  0
LINE
  5
219
100
AcDbEntity
  8
Frei
  6
CONTINUOUS
 62
           3
100
AcDbLine
 10
-14238.102068860218
 20
-1136.326505004846
 30
0.0
 11
-14238.168086392463
 21
-1136.922862016573
 31
0.0
  0
LINE
  5
21A
100
AcDbEntity
  8
Frei
  6
CONTINUOUS
 62
           3
100
AcDbLine
 10
-14237.8820104194
 20
-1134.338648299089
 30
0.0
 11
-14238.014045483891
 21
-1135.531362322543
 31
0.0
  0
LINE
  5
21B
100
AcDbEntity
  8
Frei
  6
CONTINUOUS
 62
           3
100
AcDbLine
 10
-14237.661951978584
 20
-1132.350791593331
 30
0.0
 11
-14237.793987043073
 21
-1133.543505616786
 31
0.0
  0
LINE
  5
21C
100
AcDbEntity
  8
Frei
  6
CONTINUOUS
 62
           3
100
AcDbLine
 10
-14237.441893537765
 20
-1130.362934887574
 30
0.0
 11
-14237.573928602256
 21
-1131.555648911028
 31
0.0
  0
LINE
  5
21D
100
AcDbEntity
  8
Frei
  6
CONTINUOUS
 62
           3
100
AcDbLine
 10
-14237.221835096949
 20
-1128.375078181816
 30
0.0
 11
-14237.353870161438
 21
-1129.567792205271
 31
0.0
  0
LINE
  5
21E
100
AcDbEntity
  8
Frei
  6
CONTINUOUS
 62
           3
100
AcDbLine
 10
-14238.982302623488
 20
-1144.277931827876
 30
0.0
 11
-14239.114337687979
 21
-1145.470645851331
 31
0.0
  0
LINE
  5
21F
100
AcDbEntity
  8
Frei
  6
CONTINUOUS
 62
           3
100
AcDbLine
 10
-14238.762244182672
 20
-1142.290075122119
 30
0.0
 11
-14238.894279247161
 21
-1143.482789145573
 31
0.0
  0
LINE
  5
220
100
AcDbEntity
  8
Frei
  6
CONTINUOUS
 62
           3
100
AcDbLine
 10
-14238.542185741853
 20
-1140.302218416361
 30
0.0
 11
-14238.674220806344
 21
-1141.494932439816
 31
0.0
  0
LINE
  5
221
100
AcDbEntity
  8
Frei
  6
CONTINUOUS
 62
           3
100
AcDbLine
 10
-14238.322127301035
 20
-1138.314361710604
 30
0.0
 11
-14238.454162365526
 21
-1139.507075734058
 31
0.0
  0
LINE
  5
222
100
AcDbEntity
  8
Frei
  6
CONTINUOUS
 62
           3
100
AcDbLine
 10
-14238.168086392463
 20
-1136.922862016573
 30
0.0
 11
-14238.234103924709
 21
-1137.519219028301
 31
0.0
  0
LINE
  5
223
100
AcDbEntity
  8
Frei
  6
CONTINUOUS
 62
           3
100
AcDbLine
 10
-14220.343393572894
 20
-1139.499744995659
 30
0.0
 11
-14220.277376040647
 21
-1138.903387983931
 31
0.0
  0
LINE
  5
224
100
AcDbEntity
  8
Frei
  6
CONTINUOUS
 62
           3
100
AcDbLine
 10
-14221.091592271672
 20
-1146.258457795234
 30
0.0
 11
-14221.223627336163
 21
-1147.451171818688
 31
0.0
  0
LINE
  5
225
100
AcDbEntity
  8
Frei
  6
CONTINUOUS
 62
           3
100
AcDbLine
 10
-14220.871533830856
 20
-1144.270601089477
 30
0.0
 11
-14221.003568895345
 21
-1145.463315112931
 31
0.0
  0
LINE
  5
226
100
AcDbEntity
  8
Frei
  6
CONTINUOUS
 62
           3
100
AcDbLine
 10
-14220.651475390037
 20
-1142.282744383719
 30
0.0
 11
-14220.783510454528
 21
-1143.475458407173
 31
0.0
  0
LINE
  5
227
100
AcDbEntity
  8
Frei
  6
CONTINUOUS
 62
           3
100
AcDbLine
 10
-14220.56345201371
 20
-1141.487601701416
 30
0.0
 11
-14220.431416949219
 21
-1140.294887677962
 31
0.0
  0
LINE
  5
228
100
AcDbEntity
  8
Frei
  6
CONTINUOUS
 62
           3
100
AcDbLine
 10
-14232.398237133375
 20
-1140.177474893331
 30
0.0
 11
-14238.454162365526
 21
-1139.507075734058
 31
0.0
  0
LINE
  5
229
100
AcDbEntity
  8
Frei
  6
CONTINUOUS
 62
           3
100
AcDbLine
 10
-14231.735862589403
 20
-1139.647135413849
 30
0.0
 11
-14232.398237133375
 21
-1140.177474893331
 31
0.0
  0
LINE
  5
22A
100
AcDbEntity
  8
Frei
  6
CONTINUOUS
 62
           3
100
AcDbLine
 10
-14231.735862589403
 20
-1139.647135413849
 30
0.0
 11
-14237.791787821556
 21
-1138.976736254576
 31
0.0
  0
LINE
  5
22B
100
AcDbEntity
  8
Frei
  6
CONTINUOUS
 62
           3
100
AcDbLine
 10
-14232.266202068884
 20
-1138.984760869877
 30
0.0
 11
-14231.735862589403
 21
-1139.647135413849
 31
0.0
  0
LINE
  5
22C
100
AcDbEntity
  8
Frei
  6
CONTINUOUS
 62
           3
100
AcDbLine
 10
-14232.919864030018
 20
-1138.107512612023
 30
0.0
 11
-14238.234103924709
 21
-1137.519219028301
 31
0.0
  0
LINE
  5
22D
100
AcDbEntity
  8
Frei
  6
CONTINUOUS
 62
           3
100
AcDbLine
 10
-14232.257489486045
 20
-1137.577173132541
 30
0.0
 11
-14232.919864030018
 21
-1138.107512612023
 31
0.0
  0
LINE
  5
22E
100
AcDbEntity
  8
Frei
  6
CONTINUOUS
 62
           3
100
AcDbLine
 10
-14226.187972947067
 20
-1138.249076867964
 30
0.0
 11
-14220.873733052375
 21
-1138.837370451686
 31
0.0
  0
LINE
  5
22F
100
AcDbEntity
  8
Frei
  6
CONTINUOUS
 62
           3
100
AcDbLine
 10
-14225.657633467586
 20
-1138.911451411936
 30
0.0
 11
-14226.187972947067
 21
-1138.249076867964
 31
0.0
  0
LINE
  5
230
100
AcDbEntity
  8
Frei
  6
CONTINUOUS
 62
           3
100
AcDbLine
 10
-14227.149716725344
 20
-1140.154827998171
 30
0.0
 11
-14226.619377245863
 21
-1140.817202542143
 31
0.0
  0
LINE
  5
231
100
AcDbEntity
  8
Frei
  6
CONTINUOUS
 62
           3
100
AcDbLine
 10
-14226.487342181372
 20
-1139.624488518689
 30
0.0
 11
-14220.431416949219
 21
-1140.294887677962
 31
0.0
  0
LINE
  5
232
100
AcDbEntity
  8
Frei
  6
CONTINUOUS
 62
           3
100
AcDbLine
 10
-14226.487342181372
 20
-1139.624488518689
 30
0.0
 11
-14227.149716725344
 21
-1140.154827998171
 31
0.0
  0
LINE
  5
233
100
AcDbEntity
  8
Frei
  6
CONTINUOUS
 62
           3
100
AcDbLine
 10
-14221.313849934009
 20
-1142.813083863201
 30
0.0
 11
-14238.011846262372
 21
-1140.964592960333
 31
0.0
  0
LINE
  5
234
100
AcDbEntity
  8
Frei
  6
CONTINUOUS
 62
           3
100
AcDbLine
 10
-14221.093791493193
 20
-1140.825227157444
 30
0.0
 11
-14227.149716725344
 21
-1140.154827998171
 31
0.0
  0
LINE
  5
235
100
AcDbEntity
  8
Frei
  6
CONTINUOUS
 62
           3
100
AcDbLine
 10
-14237.571729380737
 20
-1136.988879548818
 30
0.0
 11
-14232.257489486045
 21
-1137.577173132541
 31
0.0
  0
LINE
  5
236
100
AcDbEntity
  8
Frei
  6
CONTINUOUS
 62
           3
100
AcDbLine
 10
-14238.234103924709
 20
-1137.519219028301
 30
0.0
 11
-14237.571729380737
 21
-1136.988879548818
 31
0.0
  0
LINE
  5
237
100
AcDbEntity
  8
Frei
  6
CONTINUOUS
 62
           3
100
AcDbLine
 10
-14220.343393572894
 20
-1139.499744995659
 30
0.0
 11
-14225.657633467586
 21
-1138.911451411936
 31
0.0
  0
LINE
  5
238
100
AcDbEntity
  8
Frei
  6
CONTINUOUS
 62
           3
100
AcDbLine
 10
-14220.873733052375
 20
-1138.837370451686
 30
0.0
 11
-14220.343393572894
 21
-1139.499744995659
 31
0.0
  0
LINE
  5
239
100
AcDbEntity
  8
Frei
  6
CONTINUOUS
 62
           3
100
AcDbLine
 10
-14220.431416949219
 20
-1140.294887677962
 30
0.0
 11
-14221.093791493193
 21
-1140.825227157444
 31
0.0
  0
LINE
  5
23A
100
AcDbEntity
  8
Frei
  6
CONTINUOUS
 62
           3
100
AcDbLine
 10
-14238.322127301035
 20
-1138.314361710604
 30
0.0
 11
-14232.266202068884
 21
-1138.984760869877
 31
0.0
  0
LINE
  5
23B
100
AcDbEntity
  8
Frei
  6
CONTINUOUS
 62
           3
100
AcDbLine
 10
-14237.791787821556
 20
-1138.976736254576
 30
0.0
 11
-14238.322127301035
 21
-1138.314361710604
 31
0.0
  0
LINE
  5
23C
100
AcDbEntity
  8
Frei
  6
CONTINUOUS
 62
           3
100
AcDbLine
 10
-14238.454162365526
 20
-1139.507075734058
 30
0.0
 11
-14237.791787821556
 21
-1138.976736254576
 31
0.0
  0
LINE
  5
23D
100
AcDbEntity
  8
Frei
  6
CONTINUOUS
 62
           3
100
AcDbLine
 10
-14220.56345201371
 20
-1141.487601701416
 30
0.0
 11
-14226.619377245863
 21
-1140.817202542143
 31
0.0
  0
LINE
  5
23E
100
AcDbEntity
  8
Frei
  6
CONTINUOUS
 62
           3
100
AcDbLine
 10
-14221.093791493193
 20
-1140.825227157444
 30
0.0
 11
-14220.56345201371
 21
-1141.487601701416
 31
0.0
  0
LINE
  5
23F
100
AcDbEntity
  8
Frei
  6
CONTINUOUS
 62
           3
100
AcDbLine
 10
-14220.651475390037
 20
-1142.282744383719
 30
0.0
 11
-14221.313849934009
 21
-1142.813083863201
 31
0.0
  0
LINE
  5
240
100
AcDbEntity
  8
Frei
  6
CONTINUOUS
 62
           3
100
AcDbLine
 10
-14238.542185741853
 20
-1140.302218416361
 30
0.0
 11
-14220.651475390037
 21
-1142.282744383719
 31
0.0
  0
LINE
  5
241
100
AcDbEntity
  8
Frei
  6
CONTINUOUS
 62
           3
100
AcDbLine
 10
-14238.011846262372
 20
-1140.964592960333
 30
0.0
 11
-14238.542185741853
 21
-1140.302218416361
 31
0.0
  0
LINE
  5
242
100
AcDbEntity
  8
Frei
  6
CONTINUOUS
 62
           3
100
AcDbLine
 10
-14238.674220806344
 20
-1141.494932439816
 30
0.0
 11
-14238.011846262372
 21
-1140.964592960333
 31
0.0
  0
LINE
  5
243
100
AcDbEntity
  8
Frei
  6
CONTINUOUS
 62
           3
100
AcDbLine
 10
-14220.783510454528
 20
-1143.475458407173
 30
0.0
 11
-14238.674220806344
 21
-1141.494932439816
 31
0.0
  0
LINE
  5
244
100
AcDbEntity
  8
Frei
  6
CONTINUOUS
 62
           3
100
AcDbLine
 10
-14221.313849934009
 20
-1142.813083863201
 30
0.0
 11
-14220.783510454528
 21
-1143.475458407173
 31
0.0
  0
LINE
  5
245
100
AcDbEntity
  8
Frei
  6
CONTINUOUS
 62
           3
100
AcDbLine
 10
-14238.231904703191
 20
-1142.952449666091
 30
0.0
 11
-14221.533908374828
 21
-1144.800940568958
 31
0.0
  0
LINE
  5
246
100
AcDbEntity
  8
Frei
  6
CONTINUOUS
 62
           3
100
AcDbLine
 10
-14220.871533830856
 20
-1144.270601089477
 30
0.0
 11
-14221.533908374828
 21
-1144.800940568958
 31
0.0
  0
LINE
  5
247
100
AcDbEntity
  8
Frei
  6
CONTINUOUS
 62
           3
100
AcDbLine
 10
-14238.762244182672
 20
-1142.290075122119
 30
0.0
 11
-14220.871533830856
 21
-1144.270601089477
 31
0.0
  0
LINE
  5
248
100
AcDbEntity
  8
Frei
  6
CONTINUOUS
 62
           3
100
AcDbLine
 10
-14238.231904703191
 20
-1142.952449666091
 30
0.0
 11
-14238.762244182672
 21
-1142.290075122119
 31
0.0
  0
LINE
  5
249
100
AcDbEntity
  8
Frei
  6
CONTINUOUS
 62
           3
100
AcDbLine
 10
-14238.894279247161
 20
-1143.482789145573
 30
0.0
 11
-14238.231904703191
 21
-1142.952449666091
 31
0.0
  0
LINE
  5
24A
100
AcDbEntity
  8
Frei
  6
CONTINUOUS
 62
           3
100
AcDbLine
 10
-14221.003568895345
 20
-1145.463315112931
 30
0.0
 11
-14238.894279247161
 21
-1143.482789145573
 31
0.0
  0
LINE
  5
24B
100
AcDbEntity
  8
Frei
  6
CONTINUOUS
 62
           3
100
AcDbLine
 10
-14221.533908374828
 20
-1144.800940568958
 30
0.0
 11
-14221.003568895345
 21
-1145.463315112931
 31
0.0
  0
LINE
  5
24C
100
AcDbEntity
  8
Frei
  6
CONTINUOUS
 62
           3
100
AcDbLine
 10
-14221.753966815646
 20
-1146.788797274716
 30
0.0
 11
-14238.451963144009
 21
-1144.940306371849
 31
0.0
  0
LINE
  5
24D
100
AcDbEntity
  8
Frei
  6
CONTINUOUS
 62
           3
100
AcDbLine
 10
-14221.753966815646
 20
-1146.788797274716
 30
0.0
 11
-14221.091592271672
 21
-1146.258457795234
 31
0.0
  0
LINE
  5
24E
100
AcDbEntity
  8
Frei
  6
CONTINUOUS
 62
           3
100
AcDbLine
 10
-14221.223627336163
 20
-1147.451171818688
 30
0.0
 11
-14221.753966815646
 21
-1146.788797274716
 31
0.0
  0
LINE
  5
24F
100
AcDbEntity
  8
Frei
  6
CONTINUOUS
 62
           3
100
AcDbLine
 10
-14239.114337687979
 20
-1145.470645851331
 30
0.0
 11
-14221.223627336163
 21
-1147.451171818688
 31
0.0
  0
LINE
  5
250
100
AcDbEntity
  8
Frei
  6
CONTINUOUS
 62
           3
100
AcDbLine
 10
-14238.451963144009
 20
-1144.940306371849
 30
0.0
 11
-14239.114337687979
 21
-1145.470645851331
 31
0.0
  0
LINE
  5
251
100
AcDbEntity
  8
Frei
  6
CONTINUOUS
 62
           3
100
AcDbLine
 10
-14238.982302623488
 20
-1144.277931827876
 30
0.0
 11
-14238.451963144009
 21
-1144.940306371849
 31
0.0
  0
LINE
  5
252
100
AcDbEntity
  8
Frei
  6
CONTINUOUS
 62
           3
100
AcDbLine
 10
-14221.091592271672
 20
-1146.258457795234
 30
0.0
 11
-14238.982302623488
 21
-1144.277931827876
 31
0.0
  0
LINE
  5
253
100
AcDbEntity
  8
Frei
  6
CONTINUOUS
 62
           7
100
AcDbLine
 10
-14195.526125867909
 20
-1153.836217771087
 30
0.0
 11
-14194.918805245839
 21
-1155.220848853757
 31
0.0
  0
LINE
  5
254
100
AcDbEntity
  8
Frei
  6
CONTINUOUS
 62
           7
100
AcDbLine
 10
-14195.526125867909
 20
-1153.836217771087
 30
0.0
 11
-14199.744374630554
 21
-1153.369251896233
 31
0.0
  0
LINE
  5
255
100
AcDbEntity
  8
Frei
  6
CONTINUOUS
 62
           7
100
AcDbLine
 10
-14194.486588106804
 20
-1151.316496287316
 30
0.0
 11
-14195.526125867909
 21
-1153.836217771087
 31
0.0
  0
LINE
  5
256
100
AcDbEntity
  8
Frei
  6
CONTINUOUS
 62
           7
100
AcDbLine
 10
-14194.509719467562
 20
-1144.654700937651
 30
0.0
 11
-14194.046471225169
 21
-1147.340782875801
 31
0.0
  0
LINE
  5
257
100
AcDbEntity
  8
Frei
  6
CONTINUOUS
 62
           7
100
AcDbLine
 10
-14194.509719467562
 20
-1144.654700937651
 30
0.0
 11
-14198.727968230207
 21
-1144.187735062797
 31
0.0
  0
LINE
  5
258
100
AcDbEntity
  8
Frei
  6
CONTINUOUS
 62
           7
100
AcDbLine
 10
-14193.614254086135
 20
-1143.436430309361
 30
0.0
 11
-14194.509719467562
 21
-1144.654700937651
 31
0.0
  0
LINE
  5
259
100
AcDbEntity
  8
Frei
  6
CONTINUOUS
 62
           7
100
AcDbLine
 10
-14195.138863686656
 20
-1157.208705559515
 30
0.0
 11
-14196.034329068083
 21
-1158.426976187805
 31
0.0
  0
LINE
  5
25A
100
AcDbEntity
  8
Frei
  6
CONTINUOUS
 62
           7
100
AcDbLine
 10
-14194.001516267388
 20
-1140.063942520933
 30
0.0
 11
-14198.219765030033
 21
-1139.596976646079
 31
0.0
  0
LINE
  5
25B
100
AcDbEntity
  8
Frei
  6
CONTINUOUS
 62
           7
100
AcDbLine
 10
-14194.001516267388
 20
-1140.063942520933
 30
0.0
 11
-14193.394195645318
 21
-1141.448573603604
 31
0.0
  0
LINE
  5
25C
100
AcDbEntity
  8
Frei
  6
CONTINUOUS
 62
           7
100
AcDbLine
 10
-14200.108505451049
 20
-1156.658559457471
 30
0.0
 11
-14200.252577830728
 21
-1157.960010312951
 31
0.0
  0
LINE
  5
25D
100
AcDbEntity
  8
Frei
  6
CONTINUOUS
 62
           7
100
AcDbLine
 10
-14195.138863686656
 20
-1157.208705559515
 30
0.0
 11
-14194.918805245839
 21
-1155.220848853757
 31
0.0
  0
LINE
  5
25E
100
AcDbEntity
  8
Frei
  6
CONTINUOUS
 62
           7
100
AcDbLine
 10
-14195.138863686656
 20
-1157.208705559515
 30
0.0
 11
-14200.108505451049
 21
-1156.658559457471
 31
0.0
  0
LINE
  5
25F
100
AcDbEntity
  8
Frei
  6
CONTINUOUS
 62
           7
100
AcDbLine
 10
-14199.888447010233
 20
-1154.670702751714
 30
0.0
 11
-14200.108505451049
 21
-1156.658559457471
 31
0.0
  0
LINE
  5
260
100
AcDbEntity
  8
Frei
  6
CONTINUOUS
 62
           7
100
AcDbLine
 10
-14194.918805245839
 20
-1155.220848853757
 30
0.0
 11
-14194.486588106804
 21
-1151.316496287316
 31
0.0
  0
LINE
  5
261
100
AcDbEntity
  8
Frei
  6
CONTINUOUS
 62
           7
100
AcDbLine
 10
-14194.918805245839
 20
-1155.220848853757
 30
0.0
 11
-14199.888447010233
 21
-1154.670702751714
 31
0.0
  0
LINE
  5
262
100
AcDbEntity
  8
Frei
  6
CONTINUOUS
 62
           7
100
AcDbLine
 10
-14199.744374630554
 20
-1153.369251896233
 30
0.0
 11
-14199.888447010233
 21
-1154.670702751714
 31
0.0
  0
LINE
  5
263
100
AcDbEntity
  8
Frei
  6
CONTINUOUS
 62
           7
100
AcDbLine
 10
-14199.456229871197
 20
-1150.766350185272
 30
0.0
 11
-14199.744374630554
 21
-1153.369251896233
 31
0.0
  0
LINE
  5
264
100
AcDbEntity
  8
Frei
  6
CONTINUOUS
 62
           7
100
AcDbLine
 10
-14194.486588106804
 20
-1151.316496287316
 30
0.0
 11
-14194.046471225169
 21
-1147.340782875801
 31
0.0
  0
LINE
  5
265
100
AcDbEntity
  8
Frei
  6
CONTINUOUS
 62
           7
100
AcDbLine
 10
-14194.486588106804
 20
-1151.316496287316
 30
0.0
 11
-14199.456229871197
 21
-1150.766350185272
 31
0.0
  0
LINE
  5
266
100
AcDbEntity
  8
Frei
  6
CONTINUOUS
 62
           7
100
AcDbLine
 10
-14199.016112989562
 20
-1146.790636773757
 30
0.0
 11
-14199.456229871197
 21
-1150.766350185272
 31
0.0
  0
LINE
  5
267
100
AcDbEntity
  8
Frei
  6
CONTINUOUS
 62
           7
100
AcDbLine
 10
-14194.046471225169
 20
-1147.340782875801
 30
0.0
 11
-14193.614254086135
 21
-1143.436430309361
 31
0.0
  0
LINE
  5
268
100
AcDbEntity
  8
Frei
  6
CONTINUOUS
 62
           7
100
AcDbLine
 10
-14194.046471225169
 20
-1147.340782875801
 30
0.0
 11
-14199.016112989562
 21
-1146.790636773757
 31
0.0
  0
LINE
  5
269
100
AcDbEntity
  8
Frei
  6
CONTINUOUS
 62
           7
100
AcDbLine
 10
-14198.727968230207
 20
-1144.187735062797
 30
0.0
 11
-14199.016112989562
 21
-1146.790636773757
 31
0.0
  0
LINE
  5
26A
100
AcDbEntity
  8
Frei
  6
CONTINUOUS
 62
           7
100
AcDbLine
 10
-14198.583895850528
 20
-1142.886284207317
 30
0.0
 11
-14198.727968230207
 21
-1144.187735062797
 31
0.0
  0
LINE
  5
26B
100
AcDbEntity
  8
Frei
  6
CONTINUOUS
 62
           7
100
AcDbLine
 10
-14193.614254086135
 20
-1143.436430309361
 30
0.0
 11
-14193.394195645318
 21
-1141.448573603604
 31
0.0
  0
LINE
  5
26C
100
AcDbEntity
  8
Frei
  6
CONTINUOUS
 62
           7
100
AcDbLine
 10
-14193.614254086135
 20
-1143.436430309361
 30
0.0
 11
-14198.583895850528
 21
-1142.886284207317
 31
0.0
  0
LINE
  5
26D
100
AcDbEntity
  8
Frei
  6
CONTINUOUS
 62
           7
100
AcDbLine
 10
-14198.363837409712
 20
-1140.89842750156
 30
0.0
 11
-14198.583895850528
 21
-1142.886284207317
 31
0.0
  0
LINE
  5
26E
100
AcDbEntity
  8
Frei
  6
CONTINUOUS
 62
           7
100
AcDbLine
 10
-14198.363837409712
 20
-1140.89842750156
 30
0.0
 11
-14193.394195645318
 21
-1141.448573603604
 31
0.0
  0
LINE
  5
26F
100
AcDbEntity
  8
Frei
  6
CONTINUOUS
 62
           7
100
AcDbLine
 10
-14200.252577830728
 20
-1157.960010312951
 30
0.0
 11
-14196.034329068083
 21
-1158.426976187805
 31
0.0
  0
LINE
  5
270
100
AcDbEntity
  8
Frei
  6
CONTINUOUS
 62
           7
100
AcDbLine
 10
-14198.219765030033
 20
-1139.596976646079
 30
0.0
 11
-14198.363837409712
 21
-1140.89842750156
 31
0.0
  0
LINE
  5
271
100
AcDbEntity
  8
Frei
  6
CONTINUOUS
 62
           7
100
AcDbLine
 10
-14241.604649809535
 20
-1104.346950181593
 30
0.0
 11
-14242.182303216681
 21
-1109.565074034206
 31
0.0
  0
LINE
  5
272
100
AcDbEntity
  8
Frei
  6
CONTINUOUS
 62
           7
100
AcDbLine
 10
-14240.883961823078
 20
-1111.469492482357
 30
0.0
 11
-14240.498859551648
 21
-1107.990743247281
 31
0.0
  0
LINE
  5
273
100
AcDbEntity
  8
Frei
  6
CONTINUOUS
 62
           7
100
AcDbLine
 10
-14241.63536038259
 20
-1111.386311639915
 30
0.0
 11
-14240.883961823078
 21
-1111.469492482357
 31
0.0
  0
LINE
  5
274
100
AcDbEntity
  8
Frei
  6
CONTINUOUS
 62
           7
100
AcDbLine
 10
-14240.498859551648
 20
-1107.990743247281
 30
0.0
 11
-14239.728655008787
 21
-1101.03324477713
 31
0.0
  0
LINE
  5
275
100
AcDbEntity
  8
Frei
  6
CONTINUOUS
 62
           7
100
AcDbLine
 10
-14241.25025811116
 20
-1107.907562404839
 30
0.0
 11
-14240.498859551648
 21
-1107.990743247281
 31
0.0
  0
LINE
  5
276
100
AcDbEntity
  8
Frei
  6
CONTINUOUS
 62
           7
100
AcDbLine
 10
-14239.728655008787
 20
-1101.03324477713
 30
0.0
 11
-14239.343552737355
 21
-1097.554495542054
 31
0.0
  0
LINE
  5
277
100
AcDbEntity
  8
Frei
  6
CONTINUOUS
 62
           7
100
AcDbLine
 10
-14240.480053568299
 20
-1100.950063934688
 30
0.0
 11
-14239.728655008787
 21
-1101.03324477713
 31
0.0
  0
LINE
  5
278
100
AcDbEntity
  8
Frei
  6
CONTINUOUS
 62
           7
100
AcDbLine
 10
-14239.343552737355
 20
-1097.554495542054
 30
0.0
 11
-14238.738392025107
 21
-1092.087889601221
 31
0.0
  0
LINE
  5
279
100
AcDbEntity
  8
Frei
  6
CONTINUOUS
 62
           7
100
AcDbLine
 10
-14240.094951296867
 20
-1097.471314699612
 30
0.0
 11
-14239.343552737355
 21
-1097.554495542054
 31
0.0
  0
LINE
  5
27A
100
AcDbEntity
  8
Frei
  6
CONTINUOUS
 62
           7
100
AcDbLine
 10
-14204.865988517227
 20
-1154.191917494743
 30
0.0
 11
-14203.545637872321
 21
-1142.264777260199
 31
0.0
  0
LINE
  5
27B
100
AcDbEntity
  8
Frei
  6
CONTINUOUS
 62
           2
100
AcDbLine
 10
-14199.896346752834
 20
-1154.742063596787
 30
0.0
 11
-14204.865988517227
 21
-1154.191917494743
 31
0.0
  0
LINE
  5
27C
100
AcDbEntity
  8
Frei
  6
CONTINUOUS
 62
           7
100
AcDbLine
 10
-14203.545637872321
 20
-1142.264777260199
 30
0.0
 11
-14203.435608651913
 21
-1141.27084890732
 31
0.0
  0
LINE
  5
27D
100
AcDbEntity
  8
Frei
  6
CONTINUOUS
 62
           2
100
AcDbLine
 10
-14198.575996107927
 20
-1142.814923362243
 30
0.0
 11
-14203.545637872321
 21
-1142.264777260199
 31
0.0
  0
LINE
  5
27E
100
AcDbEntity
  8
Frei
  6
CONTINUOUS
 62
           7
100
AcDbLine
 10
-14204.976017737636
 20
-1155.185845847622
 30
0.0
 11
-14204.865988517227
 21
-1154.191917494743
 31
0.0
  0
LINE
  5
27F
100
AcDbEntity
  8
Frei
  6
CONTINUOUS
 62
           7
100
AcDbLine
 10
-14204.976017737636
 20
-1155.185845847622
 30
0.0
 11
-14200.006375973242
 21
-1155.735991949666
 31
0.0
  0
LINE
  5
280
100
AcDbEntity
  8
Frei
  6
CONTINUOUS
 62
           7
100
AcDbLine
 10
-14203.435608651913
 20
-1141.27084890732
 30
0.0
 11
-14203.380594041708
 21
-1140.77388473088
 31
0.0
  0
LINE
  5
281
100
AcDbEntity
  8
Frei
  6
CONTINUOUS
 62
           7
100
AcDbLine
 10
-14203.435608651913
 20
-1141.27084890732
 30
0.0
 11
-14198.465966887519
 21
-1141.820995009364
 31
0.0
  0
LINE
  5
282
100
AcDbEntity
  8
Frei
  6
CONTINUOUS
 62
           7
100
AcDbLine
 10
-14224.321940196234
 20
-1153.044225920951
 30
0.0
 11
-14243.242259323468
 21
-1150.949720861884
 31
0.0
  0
LINE
  5
283
100
AcDbEntity
  8
Frei
  6
CONTINUOUS
 62
           7
100
AcDbLine
 10
-14217.123216412996
 20
-1155.853351908475
 30
0.0
 11
-14224.321940196234
 21
-1153.044225920951
 31
0.0
  0
LINE
  5
284
100
AcDbEntity
  8
Frei
  6
CONTINUOUS
 62
           7
100
AcDbLine
 10
-14241.542304460931
 20
-1121.960754797788
 30
0.0
 11
-14242.039268637371
 21
-1121.905740187583
 31
0.0
  0
LINE
  5
285
100
AcDbEntity
  8
Frei
  6
CONTINUOUS
 62
           7
100
AcDbLine
 10
-14241.542304460931
 20
-1121.960754797788
 30
0.0
 11
-14244.568108022171
 21
-1149.293784501953
 31
0.0
  0
LINE
  5
286
100
AcDbEntity
  8
Frei
  6
CONTINUOUS
 62
           7
100
AcDbLine
 10
-14224.321940196234
 20
-1153.044225920951
 30
0.0
 11
-14218.394050501498
 21
-1153.700451372104
 31
0.0
  0
LINE
  5
287
100
AcDbEntity
  8
Frei
  6
CONTINUOUS
 62
           7
100
AcDbLine
 10
-14213.712310580326
 20
-1125.041572969234
 30
0.0
 11
-14241.542304460931
 21
-1121.960754797788
 31
0.0
  0
LINE
  5
288
100
AcDbEntity
  8
Frei
  6
CONTINUOUS
 62
           7
100
AcDbLine
 10
-14213.712310580326
 20
-1125.041572969234
 30
0.0
 11
-14216.738114141566
 21
-1152.374602673399
 31
0.0
  0
LINE
  5
289
100
AcDbEntity
  8
Frei
  6
CONTINUOUS
 62
           7
100
AcDbLine
 10
-14217.123216412996
 20
-1155.853351908475
 30
0.0
 11
-14206.686968707771
 21
-1157.008658722767
 31
0.0
  0
LINE
  5
28A
100
AcDbEntity
  8
Frei
  6
CONTINUOUS
 62
           7
100
AcDbLine
 10
-14205.031032347841
 20
-1155.682810024061
 30
0.0
 11
-14204.976017737636
 21
-1155.185845847622
 31
0.0
  0
LINE
  5
28B
100
AcDbEntity
  8
Frei
  6
CONTINUOUS
 62
           7
100
AcDbLine
 10
-14215.142690445638
 20
-1137.962641556657
 30
0.0
 11
-14204.706442740413
 21
-1139.117948370949
 31
0.0
  0
LINE
  5
28C
100
AcDbEntity
  8
Frei
  6
CONTINUOUS
 62
           7
100
AcDbLine
 10
-14242.039268637371
 20
-1121.905740187583
 30
0.0
 11
-14241.929239416961
 21
-1120.911811834705
 31
0.0
  0
LINE
  5
28D
100
AcDbEntity
  8
Frei
  6
CONTINUOUS
 62
           7
100
AcDbLine
 10
-14213.215346403887
 20
-1125.096587579438
 30
0.0
 11
-14213.712310580326
 21
-1125.041572969234
 31
0.0
  0
LINE
  5
28E
100
AcDbEntity
  8
Frei
  6
CONTINUOUS
 62
           7
100
AcDbLine
 10
-14213.105317183477
 20
-1124.102659226559
 30
0.0
 11
-14213.215346403887
 21
-1125.096587579438
 31
0.0
  0
LINE
  5
28F
100
AcDbEntity
  8
Frei
  6
CONTINUOUS
 62
           7
100
AcDbLine
 10
-14213.105317183477
 20
-1124.102659226559
 30
0.0
 11
-14241.929239416961
 21
-1120.911811834705
 31
0.0
  0
LINE
  5
290
100
AcDbEntity
  8
Frei
  6
CONTINUOUS
 62
           7
100
AcDbLine
 10
-14210.299572063053
 20
-1098.757486228152
 30
0.0
 11
-14210.238404603977
 21
-1098.204941443915
 31
0.0
  0
LINE
  5
291
100
AcDbEntity
  8
Frei
  6
CONTINUOUS
 62
           7
100
AcDbLine
 10
-14238.738392025107
 20
-1092.087889601221
 30
0.0
 11
-14211.936961724025
 21
-1096.005917174764
 31
0.0
  0
LINE
  5
292
100
AcDbEntity
  8
Frei
  6
CONTINUOUS
 62
           7
100
AcDbLine
 10
-14206.540251723158
 20
-1110.240844211861
 30
0.0
 11
-14206.595266333361
 21
-1110.737808388301
 31
0.0
  0
LINE
  5
293
100
AcDbEntity
  8
Frei
  6
CONTINUOUS
 62
           1
100
AcDbLine
 10
-14206.540251723158
 20
-1110.240844211861
 30
0.0
 11
-14209.013494277233
 21
-1109.967052897509
 31
0.0
  0
LINE
  5
294
100
AcDbEntity
  8
Frei
  6
CONTINUOUS
 62
           7
100
AcDbLine
 10
-14206.100134841521
 20
-1106.265130800346
 30
0.0
 11
-14206.540251723158
 21
-1110.240844211861
 31
0.0
  0
LINE
  5
295
100
AcDbEntity
  8
Frei
  6
CONTINUOUS
 62
           1
100
AcDbLine
 10
-14206.100134841521
 20
-1106.265130800346
 30
0.0
 11
-14208.573377395596
 21
-1105.991339485994
 31
0.0
  0
LINE
  5
296
100
AcDbEntity
  8
Frei
  6
CONTINUOUS
 62
           7
100
AcDbLine
 10
-14206.595266333361
 20
-1110.737808388301
 30
0.0
 11
-14206.650280943566
 21
-1111.23477256474
 31
0.0
  0
LINE
  5
297
100
AcDbEntity
  8
Frei
  6
CONTINUOUS
 62
           1
100
AcDbLine
 10
-14206.595266333361
 20
-1110.737808388301
 30
0.0
 11
-14209.068508887436
 21
-1110.464017073948
 31
0.0
  0
LINE
  5
298
100
AcDbEntity
  8
Frei
  6
CONTINUOUS
 62
           7
100
AcDbLine
 10
-14206.045120231318
 20
-1105.768166623907
 30
0.0
 11
-14206.100134841521
 21
-1106.265130800346
 31
0.0
  0
LINE
  5
299
100
AcDbEntity
  8
Frei
  6
CONTINUOUS
 62
           1
100
AcDbLine
 10
-14206.045120231318
 20
-1105.768166623907
 30
0.0
 11
-14208.518362785393
 21
-1105.494375309555
 31
0.0
  0
LINE
  5
29A
100
AcDbEntity
  8
Frei
  6
CONTINUOUS
 62
           7
100
AcDbLine
 10
-14207.644209296444
 20
-1111.124743344331
 30
0.0
 11
-14206.984033973991
 21
-1105.161173227059
 31
0.0
  0
LINE
  5
29B
100
AcDbEntity
  8
Frei
  6
CONTINUOUS
 62
           2
100
AcDbLine
 10
-14206.650280943566
 20
-1111.23477256474
 30
0.0
 11
-14207.644209296444
 21
-1111.124743344331
 31
0.0
  0
LINE
  5
29C
100
AcDbEntity
  8
Frei
  6
CONTINUOUS
 62
           7
100
AcDbLine
 10
-14206.984033973991
 20
-1105.161173227059
 30
0.0
 11
-14206.874004753583
 21
-1104.16724487418
 31
0.0
  0
LINE
  5
29D
100
AcDbEntity
  8
Frei
  6
CONTINUOUS
 62
           2
100
AcDbLine
 10
-14205.990105621113
 20
-1105.271202447468
 30
0.0
 11
-14206.984033973991
 21
-1105.161173227059
 31
0.0
  0
LINE
  5
29E
100
AcDbEntity
  8
Frei
  6
CONTINUOUS
 62
           7
100
AcDbLine
 10
-14207.754238516853
 20
-1112.11867169721
 30
0.0
 11
-14207.644209296444
 21
-1111.124743344331
 31
0.0
  0
LINE
  5
29F
100
AcDbEntity
  8
Frei
  6
CONTINUOUS
 62
           7
100
AcDbLine
 10
-14206.650280943566
 20
-1111.23477256474
 30
0.0
 11
-14207.754238516853
 21
-1112.11867169721
 31
0.0
  0
LINE
  5
2A0
100
AcDbEntity
  8
Frei
  6
CONTINUOUS
 62
           7
100
AcDbLine
 10
-14205.990105621113
 20
-1105.271202447468
 30
0.0
 11
-14206.045120231318
 21
-1105.768166623907
 31
0.0
  0
LINE
  5
2A1
100
AcDbEntity
  8
Frei
  6
CONTINUOUS
 62
           7
100
AcDbLine
 10
-14206.874004753583
 20
-1104.16724487418
 30
0.0
 11
-14206.323858651538
 21
-1099.197603109787
 31
0.0
  0
LINE
  5
2A2
100
AcDbEntity
  8
Frei
  6
CONTINUOUS
 62
           7
100
AcDbLine
 10
-14206.874004753583
 20
-1104.16724487418
 30
0.0
 11
-14205.990105621113
 21
-1105.271202447468
 31
0.0
  0
LINE
  5
2A3
100
AcDbEntity
  8
Frei
  6
CONTINUOUS
 62
           7
100
AcDbLine
 10
-14241.929239416961
 20
-1120.911811834705
 30
0.0
 11
-14240.883961823078
 21
-1111.469492482357
 31
0.0
  0
LINE
  5
2A4
100
AcDbEntity
  8
Frei
  6
CONTINUOUS
 62
           7
100
AcDbLine
 10
-14212.280098030413
 20
-1116.648196579969
 30
0.0
 11
-14213.105317183477
 21
-1124.102659226559
 31
0.0
  0
LINE
  5
2A5
100
AcDbEntity
  8
Frei
  6
CONTINUOUS
 62
           7
100
AcDbLine
 10
-14209.195614489767
 20
-1097.873587095681
 30
0.0
 11
-14211.396198897943
 21
-1117.752154153256
 31
0.0
  0
LINE
  5
2A6
100
AcDbEntity
  8
Frei
  6
CONTINUOUS
 62
           7
100
AcDbLine
 10
-14207.207757784008
 20
-1098.093645536499
 30
0.0
 11
-14209.408342192184
 21
-1117.972212594074
 31
0.0
  0
LINE
  5
2A7
100
AcDbEntity
  8
Frei
  6
CONTINUOUS
 62
           7
100
AcDbLine
 10
-14208.304384618898
 20
-1117.088313461604
 30
0.0
 11
-14209.408342192184
 21
-1117.972212594074
 31
0.0
  0
LINE
  5
2A8
100
AcDbEntity
  8
Frei
  6
CONTINUOUS
 62
           7
100
AcDbLine
 10
-14211.396198897943
 20
-1117.752154153256
 30
0.0
 11
-14212.280098030413
 21
-1116.648196579969
 31
0.0
  0
LINE
  5
2A9
100
AcDbEntity
  8
Frei
  6
CONTINUOUS
 62
           7
100
AcDbLine
 10
-14210.299572063053
 20
-1098.757486228152
 30
0.0
 11
-14209.195614489767
 21
-1097.873587095681
 31
0.0
  0
LINE
  5
2AA
100
AcDbEntity
  8
Frei
  6
CONTINUOUS
 62
           7
100
AcDbLine
 10
-14206.323858651538
 20
-1099.197603109787
 30
0.0
 11
-14207.207757784008
 21
-1098.093645536499
 31
0.0
  0
LINE
  5
2AB
100
AcDbEntity
  8
Frei
  6
CONTINUOUS
 62
           7
100
AcDbLine
 10
-14208.304384618898
 20
-1117.088313461604
 30
0.0
 11
-14207.754238516853
 21
-1112.11867169721
 31
0.0
  0
LINE
  5
2AC
100
AcDbEntity
  8
Frei
  6
CONTINUOUS
 62
           7
100
AcDbLine
 10
-14211.396198897943
 20
-1117.752154153256
 30
0.0
 11
-14209.408342192184
 21
-1117.972212594074
 31
0.0
  0
LINE
  5
2AD
100
AcDbEntity
  8
Frei
  6
CONTINUOUS
 62
           7
100
AcDbLine
 10
-14210.299572063053
 20
-1098.757486228152
 30
0.0
 11
-14212.280098030413
 21
-1116.648196579969
 31
0.0
  0
LINE
  5
2AE
100
AcDbEntity
  8
Frei
  6
CONTINUOUS
 62
           7
100
AcDbLine
 10
-14207.207757784008
 20
-1098.093645536499
 30
0.0
 11
-14209.195614489767
 21
-1097.873587095681
 31
0.0
  0
LINE
  5
2AF
100
AcDbEntity
  8
Frei
  6
CONTINUOUS
 62
           7
100
AcDbLine
 10
-14258.32905723946
 20
-1119.09632969796
 30
0.0
 11
-14247.892809534233
 21
-1120.251636512252
 31
0.0
  0
LINE
  5
2B0
100
AcDbEntity
  8
Frei
  6
CONTINUOUS
 62
           7
100
AcDbLine
 10
-14240.783096025669
 20
-1087.837103138685
 30
0.0
 11
-14254.698092965971
 21
-1086.296694052962
 31
0.0
  0
LINE
  5
2B1
100
AcDbEntity
  8
Frei
  6
CONTINUOUS
 62
           7
100
AcDbLine
 10
-14239.899196893199
 20
-1088.941060711972
 30
0.0
 11
-14242.374854352396
 21
-1111.304448651744
 31
0.0
  0
LINE
  5
2B2
100
AcDbEntity
  8
Frei
  6
CONTINUOUS
 62
           7
100
AcDbLine
 10
-14401.344710833591
 20
-1102.258193606218
 30
0.0
 11
-14398.869053374394
 21
-1079.894805666447
 31
0.0
  0
LINE
  5
2B3
100
AcDbEntity
  8
Frei
  6
CONTINUOUS
 62
           7
100
AcDbLine
 10
-14400.216911324402
 20
-1092.070427989211
 30
0.0
 11
-14399.639257917255
 21
-1086.852304136598
 31
0.0
  0
LINE
  5
2B4
100
AcDbEntity
  8
Frei
  6
CONTINUOUS
 62
           7
100
AcDbLine
 10
-14241.026996402388
 20
-1099.128826328979
 30
0.0
 11
-14241.604649809535
 21
-1104.346950181593
 31
0.0
  0
ARC
  5
2B5
100
AcDbEntity
  8
Frei
  6
CONTINUOUS
 62
           7
100
AcDbCircle
 10
-14408.191422024323
 20
-1085.90556793898
 30
0.0
 40
8.604407030244
100
AcDbArc
 50
329.681014671726
 51
353.682999999999
  0
ARC
  5
2B6
100
AcDbEntity
  8
Frei
  6
CONTINUOUS
 62
           7
100
AcDbCircle
 10
-14401.476955775552
 20
-1081.366797614016
 30
0.0
 40
2.430106011614
100
AcDbArc
 50
307.617521857266
 51
353.682999999999
  0
ARC
  5
2B7
100
AcDbEntity
  8
Frei
  6
CONTINUOUS
 62
           7
100
AcDbCircle
 10
-14402.632262589845
 20
-1091.803045319243
 30
0.0
 40
2.430106011614
100
AcDbArc
 50
307.617521857266
 51
353.682999999999
  0
ARC
  5
2B8
100
AcDbEntity
  8
Frei
  6
CONTINUOUS
 62
           7
100
AcDbCircle
 10
-14401.476955775552
 20
-1081.366797614016
 30
0.0
 40
2.430106011614
100
AcDbArc
 50
353.682999999999
 51
39.748478142733
  0
ARC
  5
2B9
100
AcDbEntity
  8
Frei
  6
CONTINUOUS
 62
           7
100
AcDbCircle
 10
-14402.632262589845
 20
-1091.803045319243
 30
0.0
 40
2.430106011614
100
AcDbArc
 50
353.682999999999
 51
39.748478142733
  0
ARC
  5
2BA
100
AcDbEntity
  8
Frei
  6
CONTINUOUS
 62
           7
100
AcDbCircle
 10
-14239.766951951236
 20
-1109.832456704174
 30
0.0
 40
2.430106011614
100
AcDbArc
 50
127.617521857263
 51
173.683
  0
ARC
  5
2BB
100
AcDbEntity
  8
Frei
  6
CONTINUOUS
 62
           7
100
AcDbCircle
 10
-14238.611645136943
 20
-1099.396208998948
 30
0.0
 40
2.430106011614
100
AcDbArc
 50
127.617521857263
 51
173.683
  0
ARC
  5
2BC
100
AcDbEntity
  8
Frei
  6
CONTINUOUS
 62
           7
100
AcDbCircle
 10
-14239.766951951236
 20
-1109.832456704174
 30
0.0
 40
2.430106011614
100
AcDbArc
 50
173.683
 51
219.748478142737
  0
ARC
  5
2BD
100
AcDbEntity
  8
Frei
  6
CONTINUOUS
 62
           7
100
AcDbCircle
 10
-14238.611645136943
 20
-1099.396208998948
 30
0.0
 40
2.430106011614
100
AcDbArc
 50
173.683
 51
219.748478142737
  0
ARC
  5
2BE
100
AcDbEntity
  8
Frei
  6
CONTINUOUS
 62
           7
100
AcDbCircle
 10
-14233.052485702467
 20
-1105.29368637921
 30
0.0
 40
8.604407030244
100
AcDbArc
 50
149.681014671724
 51
173.683
  0
ARC
  5
2BF
100
AcDbEntity
  8
Frei
  6
CONTINUOUS
 62
           7
100
AcDbCircle
 10
-14377.287047516422
 20
-1097.137062099067
 30
0.0
 40
4.481959213903
100
AcDbArc
 50
182.061955885586
 51
345.304044114414
  0
ARC
  5
2C0
100
AcDbEntity
  8
Frei
  6
CONTINUOUS
 62
           7
100
AcDbCircle
 10
-14408.191422024323
 20
-1085.90556793898
 30
0.0
 40
8.604407030244
100
AcDbArc
 50
353.682999999999
 51
17.684985328274
  0
ARC
  5
2C1
100
AcDbEntity
  8
Frei
  6
CONTINUOUS
 62
           7
100
AcDbCircle
 10
-14233.052485702467
 20
-1105.29368637921
 30
0.0
 40
8.604407030244
100
AcDbArc
 50
173.683
 51
197.684985328276
  0
POLYLINE
  5
2C2
100
AcDbEntity
  8
Frei
  6
CONTINUOUS
 62
           7
100
AcDb2dPolyline
 66
           1
 10
0.0
 20
0.0
 30
0.0
  0
VERTEX
  5
2C3
100
AcDbEntity
  8
Frei
  6
CONTINUOUS
 62
           7
100
AcDbVertex
100
AcDb2dVertex
 10
-14381.444894932198
 20
-1096.978944405866
 30
0.0
 42
0.046286845788
  0
VERTEX
  5
2C4
100
AcDbEntity
  8
Frei
  6
CONTINUOUS
 62
           7
100
AcDbVertex
100
AcDb2dVertex
 10
-14381.45673950227
 20
-1097.658949942052
 30
0.0
  0
VERTEX
  5
2C5
100
AcDbEntity
  8
Frei
  6
CONTINUOUS
 62
           7
100
AcDbVertex
100
AcDb2dVertex
 10
-14381.415304752307
 20
-1097.998176355077
 30
0.0
  0
VERTEX
  5
2C6
100
AcDbEntity
  8
Frei
  6
CONTINUOUS
 62
           7
100
AcDbVertex
100
AcDb2dVertex
 10
-14381.342894139365
 20
-1098.332168060188
 30
0.0
 42
0.045273723548
  0
VERTEX
  5
2C7
100
AcDbEntity
  8
Frei
  6
CONTINUOUS
 62
           7
100
AcDbVertex
100
AcDb2dVertex
 10
-14381.106817977226
 20
-1098.978143368416
 30
0.0
  0
VERTEX
  5
2C8
100
AcDbEntity
  8
Frei
  6
CONTINUOUS
 62
           7
100
AcDbVertex
100
AcDb2dVertex
 10
-14380.944579784924
 20
-1099.285504444978
 30
0.0
  0
VERTEX
  5
2C9
100
AcDbEntity
  8
Frei
  6
CONTINUOUS
 62
           7
100
AcDbVertex
100
AcDb2dVertex
 10
-14380.755684070578
 20
-1099.577248233878
 30
0.0
 42
0.04348253534
  0
VERTEX
  5
2CA
100
AcDbEntity
  8
Frei
  6
CONTINUOUS
 62
           7
100
AcDbVertex
100
AcDb2dVertex
 10
-14380.300161445499
 20
-1100.111279158397
 30
0.0
  0
VERTEX
  5
2CB
100
AcDbEntity
  8
Frei
  6
CONTINUOUS
 62
           7
100
AcDbVertex
100
AcDb2dVertex
 10
-14380.036782394547
 20
-1100.349287720387
 30
0.0
  0
VERTEX
  5
2CC
100
AcDbEntity
  8
Frei
  6
CONTINUOUS
 62
           7
100
AcDbVertex
100
AcDb2dVertex
 10
-14379.754090926441
 20
-1100.564009882565
 30
0.0
 42
0.041825507476
  0
VERTEX
  5
2CD
100
AcDbEntity
  8
Frei
  6
CONTINUOUS
 62
           7
100
AcDbVertex
100
AcDb2dVertex
 10
-14379.134064589798
 20
-1100.921684412419
 30
0.0
  0
VERTEX
  5
2CE
100
AcDbEntity
  8
Frei
  6
CONTINUOUS
 62
           7
100
AcDbVertex
100
AcDb2dVertex
 10
-14378.801697550465
 20
-1101.061513602825
 30
0.0
  0
VERTEX
  5
2CF
100
AcDbEntity
  8
Frei
  6
CONTINUOUS
 62
           7
100
AcDbVertex
100
AcDb2dVertex
 10
-14378.458921622068
 20
-1101.173434988364
 30
0.0
 42
0.040993490696
  0
VERTEX
  5
2D0
100
AcDbEntity
  8
Frei
  6
CONTINUOUS
 62
           7
100
AcDbVertex
100
AcDb2dVertex
 10
-14377.749175900681
 20
-1101.311612296541
 30
0.0
  0
VERTEX
  5
2D1
100
AcDbEntity
  8
Frei
  6
CONTINUOUS
 62
           7
100
AcDbVertex
100
AcDb2dVertex
 10
-14377.388202734453
 20
-1101.336650579907
 30
0.0
  0
VERTEX
  5
2D2
100
AcDbEntity
  8
Frei
  6
CONTINUOUS
 62
           7
100
AcDbVertex
100
AcDb2dVertex
 10
-14377.026392690235
 20
-1101.332017889361
 30
0.0
 42
0.041278481646
  0
VERTEX
  5
2D3
100
AcDbEntity
  8
Frei
  6
CONTINUOUS
 62
           7
100
AcDbVertex
100
AcDb2dVertex
 10
-14376.312533392831
 20
-1101.234031753213
 30
0.0
  0
VERTEX
  5
2D4
100
AcDbEntity
  8
Frei
  6
CONTINUOUS
 62
           7
100
AcDbVertex
100
AcDb2dVertex
 10
-14375.96643974948
 20
-1101.14164022849
 30
0.0
  0
VERTEX
  5
2D5
100
AcDbEntity
  8
Frei
  6
CONTINUOUS
 62
           7
100
AcDbVertex
100
AcDb2dVertex
 10
-14375.629288261993
 20
-1101.020631147261
 30
0.0
 42
0.042584509173
  0
VERTEX
  5
2D6
100
AcDbEntity
  8
Frei
  6
CONTINUOUS
 62
           7
100
AcDbVertex
100
AcDb2dVertex
 10
-14374.997417355284
 20
-1100.698300140929
 30
0.0
  0
VERTEX
  5
2D7
100
AcDbEntity
  8
Frei
  6
CONTINUOUS
 62
           7
100
AcDbVertex
100
AcDb2dVertex
 10
-14374.707588670415
 20
-1100.4997871784
 30
0.0
  0
VERTEX
  5
2D8
100
AcDbEntity
  8
Frei
  6
CONTINUOUS
 62
           7
100
AcDbVertex
100
AcDb2dVertex
 10
-14374.436119750455
 20
-1100.276832598739
 30
0.0
 42
0.044417198743
  0
VERTEX
  5
2D9
100
AcDbEntity
  8
Frei
  6
CONTINUOUS
 62
           7
100
AcDbVertex
100
AcDb2dVertex
 10
-14373.962450191208
 20
-1099.769034598687
 30
0.0
  0
VERTEX
  5
2DA
100
AcDbEntity
  8
Frei
  6
CONTINUOUS
 62
           7
100
AcDbVertex
100
AcDb2dVertex
 10
-14373.763501915364
 20
-1099.488110174876
 30
0.0
  0
VERTEX
  5
2DB
100
AcDbEntity
  8
Frei
  6
CONTINUOUS
 62
           7
100
AcDbVertex
100
AcDb2dVertex
 10
-14373.590800887407
 20
-1099.190335326046
 30
0.0
 42
0.045929593742
  0
VERTEX
  5
2DC
100
AcDbEntity
  8
Frei
  6
CONTINUOUS
 62
           7
100
AcDbVertex
100
AcDb2dVertex
 10
-14373.332464215084
 20
-1098.558318265378
 30
0.0
  0
VERTEX
  5
2DD
100
AcDbEntity
  8
Frei
  6
CONTINUOUS
 62
           7
100
AcDbVertex
100
AcDb2dVertex
 10
-14373.24843265733
 20
-1098.228432361945
 30
0.0
  0
VERTEX
  5
2DE
100
AcDbEntity
  8
Frei
  6
CONTINUOUS
 62
           7
100
AcDbVertex
100
AcDb2dVertex
 10
-14373.195289603305
 20
-1097.892186935259
 30
0.0
 42
0.046286845788
  0
VERTEX
  5
2DF
100
AcDbEntity
  8
Frei
  6
CONTINUOUS
 62
           7
100
AcDbVertex
100
AcDb2dVertex
 10
-14373.183445033234
 20
-1097.212181399072
 30
0.0
  0
VERTEX
  5
2E0
100
AcDbEntity
  8
Frei
  6
CONTINUOUS
 62
           7
100
AcDbVertex
100
AcDb2dVertex
 10
-14373.224879783198
 20
-1096.872954986047
 30
0.0
  0
VERTEX
  5
2E1
100
AcDbEntity
  8
Frei
  6
CONTINUOUS
 62
           7
100
AcDbVertex
100
AcDb2dVertex
 10
-14373.29729039614
 20
-1096.538963280937
 30
0.0
 42
0.045273723548
  0
VERTEX
  5
2E2
100
AcDbEntity
  8
Frei
  6
CONTINUOUS
 62
           7
100
AcDbVertex
100
AcDb2dVertex
 10
-14373.533366558278
 20
-1095.892987972708
 30
0.0
  0
VERTEX
  5
2E3
100
AcDbEntity
  8
Frei
  6
CONTINUOUS
 62
           7
100
AcDbVertex
100
AcDb2dVertex
 10
-14373.695604750581
 20
-1095.585626896146
 30
0.0
  0
VERTEX
  5
2E4
100
AcDbEntity
  8
Frei
  6
CONTINUOUS
 62
           7
100
AcDbVertex
100
AcDb2dVertex
 10
-14373.884500464923
 20
-1095.293883107247
 30
0.0
 42
0.04348253534
  0
VERTEX
  5
2E5
100
AcDbEntity
  8
Frei
  6
CONTINUOUS
 62
           7
100
AcDbVertex
100
AcDb2dVertex
 10
-14374.340023090006
 20
-1094.759852182728
 30
0.0
  0
VERTEX
  5
2E6
100
AcDbEntity
  8
Frei
  6
CONTINUOUS
 62
           7
100
AcDbVertex
100
AcDb2dVertex
 10
-14374.603402140956
 20
-1094.521843620737
 30
0.0
  0
VERTEX
  5
2E7
100
AcDbEntity
  8
Frei
  6
CONTINUOUS
 62
           7
100
AcDbVertex
100
AcDb2dVertex
 10
-14374.886093609062
 20
-1094.30712145856
 30
0.0
 42
0.041825507476
  0
VERTEX
  5
2E8
100
AcDbEntity
  8
Frei
  6
CONTINUOUS
 62
           7
100
AcDbVertex
100
AcDb2dVertex
 10
-14375.506119945705
 20
-1093.949446928704
 30
0.0
  0
VERTEX
  5
2E9
100
AcDbEntity
  8
Frei
  6
CONTINUOUS
 62
           7
100
AcDbVertex
100
AcDb2dVertex
 10
-14375.838486985038
 20
-1093.809617738299
 30
0.0
  0
VERTEX
  5
2EA
100
AcDbEntity
  8
Frei
  6
CONTINUOUS
 62
           7
100
AcDbVertex
100
AcDb2dVertex
 10
-14376.181262913437
 20
-1093.69769635276
 30
0.0
 42
0.040993490696
  0
VERTEX
  5
2EB
100
AcDbEntity
  8
Frei
  6
CONTINUOUS
 62
           7
100
AcDbVertex
100
AcDb2dVertex
 10
-14376.891008634822
 20
-1093.559519044584
 30
0.0
  0
VERTEX
  5
2EC
100
AcDbEntity
  8
Frei
  6
CONTINUOUS
 62
           7
100
AcDbVertex
100
AcDb2dVertex
 10
-14377.251981801048
 20
-1093.534480761218
 30
0.0
  0
VERTEX
  5
2ED
100
AcDbEntity
  8
Frei
  6
CONTINUOUS
 62
           7
100
AcDbVertex
100
AcDb2dVertex
 10
-14377.61379184527
 20
-1093.539113451763
 30
0.0
 42
0.041278481646
  0
VERTEX
  5
2EE
100
AcDbEntity
  8
Frei
  6
CONTINUOUS
 62
           7
100
AcDbVertex
100
AcDb2dVertex
 10
-14378.327651142672
 20
-1093.637099587911
 30
0.0
  0
VERTEX
  5
2EF
100
AcDbEntity
  8
Frei
  6
CONTINUOUS
 62
           7
100
AcDbVertex
100
AcDb2dVertex
 10
-14378.673744786023
 20
-1093.729491112634
 30
0.0
  0
VERTEX
  5
2F0
100
AcDbEntity
  8
Frei
  6
CONTINUOUS
 62
           7
100
AcDbVertex
100
AcDb2dVertex
 10
-14379.01089627351
 20
-1093.850500193863
 30
0.0
 42
0.042584509172
  0
VERTEX
  5
2F1
100
AcDbEntity
  8
Frei
  6
CONTINUOUS
 62
           7
100
AcDbVertex
100
AcDb2dVertex
 10
-14379.642767180221
 20
-1094.172831200196
 30
0.0
  0
VERTEX
  5
2F2
100
AcDbEntity
  8
Frei
  6
CONTINUOUS
 62
           7
100
AcDbVertex
100
AcDb2dVertex
 10
-14379.93259586509
 20
-1094.371344162726
 30
0.0
  0
VERTEX
  5
2F3
100
AcDbEntity
  8
Frei
  6
CONTINUOUS
 62
           7
100
AcDbVertex
100
AcDb2dVertex
 10
-14380.204064785046
 20
-1094.594298742385
 30
0.0
 42
0.044417198743
  0
VERTEX
  5
2F4
100
AcDbEntity
  8
Frei
  6
CONTINUOUS
 62
           7
100
AcDbVertex
100
AcDb2dVertex
 10
-14380.677734344297
 20
-1095.102096742437
 30
0.0
  0
VERTEX
  5
2F5
100
AcDbEntity
  8
Frei
  6
CONTINUOUS
 62
           7
100
AcDbVertex
100
AcDb2dVertex
 10
-14380.876682620141
 20
-1095.383021166249
 30
0.0
  0
VERTEX
  5
2F6
100
AcDbEntity
  8
Frei
  6
CONTINUOUS
 62
           7
100
AcDbVertex
100
AcDb2dVertex
 10
-14381.049383648098
 20
-1095.680796015079
 30
0.0
 42
0.045929593742
  0
VERTEX
  5
2F7
100
AcDbEntity
  8
Frei
  6
CONTINUOUS
 62
           7
100
AcDbVertex
100
AcDb2dVertex
 10
-14381.307720320419
 20
-1096.312813075746
 30
0.0
  0
VERTEX
  5
2F8
100
AcDbEntity
  8
Frei
  6
CONTINUOUS
 62
           7
100
AcDbVertex
100
AcDb2dVertex
 10
-14381.391751878175
 20
-1096.642698979179
 30
0.0
  0
VERTEX
  5
2F9
100
AcDbEntity
  8
Frei
  6
CONTINUOUS
 62
           7
100
AcDbVertex
100
AcDb2dVertex
 10
-14381.444894932198
 20
-1096.978944405866
 30
0.0
  0
SEQEND
  5
2FA
100
AcDbEntity
  8
Frei
  6
CONTINUOUS
 62
           7
  0
POLYLINE
  5
2FB
100
AcDbEntity
  8
Frei
  6
CONTINUOUS
 62
           7
100
AcDb2dPolyline
 66
           1
 10
0.0
 20
0.0
 30
0.0
  0
VERTEX
  5
2FC
100
AcDbEntity
  8
Frei
  6
CONTINUOUS
 62
           7
100
AcDbVertex
100
AcDb2dVertex
 10
-14376.881829733633
 20
-1093.476603159994
 30
0.0
 42
0.046286845788
  0
VERTEX
  5
2FD
100
AcDbEntity
  8
Frei
  6
CONTINUOUS
 62
           7
100
AcDbVertex
100
AcDb2dVertex
 10
-14377.65778832559
 20
-1093.46308724663
 30
0.0
  0
VERTEX
  5
2FE
100
AcDbEntity
  8
Frei
  6
CONTINUOUS
 62
           7
100
AcDbVertex
100
AcDb2dVertex
 10
-14378.04488171792
 20
-1093.510368700278
 30
0.0
  0
VERTEX
  5
2FF
100
AcDbEntity
  8
Frei
  6
CONTINUOUS
 62
           7
100
AcDbVertex
100
AcDb2dVertex
 10
-14378.426001752143
 20
-1093.59299690589
 30
0.0
 42
0.045273723548
  0
VERTEX
  5
300
100
AcDbEntity
  8
Frei
  6
CONTINUOUS
 62
           7
100
AcDbVertex
100
AcDb2dVertex
 10
-14379.163128237062
 20
-1093.862384898516
 30
0.0
  0
VERTEX
  5
301
100
AcDbEntity
  8
Frei
  6
CONTINUOUS
 62
           7
100
AcDbVertex
100
AcDb2dVertex
 10
-14379.513859893643
 20
-1094.047515919604
 30
0.0
  0
VERTEX
  5
302
100
AcDbEntity
  8
Frei
  6
CONTINUOUS
 62
           7
100
AcDbVertex
100
AcDb2dVertex
 10
-14379.846770565102
 20
-1094.263066006669
 30
0.0
 42
0.04348253534
  0
VERTEX
  5
303
100
AcDbEntity
  8
Frei
  6
CONTINUOUS
 62
           7
100
AcDbVertex
100
AcDb2dVertex
 10
-14380.456156610069
 20
-1094.782865737632
 30
0.0
  0
VERTEX
  5
304
100
AcDbEntity
  8
Frei
  6
CONTINUOUS
 62
           7
100
AcDbVertex
100
AcDb2dVertex
 10
-14380.727749676313
 20
-1095.083409228313
 30
0.0
  0
VERTEX
  5
305
100
AcDbEntity
  8
Frei
  6
CONTINUOUS
 62
           7
100
AcDbVertex
100
AcDb2dVertex
 10
-14380.972770485349
 20
-1095.405990239611
 30
0.0
 42
0.041825507476
  0
VERTEX
  5
306
100
AcDbEntity
  8
Frei
  6
CONTINUOUS
 62
           7
100
AcDbVertex
100
AcDb2dVertex
 10
-14381.38091513976
 20
-1096.113506189929
 30
0.0
  0
VERTEX
  5
307
100
AcDbEntity
  8
Frei
  6
CONTINUOUS
 62
           7
100
AcDbVertex
100
AcDb2dVertex
 10
-14381.54047510792
 20
-1096.492772307821
 30
0.0
  0
VERTEX
  5
308
100
AcDbEntity
  8
Frei
  6
CONTINUOUS
 62
           7
100
AcDbVertex
100
AcDb2dVertex
 10
-14381.668189304513
 20
-1096.883916074456
 30
0.0
 42
0.040993490695
  0
VERTEX
  5
309
100
AcDbEntity
  8
Frei
  6
CONTINUOUS
 62
           7
100
AcDbVertex
100
AcDb2dVertex
 10
-14381.825864299477
 20
-1097.693811378699
 30
0.0
  0
VERTEX
  5
30A
100
AcDbEntity
  8
Frei
  6
CONTINUOUS
 62
           7
100
AcDbVertex
100
AcDb2dVertex
 10
-14381.854435642019
 20
-1098.105720127811
 30
0.0
  0
VERTEX
  5
30B
100
AcDbEntity
  8
Frei
  6
CONTINUOUS
 62
           7
100
AcDbVertex
100
AcDb2dVertex
 10
-14381.849149249716
 20
-1098.518583843662
 30
0.0
 42
0.041278481646
  0
VERTEX
  5
30C
100
AcDbEntity
  8
Frei
  6
CONTINUOUS
 62
           7
100
AcDbVertex
100
AcDb2dVertex
 10
-14381.737336653803
 20
-1099.333173175354
 30
0.0
  0
VERTEX
  5
30D
100
AcDbEntity
  8
Frei
  6
CONTINUOUS
 62
           7
100
AcDbVertex
100
AcDb2dVertex
 10
-14381.631908104155
 20
-1099.72810280738
 30
0.0
  0
VERTEX
  5
30E
100
AcDbEntity
  8
Frei
  6
CONTINUOUS
 62
           7
100
AcDbVertex
100
AcDb2dVertex
 10
-14381.493823880883
 20
-1100.112828489135
 30
0.0
 42
0.042584509173
  0
VERTEX
  5
30F
100
AcDbEntity
  8
Frei
  6
CONTINUOUS
 62
           7
100
AcDbVertex
100
AcDb2dVertex
 10
-14381.126009943338
 20
-1100.833860352817
 30
0.0
  0
VERTEX
  5
310
100
AcDbEntity
  8
Frei
  6
CONTINUOUS
 62
           7
100
AcDbVertex
100
AcDb2dVertex
 10
-14380.899485553911
 20
-1101.164585687025
 30
0.0
  0
VERTEX
  5
311
100
AcDbEntity
  8
Frei
  6
CONTINUOUS
 62
           7
100
AcDbVertex
100
AcDb2dVertex
 10
-14380.645070681538
 20
-1101.474360578084
 30
0.0
 42
0.044417198743
  0
VERTEX
  5
312
100
AcDbEntity
  8
Frei
  6
CONTINUOUS
 62
           7
100
AcDbVertex
100
AcDb2dVertex
 10
-14380.065619191584
 20
-1102.0148678897
 30
0.0
  0
VERTEX
  5
313
100
AcDbEntity
  8
Frei
  6
CONTINUOUS
 62
           7
100
AcDbVertex
100
AcDb2dVertex
 10
-14379.745054565639
 20
-1102.241889017885
 30
0.0
  0
VERTEX
  5
314
100
AcDbEntity
  8
Frei
  6
CONTINUOUS
 62
           7
100
AcDbVertex
100
AcDb2dVertex
 10
-14379.405261813781
 20
-1102.438959246511
 30
0.0
 42
0.045929593742
  0
VERTEX
  5
315
100
AcDbEntity
  8
Frei
  6
CONTINUOUS
 62
           7
100
AcDbVertex
100
AcDb2dVertex
 10
-14378.684063172901
 20
-1102.733748847241
 30
0.0
  0
VERTEX
  5
316
100
AcDbEntity
  8
Frei
  6
CONTINUOUS
 62
           7
100
AcDbVertex
100
AcDb2dVertex
 10
-14378.307628294782
 20
-1102.829637786028
 30
0.0
  0
VERTEX
  5
317
100
AcDbEntity
  8
Frei
  6
CONTINUOUS
 62
           7
100
AcDbVertex
100
AcDb2dVertex
 10
-14377.923936524701
 20
-1102.890279659041
 30
0.0
 42
0.046286845788
  0
VERTEX
  5
318
100
AcDbEntity
  8
Frei
  6
CONTINUOUS
 62
           7
100
AcDbVertex
100
AcDb2dVertex
 10
-14377.147977932744
 20
-1102.903795572406
 30
0.0
  0
VERTEX
  5
319
100
AcDbEntity
  8
Frei
  6
CONTINUOUS
 62
           7
100
AcDbVertex
100
AcDb2dVertex
 10
-14376.760884540412
 20
-1102.856514118759
 30
0.0
  0
VERTEX
  5
31A
100
AcDbEntity
  8
Frei
  6
CONTINUOUS
 62
           7
100
AcDbVertex
100
AcDb2dVertex
 10
-14376.37976450619
 20
-1102.773885913146
 30
0.0
 42
0.045273723548
  0
VERTEX
  5
31B
100
AcDbEntity
  8
Frei
  6
CONTINUOUS
 62
           7
100
AcDbVertex
100
AcDb2dVertex
 10
-14375.642638021272
 20
-1102.504497920519
 30
0.0
  0
VERTEX
  5
31C
100
AcDbEntity
  8
Frei
  6
CONTINUOUS
 62
           7
100
AcDbVertex
100
AcDb2dVertex
 10
-14375.29190636469
 20
-1102.319366899431
 30
0.0
  0
VERTEX
  5
31D
100
AcDbEntity
  8
Frei
  6
CONTINUOUS
 62
           7
100
AcDbVertex
100
AcDb2dVertex
 10
-14374.958995693232
 20
-1102.103816812366
 30
0.0
 42
0.04348253534
  0
VERTEX
  5
31E
100
AcDbEntity
  8
Frei
  6
CONTINUOUS
 62
           7
100
AcDbVertex
100
AcDb2dVertex
 10
-14374.349609648265
 20
-1101.584017081403
 30
0.0
  0
VERTEX
  5
31F
100
AcDbEntity
  8
Frei
  6
CONTINUOUS
 62
           7
100
AcDbVertex
100
AcDb2dVertex
 10
-14374.078016582022
 20
-1101.283473590723
 30
0.0
  0
VERTEX
  5
320
100
AcDbEntity
  8
Frei
  6
CONTINUOUS
 62
           7
100
AcDbVertex
100
AcDb2dVertex
 10
-14373.832995772986
 20
-1100.960892579425
 30
0.0
 42
0.041825507476
  0
VERTEX
  5
321
100
AcDbEntity
  8
Frei
  6
CONTINUOUS
 62
           7
100
AcDbVertex
100
AcDb2dVertex
 10
-14373.424851118572
 20
-1100.253376629106
 30
0.0
  0
VERTEX
  5
322
100
AcDbEntity
  8
Frei
  6
CONTINUOUS
 62
           7
100
AcDbVertex
100
AcDb2dVertex
 10
-14373.265291150414
 20
-1099.874110511214
 30
0.0
  0
VERTEX
  5
323
100
AcDbEntity
  8
Frei
  6
CONTINUOUS
 62
           7
100
AcDbVertex
100
AcDb2dVertex
 10
-14373.137576953819
 20
-1099.482966744579
 30
0.0
 42
0.040993490695
  0
VERTEX
  5
324
100
AcDbEntity
  8
Frei
  6
CONTINUOUS
 62
           7
100
AcDbVertex
100
AcDb2dVertex
 10
-14372.979901958855
 20
-1098.673071440337
 30
0.0
  0
VERTEX
  5
325
100
AcDbEntity
  8
Frei
  6
CONTINUOUS
 62
           7
100
AcDbVertex
100
AcDb2dVertex
 10
-14372.951330616313
 20
-1098.261162691225
 30
0.0
  0
VERTEX
  5
326
100
AcDbEntity
  8
Frei
  6
CONTINUOUS
 62
           7
100
AcDbVertex
100
AcDb2dVertex
 10
-14372.956617008616
 20
-1097.848298975373
 30
0.0
 42
0.041278481646
  0
VERTEX
  5
327
100
AcDbEntity
  8
Frei
  6
CONTINUOUS
 62
           7
100
AcDbVertex
100
AcDb2dVertex
 10
-14373.068429604529
 20
-1097.033709643681
 30
0.0
  0
VERTEX
  5
328
100
AcDbEntity
  8
Frei
  6
CONTINUOUS
 62
           7
100
AcDbVertex
100
AcDb2dVertex
 10
-14373.173858154178
 20
-1096.638780011656
 30
0.0
  0
VERTEX
  5
329
100
AcDbEntity
  8
Frei
  6
CONTINUOUS
 62
           7
100
AcDbVertex
100
AcDb2dVertex
 10
-14373.311942377451
 20
-1096.254054329901
 30
0.0
 42
0.042584509173
  0
VERTEX
  5
32A
100
AcDbEntity
  8
Frei
  6
CONTINUOUS
 62
           7
100
AcDbVertex
100
AcDb2dVertex
 10
-14373.679756314996
 20
-1095.533022466218
 30
0.0
  0
VERTEX
  5
32B
100
AcDbEntity
  8
Frei
  6
CONTINUOUS
 62
           7
100
AcDbVertex
100
AcDb2dVertex
 10
-14373.906280704421
 20
-1095.20229713201
 30
0.0
  0
VERTEX
  5
32C
100
AcDbEntity
  8
Frei
  6
CONTINUOUS
 62
           7
100
AcDbVertex
100
AcDb2dVertex
 10
-14374.160695576797
 20
-1094.892522240951
 30
0.0
 42
0.044417198743
  0
VERTEX
  5
32D
100
AcDbEntity
  8
Frei
  6
CONTINUOUS
 62
           7
100
AcDbVertex
100
AcDb2dVertex
 10
-14374.74014706675
 20
-1094.352014929335
 30
0.0
  0
VERTEX
  5
32E
100
AcDbEntity
  8
Frei
  6
CONTINUOUS
 62
           7
100
AcDbVertex
100
AcDb2dVertex
 10
-14375.060711692695
 20
-1094.12499380115
 30
0.0
  0
VERTEX
  5
32F
100
AcDbEntity
  8
Frei
  6
CONTINUOUS
 62
           7
100
AcDbVertex
100
AcDb2dVertex
 10
-14375.400504444551
 20
-1093.927923572525
 30
0.0
 42
0.045929593741
  0
VERTEX
  5
330
100
AcDbEntity
  8
Frei
  6
CONTINUOUS
 62
           7
100
AcDbVertex
100
AcDb2dVertex
 10
-14376.121703085433
 20
-1093.633133971795
 30
0.0
  0
VERTEX
  5
331
100
AcDbEntity
  8
Frei
  6
CONTINUOUS
 62
           7
100
AcDbVertex
100
AcDb2dVertex
 10
-14376.498137963552
 20
-1093.537245033008
 30
0.0
  0
VERTEX
  5
332
100
AcDbEntity
  8
Frei
  6
CONTINUOUS
 62
           7
100
AcDbVertex
100
AcDb2dVertex
 10
-14376.881829733633
 20
-1093.476603159994
 30
0.0
  0
SEQEND
  5
333
100
AcDbEntity
  8
Frei
  6
CONTINUOUS
 62
           7
  0
ARC
  5
334
100
AcDbEntity
  8
Frei
  6
CONTINUOUS
 62
           7
100
AcDbCircle
 10
-14244.104379362479
 20
-1117.711855312361
 30
0.0
 40
0.5
100
AcDbArc
 50
270.832821982568
 51
353.682999999999
  0
ARC
  5
335
100
AcDbEntity
  8
Frei
  6
CONTINUOUS
 62
           7
100
AcDbCircle
 10
-14243.541293507902
 20
-1112.625324717222
 30
0.0
 40
0.5
100
AcDbArc
 50
353.682999999999
 51
76.533178017423
  0
ARC
  5
336
100
AcDbEntity
  8
Frei
  6
CONTINUOUS
 62
           7
100
AcDbCircle
 10
-14396.64256418787
 20
-1073.542413616034
 30
0.0
 40
0.5
100
AcDbArc
 50
90.832821982565
 51
173.683
  0
ARC
  5
337
100
AcDbEntity
  8
Frei
  6
CONTINUOUS
 62
           7
100
AcDbCircle
 10
-14397.205650042448
 20
-1078.628944211173
 30
0.0
 40
0.5
100
AcDbArc
 50
173.683
 51
256.533178017419
  0
ARC
  5
338
100
AcDbEntity
  8
Frei
  6
CONTINUOUS
 62
           7
100
AcDbCircle
 10
-14426.914785531542
 20
-1074.218571394802
 30
0.0
 40
2.0
100
AcDbArc
 50
85.683
 51
173.683
  0
ARC
  5
339
100
AcDbEntity
  8
Frei
  6
CONTINUOUS
 62
           7
100
AcDbCircle
 10
-14445.064729568057
 20
-1129.110753295343
 30
0.0
 40
1.5
100
AcDbArc
 50
173.683
 51
263.683
  0
ARC
  5
33A
100
AcDbEntity
  8
Frei
  6
CONTINUOUS
 62
           7
100
AcDbCircle
 10
-14443.414291261925
 20
-1114.201828002162
 30
0.0
 40
1.5
100
AcDbArc
 50
83.683
 51
173.683
  0
ARC
  5
33B
100
AcDbEntity
  8
Frei
  6
CONTINUOUS
 62
           7
100
AcDbCircle
 10
-14432.917530892693
 20
-1128.443247234491
 30
0.0
 40
1.5
100
AcDbArc
 50
173.683
 51
263.683
  0
ARC
  5
33C
100
AcDbEntity
  8
Frei
  6
CONTINUOUS
 62
           7
100
AcDbCircle
 10
-14408.069322070725
 20
-1131.19397774471
 30
0.0
 40
1.5
100
AcDbArc
 50
263.683
 51
353.682999999999
  0
ARC
  5
33D
100
AcDbEntity
  8
Frei
  6
CONTINUOUS
 62
           7
100
AcDbCircle
 10
-14243.077215492855
 20
-1149.458828332566
 30
0.0
 40
1.5
100
AcDbArc
 50
173.683
 51
263.683
  0
ARC
  5
33E
100
AcDbEntity
  8
Frei
  6
CONTINUOUS
 62
           7
100
AcDbCircle
 10
-14218.229006670885
 20
-1152.209558842786
 30
0.0
 40
1.5
100
AcDbArc
 50
263.683
 51
353.682999999999
  0
ARC
  5
33F
100
AcDbEntity
  8
Frei
  6
CONTINUOUS
 62
           7
100
AcDbCircle
 10
-14204.871486571026
 20
-1140.608840900267
 30
0.0
 40
1.5
100
AcDbArc
 50
353.682999999999
 51
83.683
  0
ARC
  5
340
100
AcDbEntity
  8
Frei
  6
CONTINUOUS
 62
           7
100
AcDbCircle
 10
-14206.521924877159
 20
-1155.517766193448
 30
0.0
 40
1.5
100
AcDbArc
 50
263.683
 51
353.682999999999
  0
ARC
  5
341
100
AcDbEntity
  8
Frei
  6
CONTINUOUS
 62
           7
100
AcDbCircle
 10
-14212.226261309734
 20
-1097.984883003097
 30
0.0
 40
2.0
100
AcDbArc
 50
353.682999999999
 51
81.683
  0
ARC
  5
342
100
AcDbEntity
  8
Frei
  6
CONTINUOUS
 62
           7
100
AcDbCircle
 10
-14240.893125246077
 20
-1088.831031491563
 30
0.0
 40
1.0
100
AcDbArc
 50
353.682999999999
 51
83.683
  0
ARC
  5
343
100
AcDbEntity
  8
Frei
  6
CONTINUOUS
 62
           7
100
AcDbCircle
 10
-14244.304031078749
 20
-1119.642810430804
 30
0.0
 40
1.0
100
AcDbArc
 50
263.682999999999
 51
353.682999999999
  0
ARC
  5
344
100
AcDbEntity
  8
Frei
  6
CONTINUOUS
 62
           7
100
AcDbCircle
 10
-14400.350782480713
 20
-1102.368222826627
 30
0.0
 40
1.0
100
AcDbArc
 50
173.683
 51
263.683
  0
ARC
  5
345
100
AcDbEntity
  8
Frei
  6
CONTINUOUS
 62
           7
100
AcDbCircle
 10
-14396.939876648041
 20
-1071.556443887386
 30
0.0
 40
1.0
100
AcDbArc
 50
83.683
 51
173.683
  0
LINE
  5
346
100
AcDbEntity
  8
Frei
  6
CONTINUOUS
 62
           7
100
AcDbLine
 10
-14657.471944265209
 20
-1065.207491704234
 30
0.0
 11
-14657.471944265209
 21
-1135.207491704234
 31
0.0
  0
LINE
  5
347
100
AcDbEntity
  8
Frei
  6
CONTINUOUS
 62
           7
100
AcDbLine
 10
-14139.583059265211
 20
-1135.207491704233
 30
0.0
 11
-14139.583059265211
 21
-1065.207491704233
 31
0.0
  0
LINE
  5
348
100
AcDbEntity
  8
Frei
  6
CONTINUOUS
 62
          15
100
AcDbLine
 10
-14577.604910685515
 20
-1065.207491704234
 30
0.0
 11
-14657.471944265209
 21
-1065.207491704234
 31
0.0
  0
LINE
  5
349
100
AcDbEntity
  8
Frei
  6
GESTRICHELT
 62
          15
100
AcDbLine
 10
-14493.453580146212
 20
-1065.207491704234
 30
0.0
 11
-14577.604910685515
 21
-1065.207491704234
 31
0.0
  0
LINE
  5
34A
100
AcDbEntity
  8
Frei
  6
CONTINUOUS
 62
          15
100
AcDbLine
 10
-14479.812959331502
 20
-1065.207491704234
 30
0.0
 11
-14493.453580146212
 21
-1065.207491704234
 31
0.0
  0
LINE
  5
34B
100
AcDbEntity
  8
Frei
  6
GESTRICHELT
 62
          15
100
AcDbLine
 10
-14325.235437848047
 20
-1065.207491704234
 30
0.0
 11
-14479.812959331502
 21
-1065.207491704234
 31
0.0
  0
LINE
  5
34C
100
AcDbEntity
  8
Frei
  6
CONTINUOUS
 62
          15
100
AcDbLine
 10
-14139.583059265211
 20
-1065.207491704234
 30
0.0
 11
-14325.235437848047
 21
-1065.207491704234
 31
0.0
  0
LINE
  5
34D
100
AcDbEntity
  8
Frei
  6
CONTINUOUS
 62
          15
100
AcDbLine
 10
-14243.00873625207
 20
-1135.207491704234
 30
0.0
 11
-14657.471944265209
 21
-1135.207491704234
 31
0.0
  0
LINE
  5
34E
100
AcDbEntity
  8
Frei
  6
GESTRICHELT
 62
          15
100
AcDbLine
 10
-14214.837691609966
 20
-1135.207491704234
 30
0.0
 11
-14243.00873625207
 21
-1135.207491704234
 31
0.0
  0
LINE
  5
34F
100
AcDbEntity
  8
Frei
  6
CONTINUOUS
 62
          15
100
AcDbLine
 10
-14139.583059265211
 20
-1135.207491704234
 30
0.0
 11
-14214.837691609966
 21
-1135.207491704234
 31
0.0
  0
TEXT
  5
350
100
AcDbEntity
  8
FREI
  6
CONTINUOUS
 62
          15
100
AcDbText
 10
-14742.787678973669
 20
-1163.71739507142
 30
0.0
 40
3.527777671814
  1
150-700
 41
0.899999979725
  7
GOTHICG
100
AcDbText
  0
ENDSEC
  0
SECTION
  2
OBJECTS
  0
DICTIONARY
  5
19
100
AcDbDictionary
  3
ACAD_GROUP
350
1A
  3
ACAD_MLINESTYLE
350
1B
  0
DICTIONARY
  5
1A
102
{ACAD_REACTORS
330
19
102
}
100
AcDbDictionary
  0
DICTIONARY
  5
1B
102
{ACAD_REACTORS
330
19
102
}
100
AcDbDictionary
  3
STANDARD
350
1C
  0
MLINESTYLE
  5
1C
102
{ACAD_REACTORS
330
1B
102
}
100
AcDbMlineStyle
  2
STANDARD
 70
           0
  3

 62
           0
 51
90.0
 52
90.0
 71
           2
 49
0.5
 62
         256
  6
BYLAYER
 49
-0.5
 62
         256
  6
BYLAYER
  0
ENDSEC
  0
EOF
