  0
SECTION
  2
HEADER
  9
$ACADVER
  1
AC1012
  9
$DWGCODEPAGE
  3
dos850
  9
$INSBASE
 10
0.0
 20
0.0
 30
0.0
  9
$EXTMIN
 10
-14826.068524897064
 20
-2565.335451294382
 30
0.0
  9
$EXTMAX
 10
-14118.144086816728
 20
-2259.559862461806
 30
0.0
  9
$LIMMIN
 10
-14826.068524897064
 20
-2565.335451294382
  9
$LIMMAX
 10
-14118.144086816728
 20
-2259.559862461806
  9
$ORTHOMODE
 70
           0
  9
$REGENMODE
 70
           1
  9
$FILLMODE
 70
           1
  9
$QTEXTMODE
 70
           0
  9
$MIRRTEXT
 70
           1
  9
$DRAGMODE
 70
           2
  9
$LTSCALE
 40
5.0
  9
$OSMODE
 70
           0
  9
$ATTMODE
 70
           1
  9
$TEXTSIZE
 40
0.2
  9
$TRACEWID
 40
0.05
  9
$TEXTSTYLE
  7
TXT
  9
$CLAYER
  8
0
  9
$CELTYPE
  6
CONTINUOUS
  9
$CECOLOR
 62
         256
  9
$CELTSCALE
 40
1.0
  9
$DELOBJ
 70
           1
  9
$DISPSILH
 70
           0
  9
$DIMSCALE
 40
1.0
  9
$DIMASZ
 40
3.5
  9
$DIMEXO
 40
0.0625
  9
$DIMDLI
 40
0.38
  9
$DIMRND
 40
0.0
  9
$DIMDLE
 40
0.0
  9
$DIMEXE
 40
0.18
  9
$DIMTP
 40
0.0
  9
$DIMTM
 40
0.0
  9
$DIMTXT
 40
3.5
  9
$DIMCEN
 40
0.09
  9
$DIMTSZ
 40
0.0
  9
$DIMTOL
 70
           0
  9
$DIMLIM
 70
           0
  9
$DIMTIH
 70
           1
  9
$DIMTOH
 70
           1
  9
$DIMSE1
 70
           0
  9
$DIMSE2
 70
           0
  9
$DIMTAD
 70
           0
  9
$DIMZIN
 70
           0
  9
$DIMBLK
  1

  9
$DIMASO
 70
           1
  9
$DIMSHO
 70
           1
  9
$DIMPOST
  1

  9
$DIMAPOST
  1

  9
$DIMALT
 70
           0
  9
$DIMALTD
 70
           2
  9
$DIMALTF
 40
25.4
  9
$DIMLFAC
 40
1.0
  9
$DIMTOFL
 70
           0
  9
$DIMTVP
 40
0.0
  9
$DIMTIX
 70
           0
  9
$DIMSOXD
 70
           0
  9
$DIMSAH
 70
           0
  9
$DIMBLK1
  1

  9
$DIMBLK2
  1

  9
$DIMSTYLE
  2
STANDARD
  9
$DIMCLRD
 70
           0
  9
$DIMCLRE
 70
           0
  9
$DIMCLRT
 70
           0
  9
$DIMTFAC
 40
1.0
  9
$DIMGAP
 40
0.09
  9
$DIMJUST
 70
           0
  9
$DIMSD1
 70
           0
  9
$DIMSD2
 70
           0
  9
$DIMTOLJ
 70
           1
  9
$DIMTZIN
 70
           0
  9
$DIMALTZ
 70
           0
  9
$DIMALTTZ
 70
           0
  9
$DIMFIT
 70
           3
  9
$DIMUPT
 70
           0
  9
$DIMUNIT
 70
           2
  9
$DIMDEC
 70
           4
  9
$DIMTDEC
 70
           4
  9
$DIMALTU
 70
           2
  9
$DIMALTTD
 70
           2
  9
$DIMTXSTY
  7
TXT
  9
$DIMAUNIT
 70
           0
  9
$LUNITS
 70
           2
  9
$LUPREC
 70
           3
  9
$SKETCHINC
 40
0.1
  9
$FILLETRAD
 40
0.0
  9
$AUNITS
 70
           0
  9
$AUPREC
 70
           3
  9
$MENU
  1
acad
  9
$ELEVATION
 40
0.0
  9
$PELEVATION
 40
0.0
  9
$THICKNESS
 40
0.0
  9
$LIMCHECK
 70
           0
  9
$BLIPMODE
 70
           1
  9
$CHAMFERA
 40
0.0
  9
$CHAMFERB
 40
0.0
  9
$CHAMFERC
 40
0.0
  9
$CHAMFERD
 40
0.0
  9
$SKPOLY
 70
           0
  9
$TDCREATE
 40
0.000000000
  9
$TDUPDATE
 40
0.000000000
  9
$TDINDWG
 40
0.0000000000
  9
$TDUSRTIMER
 40
0.0000000000
  9
$USRTIMER
 70
           1
  9
$ANGBASE
 50
0.0
  9
$ANGDIR
 70
           0
  9
$PDMODE
 70
           2
  9
$PDSIZE
 40
0.5
  9
$PLINEWID
 40
0.0
  9
$COORDS
 70
           0
  9
$SPLFRAME
 70
           0
  9
$SPLINETYPE
 70
           6
  9
$SPLINESEGS
 70
           8
  9
$ATTDIA
 70
           0
  9
$ATTREQ
 70
           1
  9
$HANDLING
 70
           1
  9
$HANDSEED
  5
3A4
  9
$SURFTAB1
 70
           6
  9
$SURFTAB2
 70
           6
  9
$SURFTYPE
 70
           6
  9
$SURFU
 70
           6
  9
$SURFV
 70
           6
  9
$UCSNAME
  2

  9
$UCSORG
 10
0.0
 20
0.0
 30
0.0
  9
$UCSXDIR
 10
1.0
 20
0.0
 30
0.0
  9
$UCSYDIR
 10
0.0
 20
1.0
 30
0.0
  9
$PUCSNAME
  2

  9
$PUCSORG
 10
0.0
 20
0.0
 30
0.0
  9
$PUCSXDIR
 10
1.0
 20
0.0
 30
0.0
  9
$PUCSYDIR
 10
0.0
 20
1.0
 30
0.0
  9
$USERI1
 70
           0
  9
$USERI2
 70
           0
  9
$USERI3
 70
           0
  9
$USERI4
 70
           0
  9
$USERI5
 70
           0
  9
$USERR1
 40
0.0
  9
$USERR2
 40
0.0
  9
$USERR3
 40
0.0
  9
$USERR4
 40
0.0
  9
$USERR5
 40
0.0
  9
$WORLDVIEW
 70
           1
  9
$SHADEDGE
 70
           3
  9
$SHADEDIF
 70
          70
  9
$TILEMODE
 70
           1
  9
$MAXACTVP
 70
          16
  9
$PINSBASE
 10
0.0
 20
0.0
 30
0.0
  9
$PLIMCHECK
 70
           0
  9
$PEXTMIN
 10
1.000000000000E+20
 20
1.000000000000E+20
 30
1.000000000000E+20
  9
$PEXTMAX
 10
-1.000000000000E+20
 20
-1.000000000000E+20
 30
-1.000000000000E+20
  9
$PLIMMIN
 10
0.0
 20
0.0
  9
$PLIMMAX
 10
12.0
 20
9.0
  9
$UNITMODE
 70
           0
  9
$VISRETAIN
 70
           0
  9
$PLINEGEN
 70
           1
  9
$PSLTSCALE
 70
           0
  9
$TREEDEPTH
 70
        3020
  9
$PICKSTYLE
 70
           1
  9
$CMLSTYLE
  2
STANDARD
  9
$CMLJUST
 70
           0
  9
$CMLSCALE
 40
1.0
  9
$SAVEIMAGES
 70
           0
  0
ENDSEC
  0
SECTION
  2
CLASSES
  0
CLASS
  1
LWPOLYLINE
  2
AcDbPolyline
  3
"AutoCAD"
 90
        0
280
           0
281
           1
  0
CLASS
  1
IMAGE
  2
AcDbRasterImage
  3
ISM
 90
      127
280
           0
281
           1
  0
CLASS
  1
OLE2FRAME
  2
AcDbOle2Frame
  3
""
 90
        0
280
           0
281
           1
  0
CLASS
  1
HATCH
  2
AcDbHatch
  3
"ACAD_SEDONA"
 90
        0
280
           0
281
           1
  0
CLASS
  1
DICTIONARYVAR
  2
AcDbDictionaryVar
  3
"AutoCAD"
 90
        0
280
           0
281
           0
  0
CLASS
  1
RASTERVARIABLES
  2
AcDbRasterVariables
  3
ISM
 90
        0
280
           0
281
           0
  0
CLASS
  1
IMAGEDEF
  2
AcDbRasterImageDef
  3
ISM
 90
        0
280
           0
281
           0
  0
CLASS
  1
IMAGEDEF_REACTOR
  2
AcDbRasterImageDefReactor
  3
ISM
 90
        1
280
           0
281
           0
  0
CLASS
  1
IDBUFFER
  2
AcDbIdBuffer
  3
"Acad"
 90
        0
280
           0
281
           0
  0
CLASS
  1
SPATIAL_FILTER
  2
AcDbSpatialFilter
  3
"Acad"
 90
        0
280
           0
281
           0
  0
CLASS
  1
XRECORD
  2
AcDbXrecord
  3
"<Built In>"
 90
        0
280
           0
281
           0
  0
ENDSEC
  0
SECTION
  2
TABLES
  0
TABLE
  2
VPORT
  5
7
100
AcDbSymbolTable
 70
           1
  0
VPORT
  5
15
100
AcDbSymbolTableRecord
100
AcDbViewportTableRecord
  2
*ACTIVE
 70
           0
 10
0.0
 20
0.0
 11
1.0
 21
1.0
 12
6.591288
 22
4.579184
 13
0.0
 23
0.0
 14
1.0
 24
1.0
 15
0.0
 25
0.0
 16
0.0
 26
0.0
 36
1.0
 17
0.0
 27
0.0
 37
0.0
 40
9.158369
 41
0.688564
 42
50.0
 43
0.0
 44
0.0
 50
0.0
 51
0.0
 71
           0
 72
         100
 73
           1
 74
           1
 75
           0
 76
           0
 77
           0
 78
           0
  0
ENDTAB
  0
TABLE
  2
LTYPE
  5
4
100
AcDbSymbolTable
 70
           5
  0
LTYPE
  5
11
100
AcDbSymbolTableRecord
100
AcDbLinetypeTableRecord
  2
BYBLOCK
 70
           0
  3

 72
          65
 73
           0
 40
0.0
  0
LTYPE
  5
12
100
AcDbSymbolTableRecord
100
AcDbLinetypeTableRecord
  2
BYLAYER
 70
           0
  3

 72
          65
 73
           0
 40
0.0
  0
LTYPE
  5
13
100
AcDbSymbolTableRecord
100
AcDbLinetypeTableRecord
  2
CONTINUOUS
 70
           0
  3
Solid line
 72
          65
 73
           0
 40
0.0
  0
LTYPE
  5
1D
100
AcDbSymbolTableRecord
100
AcDbLinetypeTableRecord
  2
GESTRICHELT
 70
           0
  3

 72
          65
 73
           2
 40
0.75
 49
0.5
 74
           0
 49
-0.25
 74
           0
  0
LTYPE
  5
1E
100
AcDbSymbolTableRecord
100
AcDbLinetypeTableRecord
  2
STRICHPUNKT
 70
           0
  3

 72
          65
 73
           4
 40
1.0
 49
0.5
 74
           0
 49
-0.25
 74
           0
 49
0.0
 74
           0
 49
-0.25
 74
           0
  0
ENDTAB
  0
TABLE
  2
LAYER
  5
2
100
AcDbSymbolTable
 70
           3
  0
LAYER
  5
14
100
AcDbSymbolTableRecord
100
AcDbLayerTableRecord
  2
0
 70
           0
 62
           7
  6
CONTINUOUS
  0
LAYER
  5
20
100
AcDbSymbolTableRecord
100
AcDbLayerTableRecord
  2
FREI
 70
           0
 62
           7
  6
CONTINUOUS
  0
LAYER
  5
21
100
AcDbSymbolTableRecord
100
AcDbLayerTableRecord
  2
Frei
 70
           0
 62
           7
  6
CONTINUOUS
  0
ENDTAB
  0
TABLE
  2
STYLE
  5
3
100
AcDbSymbolTable
 70
           2
  0
STYLE
  5
17
100
AcDbSymbolTableRecord
100
AcDbTextStyleTableRecord
  2
TXT
 70
           0
 40
3.5
 41
1.0
 50
0.0
 71
           0
 42
3.5
  3
TXT
  4

  0
STYLE
  5
1F
100
AcDbSymbolTableRecord
100
AcDbTextStyleTableRecord
  2
GOTHICG
 70
           0
 40
3.5
 41
1.0
 50
0.0
 71
           0
 42
3.5
  3
GOTHICG
  4

  0
ENDTAB
  0
TABLE
  2
VIEW
  5
5
100
AcDbSymbolTable
 70
           0
  0
ENDTAB
  0
TABLE
  2
UCS
  5
6
100
AcDbSymbolTable
 70
           0
  0
ENDTAB
  0
TABLE
  2
APPID
  5
8
100
AcDbSymbolTable
 70
           2
  0
APPID
  5
16
100
AcDbSymbolTableRecord
100
AcDbRegAppTableRecord
  2
ACAD
 70
           0
  0
APPID
  5
22
100
AcDbSymbolTableRecord
100
AcDbRegAppTableRecord
  2
MegaCADPntStyle
 70
           0
  0
ENDTAB
  0
TABLE
  2
DIMSTYLE
  5
9
100
AcDbSymbolTable
 70
           1
  0
DIMSTYLE
105
18
100
AcDbSymbolTableRecord
100
AcDbDimStyleTableRecord
  2
STANDARD
 70
           0
  3

  4

  5

  6

  7

 40
1.0
 41
0.18
 42
0.0625
 43
0.38
 44
0.18
 45
0.0
 46
0.0
 47
0.0
 48
0.0
140
0.18
141
0.09
142
0.0
143
25.4
144
1.0
145
0.0
146
1.0
147
0.09
 71
           0
 72
           0
 73
           1
 74
           1
 75
           0
 76
           0
 77
           0
 78
           0
170
           0
171
           2
172
           0
173
           0
174
           0
175
           0
176
           0
177
           0
178
           0
270
           2
271
           4
272
           4
273
           2
274
           2
340
17
275
           0
280
           0
281
           0
282
           0
283
           1
284
           0
285
           0
286
           0
287
           0
288
           0
  0
ENDTAB
  0
TABLE
  2
BLOCK_RECORD
  5
1
100
AcDbSymbolTable
 70
           3
  0
BLOCK_RECORD
  5
A
100
AcDbSymbolTableRecord
100
AcDbBlockTableRecord
  2
*MODEL_SPACE
  0
BLOCK_RECORD
  5
B
100
AcDbSymbolTableRecord
100
AcDbBlockTableRecord
  2
*PAPER_SPACE
  0
BLOCK_RECORD
  5
23
100
AcDbSymbolTableRecord
100
AcDbBlockTableRecord
  2
ELIPPSE
  0
BLOCK_RECORD
  5
24
100
AcDbSymbolTableRecord
100
AcDbBlockTableRecord
  2
MAK1
  0
BLOCK_RECORD
  5
25
100
AcDbSymbolTableRecord
100
AcDbBlockTableRecord
  2
MAK2
  0
ENDTAB
  0
ENDSEC
  0
SECTION
  2
BLOCKS
  0
BLOCK
  5
D
100
AcDbEntity
  8
0
100
AcDbBlockBegin
  2
*MODEL_SPACE
 70
           0
 10
0.0
 20
0.0
 30
0.0
  3
*MODEL_SPACE
  1

  0
ENDBLK
  5
E
100
AcDbEntity
  8
0
100
AcDbBlockEnd
  0
BLOCK
  5
F
100
AcDbEntity
 67
           1
  8
0
100
AcDbBlockBegin
  2
*PAPER_SPACE
 70
           0
 10
0.0
 20
0.0
 30
0.0
  3
*PAPER_SPACE
  1

  0
ENDBLK
  5
10
100
AcDbEntity
 67
           1
  8
0
100
AcDbBlockEnd
  0
BLOCK
  5
348
100
AcDbEntity
  8
0
100
AcDbBlockBegin
  2
ELIPPSE
 70
          64
 10
0.0
 20
0.0
 30
0.0
  3
ELIPPSE
  1

  0
CIRCLE
  5
349
100
AcDbEntity
  8
0
  6
BYBLOCK
 62
           0
100
AcDbCircle
 10
0.0
 20
0.0
 30
0.0
 40
1.0
  0
ENDBLK
  5
34A
100
AcDbEntity
  8
0
  6
BYBLOCK
 62
           0
100
AcDbBlockEnd
  0
BLOCK
  5
34B
100
AcDbEntity
  8
0
100
AcDbBlockBegin
  2
MAK1
 70
          64
 10
0.0
 20
0.0
 30
0.0
  3
MAK1
  1

  0
LINE
  5
34C
100
AcDbEntity
  8
Frei
  6
CONTINUOUS
 62
           2
100
AcDbLine
 10
191.903508353413
 20
615.106916893559
 30
0.0
 11
192.293358480829
 21
615.496767020978
 31
0.0
  0
LINE
  5
34D
100
AcDbEntity
  8
Frei
  6
CONTINUOUS
 62
           2
100
AcDbLine
 10
191.903508353411
 20
614.04625672178
 30
0.0
 11
193.35401865261
 21
615.496767020978
 31
0.0
  0
LINE
  5
34E
100
AcDbEntity
  8
Frei
  6
CONTINUOUS
 62
           2
100
AcDbLine
 10
191.903508353413
 20
612.98559655
 30
0.0
 11
193.903508353413
 21
614.98559655
 31
0.0
  0
LINE
  5
34F
100
AcDbEntity
  8
Frei
  6
CONTINUOUS
 62
           2
100
AcDbLine
 10
191.903508353411
 20
611.92493637822
 30
0.0
 11
193.903508353413
 21
613.92493637822
 31
0.0
  0
LINE
  5
350
100
AcDbEntity
  8
Frei
  6
CONTINUOUS
 62
           2
100
AcDbLine
 10
191.903508353413
 20
610.864276206441
 30
0.0
 11
193.903508353413
 21
612.86427620644
 31
0.0
  0
LINE
  5
351
100
AcDbEntity
  8
Frei
  6
CONTINUOUS
 62
           2
100
AcDbLine
 10
191.903508353413
 20
609.803616034661
 30
0.0
 11
193.903508353413
 21
611.803616034661
 31
0.0
  0
LINE
  5
352
100
AcDbEntity
  8
Frei
  6
CONTINUOUS
 62
           2
100
AcDbLine
 10
191.903508353413
 20
608.742955862881
 30
0.0
 11
193.903508353411
 21
610.742955862881
 31
0.0
  0
LINE
  5
353
100
AcDbEntity
  8
Frei
  6
CONTINUOUS
 62
           2
100
AcDbLine
 10
191.903508353413
 20
607.682295691101
 30
0.0
 11
193.903508353413
 21
609.682295691101
 31
0.0
  0
LINE
  5
354
100
AcDbEntity
  8
Frei
  6
CONTINUOUS
 62
           2
100
AcDbLine
 10
191.903508353413
 20
606.621635519321
 30
0.0
 11
193.903508353411
 21
608.621635519321
 31
0.0
  0
LINE
  5
355
100
AcDbEntity
  8
Frei
  6
CONTINUOUS
 62
           2
100
AcDbLine
 10
191.903508353413
 20
605.560975347542
 30
0.0
 11
193.903508353415
 21
607.560975347542
 31
0.0
  0
LINE
  5
356
100
AcDbEntity
  8
Frei
  6
CONTINUOUS
 62
           2
100
AcDbLine
 10
191.903508353413
 20
604.500315175762
 30
0.0
 11
193.903508353413
 21
606.500315175762
 31
0.0
  0
LINE
  5
357
100
AcDbEntity
  8
Frei
  6
CONTINUOUS
 62
           2
100
AcDbLine
 10
191.903508353411
 20
603.439655003982
 30
0.0
 11
193.903508353413
 21
605.439655003982
 31
0.0
  0
LINE
  5
358
100
AcDbEntity
  8
Frei
  6
CONTINUOUS
 62
           2
100
AcDbLine
 10
191.903508353413
 20
602.378994832203
 30
0.0
 11
193.903508353413
 21
604.378994832202
 31
0.0
  0
LINE
  5
359
100
AcDbEntity
  8
Frei
  6
CONTINUOUS
 62
           2
100
AcDbLine
 10
191.903508353411
 20
601.318334660423
 30
0.0
 11
193.903508353413
 21
603.318334660422
 31
0.0
  0
LINE
  5
35A
100
AcDbEntity
  8
Frei
  6
CONTINUOUS
 62
           2
100
AcDbLine
 10
191.903508353413
 20
600.257674488643
 30
0.0
 11
193.903508353413
 21
602.257674488642
 31
0.0
  0
LINE
  5
35B
100
AcDbEntity
  8
Frei
  6
CONTINUOUS
 62
           2
100
AcDbLine
 10
191.903508353411
 20
599.197014316863
 30
0.0
 11
193.903508353413
 21
601.197014316863
 31
0.0
  0
LINE
  5
35C
100
AcDbEntity
  8
Frei
  6
CONTINUOUS
 62
           2
100
AcDbLine
 10
191.903508353411
 20
598.136354145083
 30
0.0
 11
193.903508353411
 21
600.136354145083
 31
0.0
  0
LINE
  5
35D
100
AcDbEntity
  8
Frei
  6
CONTINUOUS
 62
           2
100
AcDbLine
 10
191.903508353415
 20
597.075693973304
 30
0.0
 11
193.903508353413
 21
599.075693973304
 31
0.0
  0
LINE
  5
35E
100
AcDbEntity
  8
Frei
  6
CONTINUOUS
 62
           2
100
AcDbLine
 10
191.903508353413
 20
596.015033801524
 30
0.0
 11
193.903508353411
 21
598.015033801524
 31
0.0
  0
LINE
  5
35F
100
AcDbEntity
  8
Frei
  6
CONTINUOUS
 62
           2
100
AcDbLine
 10
192.445901744646
 20
595.496767020978
 30
0.0
 11
193.903508353413
 21
596.954373629744
 31
0.0
  0
LINE
  5
360
100
AcDbEntity
  8
Frei
  6
CONTINUOUS
 62
           2
100
AcDbLine
 10
193.506561916425
 20
595.496767020978
 30
0.0
 11
193.903508353411
 21
595.893713457964
 31
0.0
  0
LINE
  5
361
100
AcDbEntity
  8
Frei
  6
CONTINUOUS
 62
           2
100
AcDbLine
 10
192.573740611429
 20
595.496767020979
 30
0.0
 11
191.903508353413
 21
596.166999278997
 31
0.0
  0
LINE
  5
362
100
AcDbEntity
  8
Frei
  6
CONTINUOUS
 62
           2
100
AcDbLine
 10
193.634400783209
 20
595.496767020978
 30
0.0
 11
191.903508353413
 21
597.227659450777
 31
0.0
  0
LINE
  5
363
100
AcDbEntity
  8
Frei
  6
CONTINUOUS
 62
           2
100
AcDbLine
 10
193.903508353413
 20
596.288319622556
 30
0.0
 11
191.903508353413
 21
598.288319622556
 31
0.0
  0
LINE
  5
364
100
AcDbEntity
  8
Frei
  6
CONTINUOUS
 62
           2
100
AcDbLine
 10
193.903508353413
 20
597.348979794336
 30
0.0
 11
191.903508353413
 21
599.348979794335
 31
0.0
  0
LINE
  5
365
100
AcDbEntity
  8
Frei
  6
CONTINUOUS
 62
           2
100
AcDbLine
 10
193.903508353413
 20
598.409639966116
 30
0.0
 11
191.903508353413
 21
600.409639966116
 31
0.0
  0
LINE
  5
366
100
AcDbEntity
  8
Frei
  6
CONTINUOUS
 62
           2
100
AcDbLine
 10
193.903508353415
 20
599.470300137896
 30
0.0
 11
191.903508353415
 21
601.470300137895
 31
0.0
  0
LINE
  5
367
100
AcDbEntity
  8
Frei
  6
CONTINUOUS
 62
           2
100
AcDbLine
 10
193.903508353413
 20
600.530960309675
 30
0.0
 11
191.903508353411
 21
602.530960309675
 31
0.0
  0
LINE
  5
368
100
AcDbEntity
  8
Frei
  6
CONTINUOUS
 62
           2
100
AcDbLine
 10
193.903508353413
 20
601.591620481455
 30
0.0
 11
191.903508353413
 21
603.591620481455
 31
0.0
  0
LINE
  5
369
100
AcDbEntity
  8
Frei
  6
CONTINUOUS
 62
           2
100
AcDbLine
 10
193.903508353413
 20
602.652280653235
 30
0.0
 11
191.903508353411
 21
604.652280653235
 31
0.0
  0
LINE
  5
36A
100
AcDbEntity
  8
Frei
  6
CONTINUOUS
 62
           2
100
AcDbLine
 10
193.903508353411
 20
603.712940825015
 30
0.0
 11
191.903508353413
 21
605.712940825015
 31
0.0
  0
LINE
  5
36B
100
AcDbEntity
  8
Frei
  6
CONTINUOUS
 62
           2
100
AcDbLine
 10
193.903508353413
 20
604.773600996794
 30
0.0
 11
191.903508353413
 21
606.773600996794
 31
0.0
  0
LINE
  5
36C
100
AcDbEntity
  8
Frei
  6
CONTINUOUS
 62
           2
100
AcDbLine
 10
193.903508353411
 20
605.834261168574
 30
0.0
 11
191.903508353413
 21
607.834261168574
 31
0.0
  0
LINE
  5
36D
100
AcDbEntity
  8
Frei
  6
CONTINUOUS
 62
           2
100
AcDbLine
 10
193.903508353413
 20
606.894921340354
 30
0.0
 11
191.903508353413
 21
608.894921340354
 31
0.0
  0
LINE
  5
36E
100
AcDbEntity
  8
Frei
  6
CONTINUOUS
 62
           2
100
AcDbLine
 10
193.903508353411
 20
607.955581512134
 30
0.0
 11
191.903508353413
 21
609.955581512134
 31
0.0
  0
LINE
  5
36F
100
AcDbEntity
  8
Frei
  6
CONTINUOUS
 62
           2
100
AcDbLine
 10
193.903508353413
 20
609.016241683913
 30
0.0
 11
191.903508353413
 21
611.016241683913
 31
0.0
  0
LINE
  5
370
100
AcDbEntity
  8
Frei
  6
CONTINUOUS
 62
           2
100
AcDbLine
 10
193.903508353413
 20
610.076901855693
 30
0.0
 11
191.903508353413
 21
612.076901855693
 31
0.0
  0
LINE
  5
371
100
AcDbEntity
  8
Frei
  6
CONTINUOUS
 62
           2
100
AcDbLine
 10
193.903508353413
 20
611.137562027473
 30
0.0
 11
191.903508353413
 21
613.137562027473
 31
0.0
  0
LINE
  5
372
100
AcDbEntity
  8
Frei
  6
CONTINUOUS
 62
           2
100
AcDbLine
 10
193.903508353413
 20
612.198222199253
 30
0.0
 11
191.903508353415
 21
614.198222199253
 31
0.0
  0
LINE
  5
373
100
AcDbEntity
  8
Frei
  6
CONTINUOUS
 62
           2
100
AcDbLine
 10
193.903508353413
 20
613.258882371032
 30
0.0
 11
191.903508353413
 21
615.258882371032
 31
0.0
  0
LINE
  5
374
100
AcDbEntity
  8
Frei
  6
CONTINUOUS
 62
           2
100
AcDbLine
 10
193.903508353413
 20
614.319542542812
 30
0.0
 11
192.726283875247
 21
615.496767020978
 31
0.0
  0
LINE
  5
375
100
AcDbEntity
  8
Frei
  6
CONTINUOUS
 62
           2
100
AcDbLine
 10
193.903508353415
 20
615.380202714592
 30
0.0
 11
193.786944047024
 21
615.496767020978
 31
0.0
  0
ENDBLK
  5
376
100
AcDbEntity
  8
0
  6
BYBLOCK
 62
           0
100
AcDbBlockEnd
  0
BLOCK
  5
377
100
AcDbEntity
  8
0
100
AcDbBlockBegin
  2
MAK2
 70
          64
 10
0.0
 20
0.0
 30
0.0
  3
MAK2
  1

  0
LINE
  5
378
100
AcDbEntity
  8
Frei
  6
CONTINUOUS
 62
           2
100
AcDbLine
 10
-32.096491646589
 20
614.906213139102
 30
0.0
 11
-31.505937764712
 21
615.496767020978
 31
0.0
  0
LINE
  5
379
100
AcDbEntity
  8
Frei
  6
CONTINUOUS
 62
           2
100
AcDbLine
 10
-32.096491646589
 20
613.845552967322
 30
0.0
 11
-30.445277592933
 21
615.496767020978
 31
0.0
  0
LINE
  5
37A
100
AcDbEntity
  8
Frei
  6
CONTINUOUS
 62
           2
100
AcDbLine
 10
-32.096491646589
 20
612.784892795542
 30
0.0
 11
-30.096491646589
 21
614.784892795542
 31
0.0
  0
LINE
  5
37B
100
AcDbEntity
  8
Frei
  6
CONTINUOUS
 62
           2
100
AcDbLine
 10
-32.096491646589
 20
611.724232623762
 30
0.0
 11
-30.096491646589
 21
613.724232623762
 31
0.0
  0
LINE
  5
37C
100
AcDbEntity
  8
Frei
  6
CONTINUOUS
 62
           2
100
AcDbLine
 10
-32.096491646589
 20
610.663572451982
 30
0.0
 11
-30.096491646589
 21
612.663572451982
 31
0.0
  0
LINE
  5
37D
100
AcDbEntity
  8
Frei
  6
CONTINUOUS
 62
           2
100
AcDbLine
 10
-32.096491646591
 20
609.602912280203
 30
0.0
 11
-30.096491646589
 21
611.602912280203
 31
0.0
  0
LINE
  5
37E
100
AcDbEntity
  8
Frei
  6
CONTINUOUS
 62
           2
100
AcDbLine
 10
-32.096491646589
 20
608.542252108423
 30
0.0
 11
-30.096491646589
 21
610.542252108423
 31
0.0
  0
LINE
  5
37F
100
AcDbEntity
  8
Frei
  6
CONTINUOUS
 62
           2
100
AcDbLine
 10
-32.096491646589
 20
607.481591936643
 30
0.0
 11
-30.096491646589
 21
609.481591936643
 31
0.0
  0
LINE
  5
380
100
AcDbEntity
  8
Frei
  6
CONTINUOUS
 62
           2
100
AcDbLine
 10
-32.096491646587
 20
606.420931764864
 30
0.0
 11
-30.096491646589
 21
608.420931764863
 31
0.0
  0
LINE
  5
381
100
AcDbEntity
  8
Frei
  6
CONTINUOUS
 62
           2
100
AcDbLine
 10
-32.096491646589
 20
605.360271593084
 30
0.0
 11
-30.096491646589
 21
607.360271593084
 31
0.0
  0
LINE
  5
382
100
AcDbEntity
  8
Frei
  6
CONTINUOUS
 62
           2
100
AcDbLine
 10
-32.096491646589
 20
604.299611421303
 30
0.0
 11
-30.096491646591
 21
606.299611421304
 31
0.0
  0
LINE
  5
383
100
AcDbEntity
  8
Frei
  6
CONTINUOUS
 62
           2
100
AcDbLine
 10
-32.096491646589
 20
603.238951249524
 30
0.0
 11
-30.096491646587
 21
605.238951249524
 31
0.0
  0
LINE
  5
384
100
AcDbEntity
  8
Frei
  6
CONTINUOUS
 62
           2
100
AcDbLine
 10
-32.096491646589
 20
602.178291077744
 30
0.0
 11
-30.096491646589
 21
604.178291077744
 31
0.0
  0
LINE
  5
385
100
AcDbEntity
  8
Frei
  6
CONTINUOUS
 62
           2
100
AcDbLine
 10
-32.096491646589
 20
601.117630905965
 30
0.0
 11
-30.096491646587
 21
603.117630905965
 31
0.0
  0
LINE
  5
386
100
AcDbEntity
  8
Frei
  6
CONTINUOUS
 62
           2
100
AcDbLine
 10
-32.096491646589
 20
600.056970734185
 30
0.0
 11
-30.096491646589
 21
602.056970734185
 31
0.0
  0
LINE
  5
387
100
AcDbEntity
  8
Frei
  6
CONTINUOUS
 62
           2
100
AcDbLine
 10
-32.096491646589
 20
598.996310562405
 30
0.0
 11
-30.096491646589
 21
600.996310562405
 31
0.0
  0
LINE
  5
388
100
AcDbEntity
  8
Frei
  6
CONTINUOUS
 62
           2
100
AcDbLine
 10
-32.096491646589
 20
597.935650390626
 30
0.0
 11
-30.096491646589
 21
599.935650390626
 31
0.0
  0
LINE
  5
389
100
AcDbEntity
  8
Frei
  6
CONTINUOUS
 62
           2
100
AcDbLine
 10
-32.096491646591
 20
596.874990218846
 30
0.0
 11
-30.096491646589
 21
598.874990218846
 31
0.0
  0
LINE
  5
38A
100
AcDbEntity
  8
Frei
  6
CONTINUOUS
 62
           2
100
AcDbLine
 10
-32.096491646589
 20
595.814330047066
 30
0.0
 11
-30.096491646589
 21
597.814330047066
 31
0.0
  0
LINE
  5
38B
100
AcDbEntity
  8
Frei
  6
CONTINUOUS
 62
           2
100
AcDbLine
 10
-31.353394500895
 20
595.496767020979
 30
0.0
 11
-30.096491646589
 21
596.753669875286
 31
0.0
  0
LINE
  5
38C
100
AcDbEntity
  8
Frei
  6
CONTINUOUS
 62
           2
100
AcDbLine
 10
-30.292734329116
 20
595.496767020978
 30
0.0
 11
-30.096491646591
 21
595.693009703505
 31
0.0
  0
LINE
  5
38D
100
AcDbEntity
  8
Frei
  6
CONTINUOUS
 62
           2
100
AcDbLine
 10
-31.225555634113
 20
595.496767020978
 30
0.0
 11
-32.096491646587
 21
596.367703033455
 31
0.0
  0
LINE
  5
38E
100
AcDbEntity
  8
Frei
  6
CONTINUOUS
 62
           2
100
AcDbLine
 10
-30.164895462332
 20
595.496767020978
 30
0.0
 11
-32.096491646589
 21
597.428363205234
 31
0.0
  0
LINE
  5
38F
100
AcDbEntity
  8
Frei
  6
CONTINUOUS
 62
           2
100
AcDbLine
 10
-30.096491646589
 20
596.489023377014
 30
0.0
 11
-32.096491646589
 21
598.489023377014
 31
0.0
  0
LINE
  5
390
100
AcDbEntity
  8
Frei
  6
CONTINUOUS
 62
           2
100
AcDbLine
 10
-30.096491646587
 20
597.549683548794
 30
0.0
 11
-32.096491646589
 21
599.549683548794
 31
0.0
  0
LINE
  5
391
100
AcDbEntity
  8
Frei
  6
CONTINUOUS
 62
           2
100
AcDbLine
 10
-30.096491646589
 20
598.610343720574
 30
0.0
 11
-32.096491646591
 21
600.610343720573
 31
0.0
  0
LINE
  5
392
100
AcDbEntity
  8
Frei
  6
CONTINUOUS
 62
           2
100
AcDbLine
 10
-30.096491646589
 20
599.671003892354
 30
0.0
 11
-32.096491646589
 21
601.671003892353
 31
0.0
  0
LINE
  5
393
100
AcDbEntity
  8
Frei
  6
CONTINUOUS
 62
           2
100
AcDbLine
 10
-30.096491646591
 20
600.731664064133
 30
0.0
 11
-32.096491646591
 21
602.731664064132
 31
0.0
  0
LINE
  5
394
100
AcDbEntity
  8
Frei
  6
CONTINUOUS
 62
           2
100
AcDbLine
 10
-30.096491646589
 20
601.792324235913
 30
0.0
 11
-32.096491646589
 21
603.792324235913
 31
0.0
  0
LINE
  5
395
100
AcDbEntity
  8
Frei
  6
CONTINUOUS
 62
           2
100
AcDbLine
 10
-30.096491646589
 20
602.852984407693
 30
0.0
 11
-32.096491646589
 21
604.852984407693
 31
0.0
  0
LINE
  5
396
100
AcDbEntity
  8
Frei
  6
CONTINUOUS
 62
           2
100
AcDbLine
 10
-30.096491646589
 20
603.913644579472
 30
0.0
 11
-32.096491646589
 21
605.913644579472
 31
0.0
  0
LINE
  5
397
100
AcDbEntity
  8
Frei
  6
CONTINUOUS
 62
           2
100
AcDbLine
 10
-30.096491646589
 20
604.974304751252
 30
0.0
 11
-32.096491646589
 21
606.974304751252
 31
0.0
  0
LINE
  5
398
100
AcDbEntity
  8
Frei
  6
CONTINUOUS
 62
           2
100
AcDbLine
 10
-30.096491646589
 20
606.034964923032
 30
0.0
 11
-32.096491646589
 21
608.034964923032
 31
0.0
  0
LINE
  5
399
100
AcDbEntity
  8
Frei
  6
CONTINUOUS
 62
           2
100
AcDbLine
 10
-30.096491646589
 20
607.095625094812
 30
0.0
 11
-32.096491646589
 21
609.095625094812
 31
0.0
  0
LINE
  5
39A
100
AcDbEntity
  8
Frei
  6
CONTINUOUS
 62
           2
100
AcDbLine
 10
-30.096491646587
 20
608.156285266592
 30
0.0
 11
-32.096491646589
 21
610.156285266591
 31
0.0
  0
LINE
  5
39B
100
AcDbEntity
  8
Frei
  6
CONTINUOUS
 62
           2
100
AcDbLine
 10
-30.096491646589
 20
609.216945438371
 30
0.0
 11
-32.096491646589
 21
611.216945438371
 31
0.0
  0
LINE
  5
39C
100
AcDbEntity
  8
Frei
  6
CONTINUOUS
 62
           2
100
AcDbLine
 10
-30.096491646587
 20
610.277605610151
 30
0.0
 11
-32.096491646589
 21
612.277605610151
 31
0.0
  0
LINE
  5
39D
100
AcDbEntity
  8
Frei
  6
CONTINUOUS
 62
           2
100
AcDbLine
 10
-30.096491646589
 20
611.338265781931
 30
0.0
 11
-32.096491646591
 21
613.338265781931
 31
0.0
  0
LINE
  5
39E
100
AcDbEntity
  8
Frei
  6
CONTINUOUS
 62
           2
100
AcDbLine
 10
-30.096491646589
 20
612.39892595371
 30
0.0
 11
-32.096491646589
 21
614.39892595371
 31
0.0
  0
LINE
  5
39F
100
AcDbEntity
  8
Frei
  6
CONTINUOUS
 62
           2
100
AcDbLine
 10
-30.096491646589
 20
613.45958612549
 30
0.0
 11
-32.096491646591
 21
615.45958612549
 31
0.0
  0
LINE
  5
3A0
100
AcDbEntity
  8
Frei
  6
CONTINUOUS
 62
           2
100
AcDbLine
 10
-30.096491646591
 20
614.52024629727
 30
0.0
 11
-31.073012370296
 21
615.496767020978
 31
0.0
  0
ENDBLK
  5
3A1
100
AcDbEntity
  8
0
  6
BYBLOCK
 62
           0
100
AcDbBlockEnd
  0
ENDSEC
  0
SECTION
  2
ENTITIES
  0
INSERT
  5
26
100
AcDbEntity
  8
FREI
  6
CONTINUOUS
 62
           7
100
AcDbBlockReference
  2
MAK1
 10
-14444.485500034332
 20
-2971.857975121292
 30
0.0
 50
354.103999999999
  0
INSERT
  5
27
100
AcDbEntity
  8
FREI
  6
CONTINUOUS
 62
           7
100
AcDbBlockReference
  2
MAK2
 10
-14444.485500034332
 20
-2971.857975121292
 30
0.0
 50
354.103999999999
  0
LINE
  5
28
100
AcDbEntity
  8
FREI
  6
STRICHPUNKT
 62
          15
100
AcDbLine
 10
-14629.032971816727
 20
-2324.559862461806
 30
0.0
 11
-14519.032971816727
 21
-2515.085451294382
 31
0.0
  0
LINE
  5
29
100
AcDbEntity
  8
FREI
  6
CONTINUOUS
 62
          15
100
AcDbLine
 10
-14454.09584025227
 20
-2426.559862461807
 30
0.0
 11
-14431.997418736391
 21
-2464.835451294382
 31
0.0
  0
LINE
  5
2A
100
AcDbEntity
  8
FREI
  6
GESTRICHELT
 62
          15
100
AcDbLine
 10
-14504.99830378365
 20
-2338.394209395036
 30
0.0
 11
-14454.09584025227
 21
-2426.559862461807
 31
0.0
  0
LINE
  5
2B
100
AcDbEntity
  8
FREI
  6
CONTINUOUS
 62
          15
100
AcDbLine
 10
-14512.985567709613
 20
-2324.559862461806
 30
0.0
 11
-14504.99830378365
 21
-2338.394209395036
 31
0.0
  0
LINE
  5
2C
100
AcDbEntity
  8
FREI
  6
CONTINUOUS
 62
          15
100
AcDbLine
 10
-14629.032971816727
 20
-2525.559862461806
 30
0.0
 11
-14606.068524897064
 21
-2565.335451294382
 31
0.0
  0
LINE
  5
2D
100
AcDbEntity
  8
FREI
  6
STRICHPUNKT
 62
          15
100
AcDbLine
 10
-14629.032971816727
 20
-2259.559862461806
 30
0.0
 11
-14629.032971816727
 21
-2324.559862461806
 31
0.0
  0
LINE
  5
2E
100
AcDbEntity
  8
FREI
  6
STRICHPUNKT
 62
          15
100
AcDbLine
 10
-14629.032971816727
 20
-2324.559862461806
 30
0.0
 11
-14739.032971816727
 21
-2515.085451294382
 31
0.0
  0
LINE
  5
2F
100
AcDbEntity
  8
FREI
  6
CONTINUOUS
 62
          15
100
AcDbLine
 10
-14745.080375923842
 20
-2324.559862461806
 30
0.0
 11
-14826.068524897064
 21
-2464.835451294382
 31
0.0
  0
LINE
  5
30
100
AcDbEntity
  8
FREI
  6
CONTINUOUS
 62
          15
100
AcDbLine
 10
-14629.032971816727
 20
-2525.559862461806
 30
0.0
 11
-14651.997418736391
 21
-2565.335451294382
 31
0.0
  0
LINE
  5
31
100
AcDbEntity
  8
FREI
  6
CONTINUOUS
 62
          15
100
AcDbLine
 10
-14512.985567709613
 20
-2324.559862461806
 30
0.0
 11
-14745.080375923842
 21
-2324.559862461806
 31
0.0
  0
LINE
  5
32
100
AcDbEntity
  8
FREI
  6
CONTINUOUS
 62
          15
100
AcDbLine
 10
-14745.080375923842
 20
-2324.559862461806
 30
0.0
 11
-14729.532971816729
 21
-2259.559862461806
 31
0.0
  0
LINE
  5
33
100
AcDbEntity
  8
FREI
  6
CONTINUOUS
 62
          15
100
AcDbLine
 10
-14729.532971816729
 20
-2259.559862461806
 30
0.0
 11
-14528.532971816729
 21
-2259.559862461806
 31
0.0
  0
LINE
  5
34
100
AcDbEntity
  8
FREI
  6
CONTINUOUS
 62
          15
100
AcDbLine
 10
-14528.532971816729
 20
-2259.559862461806
 30
0.0
 11
-14512.985567709613
 21
-2324.559862461806
 31
0.0
  0
LINE
  5
35
100
AcDbEntity
  8
FREI
  6
CONTINUOUS
 62
          15
100
AcDbLine
 10
-14629.032971816727
 20
-2426.559862461806
 30
0.0
 11
-14629.032971816727
 21
-2525.559862461806
 31
0.0
  0
LINE
  5
36
100
AcDbEntity
  8
FREI
  6
GESTRICHELT
 62
          15
100
AcDbLine
 10
-14629.032971816727
 20
-2398.807828786011
 30
0.0
 11
-14629.032971816727
 21
-2426.559862461806
 31
0.0
  0
LINE
  5
37
100
AcDbEntity
  8
FREI
  6
GESTRICHELT
 62
          15
100
AcDbLine
 10
-14629.032971816727
 20
-2346.559862461806
 30
0.0
 11
-14629.032971816727
 21
-2384.311896137601
 31
0.0
  0
LINE
  5
38
100
AcDbEntity
  8
FREI
  6
CONTINUOUS
 62
          15
100
AcDbLine
 10
-14629.032971816727
 20
-2324.559862461806
 30
0.0
 11
-14629.032971816727
 21
-2346.559862461806
 31
0.0
  0
LINE
  5
39
100
AcDbEntity
  8
FREI
  6
CONTINUOUS
 62
          15
100
AcDbLine
 10
-14606.068524897064
 20
-2565.335451294382
 30
0.0
 11
-14431.997418736391
 21
-2464.835451294382
 31
0.0
  0
LINE
  5
3A
100
AcDbEntity
  8
FREI
  6
CONTINUOUS
 62
          15
100
AcDbLine
 10
-14651.997418736391
 20
-2565.335451294382
 30
0.0
 11
-14826.068524897064
 21
-2464.835451294382
 31
0.0
  0
CIRCLE
  5
3B
100
AcDbEntity
  8
FREI
  6
CONTINUOUS
 62
          15
100
AcDbCircle
 10
-14629.032971816727
 20
-2391.559862461806
 30
0.0
 40
7.247966324205
  0
CIRCLE
  5
3C
100
AcDbEntity
  8
Frei
  6
CONTINUOUS
 62
           7
100
AcDbCircle
 10
-14138.144024816727
 20
-2391.559862461806
 30
0.0
 40
6.25
  0
CIRCLE
  5
3D
100
AcDbEntity
  8
FREI
  6
CONTINUOUS
 62
          15
100
AcDbCircle
 10
-14554.554787091265
 20
-2348.559862461806
 30
0.0
 40
8.25
  0
ARC
  5
3E
100
AcDbEntity
  8
FREI
  6
CONTINUOUS
 62
          15
100
AcDbCircle
 10
-14629.032971816727
 20
-2391.559862461806
 30
0.0
 40
20.25
100
AcDbArc
 50
118.385820858495
 51
327.117816039372
  0
ARC
  5
3F
100
AcDbEntity
  8
FREI
  6
GESTRICHELT
 62
          15
100
AcDbCircle
 10
-14554.554787091265
 20
-2348.559862461806
 30
0.0
 40
18.25
100
AcDbArc
 50
112.839580585602
 51
118.385820858496
  0
ARC
  5
40
100
AcDbEntity
  8
FREI
  6
CONTINUOUS
 62
          15
100
AcDbCircle
 10
-14554.554787091265
 20
-2348.559862461806
 30
0.0
 40
18.25
100
AcDbArc
 50
55.368419414393
 51
112.839580585602
  0
ARC
  5
41
100
AcDbEntity
  8
FREI
  6
GESTRICHELT
 62
          15
100
AcDbCircle
 10
-14554.554787091265
 20
-2348.559862461806
 30
0.0
 40
18.25
100
AcDbArc
 50
292.871848138221
 51
55.368419414393
  0
ARC
  5
42
100
AcDbEntity
  8
FREI
  6
CONTINUOUS
 62
          15
100
AcDbCircle
 10
-14554.554787091265
 20
-2348.559862461806
 30
0.0
 40
18.25
100
AcDbArc
 50
235.336151861781
 51
292.871848138221
  0
ARC
  5
43
100
AcDbEntity
  8
FREI
  6
GESTRICHELT
 62
          15
100
AcDbCircle
 10
-14554.554787091265
 20
-2348.559862461806
 30
0.0
 40
18.25
100
AcDbArc
 50
219.400297985065
 51
235.336151861781
  0
LINE
  5
44
100
AcDbEntity
  8
FREI
  6
GESTRICHELT
 62
          15
100
AcDbLine
 10
-14571.970105674158
 20
-2337.28221953905
 30
0.0
 11
-14563.230955816587
 21
-2332.504128400426
 31
0.0
  0
LINE
  5
45
100
AcDbEntity
  8
FREI
  6
CONTINUOUS
 62
          15
100
AcDbLine
 10
-14638.659953553042
 20
-2373.744595900549
 30
0.0
 11
-14571.970105674158
 21
-2337.28221953905
 31
0.0
  0
LINE
  5
46
100
AcDbEntity
  8
FREI
  6
CONTINUOUS
 62
          15
100
AcDbLine
 10
-14576.34849249424
 20
-2360.10053043221
 30
0.0
 11
-14612.027250170986
 21
-2402.55385770046
 31
0.0
  0
ARC
  5
47
100
AcDbEntity
  8
FREI
  6
CONTINUOUS
 62
          15
100
AcDbCircle
 10
-14572.520765923809
 20
-2363.317440331789
 30
0.0
 40
5.0
100
AcDbArc
 50
98.870845309048
 51
139.955529992632
  0
ARC
  5
48
100
AcDbEntity
  8
FREI
  6
GESTRICHELT
 62
          15
100
AcDbCircle
 10
-14572.520765923809
 20
-2363.317440331789
 30
0.0
 40
5.0
100
AcDbArc
 50
39.400297985059
 51
98.870845309048
  0
LINE
  5
49
100
AcDbEntity
  8
Frei
  6
GESTRICHELT
 62
           7
100
AcDbLine
 10
-14161.05174281877
 20
-2389.194009997541
 30
0.0
 11
-14158.997280955175
 21
-2369.299810178222
 31
0.0
  0
LINE
  5
4A
100
AcDbEntity
  8
Frei
  6
GESTRICHELT
 62
           7
100
AcDbLine
 10
-14158.997280955175
 20
-2369.299810178222
 30
0.0
 11
-14162.976120919038
 21
-2368.888917805502
 31
0.0
  0
LINE
  5
4B
100
AcDbEntity
  8
Frei
  6
CONTINUOUS
 62
           7
100
AcDbLine
 10
-14161.74344380088
 20
-2356.95239791391
 30
0.0
 11
-14191.186859533473
 21
-2353.911794355787
 31
0.0
  0
LINE
  5
4C
100
AcDbEntity
  8
Frei
  6
CONTINUOUS
 62
           7
100
AcDbLine
 10
-14191.186859533473
 20
-2353.911794355787
 30
0.0
 11
-14191.238221080062
 21
-2354.40914935127
 31
0.0
  0
LINE
  5
4D
100
AcDbEntity
  8
Frei
  6
CONTINUOUS
 62
           7
100
AcDbLine
 10
-14191.238221080062
 20
-2354.40914935127
 30
0.0
 11
-14405.255738557649
 21
-2332.307877465855
 31
0.0
  0
LINE
  5
4E
100
AcDbEntity
  8
Frei
  6
CONTINUOUS
 62
           7
100
AcDbLine
 10
-14405.255738557649
 20
-2332.307877465855
 30
0.0
 11
-14405.204377011059
 21
-2331.810522470372
 31
0.0
  0
LINE
  5
4F
100
AcDbEntity
  8
Frei
  6
CONTINUOUS
 62
           7
100
AcDbLine
 10
-14405.204377011059
 20
-2331.810522470372
 30
0.0
 11
-14434.647792743654
 21
-2328.769918912249
 31
0.0
  0
LINE
  5
50
100
AcDbEntity
  8
Frei
  6
CONTINUOUS
 62
           7
100
AcDbLine
 10
-14434.647792743654
 20
-2328.769918912249
 30
0.0
 11
-14435.880469861811
 21
-2340.70643880384
 31
0.0
  0
LINE
  5
51
100
AcDbEntity
  8
Frei
  6
CONTINUOUS
 62
           7
100
AcDbLine
 10
-14435.880469861811
 20
-2340.70643880384
 30
0.0
 11
-14447.31963475792
 21
-2339.525123232272
 31
0.0
  0
LINE
  5
52
100
AcDbEntity
  8
Frei
  6
CONTINUOUS
 62
           7
100
AcDbLine
 10
-14447.31963475792
 20
-2339.525123232272
 30
0.0
 11
-14447.422357851099
 21
-2340.519833223238
 31
0.0
  0
LINE
  5
53
100
AcDbEntity
  8
Frei
  6
CONTINUOUS
 62
           7
100
AcDbLine
 10
-14447.422357851099
 20
-2340.519833223238
 30
0.0
 11
-14463.835072702039
 21
-2338.824902185771
 31
0.0
  0
LINE
  5
54
100
AcDbEntity
  8
Frei
  6
CONTINUOUS
 62
           7
100
AcDbLine
 10
-14463.835072702039
 20
-2338.824902185771
 30
0.0
 11
-14467.738550242873
 21
-2376.623881842479
 31
0.0
  0
LINE
  5
55
100
AcDbEntity
  8
Frei
  6
CONTINUOUS
 62
           7
100
AcDbLine
 10
-14467.738550242873
 20
-2376.623881842479
 30
0.0
 11
-14451.325835391934
 21
-2378.318812879946
 31
0.0
  0
LINE
  5
56
100
AcDbEntity
  8
Frei
  6
CONTINUOUS
 62
           7
100
AcDbLine
 10
-14451.325835391934
 20
-2378.318812879946
 30
0.0
 11
-14451.428558485115
 21
-2379.313522870912
 31
0.0
  0
LINE
  5
57
100
AcDbEntity
  8
Frei
  6
CONTINUOUS
 62
           7
100
AcDbLine
 10
-14451.428558485115
 20
-2379.313522870912
 30
0.0
 11
-14439.989393589005
 21
-2380.49483844248
 31
0.0
  0
LINE
  5
58
100
AcDbEntity
  8
Frei
  6
CONTINUOUS
 62
           7
100
AcDbLine
 10
-14439.989393589005
 20
-2380.49483844248
 30
0.0
 11
-14441.222070707163
 21
-2392.431358334072
 31
0.0
  0
LINE
  5
59
100
AcDbEntity
  8
Frei
  6
GESTRICHELT
 62
           7
100
AcDbLine
 10
-14413.690649770653
 20
-2395.274511357486
 30
0.0
 11
-14411.778654974571
 21
-2395.471961892196
 31
0.0
  0
LINE
  5
5A
100
AcDbEntity
  8
Frei
  6
CONTINUOUS
 62
           7
100
AcDbLine
 10
-14441.222070707163
 20
-2392.431358334072
 30
0.0
 11
-14413.690649770653
 21
-2395.274511357486
 31
0.0
  0
LINE
  5
5B
100
AcDbEntity
  8
Frei
  6
CONTINUOUS
 62
           7
100
AcDbLine
 10
-14411.778654974571
 20
-2395.471961892196
 30
0.0
 11
-14411.727293427981
 21
-2394.974606896713
 31
0.0
  0
LINE
  5
5C
100
AcDbEntity
  8
Frei
  6
GESTRICHELT
 62
           7
100
AcDbLine
 10
-14223.649663210086
 20
-2414.397105064161
 30
0.0
 11
-14197.709775950394
 21
-2417.075878782127
 31
0.0
  0
LINE
  5
5D
100
AcDbEntity
  8
Frei
  6
CONTINUOUS
 62
           7
100
AcDbLine
 10
-14385.787406168289
 20
-2397.65338061468
 30
0.0
 11
-14223.649663210086
 21
-2414.397105064161
 31
0.0
  0
LINE
  5
5E
100
AcDbEntity
  8
Frei
  6
GESTRICHELT
 62
           7
100
AcDbLine
 10
-14411.727293427981
 20
-2394.974606896713
 30
0.0
 11
-14385.787406168289
 21
-2397.65338061468
 31
0.0
  0
LINE
  5
5F
100
AcDbEntity
  8
Frei
  6
CONTINUOUS
 62
           7
100
AcDbLine
 10
-14197.709775950394
 20
-2417.075878782127
 30
0.0
 11
-14197.761137496984
 21
-2417.57323377761
 31
0.0
  0
LINE
  5
60
100
AcDbEntity
  8
Frei
  6
CONTINUOUS
 62
           7
100
AcDbLine
 10
-14195.849142700901
 20
-2417.77068431232
 30
0.0
 11
-14168.31772176439
 21
-2420.613837335734
 31
0.0
  0
LINE
  5
61
100
AcDbEntity
  8
Frei
  6
GESTRICHELT
 62
           7
100
AcDbLine
 10
-14197.761137496984
 20
-2417.57323377761
 30
0.0
 11
-14195.849142700901
 21
-2417.77068431232
 31
0.0
  0
LINE
  5
62
100
AcDbEntity
  8
Frei
  6
GESTRICHELT
 62
           7
100
AcDbLine
 10
-14167.085044646232
 20
-2408.677317444142
 30
0.0
 11
-14163.106204682368
 21
-2409.088209816861
 31
0.0
  0
LINE
  5
63
100
AcDbEntity
  8
Frei
  6
GESTRICHELT
 62
           7
100
AcDbLine
 10
-14163.106204682368
 20
-2409.088209816861
 30
0.0
 11
-14161.05174281877
 21
-2389.194009997541
 31
0.0
  0
LINE
  5
64
100
AcDbEntity
  8
Frei
  6
GESTRICHELT
 62
           7
100
AcDbLine
 10
-14193.614022477712
 20
-2377.41501213866
 30
0.0
 11
-14197.709775950394
 21
-2417.075878782127
 31
0.0
  0
LINE
  5
65
100
AcDbEntity
  8
Frei
  6
CONTINUOUS
 62
           7
100
AcDbLine
 10
-14191.238221080062
 20
-2354.40914935127
 30
0.0
 11
-14193.614022477712
 21
-2377.41501213866
 31
0.0
  0
LINE
  5
66
100
AcDbEntity
  8
Frei
  6
GESTRICHELT
 62
           7
100
AcDbLine
 10
-14407.631520907098
 20
-2355.313555801691
 30
0.0
 11
-14411.727293427981
 21
-2394.974606896713
 31
0.0
  0
LINE
  5
67
100
AcDbEntity
  8
Frei
  6
CONTINUOUS
 62
           7
100
AcDbLine
 10
-14405.255738557649
 20
-2332.307877465855
 30
0.0
 11
-14407.631520907098
 21
-2355.313555801691
 31
0.0
  0
LINE
  5
68
100
AcDbEntity
  8
Frei
  6
CONTINUOUS
 62
           7
100
AcDbLine
 10
-14435.880469861811
 20
-2340.70643880384
 30
0.0
 11
-14439.989393589005
 21
-2380.49483844248
 31
0.0
  0
LINE
  5
69
100
AcDbEntity
  8
Frei
  6
CONTINUOUS
 62
           7
100
AcDbLine
 10
-14447.31963475792
 20
-2339.525123232272
 30
0.0
 11
-14451.428558485115
 21
-2379.313522870912
 31
0.0
  0
LINE
  5
6A
100
AcDbEntity
  8
Frei
  6
GESTRICHELT
 62
           7
100
AcDbLine
 10
-14482.123736731784
 20
-2347.994742585061
 30
0.0
 11
-14504.832903693936
 21
-2345.649580784057
 31
0.0
  0
LINE
  5
6B
100
AcDbEntity
  8
Frei
  6
CONTINUOUS
 62
           7
100
AcDbLine
 10
-14473.917416645711
 20
-2348.842204247778
 30
0.0
 11
-14482.123736731784
 21
-2347.994742585061
 31
0.0
  0
LINE
  5
6C
100
AcDbEntity
  8
Frei
  6
GESTRICHELT
 62
           7
100
AcDbLine
 10
-14483.767306222662
 20
-2363.910102440517
 30
0.0
 11
-14506.476473184814
 21
-2361.564940639513
 31
0.0
  0
LINE
  5
6D
100
AcDbEntity
  8
Frei
  6
CONTINUOUS
 62
           7
100
AcDbLine
 10
-14475.560986136588
 20
-2364.757564103234
 30
0.0
 11
-14483.767306222662
 21
-2363.910102440517
 31
0.0
  0
LINE
  5
6E
100
AcDbEntity
  8
Frei
  6
CONTINUOUS
 62
           7
100
AcDbLine
 10
-14505.842655983581
 20
-2346.47033771711
 30
0.0
 11
-14504.832903693936
 21
-2345.649580784057
 31
0.0
  0
LINE
  5
6F
100
AcDbEntity
  8
Frei
  6
CONTINUOUS
 62
           7
100
AcDbLine
 10
-14507.297186220541
 20
-2360.555152670391
 30
0.0
 11
-14506.476473184814
 21
-2361.564940639513
 31
0.0
  0
LINE
  5
70
100
AcDbEntity
  8
Frei
  6
GESTRICHELT
 62
           7
100
AcDbLine
 10
-14505.842655983581
 20
-2346.47033771711
 30
0.0
 11
-14507.297186220541
 21
-2360.555152670391
 31
0.0
  0
LINE
  5
71
100
AcDbEntity
  8
Frei
  6
CONTINUOUS
 62
           7
100
AcDbLine
 10
-14482.218256358743
 20
-2348.910015036148
 30
0.0
 11
-14474.011936272669
 21
-2349.757476698865
 31
0.0
  0
LINE
  5
72
100
AcDbEntity
  8
Frei
  6
GESTRICHELT
 62
           7
100
AcDbLine
 10
-14505.842655983581
 20
-2346.47033771711
 30
0.0
 11
-14482.218256358743
 21
-2348.910015036148
 31
0.0
  0
LINE
  5
73
100
AcDbEntity
  8
Frei
  6
CONTINUOUS
 62
           7
100
AcDbLine
 10
-14483.672786595704
 20
-2362.994829989429
 30
0.0
 11
-14475.46646650963
 21
-2363.842291652146
 31
0.0
  0
LINE
  5
74
100
AcDbEntity
  8
Frei
  6
GESTRICHELT
 62
           7
100
AcDbLine
 10
-14507.297186220541
 20
-2360.555152670391
 30
0.0
 11
-14483.672786595704
 21
-2362.994829989429
 31
0.0
  0
LINE
  5
75
100
AcDbEntity
  8
Frei
  6
GESTRICHELT
 62
           7
100
AcDbLine
 10
-14504.832903693936
 20
-2345.649580784057
 30
0.0
 11
-14506.476473184814
 21
-2361.564940639513
 31
0.0
  0
LINE
  5
76
100
AcDbEntity
  8
Frei
  6
CONTINUOUS
 62
           7
100
AcDbLine
 10
-14464.759580540658
 20
-2347.777292104465
 30
0.0
 11
-14473.711970459352
 21
-2346.852784265846
 31
0.0
  0
LINE
  5
77
100
AcDbEntity
  8
Frei
  6
CONTINUOUS
 62
           7
100
AcDbLine
 10
-14473.711970459352
 20
-2346.852784265846
 30
0.0
 11
-14475.766432322949
 21
-2366.746984085166
 31
0.0
  0
LINE
  5
78
100
AcDbEntity
  8
Frei
  6
CONTINUOUS
 62
           7
100
AcDbLine
 10
-14475.766432322949
 20
-2366.746984085166
 30
0.0
 11
-14466.814042404254
 21
-2367.671491923784
 31
0.0
  0
LINE
  5
79
100
AcDbEntity
  8
Frei
  6
CONTINUOUS
 62
           7
100
AcDbLine
 10
-14474.198073599204
 20
-2351.559921043795
 30
0.0
 11
-14467.566670343731
 21
-2352.244742007405
 31
0.0
  0
LINE
  5
7A
100
AcDbEntity
  8
Frei
  6
CONTINUOUS
 62
           7
100
AcDbLine
 10
-14475.280329183095
 20
-2362.039847307216
 30
0.0
 11
-14468.648925927622
 21
-2362.724668270825
 31
0.0
  0
LINE
  5
7B
100
AcDbEntity
  8
Frei
  6
CONTINUOUS
 62
           7
100
AcDbLine
 10
-14467.566670343731
 20
-2352.244742007405
 30
0.0
 11
-14468.648925927622
 21
-2362.724668270825
 31
0.0
  0
LINE
  5
7C
100
AcDbEntity
  8
Frei
  6
CONTINUOUS
 62
           7
100
AcDbLine
 10
-14474.198073599204
 20
-2351.559921043795
 30
0.0
 11
-14468.648925927622
 21
-2362.724668270825
 31
0.0
  0
LINE
  5
7D
100
AcDbEntity
  8
Frei
  6
CONTINUOUS
 62
           7
100
AcDbLine
 10
-14467.566670343731
 20
-2352.244742007405
 30
0.0
 11
-14475.280329183095
 21
-2362.039847307216
 31
0.0
  0
CIRCLE
  5
7E
100
AcDbEntity
  8
Frei
  6
CONTINUOUS
 62
           7
100
AcDbCircle
 10
-14424.882138143914
 20
-2370.493796850889
 30
0.0
 40
5.7225
  0
ARC
  5
7F
100
AcDbEntity
  8
Frei
  6
CONTINUOUS
 62
           7
100
AcDbCircle
 10
-14424.882138143914
 20
-2370.493796850889
 30
0.0
 40
6.5785
100
AcDbArc
 50
104.104
 51
14.104
  0
CIRCLE
  5
80
100
AcDbEntity
  8
Frei
  6
CONTINUOUS
 62
           7
100
AcDbCircle
 10
-14178.083376364129
 20
-2378.889959397093
 30
0.0
 40
5.7225
  0
ARC
  5
81
100
AcDbEntity
  8
Frei
  6
CONTINUOUS
 62
           7
100
AcDbCircle
 10
-14178.083376364129
 20
-2378.889959397093
 30
0.0
 40
6.57849
100
AcDbArc
 50
104.104
 51
14.104
  0
LINE
  5
82
100
AcDbEntity
  8
Frei
  6
CONTINUOUS
 62
           7
100
AcDbLine
 10
-14412.775105524897
 20
-2349.04500438483
 30
0.0
 11
-14422.014064403165
 21
-2356.554364534122
 31
0.0
  0
LINE
  5
83
100
AcDbEntity
  8
Frei
  6
CONTINUOUS
 62
           7
100
AcDbLine
 10
-14413.721236027379
 20
-2347.880957112477
 30
0.0
 11
-14422.960200041802
 21
-2355.390366997268
 31
0.0
  0
CIRCLE
  5
84
100
AcDbEntity
  8
Frei
  6
CONTINUOUS
 62
           7
100
AcDbCircle
 10
-14417.867650728887
 20
-2352.217665796849
 30
0.0
 40
6.0
  0
LINE
  5
85
100
AcDbEntity
  8
Frei
  6
CONTINUOUS
 62
           7
100
AcDbLine
 10
-14180.005016053245
 20
-2393.993420067642
 30
0.0
 11
-14189.244278480664
 21
-2401.502799135506
 31
0.0
  0
LINE
  5
86
100
AcDbEntity
  8
Frei
  6
CONTINUOUS
 62
           7
100
AcDbLine
 10
-14180.951450104878
 20
-2392.82939171386
 30
0.0
 11
-14190.190707396143
 21
-2400.338721046225
 31
0.0
  0
CIRCLE
  5
87
100
AcDbEntity
  8
Frei
  6
CONTINUOUS
 62
           7
100
AcDbCircle
 10
-14185.097863779156
 20
-2397.166090451133
 30
0.0
 40
6.0
  0
LINE
  5
88
100
AcDbEntity
  8
Frei
  6
CONTINUOUS
 62
           7
100
AcDbLine
 10
-14482.0119033192
 20
-2342.11834425889
 30
0.0
 11
-14485.495875062557
 21
-2341.758556625027
 31
0.0
  0
LINE
  5
89
100
AcDbEntity
  8
Frei
  6
CONTINUOUS
 62
           7
100
AcDbLine
 10
-14488.979846805916
 20
-2341.398768991164
 30
0.0
 11
-14485.495875062557
 21
-2341.758556625027
 31
0.0
  0
LINE
  5
8A
100
AcDbEntity
  8
Frei
  6
CONTINUOUS
 62
           7
100
AcDbLine
 10
-14491.826673521065
 20
-2368.9657637968
 30
0.0
 11
-14488.342701777707
 21
-2369.325551430662
 31
0.0
  0
LINE
  5
8B
100
AcDbEntity
  8
Frei
  6
CONTINUOUS
 62
           7
100
AcDbLine
 10
-14484.85873003435
 20
-2369.685339064524
 30
0.0
 11
-14488.342701777707
 21
-2369.325551430662
 31
0.0
  0
LINE
  5
8C
100
AcDbEntity
  8
Frei
  6
CONTINUOUS
 62
           7
100
AcDbLine
 10
-14482.723608970757
 20
-2349.010083013198
 30
0.0
 11
-14486.207580714114
 21
-2348.650295379336
 31
0.0
  0
LINE
  5
8D
100
AcDbEntity
  8
Frei
  6
CONTINUOUS
 62
           7
100
AcDbLine
 10
-14489.691552457472
 20
-2348.290507745473
 30
0.0
 11
-14486.207580714114
 21
-2348.650295379336
 31
0.0
  0
LINE
  5
8E
100
AcDbEntity
  8
Frei
  6
CONTINUOUS
 62
           7
100
AcDbLine
 10
-14491.114967869509
 20
-2362.074025042491
 30
0.0
 11
-14487.63099612615
 21
-2362.433812676353
 31
0.0
  0
LINE
  5
8F
100
AcDbEntity
  8
Frei
  6
CONTINUOUS
 62
           7
100
AcDbLine
 10
-14484.147024382792
 20
-2362.793600310215
 30
0.0
 11
-14487.63099612615
 21
-2362.433812676353
 31
0.0
  0
ARC
  5
90
100
AcDbEntity
  8
Frei
  6
CONTINUOUS
 62
           7
100
AcDbCircle
 10
-14531.66860519671
 20
-2350.920819418035
 30
0.0
 40
48.982199999993
100
AcDbArc
 50
354.963436999999
 51
2.235610000001
  0
ARC
  5
91
100
AcDbEntity
  8
Frei
  6
CONTINUOUS
 62
           7
100
AcDbCircle
 10
-14442.169971643545
 20
-2360.163288637655
 30
0.0
 40
48.982200000003
100
AcDbArc
 50
165.972
 51
173.245
  0
ARC
  5
92
100
AcDbEntity
  8
Frei
  6
CONTINUOUS
 62
           7
100
AcDbCircle
 10
-14442.169971643545
 20
-2360.163288637655
 30
0.0
 40
48.982200000003
100
AcDbArc
 50
174.962999999999
 51
182.235999999999
  0
ARC
  5
93
100
AcDbEntity
  8
Frei
  6
CONTINUOUS
 62
           7
100
AcDbCircle
 10
-14531.66860519671
 20
-2350.920819418036
 30
0.0
 40
48.982199999993
100
AcDbArc
 50
345.972389999999
 51
353.244563
  0
LINE
  5
94
100
AcDbEntity
  8
Frei
  6
CONTINUOUS
 62
           7
100
AcDbLine
 10
-14482.875521109276
 20
-2355.221038137154
 30
0.0
 11
-14482.945521477222
 21
-2355.952422512788
 31
0.0
  0
LINE
  5
95
100
AcDbEntity
  8
Frei
  6
CONTINUOUS
 62
           7
100
AcDbLine
 10
-14490.812113185195
 20
-2354.40143112129
 30
0.0
 11
-14490.893055363043
 21
-2355.1316855429
 31
0.0
  0
LINE
  5
96
100
AcDbEntity
  8
Frei
  6
CONTINUOUS
 62
           7
100
AcDbLine
 10
-14490.96305573099
 20
-2355.863069918536
 30
0.0
 11
-14490.893055363043
 21
-2355.1316855429
 31
0.0
  0
LINE
  5
97
100
AcDbEntity
  8
Frei
  6
CONTINUOUS
 62
           7
100
AcDbLine
 10
-14483.026463655071
 20
-2356.682676934399
 30
0.0
 11
-14482.945521477222
 21
-2355.952422512788
 31
0.0
  0
ARC
  5
98
100
AcDbEntity
  8
Frei
  6
CONTINUOUS
 62
           7
100
AcDbCircle
 10
-14494.611641937394
 20
-2344.299800055643
 30
0.0
 40
12.801500000001
100
AcDbArc
 50
338.385499999999
 51
354.103999999999
  0
ARC
  5
99
100
AcDbEntity
  8
Frei
  6
CONTINUOUS
 62
           7
100
AcDbCircle
 10
-14477.09177507811
 20
-2346.109066004744
 30
0.0
 40
12.787200000001
100
AcDbArc
 50
174.104000000001
 51
189.822999999999
  0
ARC
  5
9A
100
AcDbEntity
  8
Frei
  6
CONTINUOUS
 62
           7
100
AcDbCircle
 10
-14479.226895114472
 20
-2366.78431210897
 30
0.0
 40
12.8015
100
AcDbArc
 50
158.385
 51
174.104000000001
  0
ARC
  5
9B
100
AcDbEntity
  8
Frei
  6
CONTINUOUS
 62
           7
100
AcDbCircle
 10
-14496.746761973756
 20
-2364.975046159869
 30
0.0
 40
12.787200000001
100
AcDbArc
 50
354.103999999998
 51
9.822499999999
  0
ARC
  5
9C
100
AcDbEntity
  8
Frei
  6
CONTINUOUS
 62
           7
100
AcDbCircle
 10
-14494.611641937394
 20
-2344.299800055643
 30
0.0
 40
12.787200000001
100
AcDbArc
 50
354.103999999998
 51
9.822499999999
  0
ARC
  5
9D
100
AcDbEntity
  8
Frei
  6
CONTINUOUS
 62
           7
100
AcDbCircle
 10
-14477.09177507811
 20
-2346.109066004744
 30
0.0
 40
12.8015
100
AcDbArc
 50
158.385
 51
174.104000000001
  0
ARC
  5
9E
100
AcDbEntity
  8
Frei
  6
CONTINUOUS
 62
           7
100
AcDbCircle
 10
-14479.226895114471
 20
-2366.78431210897
 30
0.0
 40
12.787200000001
100
AcDbArc
 50
174.104000000001
 51
189.822999999999
  0
ARC
  5
9F
100
AcDbEntity
  8
Frei
  6
CONTINUOUS
 62
           7
100
AcDbCircle
 10
-14496.746761973756
 20
-2364.975046159869
 30
0.0
 40
12.801500000001
100
AcDbArc
 50
338.385499999999
 51
354.103999999999
  0
LINE
  5
A0
100
AcDbEntity
  8
Frei
  6
CONTINUOUS
 62
           7
100
AcDbLine
 10
-14481.877961459042
 20
-2345.614799460676
 30
0.0
 11
-14482.945521477222
 21
-2355.952422512788
 31
0.0
  0
LINE
  5
A1
100
AcDbEntity
  8
Frei
  6
CONTINUOUS
 62
           7
100
AcDbLine
 10
-14489.825495344861
 20
-2344.794062490787
 30
0.0
 11
-14490.893055363043
 21
-2355.1316855429
 31
0.0
  0
LINE
  5
A2
100
AcDbEntity
  8
Frei
  6
CONTINUOUS
 62
           7
100
AcDbLine
 10
-14491.960615381224
 20
-2365.469308595013
 30
0.0
 11
-14490.893055363043
 21
-2355.1316855429
 31
0.0
  0
LINE
  5
A3
100
AcDbEntity
  8
Frei
  6
CONTINUOUS
 62
           7
100
AcDbLine
 10
-14484.013081495405
 20
-2366.290045564902
 30
0.0
 11
-14482.945521477222
 21
-2355.952422512788
 31
0.0
  0
LINE
  5
A4
100
AcDbEntity
  8
Frei
  6
CONTINUOUS
 62
           7
100
AcDbLine
 10
-14491.714840108481
 20
-2363.089365470628
 30
0.0
 11
-14491.632661633937
 21
-2362.293597477855
 31
0.0
  0
LINE
  5
A5
100
AcDbEntity
  8
Frei
  6
CONTINUOUS
 62
           7
100
AcDbLine
 10
-14491.632661633937
 20
-2362.293597477855
 30
0.0
 11
-14490.153449092148
 21
-2347.969773607945
 31
0.0
  0
LINE
  5
A6
100
AcDbEntity
  8
Frei
  6
CONTINUOUS
 62
           7
100
AcDbLine
 10
-14490.153449092148
 20
-2347.969773607945
 30
0.0
 11
-14490.071270617604
 21
-2347.174005615173
 31
0.0
  0
LINE
  5
A7
100
AcDbEntity
  8
Frei
  6
CONTINUOUS
 62
           7
100
AcDbLine
 10
-14490.071270617604
 20
-2347.174005615173
 30
0.0
 11
-14489.619289007613
 21
-2342.797281654922
 31
0.0
  0
LINE
  5
A8
100
AcDbEntity
  8
Frei
  6
CONTINUOUS
 62
           7
100
AcDbLine
 10
-14524.367344564833
 20
-2367.759906416601
 30
0.0
 11
-14522.637647396195
 21
-2367.938531186675
 31
0.0
  0
LINE
  5
A9
100
AcDbEntity
  8
Frei
  6
CONTINUOUS
 62
           7
100
AcDbLine
 10
-14519.35050841444
 20
-2336.107811475763
 30
0.0
 11
-14521.080205583077
 21
-2335.92918670569
 31
0.0
  0
LINE
  5
AA
100
AcDbEntity
  8
Frei
  6
CONTINUOUS
 62
           7
100
AcDbLine
 10
-14522.637647396195
 20
-2367.938531186675
 30
0.0
 11
-14517.603316626264
 21
-2368.458423450224
 31
0.0
  0
LINE
  5
AB
100
AcDbEntity
  8
Frei
  6
CONTINUOUS
 62
           7
100
AcDbLine
 10
-14514.316177644509
 20
-2336.627703739312
 30
0.0
 11
-14519.35050841444
 21
-2336.107811475763
 31
0.0
  0
LINE
  5
AC
100
AcDbEntity
  8
Frei
  6
CONTINUOUS
 62
           7
100
AcDbLine
 10
-14568.21075646491
 20
-2331.062043504332
 30
0.0
 11
-14521.080205583077
 21
-2335.92918670569
 31
0.0
  0
LINE
  5
AD
100
AcDbEntity
  8
Frei
  6
CONTINUOUS
 62
           7
100
AcDbLine
 10
-14571.497895446666
 20
-2362.892763215243
 30
0.0
 11
-14524.367344564833
 21
-2367.759906416601
 31
0.0
  0
LINE
  5
AE
100
AcDbEntity
  8
Frei
  6
CONTINUOUS
 62
           7
100
AcDbLine
 10
-14513.36906107898
 20
-2339.138275429446
 30
0.0
 11
-14516.163129213473
 21
-2366.194387183722
 31
0.0
  0
LINE
  5
AF
100
AcDbEntity
  8
Frei
  6
CONTINUOUS
 62
           7
100
AcDbLine
 10
-14490.689673284956
 20
-2341.480361953947
 30
0.0
 11
-14494.297658239402
 21
-2341.107767551525
 31
0.0
  0
LINE
  5
B0
100
AcDbEntity
  8
Frei
  6
CONTINUOUS
 62
           7
100
AcDbLine
 10
-14492.166821718472
 20
-2367.466089430879
 30
0.0
 11
-14491.714840108481
 21
-2363.089365470628
 31
0.0
  0
LINE
  5
B1
100
AcDbEntity
  8
Frei
  6
CONTINUOUS
 62
           7
100
AcDbLine
 10
-14514.969477224313
 20
-2366.317654895538
 30
0.0
 11
-14512.528407336909
 21
-2366.569742691759
 31
0.0
  0
LINE
  5
B2
100
AcDbEntity
  8
Frei
  6
CONTINUOUS
 62
           7
100
AcDbLine
 10
-14509.56998225333
 20
-2337.922094951938
 30
0.0
 11
-14509.734339202418
 21
-2339.513630937484
 31
0.0
  0
LINE
  5
B3
100
AcDbEntity
  8
Frei
  6
CONTINUOUS
 62
           7
100
AcDbLine
 10
-14509.734339202418
 20
-2339.513630937484
 30
0.0
 11
-14512.175409089821
 21
-2339.261543141262
 31
0.0
  0
LINE
  5
B4
100
AcDbEntity
  8
Frei
  6
CONTINUOUS
 62
           7
100
AcDbLine
 10
-14509.734339202418
 20
-2339.513630937484
 30
0.0
 11
-14512.528407336909
 21
-2366.569742691759
 31
0.0
  0
LINE
  5
B5
100
AcDbEntity
  8
Frei
  6
CONTINUOUS
 62
           7
100
AcDbLine
 10
-14512.528407336909
 20
-2366.569742691759
 30
0.0
 11
-14512.692764285997
 21
-2368.161278677304
 31
0.0
  0
LINE
  5
B6
100
AcDbEntity
  8
Frei
  6
CONTINUOUS
 62
           7
100
AcDbLine
 10
-14497.256083322982
 20
-2369.755415291346
 30
0.0
 11
-14497.091726373894
 21
-2368.163879305801
 31
0.0
  0
LINE
  5
B7
100
AcDbEntity
  8
Frei
  6
CONTINUOUS
 62
           7
100
AcDbLine
 10
-14497.091726373894
 20
-2368.163879305801
 30
0.0
 11
-14493.483741419448
 21
-2368.536473708222
 31
0.0
  0
LINE
  5
B8
100
AcDbEntity
  8
Frei
  6
CONTINUOUS
 62
           7
100
AcDbLine
 10
-14497.091726373894
 20
-2368.163879305801
 30
0.0
 11
-14494.297658239402
 21
-2341.107767551525
 31
0.0
  0
LINE
  5
B9
100
AcDbEntity
  8
Frei
  6
CONTINUOUS
 62
           7
100
AcDbLine
 10
-14494.297658239402
 20
-2341.107767551525
 30
0.0
 11
-14494.133301290314
 21
-2339.51623156598
 31
0.0
  0
LINE
  5
BA
100
AcDbEntity
  8
Frei
  6
CONTINUOUS
 62
           7
100
AcDbLine
 10
-14509.56998225333
 20
-2337.922094951938
 30
0.0
 11
-14494.133301290314
 21
-2339.51623156598
 31
0.0
  0
LINE
  5
BB
100
AcDbEntity
  8
Frei
  6
CONTINUOUS
 62
           7
100
AcDbLine
 10
-14512.692764285997
 20
-2368.161278677304
 30
0.0
 11
-14497.256083322982
 21
-2369.755415291346
 31
0.0
  0
ARC
  5
BC
100
AcDbEntity
  8
Frei
  6
CONTINUOUS
 62
           7
100
AcDbCircle
 10
-14543.634047689295
 20
-2349.685155480539
 30
0.0
 40
27.821476415485
100
AcDbArc
 50
318.997694434247
 51
29.210305565753
  0
ARC
  5
BD
100
AcDbEntity
  8
Frei
  6
CONTINUOUS
 62
           7
100
AcDbCircle
 10
-14530.516524587743
 20
-2351.039794078811
 30
0.0
 40
39.547005383793
100
AcDbArc
 50
150.23907458395
 51
197.96892541605
  0
ARC
  5
BE
100
AcDbEntity
  8
Frei
  6
CONTINUOUS
 62
           7
100
AcDbCircle
 10
-14544.585298389597
 20
-2349.58692040176
 30
0.0
 40
30.02221399786
100
AcDbArc
 50
141.899772496028
 51
206.308227503973
  0
CIRCLE
  5
BF
100
AcDbEntity
  8
Frei
  6
CONTINUOUS
 62
           7
100
AcDbCircle
 10
-14554.554494784867
 20
-2348.55740757939
 30
0.0
 40
6.8
  0
ARC
  5
C0
100
AcDbEntity
  8
Frei
  6
CONTINUOUS
 62
           7
100
AcDbCircle
 10
-14514.439445356324
 20
-2337.821355728471
 30
0.0
 40
1.2
100
AcDbArc
 50
354.103999999999
 51
84.104
  0
ARC
  5
C1
100
AcDbEntity
  8
Frei
  6
CONTINUOUS
 62
           7
100
AcDbCircle
 10
-14512.052141378006
 20
-2338.067891152103
 30
0.0
 40
1.2
100
AcDbArc
 50
174.104
 51
264.103999999999
  0
ARC
  5
C2
100
AcDbEntity
  8
Frei
  6
CONTINUOUS
 62
           7
100
AcDbCircle
 10
-14490.812940996771
 20
-2342.674013943106
 30
0.0
 40
1.2
100
AcDbArc
 50
354.103999999999
 51
84.104
  0
ARC
  5
C3
100
AcDbEntity
  8
Frei
  6
CONTINUOUS
 62
           7
100
AcDbCircle
 10
-14493.360473707633
 20
-2367.342821719063
 30
0.0
 40
1.2
100
AcDbArc
 50
264.103999999999
 51
354.103999999999
  0
ARC
  5
C4
100
AcDbEntity
  8
Frei
  6
CONTINUOUS
 62
           7
100
AcDbCircle
 10
-14515.09274493613
 20
-2367.511306884696
 30
0.0
 40
1.2
100
AcDbArc
 50
84.104
 51
174.104
  0
ARC
  5
C5
100
AcDbEntity
  8
Frei
  6
CONTINUOUS
 62
           7
100
AcDbCircle
 10
-14517.480048914447
 20
-2367.264771461064
 30
0.0
 40
1.2
100
AcDbArc
 50
264.103999999999
 51
354.103999999999
  0
LINE
  5
C6
100
AcDbEntity
  8
FREI
  6
CONTINUOUS
 62
           7
100
AcDbLine
 10
-14161.743416597083
 20
-2356.95213448834
 30
0.0
 11
-14168.317748968188
 21
-2420.614100761304
 31
0.0
  0
LINE
  5
C7
100
AcDbEntity
  8
FREI
  6
CONTINUOUS
 62
           7
100
AcDbLine
 10
-14160.679294935444
 20
-2414.86678656321
 30
0.0
 11
-14161.123402936013
 21
-2419.167267122737
 31
0.0
  0
LINE
  5
C8
100
AcDbEntity
  8
FREI
  6
CONTINUOUS
 62
           7
100
AcDbLine
 10
-14154.996612644267
 20
-2359.839035007646
 30
0.0
 11
-14155.440720644836
 21
-2364.139515567174
 31
0.0
  0
LINE
  5
C9
100
AcDbEntity
  8
FREI
  6
CONTINUOUS
 62
           7
100
AcDbLine
 10
-14155.440720644836
 20
-2364.139515567174
 30
0.0
 11
-14156.366779561547
 21
-2373.106925213443
 31
0.0
  0
LINE
  5
CA
100
AcDbEntity
  8
FREI
  6
CONTINUOUS
 62
           7
100
AcDbLine
 10
-14159.753236018732
 20
-2405.899376916937
 30
0.0
 11
-14160.679294935444
 21
-2414.86678656321
 31
0.0
  0
LINE
  5
CB
100
AcDbEntity
  8
Frei
  6
CONTINUOUS
 62
           7
100
AcDbLine
 10
-14163.251041305504
 20
-2420.959158871805
 30
0.0
 11
-14168.317748968188
 21
-2420.614100761304
 31
0.0
  0
LINE
  5
CC
100
AcDbEntity
  8
Frei
  6
CONTINUOUS
 62
           7
100
AcDbLine
 10
-14156.713159313038
 20
-2357.650156617775
 30
0.0
 11
-14161.74345469348
 21
-2356.952503391447
 31
0.0
  0
LINE
  5
CD
100
AcDbEntity
  8
FREI
  6
CONTINUOUS
 62
           7
100
AcDbLine
 10
-14159.57527003977
 20
-2414.941973996512
 30
0.0
 11
-14160.679294935444
 21
-2414.86678656321
 31
0.0
  0
LINE
  5
CE
100
AcDbEntity
  8
Frei
  6
CONTINUOUS
 62
           7
100
AcDbLine
 10
-14151.769809905381
 20
-2367.57485031612
 30
0.0
 11
-14152.693931672129
 21
-2376.523501741982
 31
0.0
  0
LINE
  5
CF
100
AcDbEntity
  8
FREI
  6
CONTINUOUS
 62
           7
100
AcDbLine
 10
-14155.440720644836
 20
-2364.139515567174
 30
0.0
 11
-14154.344629908535
 21
-2364.291532731314
 31
0.0
  0
LINE
  5
D0
100
AcDbEntity
  8
Frei
  6
CONTINUOUS
 62
           7
100
AcDbLine
 10
-14155.440802268118
 20
-2403.122580304938
 30
0.0
 11
-14155.459690718786
 21
-2403.305484947045
 31
0.0
  0
LINE
  5
D1
100
AcDbEntity
  8
FREI
  6
CONTINUOUS
 62
           7
100
AcDbLine
 10
-14136.701636829353
 20
-2379.633629396092
 30
0.0
 11
-14151.837219973075
 21
-2377.803094709396
 31
0.0
  0
LINE
  5
D2
100
AcDbEntity
  8
FREI
  6
CONTINUOUS
 62
           7
100
AcDbLine
 10
-14139.169314608764
 20
-2403.529169003381
 30
0.0
 11
-14154.359562303443
 21
-2402.227973662971
 31
0.0
  0
LINE
  5
D3
100
AcDbEntity
  8
FREI
  6
CONTINUOUS
 62
           7
100
AcDbLine
 10
-14152.487519664382
 20
-2377.448399889984
 30
0.0
 11
-14155.06862323733
 21
-2402.442288140944
 31
0.0
  0
LINE
  5
D4
100
AcDbEntity
  8
Frei
  6
CONTINUOUS
 62
           7
100
AcDbLine
 10
-14154.615579262101
 20
-2375.300301864058
 30
0.0
 11
-14153.569531821853
 21
-2375.426813416675
 31
0.0
  0
LINE
  5
D5
100
AcDbEntity
  8
Frei
  6
CONTINUOUS
 62
           7
100
AcDbLine
 10
-14152.693931672129
 20
-2376.523501741982
 30
0.0
 11
-14152.712820122797
 21
-2376.70640638409
 31
0.0
  0
LINE
  5
D6
100
AcDbEntity
  8
Frei
  6
CONTINUOUS
 62
           7
100
AcDbLine
 10
-14155.459690718786
 20
-2403.305484947045
 30
0.0
 11
-14156.383812485534
 21
-2412.254136372909
 31
0.0
  0
LINE
  5
D7
100
AcDbEntity
  8
Frei
  6
CONTINUOUS
 62
           7
100
AcDbLine
 10
-14156.540930683461
 20
-2404.200091589012
 30
0.0
 11
-14157.590756089383
 21
-2404.110163633005
 31
0.0
  0
ARC
  5
D8
100
AcDbEntity
  8
FREI
  6
CONTINUOUS
 62
           7
100
AcDbCircle
 10
-14138.144024816727
 20
-2391.559862461806
 30
0.0
 40
12.0131394
100
AcDbArc
 50
265.103999999997
 51
83.104000000003
  0
ARC
  5
D9
100
AcDbEntity
  8
Frei
  6
CONTINUOUS
 62
           7
100
AcDbCircle
 10
-14156.988210941607
 20
-2359.633363867984
 30
0.0
 40
2.0021899
100
AcDbArc
 50
354.103999999993
 51
82.104000000031
  0
ARC
  5
DA
100
AcDbEntity
  8
Frei
  6
CONTINUOUS
 62
           7
100
AcDbCircle
 10
-14154.757207351393
 20
-2367.266343606628
 30
0.0
 40
3.00328485
100
AcDbArc
 50
354.103999999999
 51
82.103999999981
  0
ARC
  5
DB
100
AcDbEntity
  8
Frei
  6
CONTINUOUS
 62
           7
100
AcDbCircle
 10
-14159.371209931545
 20
-2411.945629663417
 30
0.0
 40
3.00328485
100
AcDbArc
 50
266.103999999994
 51
354.103999999999
  0
ARC
  5
DC
100
AcDbEntity
  8
Frei
  6
CONTINUOUS
 62
           7
100
AcDbCircle
 10
-14163.115001233355
 20
-2418.961595983075
 30
0.0
 40
2.0021899
100
AcDbArc
 50
266.103999999968
 51
354.104000000006
  0
ARC
  5
DD
100
AcDbEntity
  8
Frei
  6
CONTINUOUS
 62
           7
100
AcDbCircle
 10
-14153.689730820799
 20
-2376.420666172151
 30
0.0
 40
1.00109495
100
AcDbArc
 50
354.103999999999
 51
83.10400000007
  0
ARC
  5
DE
100
AcDbEntity
  8
Frei
  6
CONTINUOUS
 62
           7
100
AcDbCircle
 10
-14154.375181264206
 20
-2373.312596353105
 30
0.0
 40
2.0021899
100
AcDbArc
 50
174.104
 51
263.104000000015
  0
ARC
  5
DF
100
AcDbEntity
  8
Frei
  6
CONTINUOUS
 62
           7
100
AcDbCircle
 10
-14151.717020974127
 20
-2376.80924195392
 30
0.0
 40
1.001094950001
100
AcDbArc
 50
219.67699599927
 51
263.104000000022
  0
ARC
  5
E0
100
AcDbEntity
  8
Frei
  6
CONTINUOUS
 62
           7
100
AcDbCircle
 10
-14151.717020974127
 20
-2376.809241953921
 30
0.0
 40
1.001094949999
100
AcDbArc
 50
174.103999999987
 51
219.676995999281
  0
ARC
  5
E1
100
AcDbEntity
  8
Frei
  6
CONTINUOUS
 62
           7
100
AcDbCircle
 10
-14157.761637721391
 20
-2406.105048056599
 30
0.0
 40
2.002189899999
100
AcDbArc
 50
85.103999999931
 51
174.104
  0
ARC
  5
E2
100
AcDbEntity
  8
Frei
  6
CONTINUOUS
 62
           7
100
AcDbCircle
 10
-14156.455489867458
 20
-2403.202649377215
 30
0.0
 40
1.001094949999
100
AcDbArc
 50
265.103999999922
 51
354.104000000012
  0
ARC
  5
E3
100
AcDbEntity
  8
Frei
  6
CONTINUOUS
 62
           7
100
AcDbCircle
 10
-14154.445003119446
 20
-2403.225415874769
 30
0.0
 40
1.00109495
100
AcDbArc
 50
128.531004000815
 51
174.104
  0
ARC
  5
E4
100
AcDbEntity
  8
Frei
  6
CONTINUOUS
 62
           7
100
AcDbCircle
 10
-14154.445003119446
 20
-2403.225415874771
 30
0.0
 40
1.001094950001
100
AcDbArc
 50
85.104000000004
 51
128.531004000779
  0
LINE
  5
E5
100
AcDbEntity
  8
Frei
  6
CONTINUOUS
 62
           7
100
AcDbLine
 10
-14228.903152867215
 20
-2401.991896934509
 30
0.0
 11
-14225.421667898834
 21
-2402.351427760639
 31
0.0
  0
LINE
  5
E6
100
AcDbEntity
  8
Frei
  6
CONTINUOUS
 62
           7
100
AcDbLine
 10
-14228.697706680854
 20
-2400.002476952578
 30
0.0
 11
-14228.903152867215
 21
-2401.991896934509
 31
0.0
  0
LINE
  5
E7
100
AcDbEntity
  8
Frei
  6
CONTINUOUS
 62
           7
100
AcDbLine
 10
-14223.451088522659
 20
-2393.004405939642
 30
0.0
 11
-14224.324234814687
 21
-2401.459440862853
 31
0.0
  0
LINE
  5
E8
100
AcDbEntity
  8
Frei
  6
CONTINUOUS
 62
           7
100
AcDbLine
 10
-14227.927283482006
 20
-2392.542152020333
 30
0.0
 11
-14223.451088522659
 21
-2393.004405939642
 31
0.0
  0
LINE
  5
E9
100
AcDbEntity
  8
Frei
  6
CONTINUOUS
 62
           7
100
AcDbLine
 10
-14227.978645028596
 20
-2393.039507015816
 30
0.0
 11
-14227.927283482006
 21
-2392.542152020333
 31
0.0
  0
LINE
  5
EA
100
AcDbEntity
  8
Frei
  6
CONTINUOUS
 62
           7
100
AcDbLine
 10
-14224.494925581612
 20
-2393.846722149521
 30
0.0
 11
-14227.978645028596
 21
-2393.039507015816
 31
0.0
  0
LINE
  5
EB
100
AcDbEntity
  8
Frei
  6
CONTINUOUS
 62
           7
100
AcDbLine
 10
-14224.321922152671
 20
-2396.43308897978
 30
0.0
 11
-14224.110435700824
 21
-2394.385178621032
 31
0.0
  0
LINE
  5
EC
100
AcDbEntity
  8
Frei
  6
CONTINUOUS
 62
           7
100
AcDbLine
 10
-14228.697706680854
 20
-2400.002476952578
 30
0.0
 11
-14227.978645028596
 21
-2393.039507015816
 31
0.0
  0
LINE
  5
ED
100
AcDbEntity
  8
Frei
  6
CONTINUOUS
 62
           7
100
AcDbLine
 10
-14225.122545905533
 20
-2399.924228067737
 30
0.0
 11
-14228.697706680854
 21
-2400.002476952578
 31
0.0
  0
LINE
  5
EE
100
AcDbEntity
  8
Frei
  6
CONTINUOUS
 62
           7
100
AcDbLine
 10
-14224.42464524585
 20
-2397.427798970747
 30
0.0
 11
-14224.636131697696
 21
-2399.475709329493
 31
0.0
  0
LINE
  5
EF
100
AcDbEntity
  8
Frei
  6
CONTINUOUS
 62
           2
100
AcDbLine
 10
-14225.951209283405
 20
-2396.767492564014
 30
0.0
 11
-14223.189044541927
 21
-2397.052739629685
 31
0.0
  0
LINE
  5
F0
100
AcDbEntity
  8
Frei
  6
CONTINUOUS
 62
           7
100
AcDbLine
 10
-14225.899847736813
 20
-2396.270137568532
 30
0.0
 11
-14224.321922152671
 21
-2396.43308897978
 31
0.0
  0
LINE
  5
F1
100
AcDbEntity
  8
Frei
  6
CONTINUOUS
 62
           7
100
AcDbLine
 10
-14225.951209283405
 20
-2396.767492564014
 30
0.0
 11
-14225.899847736813
 21
-2396.270137568532
 31
0.0
  0
LINE
  5
F2
100
AcDbEntity
  8
Frei
  6
CONTINUOUS
 62
           7
100
AcDbLine
 10
-14226.002570829995
 20
-2397.264847559498
 30
0.0
 11
-14225.951209283405
 21
-2396.767492564014
 31
0.0
  0
LINE
  5
F3
100
AcDbEntity
  8
Frei
  6
CONTINUOUS
 62
           7
100
AcDbLine
 10
-14224.42464524585
 20
-2397.427798970747
 30
0.0
 11
-14226.002570829995
 21
-2397.264847559498
 31
0.0
  0
LINE
  5
F4
100
AcDbEntity
  8
Frei
  6
CONTINUOUS
 62
           7
100
AcDbLine
 10
-14367.665196606971
 20
-2387.66202543592
 30
0.0
 11
-14364.275334532036
 21
-2354.836595734043
 31
0.0
  0
LINE
  5
F5
100
AcDbEntity
  8
Frei
  6
CONTINUOUS
 62
           7
100
AcDbLine
 10
-14381.591136480496
 20
-2386.223902131402
 30
0.0
 11
-14367.665196606971
 21
-2387.66202543592
 31
0.0
  0
LINE
  5
F6
100
AcDbEntity
  8
Frei
  6
CONTINUOUS
 62
           7
100
AcDbLine
 10
-14374.222434441697
 20
-2353.809364802244
 30
0.0
 11
-14364.772689527519
 21
-2354.785234187452
 31
0.0
  0
LINE
  5
F7
100
AcDbEntity
  8
Frei
  6
CONTINUOUS
 62
           7
100
AcDbLine
 10
-14374.427880628056
 20
-2355.798784784176
 30
0.0
 11
-14374.222434441697
 21
-2353.809364802244
 31
0.0
  0
LINE
  5
F8
100
AcDbEntity
  8
Frei
  6
CONTINUOUS
 62
           7
100
AcDbLine
 10
-14375.146942280315
 20
-2362.761754720938
 30
0.0
 11
-14375.198303826905
 21
-2363.259109716421
 31
0.0
  0
LINE
  5
F9
100
AcDbEntity
  8
Frei
  6
CONTINUOUS
 62
           7
100
AcDbLine
 10
-14380.171853781736
 20
-2362.745494250522
 30
0.0
 11
-14379.298707489706
 21
-2354.29045932731
 31
0.0
  0
LINE
  5
FA
100
AcDbEntity
  8
Frei
  6
CONTINUOUS
 62
           7
100
AcDbLine
 10
-14375.198303826905
 20
-2363.259109716421
 30
0.0
 11
-14380.171853781736
 21
-2362.745494250522
 31
0.0
  0
LINE
  5
FB
100
AcDbEntity
  8
Frei
  6
CONTINUOUS
 62
           7
100
AcDbLine
 10
-14378.201274405561
 20
-2353.398472429524
 30
0.0
 11
-14374.222434441697
 21
-2353.809364802244
 31
0.0
  0
LINE
  5
FC
100
AcDbEntity
  8
Frei
  6
CONTINUOUS
 62
           7
100
AcDbLine
 10
-14378.630661727299
 20
-2361.954539587233
 30
0.0
 11
-14375.146942280315
 21
-2362.761754720938
 31
0.0
  0
LINE
  5
FD
100
AcDbEntity
  8
Frei
  6
CONTINUOUS
 62
           7
100
AcDbLine
 10
-14378.803665156242
 20
-2359.368172756973
 30
0.0
 11
-14379.015151608088
 21
-2361.416083115721
 31
0.0
  0
LINE
  5
FE
100
AcDbEntity
  8
Frei
  6
CONTINUOUS
 62
           7
100
AcDbLine
 10
-14374.427880628056
 20
-2355.798784784176
 30
0.0
 11
-14375.146942280315
 21
-2362.761754720938
 31
0.0
  0
LINE
  5
FF
100
AcDbEntity
  8
Frei
  6
CONTINUOUS
 62
           7
100
AcDbLine
 10
-14378.003041403377
 20
-2355.877033669016
 30
0.0
 11
-14374.427880628056
 21
-2355.798784784176
 31
0.0
  0
LINE
  5
100
100
AcDbEntity
  8
Frei
  6
CONTINUOUS
 62
           7
100
AcDbLine
 10
-14378.70094206306
 20
-2358.373462766007
 30
0.0
 11
-14378.489455611214
 21
-2356.32555240726
 31
0.0
  0
LINE
  5
101
100
AcDbEntity
  8
Frei
  6
CONTINUOUS
 62
           2
100
AcDbLine
 10
-14377.174378025507
 20
-2359.03376917274
 30
0.0
 11
-14379.936542766985
 21
-2358.748522107068
 31
0.0
  0
LINE
  5
102
100
AcDbEntity
  8
Frei
  6
CONTINUOUS
 62
           7
100
AcDbLine
 10
-14377.225739572097
 20
-2359.531124168222
 30
0.0
 11
-14378.803665156242
 21
-2359.368172756973
 31
0.0
  0
LINE
  5
103
100
AcDbEntity
  8
Frei
  6
CONTINUOUS
 62
           7
100
AcDbLine
 10
-14377.174378025507
 20
-2359.03376917274
 30
0.0
 11
-14377.225739572097
 21
-2359.531124168222
 31
0.0
  0
LINE
  5
104
100
AcDbEntity
  8
Frei
  6
CONTINUOUS
 62
           7
100
AcDbLine
 10
-14377.123016478918
 20
-2358.536414177256
 30
0.0
 11
-14377.174378025507
 21
-2359.03376917274
 31
0.0
  0
LINE
  5
105
100
AcDbEntity
  8
Frei
  6
CONTINUOUS
 62
           7
100
AcDbLine
 10
-14378.70094206306
 20
-2358.373462766007
 30
0.0
 11
-14377.123016478918
 21
-2358.536414177256
 31
0.0
  0
LINE
  5
106
100
AcDbEntity
  8
Frei
  6
CONTINUOUS
 62
           7
100
AcDbLine
 10
-14342.14172304935
 20
-2393.615368828784
 30
0.0
 11
-14342.19308459594
 21
-2394.112723824267
 31
0.0
  0
LINE
  5
107
100
AcDbEntity
  8
Frei
  6
CONTINUOUS
 62
           7
100
AcDbLine
 10
-14342.19308459594
 20
-2394.112723824267
 30
0.0
 11
-14265.600415291558
 21
-2402.022401999116
 31
0.0
  0
LINE
  5
108
100
AcDbEntity
  8
Frei
  6
CONTINUOUS
 62
           7
100
AcDbLine
 10
-14265.600415291558
 20
-2402.022401999116
 30
0.0
 11
-14260.772429912104
 21
-2355.271032423716
 31
0.0
  0
LINE
  5
109
100
AcDbEntity
  8
Frei
  6
CONTINUOUS
 62
           7
100
AcDbLine
 10
-14260.772429912104
 20
-2355.271032423716
 30
0.0
 11
-14337.365099216488
 21
-2347.361354248866
 31
0.0
  0
LINE
  5
10A
100
AcDbEntity
  8
Frei
  6
CONTINUOUS
 62
           7
100
AcDbLine
 10
-14364.772689527519
 20
-2354.785234187452
 30
0.0
 11
-14364.275334532036
 21
-2354.836595734043
 31
0.0
  0
LINE
  5
10B
100
AcDbEntity
  8
Frei
  6
CONTINUOUS
 62
           7
100
AcDbLine
 10
-14338.359809207454
 20
-2347.258631155687
 30
0.0
 11
-14363.724913977085
 21
-2344.6391922796
 31
0.0
  0
LINE
  5
10C
100
AcDbEntity
  8
Frei
  6
CONTINUOUS
 62
           7
100
AcDbLine
 10
-14368.055544361056
 20
-2391.441923401591
 30
0.0
 11
-14367.665196606971
 21
-2387.66202543592
 31
0.0
  0
LINE
  5
10D
100
AcDbEntity
  8
Frei
  6
CONTINUOUS
 62
           7
100
AcDbLine
 10
-14364.772689527519
 20
-2354.785234187452
 30
0.0
 11
-14363.724913977085
 21
-2344.6391922796
 31
0.0
  0
LINE
  5
10E
100
AcDbEntity
  8
Frei
  6
CONTINUOUS
 62
           7
100
AcDbLine
 10
-14342.14172304935
 20
-2393.615368828784
 30
0.0
 11
-14343.136433040316
 21
-2393.512645735604
 31
0.0
  0
LINE
  5
10F
100
AcDbEntity
  8
Frei
  6
CONTINUOUS
 62
           7
100
AcDbLine
 10
-14337.416460763077
 20
-2347.858709244349
 30
0.0
 11
-14342.14172304935
 21
-2393.615368828784
 31
0.0
  0
LINE
  5
110
100
AcDbEntity
  8
Frei
  6
CONTINUOUS
 62
           7
100
AcDbLine
 10
-14337.416460763077
 20
-2347.858709244349
 30
0.0
 11
-14338.411170754043
 21
-2347.755986151169
 31
0.0
  0
LINE
  5
111
100
AcDbEntity
  8
Frei
  6
CONTINUOUS
 62
           7
100
AcDbLine
 10
-14337.365099216488
 20
-2347.361354248866
 30
0.0
 11
-14337.416460763077
 21
-2347.858709244349
 31
0.0
  0
LINE
  5
112
100
AcDbEntity
  8
Frei
  6
CONTINUOUS
 62
           7
100
AcDbLine
 10
-14343.136433040316
 20
-2393.512645735604
 30
0.0
 11
-14338.359809207454
 21
-2347.258631155687
 31
0.0
  0
LINE
  5
113
100
AcDbEntity
  8
Frei
  6
CONTINUOUS
 62
           7
100
AcDbLine
 10
-14343.187794586906
 20
-2394.010000731087
 30
0.0
 11
-14343.136433040316
 21
-2393.512645735604
 31
0.0
  0
LINE
  5
114
100
AcDbEntity
  8
Frei
  6
CONTINUOUS
 62
           7
100
AcDbLine
 10
-14368.055544361056
 20
-2391.441923401591
 30
0.0
 11
-14343.187794586906
 21
-2394.010000731087
 31
0.0
  0
LINE
  5
115
100
AcDbEntity
  8
Frei
  6
CONTINUOUS
 62
           7
100
AcDbLine
 10
-14264.60570530059
 20
-2402.125125092296
 30
0.0
 11
-14239.737955526442
 21
-2404.693202421792
 31
0.0
  0
LINE
  5
116
100
AcDbEntity
  8
Frei
  6
CONTINUOUS
 62
           7
100
AcDbLine
 10
-14264.554343754
 20
-2401.627770096813
 30
0.0
 11
-14264.60570530059
 21
-2402.125125092296
 31
0.0
  0
LINE
  5
117
100
AcDbEntity
  8
Frei
  6
CONTINUOUS
 62
           7
100
AcDbLine
 10
-14259.777719921138
 20
-2355.373755516895
 30
0.0
 11
-14264.554343754
 21
-2401.627770096813
 31
0.0
  0
LINE
  5
118
100
AcDbEntity
  8
Frei
  6
CONTINUOUS
 62
           7
100
AcDbLine
 10
-14259.829081467728
 20
-2355.871110512377
 30
0.0
 11
-14260.823791458693
 21
-2355.768387419198
 31
0.0
  0
LINE
  5
119
100
AcDbEntity
  8
Frei
  6
CONTINUOUS
 62
           7
100
AcDbLine
 10
-14264.554343754
 20
-2401.627770096813
 30
0.0
 11
-14265.549053744966
 21
-2401.525047003633
 31
0.0
  0
LINE
  5
11A
100
AcDbEntity
  8
Frei
  6
CONTINUOUS
 62
           7
100
AcDbLine
 10
-14234.412615151505
 20
-2357.993194392981
 30
0.0
 11
-14235.460390701939
 21
-2368.139236300834
 31
0.0
  0
LINE
  5
11B
100
AcDbEntity
  8
Frei
  6
CONTINUOUS
 62
           7
100
AcDbLine
 10
-14234.412615151505
 20
-2357.993194392981
 30
0.0
 11
-14259.777719921138
 21
-2355.373755516895
 31
0.0
  0
LINE
  5
11C
100
AcDbEntity
  8
Frei
  6
CONTINUOUS
 62
           7
100
AcDbLine
 10
-14235.957745697422
 20
-2368.087874754243
 30
0.0
 11
-14235.460390701939
 21
-2368.139236300834
 31
0.0
  0
LINE
  5
11D
100
AcDbEntity
  8
Frei
  6
CONTINUOUS
 62
           7
100
AcDbLine
 10
-14235.957745697422
 20
-2368.087874754243
 30
0.0
 11
-14239.737955526442
 21
-2404.693202421792
 31
0.0
  0
LINE
  5
11E
100
AcDbEntity
  8
Frei
  6
CONTINUOUS
 62
           7
100
AcDbLine
 10
-14411.197049217624
 20
-2356.525586842458
 30
0.0
 11
-14413.186469199556
 21
-2356.320140656098
 31
0.0
  0
LINE
  5
11F
100
AcDbEntity
  8
Frei
  6
CONTINUOUS
 62
           7
100
AcDbLine
 10
-14412.154077997076
 20
-2375.527799763992
 30
0.0
 11
-14410.305062319838
 21
-2357.623019926604
 31
0.0
  0
LINE
  5
120
100
AcDbEntity
  8
Frei
  6
CONTINUOUS
 62
           7
100
AcDbLine
 10
-14415.240931063154
 20
-2376.214340475418
 30
0.0
 11
-14413.251511081222
 21
-2376.419786661778
 31
0.0
  0
LINE
  5
121
100
AcDbEntity
  8
Frei
  6
CONTINUOUS
 62
           7
100
AcDbLine
 10
-14415.619302495041
 20
-2370.143357436442
 30
0.0
 11
-14416.13291796094
 21
-2375.116907391272
 31
0.0
  0
LINE
  5
122
100
AcDbEntity
  8
Frei
  6
CONTINUOUS
 62
           7
100
AcDbLine
 10
-14413.186469199556
 20
-2356.320140656098
 30
0.0
 11
-14414.283902283702
 21
-2357.212127553884
 31
0.0
  0
LINE
  5
123
100
AcDbEntity
  8
Frei
  6
CONTINUOUS
 62
           7
100
AcDbLine
 10
-14411.197049217624
 20
-2356.525586842458
 30
0.0
 11
-14410.305062319838
 21
-2357.623019926604
 31
0.0
  0
LINE
  5
124
100
AcDbEntity
  8
Frei
  6
CONTINUOUS
 62
           7
100
AcDbLine
 10
-14412.154077997076
 20
-2375.527799763992
 30
0.0
 11
-14413.251511081222
 21
-2376.419786661778
 31
0.0
  0
LINE
  5
125
100
AcDbEntity
  8
Frei
  6
CONTINUOUS
 62
           7
100
AcDbLine
 10
-14415.240931063154
 20
-2376.214340475418
 30
0.0
 11
-14416.13291796094
 21
-2375.116907391272
 31
0.0
  0
LINE
  5
126
100
AcDbEntity
  8
Frei
  6
CONTINUOUS
 62
           7
100
AcDbLine
 10
-14415.240931063154
 20
-2376.214340475418
 30
0.0
 11
-14413.186469199556
 21
-2356.320140656098
 31
0.0
  0
LINE
  5
127
100
AcDbEntity
  8
Frei
  6
CONTINUOUS
 62
           7
100
AcDbLine
 10
-14413.251511081222
 20
-2376.419786661778
 30
0.0
 11
-14411.197049217624
 21
-2356.525586842458
 31
0.0
  0
LINE
  5
128
100
AcDbEntity
  8
Frei
  6
CONTINUOUS
 62
           7
100
AcDbLine
 10
-14412.924501195925
 20
-2382.988124696236
 30
0.0
 11
-14412.154077997076
 21
-2375.527799763992
 31
0.0
  0
LINE
  5
129
100
AcDbEntity
  8
Frei
  6
CONTINUOUS
 62
           7
100
AcDbLine
 10
-14383.102042072702
 20
-2376.517349484275
 30
0.0
 11
-14384.077911457911
 21
-2385.967094398452
 31
0.0
  0
LINE
  5
12A
100
AcDbEntity
  8
Frei
  6
CONTINUOUS
 62
           7
100
AcDbLine
 10
-14415.894950833748
 20
-2363.0776644065
 30
0.0
 11
-14414.797517749601
 21
-2362.185677508714
 31
0.0
  0
LINE
  5
12B
100
AcDbEntity
  8
Frei
  6
CONTINUOUS
 62
           7
100
AcDbLine
 10
-14414.283902283702
 20
-2357.212127553884
 30
0.0
 11
-14414.797517749601
 21
-2362.185677508714
 31
0.0
  0
LINE
  5
12C
100
AcDbEntity
  8
Frei
  6
CONTINUOUS
 62
           7
100
AcDbLine
 10
-14415.946312380338
 20
-2363.575019401983
 30
0.0
 11
-14415.894950833748
 21
-2363.0776644065
 31
0.0
  0
LINE
  5
12D
100
AcDbEntity
  8
Frei
  6
CONTINUOUS
 62
           7
100
AcDbLine
 10
-14415.619302495041
 20
-2370.143357436442
 30
0.0
 11
-14416.511289392827
 21
-2369.045924352296
 31
0.0
  0
LINE
  5
12E
100
AcDbEntity
  8
Frei
  6
CONTINUOUS
 62
           7
100
AcDbLine
 10
-14415.516579401861
 20
-2369.148647445476
 30
0.0
 11
-14415.619302495041
 21
-2370.143357436442
 31
0.0
  0
LINE
  5
12F
100
AcDbEntity
  8
Frei
  6
CONTINUOUS
 62
           2
100
AcDbLine
 10
-14414.900240842782
 20
-2363.18038749968
 30
0.0
 11
-14415.894950833748
 21
-2363.0776644065
 31
0.0
  0
LINE
  5
130
100
AcDbEntity
  8
Frei
  6
CONTINUOUS
 62
           7
100
AcDbLine
 10
-14414.797517749601
 20
-2362.185677508714
 30
0.0
 11
-14414.900240842782
 21
-2363.18038749968
 31
0.0
  0
LINE
  5
131
100
AcDbEntity
  8
Frei
  6
CONTINUOUS
 62
           2
100
AcDbLine
 10
-14415.516579401861
 20
-2369.148647445476
 30
0.0
 11
-14416.511289392827
 21
-2369.045924352296
 31
0.0
  0
LINE
  5
132
100
AcDbEntity
  8
Frei
  6
CONTINUOUS
 62
           7
100
AcDbLine
 10
-14414.900240842782
 20
-2363.18038749968
 30
0.0
 11
-14415.516579401861
 21
-2369.148647445476
 31
0.0
  0
LINE
  5
133
100
AcDbEntity
  8
Frei
  6
CONTINUOUS
 62
           1
100
AcDbLine
 10
-14413.471124836391
 20
-2363.830630507757
 30
0.0
 11
-14415.946312380338
 21
-2363.575019401983
 31
0.0
  0
LINE
  5
134
100
AcDbEntity
  8
Frei
  6
CONTINUOUS
 62
           7
100
AcDbLine
 10
-14415.997673926928
 20
-2364.072374397466
 30
0.0
 11
-14415.946312380338
 21
-2363.575019401983
 31
0.0
  0
LINE
  5
135
100
AcDbEntity
  8
Frei
  6
CONTINUOUS
 62
           1
100
AcDbLine
 10
-14413.98474030229
 20
-2368.804180462587
 30
0.0
 11
-14416.459927846237
 21
-2368.548569356814
 31
0.0
  0
LINE
  5
136
100
AcDbEntity
  8
Frei
  6
CONTINUOUS
 62
           7
100
AcDbLine
 10
-14416.511289392827
 20
-2369.045924352296
 30
0.0
 11
-14416.459927846237
 21
-2368.548569356814
 31
0.0
  0
LINE
  5
137
100
AcDbEntity
  8
Frei
  6
CONTINUOUS
 62
           1
100
AcDbLine
 10
-14413.522486382981
 20
-2364.32798550324
 30
0.0
 11
-14415.997673926928
 21
-2364.072374397466
 31
0.0
  0
LINE
  5
138
100
AcDbEntity
  8
Frei
  6
CONTINUOUS
 62
           7
100
AcDbLine
 10
-14416.408566299646
 20
-2368.051214361331
 30
0.0
 11
-14415.997673926928
 21
-2364.072374397466
 31
0.0
  0
LINE
  5
139
100
AcDbEntity
  8
Frei
  6
CONTINUOUS
 62
           1
100
AcDbLine
 10
-14413.933378755701
 20
-2368.306825467104
 30
0.0
 11
-14416.408566299646
 21
-2368.051214361331
 31
0.0
  0
LINE
  5
13A
100
AcDbEntity
  8
Frei
  6
CONTINUOUS
 62
           7
100
AcDbLine
 10
-14416.459927846237
 20
-2368.548569356814
 30
0.0
 11
-14416.408566299646
 21
-2368.051214361331
 31
0.0
  0
LINE
  5
13B
100
AcDbEntity
  8
Frei
  6
CONTINUOUS
 62
           7
100
AcDbLine
 10
-14408.12264522407
 20
-2355.280108750841
 30
0.0
 11
-14381.098941755696
 21
-2357.120504660439
 31
0.0
  0
LINE
  5
13C
100
AcDbEntity
  8
Frei
  6
CONTINUOUS
 62
           7
100
AcDbLine
 10
-14410.247956483998
 20
-2357.070040614015
 30
0.0
 11
-14410.305062319838
 21
-2357.623019926604
 31
0.0
  0
LINE
  5
13D
100
AcDbEntity
  8
Frei
  6
CONTINUOUS
 62
           7
100
AcDbLine
 10
-14384.077911457911
 20
-2385.967094398452
 30
0.0
 11
-14412.924501195925
 21
-2382.988124696236
 31
0.0
  0
LINE
  5
13E
100
AcDbEntity
  8
Frei
  6
CONTINUOUS
 62
           7
100
AcDbLine
 10
-14413.027224289104
 20
-2383.982834687202
 30
0.0
 11
-14412.924501195925
 21
-2382.988124696236
 31
0.0
  0
LINE
  5
13F
100
AcDbEntity
  8
Frei
  6
CONTINUOUS
 62
           7
100
AcDbLine
 10
-14412.529869293621
 20
-2384.034196233793
 30
0.0
 11
-14413.027224289104
 21
-2383.982834687202
 31
0.0
  0
LINE
  5
140
100
AcDbEntity
  8
Frei
  6
CONTINUOUS
 62
           7
100
AcDbLine
 10
-14384.077911457911
 20
-2385.967094398452
 30
0.0
 11
-14384.18063455109
 21
-2386.961804389418
 31
0.0
  0
LINE
  5
141
100
AcDbEntity
  8
Frei
  6
CONTINUOUS
 62
           7
100
AcDbLine
 10
-14424.309724410103
 20
-2395.886833637962
 30
0.0
 11
-14413.86526950496
 21
-2396.965426116351
 31
0.0
  0
LINE
  5
142
100
AcDbEntity
  8
Frei
  6
CONTINUOUS
 62
           7
100
AcDbLine
 10
-14427.445358887429
 20
-2411.648108853648
 30
0.0
 11
-14427.496720434019
 21
-2412.145463849131
 31
0.0
  0
LINE
  5
143
100
AcDbEntity
  8
Frei
  6
CONTINUOUS
 62
           7
100
AcDbLine
 10
-14426.15874008734
 20
-2413.79161347535
 30
0.0
 11
-14415.714285182197
 21
-2414.870205953739
 31
0.0
  0
LINE
  5
144
100
AcDbEntity
  8
Frei
  6
CONTINUOUS
 62
           7
100
AcDbLine
 10
-14415.354754356067
 20
-2411.388720985357
 30
0.0
 11
-14412.529869293621
 21
-2384.034196233793
 31
0.0
  0
LINE
  5
145
100
AcDbEntity
  8
Frei
  6
CONTINUOUS
 62
           7
100
AcDbLine
 10
-14384.677989546573
 20
-2386.910442842829
 30
0.0
 11
-14412.529869293621
 21
-2384.034196233793
 31
0.0
  0
LINE
  5
146
100
AcDbEntity
  8
Frei
  6
CONTINUOUS
 62
           7
100
AcDbLine
 10
-14414.016774009388
 20
-2413.034870611576
 30
0.0
 11
-14408.084222545674
 21
-2413.647521577522
 31
0.0
  0
LINE
  5
147
100
AcDbEntity
  8
Frei
  6
CONTINUOUS
 62
           7
100
AcDbLine
 10
-14387.502874609019
 20
-2414.264967594394
 30
0.0
 11
-14384.677989546573
 21
-2386.910442842829
 31
0.0
  0
LINE
  5
148
100
AcDbEntity
  8
Frei
  6
CONTINUOUS
 62
           7
100
AcDbLine
 10
-14384.18063455109
 20
-2386.961804389418
 30
0.0
 11
-14384.677989546573
 21
-2386.910442842829
 31
0.0
  0
LINE
  5
149
100
AcDbEntity
  8
Frei
  6
CONTINUOUS
 62
           7
100
AcDbLine
 10
-14408.084222545674
 20
-2413.647521577522
 30
0.0
 11
-14415.714285182197
 21
-2414.870205953739
 31
0.0
  0
LINE
  5
14A
100
AcDbEntity
  8
Frei
  6
CONTINUOUS
 62
           7
100
AcDbLine
 10
-14389.149024235239
 20
-2415.602947941072
 30
0.0
 11
-14408.084222545674
 21
-2413.647521577522
 31
0.0
  0
LINE
  5
14B
100
AcDbEntity
  8
Frei
  6
CONTINUOUS
 62
           7
100
AcDbLine
 10
-14430.980785537742
 20
-2397.208553514225
 30
0.0
 11
-14426.007235582911
 21
-2397.722168980124
 31
0.0
  0
LINE
  5
14C
100
AcDbEntity
  8
Frei
  6
CONTINUOUS
 62
           7
100
AcDbLine
 10
-14425.955874036321
 20
-2397.224813984641
 30
0.0
 11
-14426.007235582911
 21
-2397.722168980124
 31
0.0
  0
LINE
  5
14D
100
AcDbEntity
  8
Frei
  6
CONTINUOUS
 62
           7
100
AcDbLine
 10
-14432.418908842259
 20
-2411.134493387749
 30
0.0
 11
-14427.445358887429
 21
-2411.648108853648
 31
0.0
  0
LINE
  5
14E
100
AcDbEntity
  8
Frei
  6
CONTINUOUS
 62
           7
100
AcDbLine
 10
-14427.34263579425
 20
-2410.653398862682
 30
0.0
 11
-14427.445358887429
 21
-2411.648108853648
 31
0.0
  0
LINE
  5
14F
100
AcDbEntity
  8
Frei
  6
CONTINUOUS
 62
           2
100
AcDbLine
 10
-14426.109958676092
 20
-2398.71687897109
 30
0.0
 11
-14431.083508630922
 21
-2398.203263505191
 31
0.0
  0
LINE
  5
150
100
AcDbEntity
  8
Frei
  6
CONTINUOUS
 62
           7
100
AcDbLine
 10
-14426.007235582911
 20
-2397.722168980124
 30
0.0
 11
-14426.109958676092
 21
-2398.71687897109
 31
0.0
  0
LINE
  5
151
100
AcDbEntity
  8
Frei
  6
CONTINUOUS
 62
           2
100
AcDbLine
 10
-14427.34263579425
 20
-2410.653398862682
 30
0.0
 11
-14432.31618574908
 21
-2410.139783396783
 31
0.0
  0
LINE
  5
152
100
AcDbEntity
  8
Frei
  6
CONTINUOUS
 62
           7
100
AcDbLine
 10
-14426.109958676092
 20
-2398.71687897109
 30
0.0
 11
-14427.34263579425
 21
-2410.653398862682
 31
0.0
  0
LINE
  5
153
100
AcDbEntity
  8
Frei
  6
CONTINUOUS
 62
           7
100
AcDbLine
 10
-14381.663918768185
 20
-2362.591409610752
 30
0.0
 11
-14380.911929299142
 21
-2362.669067103891
 31
0.0
  0
LINE
  5
154
100
AcDbEntity
  8
Frei
  6
CONTINUOUS
 62
           7
100
AcDbLine
 10
-14381.098941755696
 20
-2357.120504660439
 30
0.0
 11
-14381.663918768185
 21
-2362.591409610752
 31
0.0
  0
LINE
  5
155
100
AcDbEntity
  8
Frei
  6
CONTINUOUS
 62
           7
100
AcDbLine
 10
-14382.023449594313
 20
-2366.072894579133
 30
0.0
 11
-14381.271460125272
 21
-2366.150552072272
 31
0.0
  0
LINE
  5
156
100
AcDbEntity
  8
Frei
  6
CONTINUOUS
 62
           7
100
AcDbLine
 10
-14381.663918768185
 20
-2362.591409610752
 30
0.0
 11
-14382.023449594313
 21
-2366.072894579133
 31
0.0
  0
LINE
  5
157
100
AcDbEntity
  8
Frei
  6
CONTINUOUS
 62
           7
100
AcDbLine
 10
-14382.742511246573
 20
-2373.035864515894
 30
0.0
 11
-14381.99052177753
 21
-2373.113522009033
 31
0.0
  0
LINE
  5
158
100
AcDbEntity
  8
Frei
  6
CONTINUOUS
 62
           7
100
AcDbLine
 10
-14382.023449594313
 20
-2366.072894579133
 30
0.0
 11
-14382.742511246573
 21
-2373.035864515894
 31
0.0
  0
LINE
  5
159
100
AcDbEntity
  8
Frei
  6
CONTINUOUS
 62
           7
100
AcDbLine
 10
-14383.102042072702
 20
-2376.517349484275
 30
0.0
 11
-14382.350052603661
 21
-2376.595006977414
 31
0.0
  0
LINE
  5
15A
100
AcDbEntity
  8
Frei
  6
CONTINUOUS
 62
           7
100
AcDbLine
 10
-14382.742511246573
 20
-2373.035864515894
 30
0.0
 11
-14383.102042072702
 21
-2376.517349484275
 31
0.0
  0
LINE
  5
15B
100
AcDbEntity
  8
Frei
  6
CONTINUOUS
 62
           7
100
AcDbLine
 10
-14380.890915433994
 20
-2369.708464187283
 30
0.0
 11
-14380.3516191948
 21
-2364.486236734712
 31
0.0
  0
LINE
  5
15C
100
AcDbEntity
  8
Frei
  6
CONTINUOUS
 62
           7
100
AcDbLine
 10
-14430.885437630828
 20
-2396.285260487423
 30
0.0
 11
-14430.75093190201
 21
-2394.98278615419
 31
0.0
  0
LINE
  5
15D
100
AcDbEntity
  8
Frei
  6
CONTINUOUS
 62
           7
100
AcDbLine
 10
-14436.870328525914
 20
-2412.924302200625
 30
0.0
 11
-14432.648762477991
 21
-2413.360260747785
 31
0.0
  0
LINE
  5
15E
100
AcDbEntity
  8
Frei
  6
CONTINUOUS
 62
           7
100
AcDbLine
 10
-14435.858987585658
 20
-2395.771645021524
 30
0.0
 11
-14430.885437630828
 21
-2396.285260487423
 31
0.0
  0
LINE
  5
15F
100
AcDbEntity
  8
Frei
  6
CONTINUOUS
 62
           7
100
AcDbLine
 10
-14431.090883817187
 20
-2398.274680469355
 30
0.0
 11
-14430.885437630828
 21
-2396.285260487423
 31
0.0
  0
LINE
  5
160
100
AcDbEntity
  8
Frei
  6
CONTINUOUS
 62
           7
100
AcDbLine
 10
-14431.090883817187
 20
-2398.274680469355
 30
0.0
 11
-14436.064433772017
 21
-2397.761065003456
 31
0.0
  0
LINE
  5
161
100
AcDbEntity
  8
Frei
  6
CONTINUOUS
 62
           7
100
AcDbLine
 10
-14435.858987585658
 20
-2395.771645021524
 30
0.0
 11
-14436.064433772017
 21
-2397.761065003456
 31
0.0
  0
LINE
  5
162
100
AcDbEntity
  8
Frei
  6
CONTINUOUS
 62
           7
100
AcDbLine
 10
-14431.225389546005
 20
-2399.577154802588
 30
0.0
 11
-14431.090883817187
 21
-2398.274680469355
 31
0.0
  0
LINE
  5
163
100
AcDbEntity
  8
Frei
  6
CONTINUOUS
 62
           7
100
AcDbLine
 10
-14431.49440100364
 20
-2402.182103469055
 30
0.0
 11
-14431.225389546005
 21
-2399.577154802588
 31
0.0
  0
LINE
  5
164
100
AcDbEntity
  8
Frei
  6
CONTINUOUS
 62
           7
100
AcDbLine
 10
-14431.49440100364
 20
-2402.182103469055
 30
0.0
 11
-14436.467950958471
 21
-2401.668488003156
 31
0.0
  0
LINE
  5
165
100
AcDbEntity
  8
Frei
  6
CONTINUOUS
 62
           7
100
AcDbLine
 10
-14436.064433772017
 20
-2397.761065003456
 30
0.0
 11
-14436.467950958471
 21
-2401.668488003156
 31
0.0
  0
LINE
  5
166
100
AcDbEntity
  8
Frei
  6
CONTINUOUS
 62
           7
100
AcDbLine
 10
-14431.90529337636
 20
-2406.160943432919
 30
0.0
 11
-14431.49440100364
 21
-2402.182103469055
 31
0.0
  0
LINE
  5
167
100
AcDbEntity
  8
Frei
  6
CONTINUOUS
 62
           7
100
AcDbLine
 10
-14431.90529337636
 20
-2406.160943432919
 30
0.0
 11
-14436.878843331189
 21
-2405.64732796702
 31
0.0
  0
LINE
  5
168
100
AcDbEntity
  8
Frei
  6
CONTINUOUS
 62
           7
100
AcDbLine
 10
-14436.467950958471
 20
-2401.668488003156
 30
0.0
 11
-14436.878843331189
 21
-2405.64732796702
 31
0.0
  0
LINE
  5
169
100
AcDbEntity
  8
Frei
  6
CONTINUOUS
 62
           7
100
AcDbLine
 10
-14432.174304833996
 20
-2408.765892099386
 30
0.0
 11
-14431.90529337636
 21
-2406.160943432919
 31
0.0
  0
LINE
  5
16A
100
AcDbEntity
  8
Frei
  6
CONTINUOUS
 62
           7
100
AcDbLine
 10
-14432.308810562812
 20
-2410.068366432619
 30
0.0
 11
-14432.174304833996
 21
-2408.765892099386
 31
0.0
  0
LINE
  5
16B
100
AcDbEntity
  8
Frei
  6
CONTINUOUS
 62
           7
100
AcDbLine
 10
-14432.308810562812
 20
-2410.068366432619
 30
0.0
 11
-14437.282360517644
 21
-2409.55475096672
 31
0.0
  0
LINE
  5
16C
100
AcDbEntity
  8
Frei
  6
CONTINUOUS
 62
           7
100
AcDbLine
 10
-14436.878843331189
 20
-2405.64732796702
 30
0.0
 11
-14437.282360517644
 21
-2409.55475096672
 31
0.0
  0
LINE
  5
16D
100
AcDbEntity
  8
Frei
  6
CONTINUOUS
 62
           7
100
AcDbLine
 10
-14432.514256749173
 20
-2412.057786414551
 30
0.0
 11
-14432.308810562812
 21
-2410.068366432619
 31
0.0
  0
LINE
  5
16E
100
AcDbEntity
  8
Frei
  6
CONTINUOUS
 62
           7
100
AcDbLine
 10
-14432.514256749173
 20
-2412.057786414551
 30
0.0
 11
-14437.487806704003
 21
-2411.544170948652
 31
0.0
  0
LINE
  5
16F
100
AcDbEntity
  8
Frei
  6
CONTINUOUS
 62
           7
100
AcDbLine
 10
-14437.282360517644
 20
-2409.55475096672
 30
0.0
 11
-14437.487806704003
 21
-2411.544170948652
 31
0.0
  0
LINE
  5
170
100
AcDbEntity
  8
Frei
  6
CONTINUOUS
 62
           7
100
AcDbLine
 10
-14432.648762477991
 20
-2413.360260747785
 30
0.0
 11
-14432.514256749173
 21
-2412.057786414551
 31
0.0
  0
LINE
  5
171
100
AcDbEntity
  8
Frei
  6
CONTINUOUS
 62
           7
100
AcDbLine
 10
-14435.858987585658
 20
-2395.771645021524
 30
0.0
 11
-14434.972497949935
 21
-2394.546827607031
 31
0.0
  0
LINE
  5
172
100
AcDbEntity
  8
Frei
  6
CONTINUOUS
 62
           7
100
AcDbLine
 10
-14430.75093190201
 20
-2394.98278615419
 30
0.0
 11
-14434.972497949935
 21
-2394.546827607031
 31
0.0
  0
LINE
  5
173
100
AcDbEntity
  8
Frei
  6
CONTINUOUS
 62
           7
100
AcDbLine
 10
-14436.870328525914
 20
-2412.924302200625
 30
0.0
 11
-14437.487806704003
 21
-2411.544170948652
 31
0.0
  0
LINE
  5
174
100
AcDbEntity
  8
Frei
  6
CONTINUOUS
 62
           7
100
AcDbLine
 10
-14435.44695559393
 20
-2399.141196255429
 30
0.0
 11
-14436.064433772017
 21
-2397.761065003456
 31
0.0
  0
LINE
  5
175
100
AcDbEntity
  8
Frei
  6
CONTINUOUS
 62
           7
100
AcDbLine
 10
-14431.225389546005
 20
-2399.577154802588
 30
0.0
 11
-14435.44695559393
 21
-2399.141196255429
 31
0.0
  0
LINE
  5
176
100
AcDbEntity
  8
Frei
  6
CONTINUOUS
 62
           7
100
AcDbLine
 10
-14436.467950958471
 20
-2401.668488003156
 30
0.0
 11
-14435.44695559393
 21
-2399.141196255429
 31
0.0
  0
LINE
  5
177
100
AcDbEntity
  8
Frei
  6
CONTINUOUS
 62
           7
100
AcDbLine
 10
-14436.395870881921
 20
-2408.329933552227
 30
0.0
 11
-14436.878843331189
 21
-2405.64732796702
 31
0.0
  0
LINE
  5
178
100
AcDbEntity
  8
Frei
  6
CONTINUOUS
 62
           7
100
AcDbLine
 10
-14432.174304833996
 20
-2408.765892099386
 30
0.0
 11
-14436.395870881921
 21
-2408.329933552227
 31
0.0
  0
LINE
  5
179
100
AcDbEntity
  8
Frei
  6
CONTINUOUS
 62
           7
100
AcDbLine
 10
-14437.282360517644
 20
-2409.55475096672
 30
0.0
 11
-14436.395870881921
 21
-2408.329933552227
 31
0.0
  0
LINE
  5
17A
100
AcDbEntity
  8
Frei
  6
CONTINUOUS
 62
           3
100
AcDbLine
 10
-14391.901175242043
 20
-2408.180976179085
 30
0.0
 11
-14409.80595507943
 21
-2406.331960501847
 31
0.0
  0
LINE
  5
17B
100
AcDbEntity
  8
Frei
  6
CONTINUOUS
 62
           3
100
AcDbLine
 10
-14392.559635092528
 20
-2408.716168317756
 30
0.0
 11
-14391.901175242043
 21
-2408.180976179085
 31
0.0
  0
LINE
  5
17C
100
AcDbEntity
  8
Frei
  6
CONTINUOUS
 62
           3
100
AcDbLine
 10
-14392.024442953858
 20
-2409.374628168244
 30
0.0
 11
-14392.559635092528
 21
-2408.716168317756
 31
0.0
  0
LINE
  5
17D
100
AcDbEntity
  8
Frei
  6
CONTINUOUS
 62
           3
100
AcDbLine
 10
-14409.929222791247
 20
-2407.525612491007
 30
0.0
 11
-14392.024442953858
 21
-2409.374628168244
 31
0.0
  0
LINE
  5
17E
100
AcDbEntity
  8
Frei
  6
CONTINUOUS
 62
           3
100
AcDbLine
 10
-14409.270762940758
 20
-2406.990420352334
 30
0.0
 11
-14409.929222791247
 21
-2407.525612491007
 31
0.0
  0
LINE
  5
17F
100
AcDbEntity
  8
Frei
  6
CONTINUOUS
 62
           3
100
AcDbLine
 10
-14409.80595507943
 20
-2406.331960501847
 30
0.0
 11
-14409.270762940758
 21
-2406.990420352334
 31
0.0
  0
LINE
  5
180
100
AcDbEntity
  8
Frei
  6
CONTINUOUS
 62
           3
100
AcDbLine
 10
-14392.559635092528
 20
-2408.716168317756
 30
0.0
 11
-14409.270762940758
 21
-2406.990420352334
 31
0.0
  0
LINE
  5
181
100
AcDbEntity
  8
Frei
  6
CONTINUOUS
 62
           3
100
AcDbLine
 10
-14409.723776604887
 20
-2405.536192509074
 30
0.0
 11
-14409.065316754399
 21
-2405.001000370402
 31
0.0
  0
LINE
  5
182
100
AcDbEntity
  8
Frei
  6
CONTINUOUS
 62
           3
100
AcDbLine
 10
-14391.818996767499
 20
-2407.385208186312
 30
0.0
 11
-14409.723776604887
 21
-2405.536192509074
 31
0.0
  0
LINE
  5
183
100
AcDbEntity
  8
Frei
  6
CONTINUOUS
 62
           3
100
AcDbLine
 10
-14392.354188906169
 20
-2406.726748335824
 30
0.0
 11
-14391.818996767499
 21
-2407.385208186312
 31
0.0
  0
LINE
  5
184
100
AcDbEntity
  8
Frei
  6
CONTINUOUS
 62
           3
100
AcDbLine
 10
-14391.695729055682
 20
-2406.191556197153
 30
0.0
 11
-14392.354188906169
 21
-2406.726748335824
 31
0.0
  0
LINE
  5
185
100
AcDbEntity
  8
Frei
  6
CONTINUOUS
 62
           3
100
AcDbLine
 10
-14409.600508893071
 20
-2404.342540519916
 30
0.0
 11
-14391.695729055682
 21
-2406.191556197153
 31
0.0
  0
LINE
  5
186
100
AcDbEntity
  8
Frei
  6
CONTINUOUS
 62
           3
100
AcDbLine
 10
-14409.065316754399
 20
-2405.001000370402
 30
0.0
 11
-14409.600508893071
 21
-2404.342540519916
 31
0.0
  0
LINE
  5
187
100
AcDbEntity
  8
Frei
  6
CONTINUOUS
 62
           3
100
AcDbLine
 10
-14409.065316754399
 20
-2405.001000370402
 30
0.0
 11
-14392.354188906169
 21
-2406.726748335824
 31
0.0
  0
LINE
  5
188
100
AcDbEntity
  8
Frei
  6
CONTINUOUS
 62
           3
100
AcDbLine
 10
-14409.518330418527
 20
-2403.546772527142
 30
0.0
 11
-14408.85987056804
 21
-2403.011580388471
 31
0.0
  0
LINE
  5
189
100
AcDbEntity
  8
Frei
  6
CONTINUOUS
 62
           3
100
AcDbLine
 10
-14391.613550581138
 20
-2405.39578820438
 30
0.0
 11
-14409.518330418527
 21
-2403.546772527142
 31
0.0
  0
LINE
  5
18A
100
AcDbEntity
  8
Frei
  6
CONTINUOUS
 62
           3
100
AcDbLine
 10
-14392.14874271981
 20
-2404.737328353892
 30
0.0
 11
-14391.613550581138
 21
-2405.39578820438
 31
0.0
  0
LINE
  5
18B
100
AcDbEntity
  8
Frei
  6
CONTINUOUS
 62
           3
100
AcDbLine
 10
-14391.490282869323
 20
-2404.202136215221
 30
0.0
 11
-14392.14874271981
 21
-2404.737328353892
 31
0.0
  0
LINE
  5
18C
100
AcDbEntity
  8
Frei
  6
CONTINUOUS
 62
           3
100
AcDbLine
 10
-14409.395062706712
 20
-2402.353120537984
 30
0.0
 11
-14391.490282869323
 21
-2404.202136215221
 31
0.0
  0
LINE
  5
18D
100
AcDbEntity
  8
Frei
  6
CONTINUOUS
 62
           3
100
AcDbLine
 10
-14408.85987056804
 20
-2403.011580388471
 30
0.0
 11
-14409.395062706712
 21
-2402.353120537984
 31
0.0
  0
LINE
  5
18E
100
AcDbEntity
  8
Frei
  6
CONTINUOUS
 62
           3
100
AcDbLine
 10
-14409.312884232168
 20
-2401.557352545211
 30
0.0
 11
-14408.654424381679
 21
-2401.022160406539
 31
0.0
  0
LINE
  5
18F
100
AcDbEntity
  8
Frei
  6
CONTINUOUS
 62
           3
100
AcDbLine
 10
-14403.252196542237
 20
-2402.18323606097
 30
0.0
 11
-14409.312884232168
 21
-2401.557352545211
 31
0.0
  0
LINE
  5
190
100
AcDbEntity
  8
Frei
  6
CONTINUOUS
 62
           3
100
AcDbLine
 10
-14391.943296533449
 20
-2402.74790837196
 30
0.0
 11
-14391.408104394779
 21
-2403.406368222448
 31
0.0
  0
LINE
  5
191
100
AcDbEntity
  8
Frei
  6
CONTINUOUS
 62
           3
100
AcDbLine
 10
-14391.284836682964
 20
-2402.212716233289
 30
0.0
 11
-14391.943296533449
 21
-2402.74790837196
 31
0.0
  0
LINE
  5
192
100
AcDbEntity
  8
Frei
  6
CONTINUOUS
 62
           3
100
AcDbLine
 10
-14397.345524372893
 20
-2401.58683271753
 30
0.0
 11
-14391.284836682964
 21
-2402.212716233289
 31
0.0
  0
LINE
  5
193
100
AcDbEntity
  8
Frei
  6
CONTINUOUS
 62
           3
100
AcDbLine
 10
-14408.654424381679
 20
-2401.022160406539
 30
0.0
 11
-14409.189616520351
 21
-2400.363700556052
 31
0.0
  0
LINE
  5
194
100
AcDbEntity
  8
Frei
  6
CONTINUOUS
 62
           3
100
AcDbLine
 10
-14409.107438045807
 20
-2399.567932563279
 30
0.0
 11
-14408.44897819532
 21
-2399.032740424607
 31
0.0
  0
LINE
  5
195
100
AcDbEntity
  8
Frei
  6
CONTINUOUS
 62
           3
100
AcDbLine
 10
-14403.78901896426
 20
-2400.117162453242
 30
0.0
 11
-14409.107438045807
 21
-2399.567932563279
 31
0.0
  0
LINE
  5
196
100
AcDbEntity
  8
Frei
  6
CONTINUOUS
 62
           3
100
AcDbLine
 10
-14391.73785034709
 20
-2400.758488390029
 30
0.0
 11
-14391.20265820842
 21
-2401.416948240516
 31
0.0
  0
LINE
  5
197
100
AcDbEntity
  8
Frei
  6
CONTINUOUS
 62
           3
100
AcDbLine
 10
-14397.056269428638
 20
-2400.209258500065
 30
0.0
 11
-14391.73785034709
 21
-2400.758488390029
 31
0.0
  0
LINE
  5
198
100
AcDbEntity
  8
Frei
  6
CONTINUOUS
 62
           3
100
AcDbLine
 10
-14402.59373669175
 20
-2401.648043922298
 30
0.0
 11
-14408.654424381679
 21
-2401.022160406539
 31
0.0
  0
LINE
  5
199
100
AcDbEntity
  8
Frei
  6
CONTINUOUS
 62
           3
100
AcDbLine
 10
-14392.14874271981
 20
-2404.737328353892
 30
0.0
 11
-14408.85987056804
 21
-2403.011580388471
 31
0.0
  0
LINE
  5
19A
100
AcDbEntity
  8
Frei
  6
CONTINUOUS
 62
           3
100
AcDbLine
 10
-14402.59373669175
 20
-2401.648043922298
 30
0.0
 11
-14403.12892883042
 21
-2400.989584071811
 31
0.0
  0
LINE
  5
19B
100
AcDbEntity
  8
Frei
  6
CONTINUOUS
 62
           3
100
AcDbLine
 10
-14409.189616520351
 20
-2400.363700556052
 30
0.0
 11
-14403.12892883042
 21
-2400.989584071811
 31
0.0
  0
LINE
  5
19C
100
AcDbEntity
  8
Frei
  6
CONTINUOUS
 62
           3
100
AcDbLine
 10
-14403.252196542237
 20
-2402.18323606097
 30
0.0
 11
-14402.59373669175
 21
-2401.648043922298
 31
0.0
  0
LINE
  5
19D
100
AcDbEntity
  8
Frei
  6
CONTINUOUS
 62
           3
100
AcDbLine
 10
-14403.130559113772
 20
-2399.581970314569
 30
0.0
 11
-14403.78901896426
 21
-2400.117162453242
 31
0.0
  0
LINE
  5
19E
100
AcDbEntity
  8
Frei
  6
CONTINUOUS
 62
           3
100
AcDbLine
 10
-14408.44897819532
 20
-2399.032740424607
 30
0.0
 11
-14403.130559113772
 21
-2399.581970314569
 31
0.0
  0
LINE
  5
19F
100
AcDbEntity
  8
Frei
  6
CONTINUOUS
 62
           3
100
AcDbLine
 10
-14396.521077289965
 20
-2400.867718350553
 30
0.0
 11
-14397.056269428638
 21
-2400.209258500065
 31
0.0
  0
LINE
  5
1A0
100
AcDbEntity
  8
Frei
  6
CONTINUOUS
 62
           3
100
AcDbLine
 10
-14391.20265820842
 20
-2401.416948240516
 30
0.0
 11
-14396.521077289965
 21
-2400.867718350553
 31
0.0
  0
LINE
  5
1A1
100
AcDbEntity
  8
Frei
  6
CONTINUOUS
 62
           3
100
AcDbLine
 10
-14398.00398422338
 20
-2402.122024856201
 30
0.0
 11
-14397.345524372893
 21
-2401.58683271753
 31
0.0
  0
LINE
  5
1A2
100
AcDbEntity
  8
Frei
  6
CONTINUOUS
 62
           3
100
AcDbLine
 10
-14391.943296533449
 20
-2402.74790837196
 30
0.0
 11
-14398.00398422338
 21
-2402.122024856201
 31
0.0
  0
LINE
  5
1A3
100
AcDbEntity
  8
Frei
  6
CONTINUOUS
 62
           3
100
AcDbLine
 10
-14397.468792084708
 20
-2402.780484706689
 30
0.0
 11
-14398.00398422338
 21
-2402.122024856201
 31
0.0
  0
LINE
  5
1A4
100
AcDbEntity
  8
Frei
  6
CONTINUOUS
 62
           3
100
AcDbLine
 10
-14391.408104394779
 20
-2403.406368222448
 30
0.0
 11
-14397.468792084708
 21
-2402.780484706689
 31
0.0
  0
LINE
  5
1A5
100
AcDbEntity
  8
Frei
  6
CONTINUOUS
 62
           3
100
AcDbLine
 10
-14409.189616520351
 20
-2400.363700556052
 30
0.0
 11
-14409.312884232168
 21
-2401.557352545211
 31
0.0
  0
LINE
  5
1A6
100
AcDbEntity
  8
Frei
  6
CONTINUOUS
 62
           3
100
AcDbLine
 10
-14409.518330418527
 20
-2403.546772527142
 30
0.0
 11
-14409.395062706712
 21
-2402.353120537984
 31
0.0
  0
LINE
  5
1A7
100
AcDbEntity
  8
Frei
  6
CONTINUOUS
 62
           3
100
AcDbLine
 10
-14409.723776604887
 20
-2405.536192509074
 30
0.0
 11
-14409.600508893071
 21
-2404.342540519916
 31
0.0
  0
LINE
  5
1A8
100
AcDbEntity
  8
Frei
  6
CONTINUOUS
 62
           3
100
AcDbLine
 10
-14409.929222791247
 20
-2407.525612491007
 30
0.0
 11
-14409.80595507943
 21
-2406.331960501847
 31
0.0
  0
LINE
  5
1A9
100
AcDbEntity
  8
Frei
  6
CONTINUOUS
 62
           3
100
AcDbLine
 10
-14409.0458041899
 20
-2398.971106568698
 30
0.0
 11
-14409.107438045807
 21
-2399.567932563279
 31
0.0
  0
LINE
  5
1AA
100
AcDbEntity
  8
Frei
  6
CONTINUOUS
 62
           3
100
AcDbLine
 10
-14391.20265820842
 20
-2401.416948240516
 30
0.0
 11
-14391.141024352512
 21
-2400.820122245936
 31
0.0
  0
LINE
  5
1AB
100
AcDbEntity
  8
Frei
  6
CONTINUOUS
 62
           3
100
AcDbLine
 10
-14391.408104394779
 20
-2403.406368222448
 30
0.0
 11
-14391.284836682964
 21
-2402.212716233289
 31
0.0
  0
LINE
  5
1AC
100
AcDbEntity
  8
Frei
  6
CONTINUOUS
 62
           3
100
AcDbLine
 10
-14391.613550581138
 20
-2405.39578820438
 30
0.0
 11
-14391.490282869323
 21
-2404.202136215221
 31
0.0
  0
LINE
  5
1AD
100
AcDbEntity
  8
Frei
  6
CONTINUOUS
 62
           3
100
AcDbLine
 10
-14391.818996767499
 20
-2407.385208186312
 30
0.0
 11
-14391.695729055682
 21
-2406.191556197153
 31
0.0
  0
LINE
  5
1AE
100
AcDbEntity
  8
Frei
  6
CONTINUOUS
 62
           3
100
AcDbLine
 10
-14392.024442953858
 20
-2409.374628168244
 30
0.0
 11
-14391.901175242043
 21
-2408.180976179085
 31
0.0
  0
LINE
  5
1AF
100
AcDbEntity
  8
Frei
  6
CONTINUOUS
 62
           3
100
AcDbLine
 10
-14390.38087346298
 20
-2393.459268312788
 30
0.0
 11
-14390.257605751165
 21
-2392.265616323629
 31
0.0
  0
LINE
  5
1B0
100
AcDbEntity
  8
Frei
  6
CONTINUOUS
 62
           3
100
AcDbLine
 10
-14390.586319649341
 20
-2395.44868829472
 30
0.0
 11
-14390.463051937524
 21
-2394.255036305561
 31
0.0
  0
LINE
  5
1B1
100
AcDbEntity
  8
Frei
  6
CONTINUOUS
 62
           3
100
AcDbLine
 10
-14390.7917658357
 20
-2397.438108276652
 30
0.0
 11
-14390.668498123885
 21
-2396.244456287493
 31
0.0
  0
LINE
  5
1B2
100
AcDbEntity
  8
Frei
  6
CONTINUOUS
 62
           3
100
AcDbLine
 10
-14390.997212022059
 20
-2399.427528258584
 30
0.0
 11
-14390.873944310244
 21
-2398.233876269425
 31
0.0
  0
LINE
  5
1B3
100
AcDbEntity
  8
Frei
  6
CONTINUOUS
 62
           3
100
AcDbLine
 10
-14391.141024352512
 20
-2400.820122245936
 30
0.0
 11
-14391.079390496603
 21
-2400.223296251357
 31
0.0
  0
LINE
  5
1B4
100
AcDbEntity
  8
Frei
  6
CONTINUOUS
 62
           3
100
AcDbLine
 10
-14408.984170333992
 20
-2398.37428057412
 30
0.0
 11
-14409.0458041899
 21
-2398.971106568698
 31
0.0
  0
LINE
  5
1B5
100
AcDbEntity
  8
Frei
  6
CONTINUOUS
 62
           3
100
AcDbLine
 10
-14408.285653300369
 20
-2391.610252635551
 30
0.0
 11
-14408.162385588554
 21
-2390.416600646392
 31
0.0
  0
LINE
  5
1B6
100
AcDbEntity
  8
Frei
  6
CONTINUOUS
 62
           3
100
AcDbLine
 10
-14408.491099486728
 20
-2393.599672617483
 30
0.0
 11
-14408.367831774913
 21
-2392.406020628323
 31
0.0
  0
LINE
  5
1B7
100
AcDbEntity
  8
Frei
  6
CONTINUOUS
 62
           3
100
AcDbLine
 10
-14408.696545673089
 20
-2395.589092599415
 30
0.0
 11
-14408.573277961272
 21
-2394.395440610255
 31
0.0
  0
LINE
  5
1B8
100
AcDbEntity
  8
Frei
  6
CONTINUOUS
 62
           3
100
AcDbLine
 10
-14408.778724147633
 20
-2396.384860592188
 30
0.0
 11
-14408.901991859448
 21
-2397.578512581347
 31
0.0
  0
LINE
  5
1B9
100
AcDbEntity
  8
Frei
  6
CONTINUOUS
 62
           3
100
AcDbLine
 10
-14396.934632000173
 20
-2397.607992753666
 30
0.0
 11
-14390.873944310244
 21
-2398.233876269425
 31
0.0
  0
LINE
  5
1BA
100
AcDbEntity
  8
Frei
  6
CONTINUOUS
 62
           3
100
AcDbLine
 10
-14397.593091850662
 20
-2398.143184892337
 30
0.0
 11
-14396.934632000173
 21
-2397.607992753666
 31
0.0
  0
LINE
  5
1BB
100
AcDbEntity
  8
Frei
  6
CONTINUOUS
 62
           3
100
AcDbLine
 10
-14397.593091850662
 20
-2398.143184892337
 30
0.0
 11
-14391.532404160729
 21
-2398.769068408097
 31
0.0
  0
LINE
  5
1BC
100
AcDbEntity
  8
Frei
  6
CONTINUOUS
 62
           3
100
AcDbLine
 10
-14397.05789971199
 20
-2398.801644742825
 30
0.0
 11
-14397.593091850662
 21
-2398.143184892337
 31
0.0
  0
LINE
  5
1BD
100
AcDbEntity
  8
Frei
  6
CONTINUOUS
 62
           3
100
AcDbLine
 10
-14396.397809578149
 20
-2399.674066361394
 30
0.0
 11
-14391.079390496603
 21
-2400.223296251357
 31
0.0
  0
LINE
  5
1BE
100
AcDbEntity
  8
Frei
  6
CONTINUOUS
 62
           3
100
AcDbLine
 10
-14397.056269428638
 20
-2400.209258500065
 30
0.0
 11
-14396.397809578149
 21
-2399.674066361394
 31
0.0
  0
LINE
  5
1BF
100
AcDbEntity
  8
Frei
  6
CONTINUOUS
 62
           3
100
AcDbLine
 10
-14403.665751252443
 20
-2398.923510464083
 30
0.0
 11
-14403.130559113772
 21
-2399.581970314569
 31
0.0
  0
LINE
  5
1C0
100
AcDbEntity
  8
Frei
  6
CONTINUOUS
 62
           3
100
AcDbLine
 10
-14402.18284431903
 20
-2397.669203958434
 30
0.0
 11
-14402.7180364577
 21
-2397.010744107947
 31
0.0
  0
LINE
  5
1C1
100
AcDbEntity
  8
Frei
  6
CONTINUOUS
 62
           3
100
AcDbLine
 10
-14402.841304169517
 20
-2398.204396097106
 30
0.0
 11
-14408.901991859448
 21
-2397.578512581347
 31
0.0
  0
LINE
  5
1C2
100
AcDbEntity
  8
Frei
  6
CONTINUOUS
 62
           3
100
AcDbLine
 10
-14402.841304169517
 20
-2398.204396097106
 30
0.0
 11
-14402.18284431903
 21
-2397.669203958434
 31
0.0
  0
LINE
  5
1C3
100
AcDbEntity
  8
Frei
  6
CONTINUOUS
 62
           3
100
AcDbLine
 10
-14408.0380858226
 20
-2395.053900460743
 30
0.0
 11
-14391.32695797437
 21
-2396.779648426164
 31
0.0
  0
LINE
  5
1C4
100
AcDbEntity
  8
Frei
  6
CONTINUOUS
 62
           3
100
AcDbLine
 10
-14408.243532008959
 20
-2397.043320442675
 30
0.0
 11
-14402.18284431903
 21
-2397.669203958434
 31
0.0
  0
LINE
  5
1C5
100
AcDbEntity
  8
Frei
  6
CONTINUOUS
 62
           3
100
AcDbLine
 10
-14391.079390496603
 20
-2400.223296251357
 30
0.0
 11
-14391.73785034709
 21
-2400.758488390029
 31
0.0
  0
LINE
  5
1C6
100
AcDbEntity
  8
Frei
  6
CONTINUOUS
 62
           3
100
AcDbLine
 10
-14408.984170333992
 20
-2398.37428057412
 30
0.0
 11
-14403.665751252443
 21
-2398.923510464083
 31
0.0
  0
LINE
  5
1C7
100
AcDbEntity
  8
Frei
  6
CONTINUOUS
 62
           3
100
AcDbLine
 10
-14408.44897819532
 20
-2399.032740424607
 30
0.0
 11
-14408.984170333992
 21
-2398.37428057412
 31
0.0
  0
LINE
  5
1C8
100
AcDbEntity
  8
Frei
  6
CONTINUOUS
 62
           3
100
AcDbLine
 10
-14408.901991859448
 20
-2397.578512581347
 30
0.0
 11
-14408.243532008959
 21
-2397.043320442675
 31
0.0
  0
LINE
  5
1C9
100
AcDbEntity
  8
Frei
  6
CONTINUOUS
 62
           3
100
AcDbLine
 10
-14390.997212022059
 20
-2399.427528258584
 30
0.0
 11
-14397.05789971199
 21
-2398.801644742825
 31
0.0
  0
LINE
  5
1CA
100
AcDbEntity
  8
Frei
  6
CONTINUOUS
 62
           3
100
AcDbLine
 10
-14391.532404160729
 20
-2398.769068408097
 30
0.0
 11
-14390.997212022059
 21
-2399.427528258584
 31
0.0
  0
LINE
  5
1CB
100
AcDbEntity
  8
Frei
  6
CONTINUOUS
 62
           3
100
AcDbLine
 10
-14390.873944310244
 20
-2398.233876269425
 30
0.0
 11
-14391.532404160729
 21
-2398.769068408097
 31
0.0
  0
LINE
  5
1CC
100
AcDbEntity
  8
Frei
  6
CONTINUOUS
 62
           3
100
AcDbLine
 10
-14408.778724147633
 20
-2396.384860592188
 30
0.0
 11
-14402.7180364577
 21
-2397.010744107947
 31
0.0
  0
LINE
  5
1CD
100
AcDbEntity
  8
Frei
  6
CONTINUOUS
 62
           3
100
AcDbLine
 10
-14408.243532008959
 20
-2397.043320442675
 30
0.0
 11
-14408.778724147633
 21
-2396.384860592188
 31
0.0
  0
LINE
  5
1CE
100
AcDbEntity
  8
Frei
  6
CONTINUOUS
 62
           3
100
AcDbLine
 10
-14408.696545673089
 20
-2395.589092599415
 30
0.0
 11
-14408.0380858226
 21
-2395.053900460743
 31
0.0
  0
LINE
  5
1CF
100
AcDbEntity
  8
Frei
  6
CONTINUOUS
 62
           3
100
AcDbLine
 10
-14390.7917658357
 20
-2397.438108276652
 30
0.0
 11
-14408.696545673089
 21
-2395.589092599415
 31
0.0
  0
LINE
  5
1D0
100
AcDbEntity
  8
Frei
  6
CONTINUOUS
 62
           3
100
AcDbLine
 10
-14391.32695797437
 20
-2396.779648426164
 30
0.0
 11
-14390.7917658357
 21
-2397.438108276652
 31
0.0
  0
LINE
  5
1D1
100
AcDbEntity
  8
Frei
  6
CONTINUOUS
 62
           3
100
AcDbLine
 10
-14390.668498123885
 20
-2396.244456287493
 30
0.0
 11
-14391.32695797437
 21
-2396.779648426164
 31
0.0
  0
LINE
  5
1D2
100
AcDbEntity
  8
Frei
  6
CONTINUOUS
 62
           3
100
AcDbLine
 10
-14408.573277961272
 20
-2394.395440610255
 30
0.0
 11
-14390.668498123885
 21
-2396.244456287493
 31
0.0
  0
LINE
  5
1D3
100
AcDbEntity
  8
Frei
  6
CONTINUOUS
 62
           3
100
AcDbLine
 10
-14408.0380858226
 20
-2395.053900460743
 30
0.0
 11
-14408.573277961272
 21
-2394.395440610255
 31
0.0
  0
LINE
  5
1D4
100
AcDbEntity
  8
Frei
  6
CONTINUOUS
 62
           3
100
AcDbLine
 10
-14391.121511788011
 20
-2394.790228444233
 30
0.0
 11
-14407.832639636241
 21
-2393.064480478811
 31
0.0
  0
LINE
  5
1D5
100
AcDbEntity
  8
Frei
  6
CONTINUOUS
 62
           3
100
AcDbLine
 10
-14408.491099486728
 20
-2393.599672617483
 30
0.0
 11
-14407.832639636241
 21
-2393.064480478811
 31
0.0
  0
LINE
  5
1D6
100
AcDbEntity
  8
Frei
  6
CONTINUOUS
 62
           3
100
AcDbLine
 10
-14390.586319649341
 20
-2395.44868829472
 30
0.0
 11
-14408.491099486728
 21
-2393.599672617483
 31
0.0
  0
LINE
  5
1D7
100
AcDbEntity
  8
Frei
  6
CONTINUOUS
 62
           3
100
AcDbLine
 10
-14391.121511788011
 20
-2394.790228444233
 30
0.0
 11
-14390.586319649341
 21
-2395.44868829472
 31
0.0
  0
LINE
  5
1D8
100
AcDbEntity
  8
Frei
  6
CONTINUOUS
 62
           3
100
AcDbLine
 10
-14390.463051937524
 20
-2394.255036305561
 30
0.0
 11
-14391.121511788011
 21
-2394.790228444233
 31
0.0
  0
LINE
  5
1D9
100
AcDbEntity
  8
Frei
  6
CONTINUOUS
 62
           3
100
AcDbLine
 10
-14408.367831774913
 20
-2392.406020628323
 30
0.0
 11
-14390.463051937524
 21
-2394.255036305561
 31
0.0
  0
LINE
  5
1DA
100
AcDbEntity
  8
Frei
  6
CONTINUOUS
 62
           3
100
AcDbLine
 10
-14407.832639636241
 20
-2393.064480478811
 30
0.0
 11
-14408.367831774913
 21
-2392.406020628323
 31
0.0
  0
LINE
  5
1DB
100
AcDbEntity
  8
Frei
  6
CONTINUOUS
 62
           3
100
AcDbLine
 10
-14407.62719344988
 20
-2391.075060496879
 30
0.0
 11
-14390.91606560165
 21
-2392.8008084623
 31
0.0
  0
LINE
  5
1DC
100
AcDbEntity
  8
Frei
  6
CONTINUOUS
 62
           3
100
AcDbLine
 10
-14407.62719344988
 20
-2391.075060496879
 30
0.0
 11
-14408.285653300369
 21
-2391.610252635551
 31
0.0
  0
LINE
  5
1DD
100
AcDbEntity
  8
Frei
  6
CONTINUOUS
 62
           3
100
AcDbLine
 10
-14408.162385588554
 20
-2390.416600646392
 30
0.0
 11
-14407.62719344988
 21
-2391.075060496879
 31
0.0
  0
LINE
  5
1DE
100
AcDbEntity
  8
Frei
  6
CONTINUOUS
 62
           3
100
AcDbLine
 10
-14390.257605751165
 20
-2392.265616323629
 30
0.0
 11
-14408.162385588554
 21
-2390.416600646392
 31
0.0
  0
LINE
  5
1DF
100
AcDbEntity
  8
Frei
  6
CONTINUOUS
 62
           3
100
AcDbLine
 10
-14390.91606560165
 20
-2392.8008084623
 30
0.0
 11
-14390.257605751165
 21
-2392.265616323629
 31
0.0
  0
LINE
  5
1E0
100
AcDbEntity
  8
Frei
  6
CONTINUOUS
 62
           3
100
AcDbLine
 10
-14390.38087346298
 20
-2393.459268312788
 30
0.0
 11
-14390.91606560165
 21
-2392.8008084623
 31
0.0
  0
LINE
  5
1E1
100
AcDbEntity
  8
Frei
  6
CONTINUOUS
 62
           3
100
AcDbLine
 10
-14408.285653300369
 20
-2391.610252635551
 30
0.0
 11
-14390.38087346298
 21
-2393.459268312788
 31
0.0
  0
LINE
  5
1E2
100
AcDbEntity
  8
Frei
  6
CONTINUOUS
 62
           3
100
AcDbLine
 10
-14218.296045025862
 20
-2411.230363432903
 30
0.0
 11
-14200.391265188475
 21
-2413.079379110141
 31
0.0
  0
LINE
  5
1E3
100
AcDbEntity
  8
Frei
  6
CONTINUOUS
 62
           3
100
AcDbLine
 10
-14217.637585175376
 20
-2410.695171294231
 30
0.0
 11
-14218.296045025862
 21
-2411.230363432903
 31
0.0
  0
LINE
  5
1E4
100
AcDbEntity
  8
Frei
  6
CONTINUOUS
 62
           3
100
AcDbLine
 10
-14218.172777314046
 20
-2410.036711443744
 30
0.0
 11
-14217.637585175376
 21
-2410.695171294231
 31
0.0
  0
LINE
  5
1E5
100
AcDbEntity
  8
Frei
  6
CONTINUOUS
 62
           3
100
AcDbLine
 10
-14200.267997476658
 20
-2411.885727120981
 30
0.0
 11
-14218.172777314046
 21
-2410.036711443744
 31
0.0
  0
LINE
  5
1E6
100
AcDbEntity
  8
Frei
  6
CONTINUOUS
 62
           3
100
AcDbLine
 10
-14200.926457327147
 20
-2412.420919259652
 30
0.0
 11
-14200.267997476658
 21
-2411.885727120981
 31
0.0
  0
LINE
  5
1E7
100
AcDbEntity
  8
Frei
  6
CONTINUOUS
 62
           3
100
AcDbLine
 10
-14200.391265188475
 20
-2413.079379110141
 30
0.0
 11
-14200.926457327147
 21
-2412.420919259652
 31
0.0
  0
LINE
  5
1E8
100
AcDbEntity
  8
Frei
  6
CONTINUOUS
 62
           3
100
AcDbLine
 10
-14217.637585175376
 20
-2410.695171294231
 30
0.0
 11
-14200.926457327147
 21
-2412.420919259652
 31
0.0
  0
LINE
  5
1E9
100
AcDbEntity
  8
Frei
  6
CONTINUOUS
 62
           3
100
AcDbLine
 10
-14200.473443663019
 20
-2413.875147102913
 30
0.0
 11
-14201.131903513506
 21
-2414.410339241585
 31
0.0
  0
LINE
  5
1EA
100
AcDbEntity
  8
Frei
  6
CONTINUOUS
 62
           3
100
AcDbLine
 10
-14218.378223500406
 20
-2412.026131425676
 30
0.0
 11
-14200.473443663019
 21
-2413.875147102913
 31
0.0
  0
LINE
  5
1EB
100
AcDbEntity
  8
Frei
  6
CONTINUOUS
 62
           3
100
AcDbLine
 10
-14217.843031361735
 20
-2412.684591276163
 30
0.0
 11
-14218.378223500406
 21
-2412.026131425676
 31
0.0
  0
LINE
  5
1EC
100
AcDbEntity
  8
Frei
  6
CONTINUOUS
 62
           3
100
AcDbLine
 10
-14218.501491212222
 20
-2413.219783414835
 30
0.0
 11
-14217.843031361735
 21
-2412.684591276163
 31
0.0
  0
LINE
  5
1ED
100
AcDbEntity
  8
Frei
  6
CONTINUOUS
 62
           3
100
AcDbLine
 10
-14200.596711374834
 20
-2415.068799092072
 30
0.0
 11
-14218.501491212222
 21
-2413.219783414835
 31
0.0
  0
LINE
  5
1EE
100
AcDbEntity
  8
Frei
  6
CONTINUOUS
 62
           3
100
AcDbLine
 10
-14201.131903513506
 20
-2414.410339241585
 30
0.0
 11
-14200.596711374834
 21
-2415.068799092072
 31
0.0
  0
LINE
  5
1EF
100
AcDbEntity
  8
Frei
  6
CONTINUOUS
 62
           3
100
AcDbLine
 10
-14201.131903513506
 20
-2414.410339241585
 30
0.0
 11
-14217.843031361735
 21
-2412.684591276163
 31
0.0
  0
LINE
  5
1F0
100
AcDbEntity
  8
Frei
  6
CONTINUOUS
 62
           3
100
AcDbLine
 10
-14200.678889849378
 20
-2415.864567084845
 30
0.0
 11
-14201.337349699867
 21
-2416.399759223516
 31
0.0
  0
LINE
  5
1F1
100
AcDbEntity
  8
Frei
  6
CONTINUOUS
 62
           3
100
AcDbLine
 10
-14218.583669686766
 20
-2414.015551407608
 30
0.0
 11
-14200.678889849378
 21
-2415.864567084845
 31
0.0
  0
LINE
  5
1F2
100
AcDbEntity
  8
Frei
  6
CONTINUOUS
 62
           3
100
AcDbLine
 10
-14218.048477548096
 20
-2414.674011258095
 30
0.0
 11
-14218.583669686766
 21
-2414.015551407608
 31
0.0
  0
LINE
  5
1F3
100
AcDbEntity
  8
Frei
  6
CONTINUOUS
 62
           3
100
AcDbLine
 10
-14218.706937398581
 20
-2415.209203396767
 30
0.0
 11
-14218.048477548096
 21
-2414.674011258095
 31
0.0
  0
LINE
  5
1F4
100
AcDbEntity
  8
Frei
  6
CONTINUOUS
 62
           3
100
AcDbLine
 10
-14200.802157561195
 20
-2417.058219074005
 30
0.0
 11
-14218.706937398581
 21
-2415.209203396767
 31
0.0
  0
LINE
  5
1F5
100
AcDbEntity
  8
Frei
  6
CONTINUOUS
 62
           3
100
AcDbLine
 10
-14201.337349699867
 20
-2416.399759223516
 30
0.0
 11
-14200.802157561195
 21
-2417.058219074005
 31
0.0
  0
LINE
  5
1F6
100
AcDbEntity
  8
Frei
  6
CONTINUOUS
 62
           3
100
AcDbLine
 10
-14200.884336035739
 20
-2417.853987066777
 30
0.0
 11
-14201.542795886226
 21
-2418.389179205449
 31
0.0
  0
LINE
  5
1F7
100
AcDbEntity
  8
Frei
  6
CONTINUOUS
 62
           3
100
AcDbLine
 10
-14206.94502372567
 20
-2417.228103551018
 30
0.0
 11
-14200.884336035739
 21
-2417.853987066777
 31
0.0
  0
LINE
  5
1F8
100
AcDbEntity
  8
Frei
  6
CONTINUOUS
 62
           3
100
AcDbLine
 10
-14218.253923734455
 20
-2416.663431240027
 30
0.0
 11
-14218.789115873125
 21
-2416.00497138954
 31
0.0
  0
LINE
  5
1F9
100
AcDbEntity
  8
Frei
  6
CONTINUOUS
 62
           3
100
AcDbLine
 10
-14218.912383584942
 20
-2417.198623378699
 30
0.0
 11
-14218.253923734455
 21
-2416.663431240027
 31
0.0
  0
LINE
  5
1FA
100
AcDbEntity
  8
Frei
  6
CONTINUOUS
 62
           3
100
AcDbLine
 10
-14212.851695895011
 20
-2417.824506894458
 30
0.0
 11
-14218.912383584942
 21
-2417.198623378699
 31
0.0
  0
LINE
  5
1FB
100
AcDbEntity
  8
Frei
  6
CONTINUOUS
 62
           3
100
AcDbLine
 10
-14201.542795886226
 20
-2418.389179205449
 30
0.0
 11
-14201.007603747554
 21
-2419.047639055937
 31
0.0
  0
LINE
  5
1FC
100
AcDbEntity
  8
Frei
  6
CONTINUOUS
 62
           3
100
AcDbLine
 10
-14201.089782222098
 20
-2419.84340704871
 30
0.0
 11
-14201.748242072585
 21
-2420.378599187381
 31
0.0
  0
LINE
  5
1FD
100
AcDbEntity
  8
Frei
  6
CONTINUOUS
 62
           3
100
AcDbLine
 10
-14206.408201303646
 20
-2419.294177158746
 30
0.0
 11
-14201.089782222098
 21
-2419.84340704871
 31
0.0
  0
LINE
  5
1FE
100
AcDbEntity
  8
Frei
  6
CONTINUOUS
 62
           3
100
AcDbLine
 10
-14218.459369920814
 20
-2418.652851221959
 30
0.0
 11
-14218.994562059486
 21
-2417.994391371472
 31
0.0
  0
LINE
  5
1FF
100
AcDbEntity
  8
Frei
  6
CONTINUOUS
 62
           3
100
AcDbLine
 10
-14207.603483576155
 20
-2417.763295689689
 30
0.0
 11
-14201.542795886226
 21
-2418.389179205449
 31
0.0
  0
LINE
  5
200
100
AcDbEntity
  8
Frei
  6
CONTINUOUS
 62
           3
100
AcDbLine
 10
-14218.048477548096
 20
-2414.674011258095
 30
0.0
 11
-14201.337349699867
 21
-2416.399759223516
 31
0.0
  0
LINE
  5
201
100
AcDbEntity
  8
Frei
  6
CONTINUOUS
 62
           3
100
AcDbLine
 10
-14207.603483576155
 20
-2417.763295689689
 30
0.0
 11
-14207.068291437485
 21
-2418.421755540177
 31
0.0
  0
LINE
  5
202
100
AcDbEntity
  8
Frei
  6
CONTINUOUS
 62
           3
100
AcDbLine
 10
-14201.007603747554
 20
-2419.047639055937
 30
0.0
 11
-14207.068291437485
 21
-2418.421755540177
 31
0.0
  0
LINE
  5
203
100
AcDbEntity
  8
Frei
  6
CONTINUOUS
 62
           3
100
AcDbLine
 10
-14206.94502372567
 20
-2417.228103551018
 30
0.0
 11
-14207.603483576155
 21
-2417.763295689689
 31
0.0
  0
LINE
  5
204
100
AcDbEntity
  8
Frei
  6
CONTINUOUS
 62
           3
100
AcDbLine
 10
-14207.066661154133
 20
-2419.829369297417
 30
0.0
 11
-14206.408201303646
 21
-2419.294177158746
 31
0.0
  0
LINE
  5
205
100
AcDbEntity
  8
Frei
  6
CONTINUOUS
 62
           3
100
AcDbLine
 10
-14213.67614297794
 20
-2418.543621261435
 30
0.0
 11
-14213.140950839268
 21
-2419.202081111921
 31
0.0
  0
LINE
  5
206
100
AcDbEntity
  8
Frei
  6
CONTINUOUS
 62
           3
100
AcDbLine
 10
-14218.994562059486
 20
-2417.994391371472
 30
0.0
 11
-14213.67614297794
 21
-2418.543621261435
 31
0.0
  0
LINE
  5
207
100
AcDbEntity
  8
Frei
  6
CONTINUOUS
 62
           3
100
AcDbLine
 10
-14212.193236044524
 20
-2417.289314755786
 30
0.0
 11
-14212.851695895011
 21
-2417.824506894458
 31
0.0
  0
LINE
  5
208
100
AcDbEntity
  8
Frei
  6
CONTINUOUS
 62
           3
100
AcDbLine
 10
-14218.253923734455
 20
-2416.663431240027
 30
0.0
 11
-14212.193236044524
 21
-2417.289314755786
 31
0.0
  0
LINE
  5
209
100
AcDbEntity
  8
Frei
  6
CONTINUOUS
 62
           3
100
AcDbLine
 10
-14212.728428183196
 20
-2416.630854905299
 30
0.0
 11
-14212.193236044524
 21
-2417.289314755786
 31
0.0
  0
LINE
  5
20A
100
AcDbEntity
  8
Frei
  6
CONTINUOUS
 62
           3
100
AcDbLine
 10
-14218.789115873125
 20
-2416.00497138954
 30
0.0
 11
-14212.728428183196
 21
-2416.630854905299
 31
0.0
  0
LINE
  5
20B
100
AcDbEntity
  8
Frei
  6
CONTINUOUS
 62
           3
100
AcDbLine
 10
-14201.007603747554
 20
-2419.047639055937
 30
0.0
 11
-14200.884336035739
 21
-2417.853987066777
 31
0.0
  0
LINE
  5
20C
100
AcDbEntity
  8
Frei
  6
CONTINUOUS
 62
           3
100
AcDbLine
 10
-14200.678889849378
 20
-2415.864567084845
 30
0.0
 11
-14200.802157561195
 21
-2417.058219074005
 31
0.0
  0
LINE
  5
20D
100
AcDbEntity
  8
Frei
  6
CONTINUOUS
 62
           3
100
AcDbLine
 10
-14200.473443663019
 20
-2413.875147102913
 30
0.0
 11
-14200.596711374834
 21
-2415.068799092072
 31
0.0
  0
LINE
  5
20E
100
AcDbEntity
  8
Frei
  6
CONTINUOUS
 62
           3
100
AcDbLine
 10
-14200.267997476658
 20
-2411.885727120981
 30
0.0
 11
-14200.391265188475
 21
-2413.079379110141
 31
0.0
  0
LINE
  5
20F
100
AcDbEntity
  8
Frei
  6
CONTINUOUS
 62
           3
100
AcDbLine
 10
-14201.151416078006
 20
-2420.440233043288
 30
0.0
 11
-14201.089782222098
 21
-2419.84340704871
 31
0.0
  0
LINE
  5
210
100
AcDbEntity
  8
Frei
  6
CONTINUOUS
 62
           3
100
AcDbLine
 10
-14218.994562059486
 20
-2417.994391371472
 30
0.0
 11
-14219.056195915393
 21
-2418.591217366051
 31
0.0
  0
LINE
  5
211
100
AcDbEntity
  8
Frei
  6
CONTINUOUS
 62
           3
100
AcDbLine
 10
-14218.789115873125
 20
-2416.00497138954
 30
0.0
 11
-14218.912383584942
 21
-2417.198623378699
 31
0.0
  0
LINE
  5
212
100
AcDbEntity
  8
Frei
  6
CONTINUOUS
 62
           3
100
AcDbLine
 10
-14218.583669686766
 20
-2414.015551407608
 30
0.0
 11
-14218.706937398581
 21
-2415.209203396767
 31
0.0
  0
LINE
  5
213
100
AcDbEntity
  8
Frei
  6
CONTINUOUS
 62
           3
100
AcDbLine
 10
-14218.378223500406
 20
-2412.026131425676
 30
0.0
 11
-14218.501491212222
 21
-2413.219783414835
 31
0.0
  0
LINE
  5
214
100
AcDbEntity
  8
Frei
  6
CONTINUOUS
 62
           3
100
AcDbLine
 10
-14218.172777314046
 20
-2410.036711443744
 30
0.0
 11
-14218.296045025862
 21
-2411.230363432903
 31
0.0
  0
LINE
  5
215
100
AcDbEntity
  8
Frei
  6
CONTINUOUS
 62
           3
100
AcDbLine
 10
-14219.816346804924
 20
-2425.9520712992
 30
0.0
 11
-14219.939614516739
 21
-2427.145723288359
 31
0.0
  0
LINE
  5
216
100
AcDbEntity
  8
Frei
  6
CONTINUOUS
 62
           3
100
AcDbLine
 10
-14219.610900618565
 20
-2423.962651317268
 30
0.0
 11
-14219.73416833038
 21
-2425.156303306427
 31
0.0
  0
LINE
  5
217
100
AcDbEntity
  8
Frei
  6
CONTINUOUS
 62
           3
100
AcDbLine
 10
-14219.405454432204
 20
-2421.973231335336
 30
0.0
 11
-14219.528722144021
 21
-2423.166883324495
 31
0.0
  0
LINE
  5
218
100
AcDbEntity
  8
Frei
  6
CONTINUOUS
 62
           3
100
AcDbLine
 10
-14219.200008245845
 20
-2419.983811353404
 30
0.0
 11
-14219.32327595766
 21
-2421.177463342563
 31
0.0
  0
LINE
  5
219
100
AcDbEntity
  8
Frei
  6
CONTINUOUS
 62
           3
100
AcDbLine
 10
-14219.056195915393
 20
-2418.591217366051
 30
0.0
 11
-14219.117829771301
 21
-2419.188043360631
 31
0.0
  0
LINE
  5
21A
100
AcDbEntity
  8
Frei
  6
CONTINUOUS
 62
           3
100
AcDbLine
 10
-14201.213049933913
 20
-2421.037059037868
 30
0.0
 11
-14201.151416078006
 21
-2420.440233043288
 31
0.0
  0
LINE
  5
21B
100
AcDbEntity
  8
Frei
  6
CONTINUOUS
 62
           3
100
AcDbLine
 10
-14201.911566967536
 20
-2427.801086976437
 30
0.0
 11
-14202.034834679353
 21
-2428.994738965596
 31
0.0
  0
LINE
  5
21C
100
AcDbEntity
  8
Frei
  6
CONTINUOUS
 62
           3
100
AcDbLine
 10
-14201.706120781177
 20
-2425.811666994505
 30
0.0
 11
-14201.829388492992
 21
-2427.005318983664
 31
0.0
  0
LINE
  5
21D
100
AcDbEntity
  8
Frei
  6
CONTINUOUS
 62
           3
100
AcDbLine
 10
-14201.500674594818
 20
-2423.822247012573
 30
0.0
 11
-14201.623942306633
 21
-2425.015899001732
 31
0.0
  0
LINE
  5
21E
100
AcDbEntity
  8
Frei
  6
CONTINUOUS
 62
           3
100
AcDbLine
 10
-14201.418496120274
 20
-2423.0264790198
 30
0.0
 11
-14201.295228408457
 21
-2421.832827030642
 31
0.0
  0
LINE
  5
21F
100
AcDbEntity
  8
Frei
  6
CONTINUOUS
 62
           3
100
AcDbLine
 10
-14213.262588267731
 20
-2421.803346858322
 30
0.0
 11
-14219.32327595766
 21
-2421.177463342563
 31
0.0
  0
LINE
  5
220
100
AcDbEntity
  8
Frei
  6
CONTINUOUS
 62
           3
100
AcDbLine
 10
-14212.604128417244
 20
-2421.26815471965
 30
0.0
 11
-14213.262588267731
 21
-2421.803346858322
 31
0.0
  0
LINE
  5
221
100
AcDbEntity
  8
Frei
  6
CONTINUOUS
 62
           3
100
AcDbLine
 10
-14212.604128417244
 20
-2421.26815471965
 30
0.0
 11
-14218.664816107175
 21
-2420.642271203891
 31
0.0
  0
LINE
  5
222
100
AcDbEntity
  8
Frei
  6
CONTINUOUS
 62
           3
100
AcDbLine
 10
-14213.139320555916
 20
-2420.609694869163
 30
0.0
 11
-14212.604128417244
 21
-2421.26815471965
 31
0.0
  0
LINE
  5
223
100
AcDbEntity
  8
Frei
  6
CONTINUOUS
 62
           3
100
AcDbLine
 10
-14213.799410689755
 20
-2419.737273250594
 30
0.0
 11
-14219.117829771301
 21
-2419.188043360631
 31
0.0
  0
LINE
  5
224
100
AcDbEntity
  8
Frei
  6
CONTINUOUS
 62
           3
100
AcDbLine
 10
-14213.140950839268
 20
-2419.202081111921
 30
0.0
 11
-14213.799410689755
 21
-2419.737273250594
 31
0.0
  0
LINE
  5
225
100
AcDbEntity
  8
Frei
  6
CONTINUOUS
 62
           3
100
AcDbLine
 10
-14207.066661154133
 20
-2419.829369297417
 30
0.0
 11
-14201.748242072585
 21
-2420.378599187381
 31
0.0
  0
LINE
  5
226
100
AcDbEntity
  8
Frei
  6
CONTINUOUS
 62
           3
100
AcDbLine
 10
-14206.531469015461
 20
-2420.487829147905
 30
0.0
 11
-14207.066661154133
 21
-2419.829369297417
 31
0.0
  0
LINE
  5
227
100
AcDbEntity
  8
Frei
  6
CONTINUOUS
 62
           3
100
AcDbLine
 10
-14208.014375948875
 20
-2421.742135653553
 30
0.0
 11
-14207.479183810205
 21
-2422.400595504041
 31
0.0
  0
LINE
  5
228
100
AcDbEntity
  8
Frei
  6
CONTINUOUS
 62
           3
100
AcDbLine
 10
-14207.35591609839
 20
-2421.206943514882
 30
0.0
 11
-14201.295228408457
 21
-2421.832827030642
 31
0.0
  0
LINE
  5
229
100
AcDbEntity
  8
Frei
  6
CONTINUOUS
 62
           3
100
AcDbLine
 10
-14207.35591609839
 20
-2421.206943514882
 30
0.0
 11
-14208.014375948875
 21
-2421.742135653553
 31
0.0
  0
LINE
  5
22A
100
AcDbEntity
  8
Frei
  6
CONTINUOUS
 62
           3
100
AcDbLine
 10
-14202.159134445305
 20
-2424.357439151244
 30
0.0
 11
-14218.870262293534
 21
-2422.631691185823
 31
0.0
  0
LINE
  5
22B
100
AcDbEntity
  8
Frei
  6
CONTINUOUS
 62
           3
100
AcDbLine
 10
-14201.953688258945
 20
-2422.368019169312
 30
0.0
 11
-14208.014375948875
 21
-2421.742135653553
 31
0.0
  0
LINE
  5
22C
100
AcDbEntity
  8
Frei
  6
CONTINUOUS
 62
           3
100
AcDbLine
 10
-14218.459369920814
 20
-2418.652851221959
 30
0.0
 11
-14213.140950839268
 21
-2419.202081111921
 31
0.0
  0
LINE
  5
22D
100
AcDbEntity
  8
Frei
  6
CONTINUOUS
 62
           3
100
AcDbLine
 10
-14219.117829771301
 20
-2419.188043360631
 30
0.0
 11
-14218.459369920814
 21
-2418.652851221959
 31
0.0
  0
LINE
  5
22E
100
AcDbEntity
  8
Frei
  6
CONTINUOUS
 62
           3
100
AcDbLine
 10
-14201.213049933913
 20
-2421.037059037868
 30
0.0
 11
-14206.531469015461
 21
-2420.487829147905
 31
0.0
  0
LINE
  5
22F
100
AcDbEntity
  8
Frei
  6
CONTINUOUS
 62
           3
100
AcDbLine
 10
-14201.748242072585
 20
-2420.378599187381
 30
0.0
 11
-14201.213049933913
 21
-2421.037059037868
 31
0.0
  0
LINE
  5
230
100
AcDbEntity
  8
Frei
  6
CONTINUOUS
 62
           3
100
AcDbLine
 10
-14201.295228408457
 20
-2421.832827030642
 30
0.0
 11
-14201.953688258945
 21
-2422.368019169312
 31
0.0
  0
LINE
  5
231
100
AcDbEntity
  8
Frei
  6
CONTINUOUS
 62
           3
100
AcDbLine
 10
-14219.200008245845
 20
-2419.983811353404
 30
0.0
 11
-14213.139320555916
 21
-2420.609694869163
 31
0.0
  0
LINE
  5
232
100
AcDbEntity
  8
Frei
  6
CONTINUOUS
 62
           3
100
AcDbLine
 10
-14218.664816107175
 20
-2420.642271203891
 30
0.0
 11
-14219.200008245845
 21
-2419.983811353404
 31
0.0
  0
LINE
  5
233
100
AcDbEntity
  8
Frei
  6
CONTINUOUS
 62
           3
100
AcDbLine
 10
-14219.32327595766
 20
-2421.177463342563
 30
0.0
 11
-14218.664816107175
 21
-2420.642271203891
 31
0.0
  0
LINE
  5
234
100
AcDbEntity
  8
Frei
  6
CONTINUOUS
 62
           3
100
AcDbLine
 10
-14201.418496120274
 20
-2423.0264790198
 30
0.0
 11
-14207.479183810205
 21
-2422.400595504041
 31
0.0
  0
LINE
  5
235
100
AcDbEntity
  8
Frei
  6
CONTINUOUS
 62
           3
100
AcDbLine
 10
-14201.953688258945
 20
-2422.368019169312
 30
0.0
 11
-14201.418496120274
 21
-2423.0264790198
 31
0.0
  0
LINE
  5
236
100
AcDbEntity
  8
Frei
  6
CONTINUOUS
 62
           3
100
AcDbLine
 10
-14201.500674594818
 20
-2423.822247012573
 30
0.0
 11
-14202.159134445305
 21
-2424.357439151244
 31
0.0
  0
LINE
  5
237
100
AcDbEntity
  8
Frei
  6
CONTINUOUS
 62
           3
100
AcDbLine
 10
-14219.405454432204
 20
-2421.973231335336
 30
0.0
 11
-14201.500674594818
 21
-2423.822247012573
 31
0.0
  0
LINE
  5
238
100
AcDbEntity
  8
Frei
  6
CONTINUOUS
 62
           3
100
AcDbLine
 10
-14218.870262293534
 20
-2422.631691185823
 30
0.0
 11
-14219.405454432204
 21
-2421.973231335336
 31
0.0
  0
LINE
  5
239
100
AcDbEntity
  8
Frei
  6
CONTINUOUS
 62
           3
100
AcDbLine
 10
-14219.528722144021
 20
-2423.166883324495
 30
0.0
 11
-14218.870262293534
 21
-2422.631691185823
 31
0.0
  0
LINE
  5
23A
100
AcDbEntity
  8
Frei
  6
CONTINUOUS
 62
           3
100
AcDbLine
 10
-14201.623942306633
 20
-2425.015899001732
 30
0.0
 11
-14219.528722144021
 21
-2423.166883324495
 31
0.0
  0
LINE
  5
23B
100
AcDbEntity
  8
Frei
  6
CONTINUOUS
 62
           3
100
AcDbLine
 10
-14202.159134445305
 20
-2424.357439151244
 30
0.0
 11
-14201.623942306633
 21
-2425.015899001732
 31
0.0
  0
LINE
  5
23C
100
AcDbEntity
  8
Frei
  6
CONTINUOUS
 62
           3
100
AcDbLine
 10
-14219.075708479893
 20
-2424.621111167754
 30
0.0
 11
-14202.364580631665
 21
-2426.346859133176
 31
0.0
  0
LINE
  5
23D
100
AcDbEntity
  8
Frei
  6
CONTINUOUS
 62
           3
100
AcDbLine
 10
-14201.706120781177
 20
-2425.811666994505
 30
0.0
 11
-14202.364580631665
 21
-2426.346859133176
 31
0.0
  0
LINE
  5
23E
100
AcDbEntity
  8
Frei
  6
CONTINUOUS
 62
           3
100
AcDbLine
 10
-14219.610900618565
 20
-2423.962651317268
 30
0.0
 11
-14201.706120781177
 21
-2425.811666994505
 31
0.0
  0
LINE
  5
23F
100
AcDbEntity
  8
Frei
  6
CONTINUOUS
 62
           3
100
AcDbLine
 10
-14219.075708479893
 20
-2424.621111167754
 30
0.0
 11
-14219.610900618565
 21
-2423.962651317268
 31
0.0
  0
LINE
  5
240
100
AcDbEntity
  8
Frei
  6
CONTINUOUS
 62
           3
100
AcDbLine
 10
-14219.73416833038
 20
-2425.156303306427
 30
0.0
 11
-14219.075708479893
 21
-2424.621111167754
 31
0.0
  0
LINE
  5
241
100
AcDbEntity
  8
Frei
  6
CONTINUOUS
 62
           3
100
AcDbLine
 10
-14201.829388492992
 20
-2427.005318983664
 30
0.0
 11
-14219.73416833038
 21
-2425.156303306427
 31
0.0
  0
LINE
  5
242
100
AcDbEntity
  8
Frei
  6
CONTINUOUS
 62
           3
100
AcDbLine
 10
-14202.364580631665
 20
-2426.346859133176
 30
0.0
 11
-14201.829388492992
 21
-2427.005318983664
 31
0.0
  0
LINE
  5
243
100
AcDbEntity
  8
Frei
  6
CONTINUOUS
 62
           3
100
AcDbLine
 10
-14202.570026818024
 20
-2428.336279115108
 30
0.0
 11
-14219.281154666254
 21
-2426.610531149686
 31
0.0
  0
LINE
  5
244
100
AcDbEntity
  8
Frei
  6
CONTINUOUS
 62
           3
100
AcDbLine
 10
-14202.570026818024
 20
-2428.336279115108
 30
0.0
 11
-14201.911566967536
 21
-2427.801086976437
 31
0.0
  0
LINE
  5
245
100
AcDbEntity
  8
Frei
  6
CONTINUOUS
 62
           3
100
AcDbLine
 10
-14202.034834679353
 20
-2428.994738965596
 30
0.0
 11
-14202.570026818024
 21
-2428.336279115108
 31
0.0
  0
LINE
  5
246
100
AcDbEntity
  8
Frei
  6
CONTINUOUS
 62
           3
100
AcDbLine
 10
-14219.939614516739
 20
-2427.145723288359
 30
0.0
 11
-14202.034834679353
 21
-2428.994738965596
 31
0.0
  0
LINE
  5
247
100
AcDbEntity
  8
Frei
  6
CONTINUOUS
 62
           3
100
AcDbLine
 10
-14219.281154666254
 20
-2426.610531149686
 30
0.0
 11
-14219.939614516739
 21
-2427.145723288359
 31
0.0
  0
LINE
  5
248
100
AcDbEntity
  8
Frei
  6
CONTINUOUS
 62
           3
100
AcDbLine
 10
-14219.816346804924
 20
-2425.9520712992
 30
0.0
 11
-14219.281154666254
 21
-2426.610531149686
 31
0.0
  0
LINE
  5
249
100
AcDbEntity
  8
Frei
  6
CONTINUOUS
 62
           3
100
AcDbLine
 10
-14201.911566967536
 20
-2427.801086976437
 30
0.0
 11
-14219.816346804924
 21
-2425.9520712992
 31
0.0
  0
LINE
  5
24A
100
AcDbEntity
  8
Frei
  6
CONTINUOUS
 62
           7
100
AcDbLine
 10
-14176.291111071672
 20
-2435.190793221047
 30
0.0
 11
-14175.673632893586
 21
-2436.570924473022
 31
0.0
  0
LINE
  5
24B
100
AcDbEntity
  8
Frei
  6
CONTINUOUS
 62
           7
100
AcDbLine
 10
-14176.291111071672
 20
-2435.190793221047
 30
0.0
 11
-14180.512677119597
 21
-2434.754834673889
 31
0.0
  0
LINE
  5
24C
100
AcDbEntity
  8
Frei
  6
CONTINUOUS
 62
           7
100
AcDbLine
 10
-14175.270115707131
 20
-2432.663501473322
 30
0.0
 11
-14176.291111071672
 21
-2435.190793221047
 31
0.0
  0
LINE
  5
24D
100
AcDbEntity
  8
Frei
  6
CONTINUOUS
 62
           7
100
AcDbLine
 10
-14175.342195783682
 20
-2426.00205592425
 30
0.0
 11
-14174.859223334413
 21
-2428.684661509457
 31
0.0
  0
LINE
  5
24E
100
AcDbEntity
  8
Frei
  6
CONTINUOUS
 62
           7
100
AcDbLine
 10
-14175.342195783682
 20
-2426.00205592425
 30
0.0
 11
-14179.563761831607
 21
-2425.566097377091
 31
0.0
  0
LINE
  5
24F
100
AcDbEntity
  8
Frei
  6
CONTINUOUS
 62
           7
100
AcDbLine
 10
-14174.455706147959
 20
-2424.777238509757
 30
0.0
 11
-14175.342195783682
 21
-2426.00205592425
 31
0.0
  0
LINE
  5
250
100
AcDbEntity
  8
Frei
  6
CONTINUOUS
 62
           7
100
AcDbLine
 10
-14175.879079079945
 20
-2438.560344454954
 30
0.0
 11
-14176.765568715668
 21
-2439.785161869446
 31
0.0
  0
LINE
  5
251
100
AcDbEntity
  8
Frei
  6
CONTINUOUS
 62
           7
100
AcDbLine
 10
-14174.867738139688
 20
-2421.407687275852
 30
0.0
 11
-14179.089304187613
 21
-2420.971728728694
 31
0.0
  0
LINE
  5
252
100
AcDbEntity
  8
Frei
  6
CONTINUOUS
 62
           7
100
AcDbLine
 10
-14174.867738139688
 20
-2421.407687275852
 30
0.0
 11
-14174.2502599616
 21
-2422.787818527826
 31
0.0
  0
LINE
  5
253
100
AcDbEntity
  8
Frei
  6
CONTINUOUS
 62
           7
100
AcDbLine
 10
-14180.852629034775
 20
-2438.046728989054
 30
0.0
 11
-14180.987134763593
 21
-2439.349203322288
 31
0.0
  0
LINE
  5
254
100
AcDbEntity
  8
Frei
  6
CONTINUOUS
 62
           7
100
AcDbLine
 10
-14175.879079079945
 20
-2438.560344454954
 30
0.0
 11
-14175.673632893586
 21
-2436.570924473022
 31
0.0
  0
LINE
  5
255
100
AcDbEntity
  8
Frei
  6
CONTINUOUS
 62
           7
100
AcDbLine
 10
-14175.879079079945
 20
-2438.560344454954
 30
0.0
 11
-14180.852629034775
 21
-2438.046728989054
 31
0.0
  0
LINE
  5
256
100
AcDbEntity
  8
Frei
  6
CONTINUOUS
 62
           7
100
AcDbLine
 10
-14180.647182848415
 20
-2436.057309007123
 30
0.0
 11
-14180.852629034775
 21
-2438.046728989054
 31
0.0
  0
LINE
  5
257
100
AcDbEntity
  8
Frei
  6
CONTINUOUS
 62
           7
100
AcDbLine
 10
-14175.673632893586
 20
-2436.570924473022
 30
0.0
 11
-14175.270115707131
 21
-2432.663501473322
 31
0.0
  0
LINE
  5
258
100
AcDbEntity
  8
Frei
  6
CONTINUOUS
 62
           7
100
AcDbLine
 10
-14175.673632893586
 20
-2436.570924473022
 30
0.0
 11
-14180.647182848415
 21
-2436.057309007123
 31
0.0
  0
LINE
  5
259
100
AcDbEntity
  8
Frei
  6
CONTINUOUS
 62
           7
100
AcDbLine
 10
-14180.512677119597
 20
-2434.754834673889
 30
0.0
 11
-14180.647182848415
 21
-2436.057309007123
 31
0.0
  0
LINE
  5
25A
100
AcDbEntity
  8
Frei
  6
CONTINUOUS
 62
           7
100
AcDbLine
 10
-14180.243665661963
 20
-2432.149886007422
 30
0.0
 11
-14180.512677119597
 21
-2434.754834673889
 31
0.0
  0
LINE
  5
25B
100
AcDbEntity
  8
Frei
  6
CONTINUOUS
 62
           7
100
AcDbLine
 10
-14175.270115707131
 20
-2432.663501473322
 30
0.0
 11
-14174.859223334413
 21
-2428.684661509457
 31
0.0
  0
LINE
  5
25C
100
AcDbEntity
  8
Frei
  6
CONTINUOUS
 62
           7
100
AcDbLine
 10
-14175.270115707131
 20
-2432.663501473322
 30
0.0
 11
-14180.243665661963
 21
-2432.149886007422
 31
0.0
  0
LINE
  5
25D
100
AcDbEntity
  8
Frei
  6
CONTINUOUS
 62
           7
100
AcDbLine
 10
-14179.832773289243
 20
-2428.171046043558
 30
0.0
 11
-14180.243665661963
 21
-2432.149886007422
 31
0.0
  0
LINE
  5
25E
100
AcDbEntity
  8
Frei
  6
CONTINUOUS
 62
           7
100
AcDbLine
 10
-14174.859223334413
 20
-2428.684661509457
 30
0.0
 11
-14174.455706147959
 21
-2424.777238509757
 31
0.0
  0
LINE
  5
25F
100
AcDbEntity
  8
Frei
  6
CONTINUOUS
 62
           7
100
AcDbLine
 10
-14174.859223334413
 20
-2428.684661509457
 30
0.0
 11
-14179.832773289243
 21
-2428.171046043558
 31
0.0
  0
LINE
  5
260
100
AcDbEntity
  8
Frei
  6
CONTINUOUS
 62
           7
100
AcDbLine
 10
-14179.563761831607
 20
-2425.566097377091
 30
0.0
 11
-14179.832773289243
 21
-2428.171046043558
 31
0.0
  0
LINE
  5
261
100
AcDbEntity
  8
Frei
  6
CONTINUOUS
 62
           7
100
AcDbLine
 10
-14179.429256102791
 20
-2424.263623043858
 30
0.0
 11
-14179.563761831607
 21
-2425.566097377091
 31
0.0
  0
LINE
  5
262
100
AcDbEntity
  8
Frei
  6
CONTINUOUS
 62
           7
100
AcDbLine
 10
-14174.455706147959
 20
-2424.777238509757
 30
0.0
 11
-14174.2502599616
 21
-2422.787818527826
 31
0.0
  0
LINE
  5
263
100
AcDbEntity
  8
Frei
  6
CONTINUOUS
 62
           7
100
AcDbLine
 10
-14174.455706147959
 20
-2424.777238509757
 30
0.0
 11
-14179.429256102791
 21
-2424.263623043858
 31
0.0
  0
LINE
  5
264
100
AcDbEntity
  8
Frei
  6
CONTINUOUS
 62
           7
100
AcDbLine
 10
-14179.22380991643
 20
-2422.274203061926
 30
0.0
 11
-14179.429256102791
 21
-2424.263623043858
 31
0.0
  0
LINE
  5
265
100
AcDbEntity
  8
Frei
  6
CONTINUOUS
 62
           7
100
AcDbLine
 10
-14179.22380991643
 20
-2422.274203061926
 30
0.0
 11
-14174.2502599616
 21
-2422.787818527826
 31
0.0
  0
LINE
  5
266
100
AcDbEntity
  8
Frei
  6
CONTINUOUS
 62
           7
100
AcDbLine
 10
-14180.987134763593
 20
-2439.349203322288
 30
0.0
 11
-14176.765568715668
 21
-2439.785161869446
 31
0.0
  0
LINE
  5
267
100
AcDbEntity
  8
Frei
  6
CONTINUOUS
 62
           7
100
AcDbLine
 10
-14179.089304187613
 20
-2420.971728728694
 30
0.0
 11
-14179.22380991643
 21
-2422.274203061926
 31
0.0
  0
LINE
  5
268
100
AcDbEntity
  8
Frei
  6
CONTINUOUS
 62
           7
100
AcDbLine
 10
-14222.732026870401
 20
-2386.04143600288
 30
0.0
 11
-14223.271323109595
 21
-2391.263663455452
 31
0.0
  0
LINE
  5
269
100
AcDbEntity
  8
Frei
  6
CONTINUOUS
 62
           7
100
AcDbLine
 10
-14221.95902353621
 20
-2393.158490579412
 30
0.0
 11
-14221.59949271008
 21
-2389.677005611031
 31
0.0
  0
LINE
  5
26A
100
AcDbEntity
  8
Frei
  6
CONTINUOUS
 62
           7
100
AcDbLine
 10
-14222.71101300525
 20
-2393.080833086273
 30
0.0
 11
-14221.95902353621
 21
-2393.158490579412
 31
0.0
  0
LINE
  5
26B
100
AcDbEntity
  8
Frei
  6
CONTINUOUS
 62
           7
100
AcDbLine
 10
-14221.59949271008
 20
-2389.677005611031
 30
0.0
 11
-14220.880431057822
 21
-2382.714035674269
 31
0.0
  0
LINE
  5
26C
100
AcDbEntity
  8
Frei
  6
CONTINUOUS
 62
           7
100
AcDbLine
 10
-14222.351482179121
 20
-2389.599348117892
 30
0.0
 11
-14221.59949271008
 21
-2389.677005611031
 31
0.0
  0
LINE
  5
26D
100
AcDbEntity
  8
Frei
  6
CONTINUOUS
 62
           7
100
AcDbLine
 10
-14220.880431057822
 20
-2382.714035674269
 30
0.0
 11
-14220.520900231691
 21
-2379.232550705888
 31
0.0
  0
LINE
  5
26E
100
AcDbEntity
  8
Frei
  6
CONTINUOUS
 62
           7
100
AcDbLine
 10
-14221.632420526861
 20
-2382.63637818113
 30
0.0
 11
-14220.880431057822
 21
-2382.714035674269
 31
0.0
  0
LINE
  5
26F
100
AcDbEntity
  8
Frei
  6
CONTINUOUS
 62
           7
100
AcDbLine
 10
-14220.520900231691
 20
-2379.232550705888
 30
0.0
 11
-14219.955923219202
 21
-2373.761645755575
 31
0.0
  0
LINE
  5
270
100
AcDbEntity
  8
Frei
  6
CONTINUOUS
 62
           7
100
AcDbLine
 10
-14221.272889700733
 20
-2379.154893212749
 30
0.0
 11
-14220.520900231691
 21
-2379.232550705888
 31
0.0
  0
LINE
  5
271
100
AcDbEntity
  8
Frei
  6
CONTINUOUS
 62
           7
100
AcDbLine
 10
-14185.628107989511
 20
-2435.615110505387
 30
0.0
 11
-14184.395430871353
 21
-2423.678590613795
 31
0.0
  0
LINE
  5
272
100
AcDbEntity
  8
Frei
  6
CONTINUOUS
 62
           2
100
AcDbLine
 10
-14180.654558034681
 20
-2436.128725971286
 30
0.0
 11
-14185.628107989511
 21
-2435.615110505387
 31
0.0
  0
LINE
  5
273
100
AcDbEntity
  8
Frei
  6
CONTINUOUS
 62
           7
100
AcDbLine
 10
-14184.395430871353
 20
-2423.678590613795
 30
0.0
 11
-14184.292707778173
 21
-2422.683880622829
 31
0.0
  0
LINE
  5
274
100
AcDbEntity
  8
Frei
  6
CONTINUOUS
 62
           2
100
AcDbLine
 10
-14179.421880916523
 20
-2424.192206079694
 30
0.0
 11
-14184.395430871353
 21
-2423.678590613795
 31
0.0
  0
LINE
  5
275
100
AcDbEntity
  8
Frei
  6
CONTINUOUS
 62
           7
100
AcDbLine
 10
-14185.730831082692
 20
-2436.609820496353
 30
0.0
 11
-14185.628107989511
 21
-2435.615110505387
 31
0.0
  0
LINE
  5
276
100
AcDbEntity
  8
Frei
  6
CONTINUOUS
 62
           7
100
AcDbLine
 10
-14185.730831082692
 20
-2436.609820496353
 30
0.0
 11
-14180.757281127862
 21
-2437.123435962252
 31
0.0
  0
LINE
  5
277
100
AcDbEntity
  8
Frei
  6
CONTINUOUS
 62
           7
100
AcDbLine
 10
-14184.292707778173
 20
-2422.683880622829
 30
0.0
 11
-14184.241346231584
 21
-2422.186525627346
 31
0.0
  0
LINE
  5
278
100
AcDbEntity
  8
Frei
  6
CONTINUOUS
 62
           7
100
AcDbLine
 10
-14184.292707778173
 20
-2422.683880622829
 30
0.0
 11
-14179.319157823344
 21
-2423.197496088728
 31
0.0
  0
LINE
  5
279
100
AcDbEntity
  8
Frei
  6
CONTINUOUS
 62
           7
100
AcDbLine
 10
-14205.091967424447
 20
-2434.610407772479
 30
0.0
 11
-14224.027165734882
 21
-2432.654981408928
 31
0.0
  0
LINE
  5
27A
100
AcDbEntity
  8
Frei
  6
CONTINUOUS
 62
           7
100
AcDbLine
 10
-14197.872797160642
 20
-2437.366563360126
 30
0.0
 11
-14205.091967424447
 21
-2434.610407772479
 31
0.0
  0
LINE
  5
27B
100
AcDbEntity
  8
Frei
  6
CONTINUOUS
 62
           7
100
AcDbLine
 10
-14222.540261019116
 20
-2403.654307031145
 30
0.0
 11
-14223.037616014599
 21
-2403.602945484555
 31
0.0
  0
LINE
  5
27C
100
AcDbEntity
  8
Frei
  6
CONTINUOUS
 62
           7
100
AcDbLine
 10
-14222.540261019116
 20
-2403.654307031145
 30
0.0
 11
-14225.365146081562
 21
-2431.00883178271
 31
0.0
  0
LINE
  5
27D
100
AcDbEntity
  8
Frei
  6
CONTINUOUS
 62
           7
100
AcDbLine
 10
-14205.091967424447
 20
-2434.610407772479
 30
0.0
 11
-14199.159415960732
 21
-2435.223058738425
 31
0.0
  0
LINE
  5
27E
100
AcDbEntity
  8
Frei
  6
CONTINUOUS
 62
           7
100
AcDbLine
 10
-14194.688381272068
 20
-2406.530553640181
 30
0.0
 11
-14222.540261019116
 21
-2403.654307031145
 31
0.0
  0
LINE
  5
27F
100
AcDbEntity
  8
Frei
  6
CONTINUOUS
 62
           7
100
AcDbLine
 10
-14194.688381272068
 20
-2406.530553640181
 30
0.0
 11
-14197.513266334514
 21
-2433.885078391746
 31
0.0
  0
LINE
  5
280
100
AcDbEntity
  8
Frei
  6
CONTINUOUS
 62
           7
100
AcDbLine
 10
-14197.872797160642
 20
-2437.366563360126
 30
0.0
 11
-14187.4283422555
 21
-2438.445155838515
 31
0.0
  0
LINE
  5
281
100
AcDbEntity
  8
Frei
  6
CONTINUOUS
 62
           7
100
AcDbLine
 10
-14185.782192629282
 20
-2437.107175491836
 30
0.0
 11
-14185.730831082692
 21
-2436.609820496353
 31
0.0
  0
LINE
  5
282
100
AcDbEntity
  8
Frei
  6
CONTINUOUS
 62
           7
100
AcDbLine
 10
-14196.023781483405
 20
-2419.461783522739
 30
0.0
 11
-14185.579326578263
 21
-2420.540376001127
 31
0.0
  0
LINE
  5
283
100
AcDbEntity
  8
Frei
  6
CONTINUOUS
 62
           7
100
AcDbLine
 10
-14223.037616014599
 20
-2403.602945484555
 30
0.0
 11
-14222.934892921419
 21
-2402.608235493589
 31
0.0
  0
LINE
  5
284
100
AcDbEntity
  8
Frei
  6
CONTINUOUS
 62
           7
100
AcDbLine
 10
-14194.191026276585
 20
-2406.58191518677
 30
0.0
 11
-14194.688381272068
 21
-2406.530553640181
 31
0.0
  0
LINE
  5
285
100
AcDbEntity
  8
Frei
  6
CONTINUOUS
 62
           7
100
AcDbLine
 10
-14194.088303183406
 20
-2405.587205195805
 30
0.0
 11
-14194.191026276585
 21
-2406.58191518677
 31
0.0
  0
LINE
  5
286
100
AcDbEntity
  8
Frei
  6
CONTINUOUS
 62
           7
100
AcDbLine
 10
-14194.088303183406
 20
-2405.587205195805
 30
0.0
 11
-14222.934892921419
 21
-2402.608235493589
 31
0.0
  0
LINE
  5
287
100
AcDbEntity
  8
Frei
  6
CONTINUOUS
 62
           7
100
AcDbLine
 10
-14191.468864307319
 20
-2380.222100426172
 30
0.0
 11
-14191.411758471477
 21
-2379.669121113584
 31
0.0
  0
LINE
  5
288
100
AcDbEntity
  8
Frei
  6
CONTINUOUS
 62
           7
100
AcDbLine
 10
-14219.955923219202
 20
-2373.761645755575
 30
0.0
 11
-14193.126427663216
 21
-2377.482636814696
 31
0.0
  0
LINE
  5
289
100
AcDbEntity
  8
Frei
  6
CONTINUOUS
 62
           7
100
AcDbLine
 10
-14187.625268377467
 20
-2391.677525792697
 30
0.0
 11
-14187.676629924057
 21
-2392.17488078818
 31
0.0
  0
LINE
  5
28A
100
AcDbEntity
  8
Frei
  6
CONTINUOUS
 62
           1
100
AcDbLine
 10
-14187.625268377467
 20
-2391.677525792697
 30
0.0
 11
-14190.100455921414
 21
-2391.421914686924
 31
0.0
  0
LINE
  5
28B
100
AcDbEntity
  8
Frei
  6
CONTINUOUS
 62
           7
100
AcDbLine
 10
-14187.214376004747
 20
-2387.698685828833
 30
0.0
 11
-14187.625268377467
 21
-2391.677525792697
 31
0.0
  0
LINE
  5
28C
100
AcDbEntity
  8
Frei
  6
CONTINUOUS
 62
           1
100
AcDbLine
 10
-14187.214376004747
 20
-2387.698685828833
 30
0.0
 11
-14189.689563548694
 21
-2387.44307472306
 31
0.0
  0
LINE
  5
28D
100
AcDbEntity
  8
Frei
  6
CONTINUOUS
 62
           7
100
AcDbLine
 10
-14187.676629924057
 20
-2392.17488078818
 30
0.0
 11
-14187.727991470647
 21
-2392.672235783663
 31
0.0
  0
LINE
  5
28E
100
AcDbEntity
  8
Frei
  6
CONTINUOUS
 62
           1
100
AcDbLine
 10
-14187.676629924057
 20
-2392.17488078818
 30
0.0
 11
-14190.151817468004
 21
-2391.919269682407
 31
0.0
  0
LINE
  5
28F
100
AcDbEntity
  8
Frei
  6
CONTINUOUS
 62
           7
100
AcDbLine
 10
-14187.163014458158
 20
-2387.20133083335
 30
0.0
 11
-14187.214376004747
 21
-2387.698685828833
 31
0.0
  0
LINE
  5
290
100
AcDbEntity
  8
Frei
  6
CONTINUOUS
 62
           1
100
AcDbLine
 10
-14187.163014458158
 20
-2387.20133083335
 30
0.0
 11
-14189.638202002105
 21
-2386.945719727577
 31
0.0
  0
LINE
  5
291
100
AcDbEntity
  8
Frei
  6
CONTINUOUS
 62
           7
100
AcDbLine
 10
-14188.722701461613
 20
-2392.569512690483
 30
0.0
 11
-14188.106362902534
 21
-2386.601252744687
 31
0.0
  0
LINE
  5
292
100
AcDbEntity
  8
Frei
  6
CONTINUOUS
 62
           2
100
AcDbLine
 10
-14187.727991470647
 20
-2392.672235783663
 30
0.0
 11
-14188.722701461613
 21
-2392.569512690483
 31
0.0
  0
LINE
  5
293
100
AcDbEntity
  8
Frei
  6
CONTINUOUS
 62
           7
100
AcDbLine
 10
-14188.106362902534
 20
-2386.601252744687
 30
0.0
 11
-14188.003639809354
 21
-2385.606542753721
 31
0.0
  0
LINE
  5
294
100
AcDbEntity
  8
Frei
  6
CONTINUOUS
 62
           2
100
AcDbLine
 10
-14187.111652911568
 20
-2386.703975837867
 30
0.0
 11
-14188.106362902534
 21
-2386.601252744687
 31
0.0
  0
LINE
  5
295
100
AcDbEntity
  8
Frei
  6
CONTINUOUS
 62
           7
100
AcDbLine
 10
-14188.825424554792
 20
-2393.564222681449
 30
0.0
 11
-14188.722701461613
 21
-2392.569512690483
 31
0.0
  0
LINE
  5
296
100
AcDbEntity
  8
Frei
  6
CONTINUOUS
 62
           7
100
AcDbLine
 10
-14187.727991470647
 20
-2392.672235783663
 30
0.0
 11
-14188.825424554792
 21
-2393.564222681449
 31
0.0
  0
LINE
  5
297
100
AcDbEntity
  8
Frei
  6
CONTINUOUS
 62
           7
100
AcDbLine
 10
-14187.111652911568
 20
-2386.703975837867
 30
0.0
 11
-14187.163014458158
 21
-2387.20133083335
 31
0.0
  0
LINE
  5
298
100
AcDbEntity
  8
Frei
  6
CONTINUOUS
 62
           7
100
AcDbLine
 10
-14188.003639809354
 20
-2385.606542753721
 30
0.0
 11
-14187.490024343455
 21
-2380.632992798891
 31
0.0
  0
LINE
  5
299
100
AcDbEntity
  8
Frei
  6
CONTINUOUS
 62
           7
100
AcDbLine
 10
-14188.003639809354
 20
-2385.606542753721
 30
0.0
 11
-14187.111652911568
 21
-2386.703975837867
 31
0.0
  0
LINE
  5
29A
100
AcDbEntity
  8
Frei
  6
CONTINUOUS
 62
           7
100
AcDbLine
 10
-14222.934892921419
 20
-2402.608235493589
 30
0.0
 11
-14221.95902353621
 21
-2393.158490579412
 31
0.0
  0
LINE
  5
29B
100
AcDbEntity
  8
Frei
  6
CONTINUOUS
 62
           7
100
AcDbLine
 10
-14193.317879984555
 20
-2398.12688026356
 30
0.0
 11
-14194.088303183406
 21
-2405.587205195805
 31
0.0
  0
LINE
  5
29C
100
AcDbEntity
  8
Frei
  6
CONTINUOUS
 62
           7
100
AcDbLine
 10
-14190.371431223173
 20
-2379.330113528386
 30
0.0
 11
-14192.425893086769
 21
-2399.224313347705
 31
0.0
  0
LINE
  5
29D
100
AcDbEntity
  8
Frei
  6
CONTINUOUS
 62
           7
100
AcDbLine
 10
-14188.382011241241
 20
-2379.535559714745
 30
0.0
 11
-14190.436473104837
 21
-2399.429759534065
 31
0.0
  0
LINE
  5
29E
100
AcDbEntity
  8
Frei
  6
CONTINUOUS
 62
           7
100
AcDbLine
 10
-14189.339040020692
 20
-2398.537772636279
 30
0.0
 11
-14190.436473104837
 21
-2399.429759534065
 31
0.0
  0
LINE
  5
29F
100
AcDbEntity
  8
Frei
  6
CONTINUOUS
 62
           7
100
AcDbLine
 10
-14192.425893086769
 20
-2399.224313347705
 30
0.0
 11
-14193.317879984555
 21
-2398.12688026356
 31
0.0
  0
LINE
  5
2A0
100
AcDbEntity
  8
Frei
  6
CONTINUOUS
 62
           7
100
AcDbLine
 10
-14191.468864307319
 20
-2380.222100426172
 30
0.0
 11
-14190.371431223173
 21
-2379.330113528386
 31
0.0
  0
LINE
  5
2A1
100
AcDbEntity
  8
Frei
  6
CONTINUOUS
 62
           7
100
AcDbLine
 10
-14187.490024343455
 20
-2380.632992798891
 30
0.0
 11
-14188.382011241241
 21
-2379.535559714745
 31
0.0
  0
LINE
  5
2A2
100
AcDbEntity
  8
Frei
  6
CONTINUOUS
 62
           7
100
AcDbLine
 10
-14189.339040020692
 20
-2398.537772636279
 30
0.0
 11
-14188.825424554792
 21
-2393.564222681449
 31
0.0
  0
LINE
  5
2A3
100
AcDbEntity
  8
Frei
  6
CONTINUOUS
 62
           7
100
AcDbLine
 10
-14192.425893086769
 20
-2399.224313347705
 30
0.0
 11
-14190.436473104837
 21
-2399.429759534065
 31
0.0
  0
LINE
  5
2A4
100
AcDbEntity
  8
Frei
  6
CONTINUOUS
 62
           7
100
AcDbLine
 10
-14191.468864307319
 20
-2380.222100426172
 30
0.0
 11
-14193.317879984555
 21
-2398.12688026356
 31
0.0
  0
LINE
  5
2A5
100
AcDbEntity
  8
Frei
  6
CONTINUOUS
 62
           7
100
AcDbLine
 10
-14188.382011241241
 20
-2379.535559714745
 30
0.0
 11
-14190.371431223173
 21
-2379.330113528386
 31
0.0
  0
LINE
  5
2A6
100
AcDbEntity
  8
Frei
  6
CONTINUOUS
 62
           7
100
AcDbLine
 10
-14239.347607772357
 20
-2400.913304456121
 30
0.0
 11
-14228.903152867215
 21
-2401.991896934509
 31
0.0
  0
LINE
  5
2A7
100
AcDbEntity
  8
Frei
  6
CONTINUOUS
 62
           7
100
AcDbLine
 10
-14222.031805823899
 20
-2369.525998058761
 30
0.0
 11
-14235.957745697422
 21
-2368.087874754243
 31
0.0
  0
LINE
  5
2A8
100
AcDbEntity
  8
Frei
  6
CONTINUOUS
 62
           7
100
AcDbLine
 10
-14221.139818926113
 20
-2370.623431142908
 30
0.0
 11
-14223.451088522659
 21
-2393.004405939642
 31
0.0
  0
LINE
  5
2A9
100
AcDbEntity
  8
Frei
  6
CONTINUOUS
 62
           7
100
AcDbLine
 10
-14382.483123378282
 20
-2385.126469047256
 30
0.0
 11
-14380.171853781736
 21
-2362.745494250522
 31
0.0
  0
LINE
  5
2AA
100
AcDbEntity
  8
Frei
  6
CONTINUOUS
 62
           7
100
AcDbLine
 10
-14381.430211673189
 20
-2374.930691639855
 30
0.0
 11
-14380.890915433994
 21
-2369.708464187283
 31
0.0
  0
LINE
  5
2AB
100
AcDbEntity
  8
Frei
  6
CONTINUOUS
 62
           7
100
AcDbLine
 10
-14222.192730631206
 20
-2380.819208550309
 30
0.0
 11
-14222.732026870401
 21
-2386.04143600288
 31
0.0
  0
ARC
  5
2AC
100
AcDbEntity
  8
Frei
  6
CONTINUOUS
 62
           7
100
AcDbCircle
 10
-14389.449805073315
 20
-2368.824592882158
 30
0.0
 40
8.604407030244
100
AcDbArc
 50
330.102014671726
 51
354.103999999999
  0
ARC
  5
2AD
100
AcDbEntity
  8
Frei
  6
CONTINUOUS
 62
           7
100
AcDbCircle
 10
-14382.768869923657
 20
-2364.236608728444
 30
0.0
 40
2.430106011614
100
AcDbArc
 50
308.038521857266
 51
354.103999999999
  0
ARC
  5
2AE
100
AcDbEntity
  8
Frei
  6
CONTINUOUS
 62
           7
100
AcDbCircle
 10
-14383.847462402045
 20
-2374.681063633587
 30
0.0
 40
2.430106011614
100
AcDbArc
 50
308.038521857266
 51
354.103999999999
  0
ARC
  5
2AF
100
AcDbEntity
  8
Frei
  6
CONTINUOUS
 62
           7
100
AcDbCircle
 10
-14382.768869923657
 20
-2364.236608728444
 30
0.0
 40
2.430106011614
100
AcDbArc
 50
354.103999999999
 51
40.169478142733
  0
ARC
  5
2B0
100
AcDbEntity
  8
Frei
  6
CONTINUOUS
 62
           7
100
AcDbCircle
 10
-14383.847462402045
 20
-2374.681063633587
 30
0.0
 40
2.430106011614
100
AcDbArc
 50
354.103999999999
 51
40.169478142733
  0
ARC
  5
2B1
100
AcDbEntity
  8
Frei
  6
CONTINUOUS
 62
           7
100
AcDbCircle
 10
-14220.854072380735
 20
-2391.51329146172
 30
0.0
 40
2.430106011614
100
AcDbArc
 50
128.038521857263
 51
174.104
  0
ARC
  5
2B2
100
AcDbEntity
  8
Frei
  6
CONTINUOUS
 62
           7
100
AcDbCircle
 10
-14219.775479902346
 20
-2381.068836556577
 30
0.0
 40
2.430106011614
100
AcDbArc
 50
128.038521857263
 51
174.104
  0
ARC
  5
2B3
100
AcDbEntity
  8
Frei
  6
CONTINUOUS
 62
           7
100
AcDbCircle
 10
-14220.854072380735
 20
-2391.51329146172
 30
0.0
 40
2.430106011614
100
AcDbArc
 50
174.104
 51
220.169478142737
  0
ARC
  5
2B4
100
AcDbEntity
  8
Frei
  6
CONTINUOUS
 62
           7
100
AcDbCircle
 10
-14219.775479902346
 20
-2381.068836556577
 30
0.0
 40
2.430106011614
100
AcDbArc
 50
174.104
 51
220.169478142737
  0
ARC
  5
2B5
100
AcDbEntity
  8
Frei
  6
CONTINUOUS
 62
           7
100
AcDbCircle
 10
-14214.173137231079
 20
-2386.925307308005
 30
0.0
 40
8.604407030244
100
AcDbArc
 50
150.102014671724
 51
174.104
  0
ARC
  5
2B6
100
AcDbEntity
  8
Frei
  6
CONTINUOUS
 62
           7
100
AcDbCircle
 10
-14358.463738399803
 20
-2379.82870560865
 30
0.0
 40
4.481959213903
100
AcDbArc
 50
182.482955885586
 51
345.725044114414
  0
ARC
  5
2B7
100
AcDbEntity
  8
Frei
  6
CONTINUOUS
 62
           7
100
AcDbCircle
 10
-14389.449805073315
 20
-2368.824592882158
 30
0.0
 40
8.604407030244
100
AcDbArc
 50
354.103999999999
 51
18.105985328274
  0
ARC
  5
2B8
100
AcDbEntity
  8
Frei
  6
CONTINUOUS
 62
           7
100
AcDbCircle
 10
-14214.173137231079
 20
-2386.925307308005
 30
0.0
 40
8.604407030244
100
AcDbArc
 50
174.104
 51
198.105985328276
  0
POLYLINE
  5
2B9
100
AcDbEntity
  8
Frei
  6
CONTINUOUS
 62
           7
100
AcDb2dPolyline
 66
           1
 10
0.0
 20
0.0
 30
0.0
  0
VERTEX
  5
2BA
100
AcDbEntity
  8
Frei
  6
CONTINUOUS
 62
           7
100
AcDbVertex
100
AcDb2dVertex
 10
-14362.622635385993
 20
-2379.701143090511
 30
0.0
 42
0.046286845788
  0
VERTEX
  5
2BB
100
AcDbEntity
  8
Frei
  6
CONTINUOUS
 62
           7
100
AcDbVertex
100
AcDb2dVertex
 10
-14362.629483112018
 20
-2380.381217300971
 30
0.0
  0
VERTEX
  5
2BC
100
AcDbEntity
  8
Frei
  6
CONTINUOUS
 62
           7
100
AcDbVertex
100
AcDb2dVertex
 10
-14362.585556922924
 20
-2380.720130103488
 30
0.0
  0
VERTEX
  5
2BD
100
AcDbEntity
  8
Frei
  6
CONTINUOUS
 62
           7
100
AcDbVertex
100
AcDb2dVertex
 10
-14362.510694170482
 20
-2381.053580735885
 30
0.0
 42
0.045273723548
  0
VERTEX
  5
2BE
100
AcDbEntity
  8
Frei
  6
CONTINUOUS
 62
           7
100
AcDbVertex
100
AcDb2dVertex
 10
-14362.26987790326
 20
-2381.697803972514
 30
0.0
  0
VERTEX
  5
2BF
100
AcDbEntity
  8
Frei
  6
CONTINUOUS
 62
           7
100
AcDbVertex
100
AcDb2dVertex
 10
-14362.105385672108
 20
-2382.003964662867
 30
0.0
  0
VERTEX
  5
2C0
100
AcDbEntity
  8
Frei
  6
CONTINUOUS
 62
           7
100
AcDbVertex
100
AcDb2dVertex
 10
-14361.914351390777
 20
-2382.294312613808
 30
0.0
 42
0.04348253534
  0
VERTEX
  5
2C1
100
AcDbEntity
  8
Frei
  6
CONTINUOUS
 62
           7
100
AcDbVertex
100
AcDb2dVertex
 10
-14361.45491712621
 20
-2382.824982046548
 30
0.0
  0
VERTEX
  5
2C2
100
AcDbEntity
  8
Frei
  6
CONTINUOUS
 62
           7
100
AcDbVertex
100
AcDb2dVertex
 10
-14361.189796353057
 20
-2383.061048934745
 30
0.0
  0
VERTEX
  5
2C3
100
AcDbEntity
  8
Frei
  6
CONTINUOUS
 62
           7
100
AcDbVertex
100
AcDb2dVertex
 10
-14360.905534787202
 20
-2383.273688148551
 30
0.0
 42
0.041825507476
  0
VERTEX
  5
2C4
100
AcDbEntity
  8
Frei
  6
CONTINUOUS
 62
           7
100
AcDbVertex
100
AcDb2dVertex
 10
-14360.282897078119
 20
-2383.626797211966
 30
0.0
  0
VERTEX
  5
2C5
100
AcDbEntity
  8
Frei
  6
CONTINUOUS
 62
           7
100
AcDbVertex
100
AcDb2dVertex
 10
-14359.949511578374
 20
-2383.764180471079
 30
0.0
  0
VERTEX
  5
2C6
100
AcDbEntity
  8
Frei
  6
CONTINUOUS
 62
           7
100
AcDbVertex
100
AcDb2dVertex
 10
-14359.605922530687
 20
-2383.873580196581
 30
0.0
 42
0.040993490696
  0
VERTEX
  5
2C7
100
AcDbEntity
  8
Frei
  6
CONTINUOUS
 62
           7
100
AcDbVertex
100
AcDb2dVertex
 10
-14358.895180673964
 20
-2384.006538726289
 30
0.0
  0
VERTEX
  5
2C8
100
AcDbEntity
  8
Frei
  6
CONTINUOUS
 62
           7
100
AcDbVertex
100
AcDb2dVertex
 10
-14358.534033276743
 20
-2384.028923985927
 30
0.0
  0
VERTEX
  5
2C9
100
AcDbEntity
  8
Frei
  6
CONTINUOUS
 62
           7
100
AcDbVertex
100
AcDb2dVertex
 10
-14358.17226703961
 20
-2384.021632923441
 30
0.0
 42
0.041278481646
  0
VERTEX
  5
2CA
100
AcDbEntity
  8
Frei
  6
CONTINUOUS
 62
           7
100
AcDbVertex
100
AcDb2dVertex
 10
-14357.459146992596
 20
-2383.9184041585
 30
0.0
  0
VERTEX
  5
2CB
100
AcDbEntity
  8
Frei
  6
CONTINUOUS
 62
           7
100
AcDbVertex
100
AcDb2dVertex
 10
-14357.113741563797
 20
-2383.823472111405
 30
0.0
  0
VERTEX
  5
2CC
100
AcDbEntity
  8
Frei
  6
CONTINUOUS
 62
           7
100
AcDbVertex
100
AcDb2dVertex
 10
-14356.777488324691
 20
-2383.699988985247
 30
0.0
 42
0.042584509173
  0
VERTEX
  5
2CD
100
AcDbEntity
  8
Frei
  6
CONTINUOUS
 62
           7
100
AcDbVertex
100
AcDb2dVertex
 10
-14356.148002889588
 20
-2383.373023838202
 30
0.0
  0
VERTEX
  5
2CE
100
AcDbEntity
  8
Frei
  6
CONTINUOUS
 62
           7
100
AcDbVertex
100
AcDb2dVertex
 10
-14355.859640656308
 20
-2383.17238664005
 30
0.0
  0
VERTEX
  5
2CF
100
AcDbEntity
  8
Frei
  6
CONTINUOUS
 62
           7
100
AcDbVertex
100
AcDb2dVertex
 10
-14355.589817283693
 20
-2382.947443387904
 30
0.0
 42
0.044417198743
  0
VERTEX
  5
2D0
100
AcDbEntity
  8
Frei
  6
CONTINUOUS
 62
           7
100
AcDbVertex
100
AcDb2dVertex
 10
-14355.119891694188
 20
-2382.436178680982
 30
0.0
  0
VERTEX
  5
2D1
100
AcDbEntity
  8
Frei
  6
CONTINUOUS
 62
           7
100
AcDbVertex
100
AcDb2dVertex
 10
-14354.923012957061
 20
-2382.15380001461
 30
0.0
  0
VERTEX
  5
2D2
100
AcDbEntity
  8
Frei
  6
CONTINUOUS
 62
           7
100
AcDbVertex
100
AcDb2dVertex
 10
-14354.75250457232
 20
-2381.854764236842
 30
0.0
 42
0.045929593742
  0
VERTEX
  5
2D3
100
AcDbEntity
  8
Frei
  6
CONTINUOUS
 62
           7
100
AcDbVertex
100
AcDb2dVertex
 10
-14354.498818789871
 20
-2381.220866039158
 30
0.0
  0
VERTEX
  5
2D4
100
AcDbEntity
  8
Frei
  6
CONTINUOUS
 62
           7
100
AcDbVertex
100
AcDb2dVertex
 10
-14354.417213426323
 20
-2380.890371596508
 30
0.0
  0
VERTEX
  5
2D5
100
AcDbEntity
  8
Frei
  6
CONTINUOUS
 62
           7
100
AcDbVertex
100
AcDb2dVertex
 10
-14354.366542460977
 20
-2380.553744763904
 30
0.0
 42
0.046286845788
  0
VERTEX
  5
2D6
100
AcDbEntity
  8
Frei
  6
CONTINUOUS
 62
           7
100
AcDbVertex
100
AcDb2dVertex
 10
-14354.359694734952
 20
-2379.873670553444
 30
0.0
  0
VERTEX
  5
2D7
100
AcDbEntity
  8
Frei
  6
CONTINUOUS
 62
           7
100
AcDbVertex
100
AcDb2dVertex
 10
-14354.403620924048
 20
-2379.534757750927
 30
0.0
  0
VERTEX
  5
2D8
100
AcDbEntity
  8
Frei
  6
CONTINUOUS
 62
           7
100
AcDbVertex
100
AcDb2dVertex
 10
-14354.478483676492
 20
-2379.20130711853
 30
0.0
 42
0.045273723548
  0
VERTEX
  5
2D9
100
AcDbEntity
  8
Frei
  6
CONTINUOUS
 62
           7
100
AcDbVertex
100
AcDb2dVertex
 10
-14354.71929994371
 20
-2378.5570838819
 30
0.0
  0
VERTEX
  5
2DA
100
AcDbEntity
  8
Frei
  6
CONTINUOUS
 62
           7
100
AcDbVertex
100
AcDb2dVertex
 10
-14354.883792174864
 20
-2378.250923191548
 30
0.0
  0
VERTEX
  5
2DB
100
AcDbEntity
  8
Frei
  6
CONTINUOUS
 62
           7
100
AcDbVertex
100
AcDb2dVertex
 10
-14355.074826456193
 20
-2377.960575240606
 30
0.0
 42
0.04348253534
  0
VERTEX
  5
2DC
100
AcDbEntity
  8
Frei
  6
CONTINUOUS
 62
           7
100
AcDbVertex
100
AcDb2dVertex
 10
-14355.534260720762
 20
-2377.429905807868
 30
0.0
  0
VERTEX
  5
2DD
100
AcDbEntity
  8
Frei
  6
CONTINUOUS
 62
           7
100
AcDbVertex
100
AcDb2dVertex
 10
-14355.799381493915
 20
-2377.193838919669
 30
0.0
  0
VERTEX
  5
2DE
100
AcDbEntity
  8
Frei
  6
CONTINUOUS
 62
           7
100
AcDbVertex
100
AcDb2dVertex
 10
-14356.08364305977
 20
-2376.981199705864
 30
0.0
 42
0.041825507476
  0
VERTEX
  5
2DF
100
AcDbEntity
  8
Frei
  6
CONTINUOUS
 62
           7
100
AcDbVertex
100
AcDb2dVertex
 10
-14356.706280768851
 20
-2376.628090642448
 30
0.0
  0
VERTEX
  5
2E0
100
AcDbEntity
  8
Frei
  6
CONTINUOUS
 62
           7
100
AcDbVertex
100
AcDb2dVertex
 10
-14357.039666268596
 20
-2376.490707383335
 30
0.0
  0
VERTEX
  5
2E1
100
AcDbEntity
  8
Frei
  6
CONTINUOUS
 62
           7
100
AcDbVertex
100
AcDb2dVertex
 10
-14357.383255316283
 20
-2376.381307657834
 30
0.0
 42
0.040993490695
  0
VERTEX
  5
2E2
100
AcDbEntity
  8
Frei
  6
CONTINUOUS
 62
           7
100
AcDbVertex
100
AcDb2dVertex
 10
-14358.093997173008
 20
-2376.248349128127
 30
0.0
  0
VERTEX
  5
2E3
100
AcDbEntity
  8
Frei
  6
CONTINUOUS
 62
           7
100
AcDbVertex
100
AcDb2dVertex
 10
-14358.455144570229
 20
-2376.225963868489
 30
0.0
  0
VERTEX
  5
2E4
100
AcDbEntity
  8
Frei
  6
CONTINUOUS
 62
           7
100
AcDbVertex
100
AcDb2dVertex
 10
-14358.81691080736
 20
-2376.233254930973
 30
0.0
 42
0.041278481646
  0
VERTEX
  5
2E5
100
AcDbEntity
  8
Frei
  6
CONTINUOUS
 62
           7
100
AcDbVertex
100
AcDb2dVertex
 10
-14359.530030854374
 20
-2376.336483695915
 30
0.0
  0
VERTEX
  5
2E6
100
AcDbEntity
  8
Frei
  6
CONTINUOUS
 62
           7
100
AcDbVertex
100
AcDb2dVertex
 10
-14359.875436283173
 20
-2376.431415743009
 30
0.0
  0
VERTEX
  5
2E7
100
AcDbEntity
  8
Frei
  6
CONTINUOUS
 62
           7
100
AcDbVertex
100
AcDb2dVertex
 10
-14360.211689522279
 20
-2376.554898869167
 30
0.0
 42
0.042584509172
  0
VERTEX
  5
2E8
100
AcDbEntity
  8
Frei
  6
CONTINUOUS
 62
           7
100
AcDbVertex
100
AcDb2dVertex
 10
-14360.841174957382
 20
-2376.881864016213
 30
0.0
  0
VERTEX
  5
2E9
100
AcDbEntity
  8
Frei
  6
CONTINUOUS
 62
           7
100
AcDbVertex
100
AcDb2dVertex
 10
-14361.129537190662
 20
-2377.082501214366
 30
0.0
  0
VERTEX
  5
2EA
100
AcDbEntity
  8
Frei
  6
CONTINUOUS
 62
           7
100
AcDbVertex
100
AcDb2dVertex
 10
-14361.399360563277
 20
-2377.30744446651
 30
0.0
 42
0.044417198743
  0
VERTEX
  5
2EB
100
AcDbEntity
  8
Frei
  6
CONTINUOUS
 62
           7
100
AcDbVertex
100
AcDb2dVertex
 10
-14361.869286152782
 20
-2377.818709173433
 30
0.0
  0
VERTEX
  5
2EC
100
AcDbEntity
  8
Frei
  6
CONTINUOUS
 62
           7
100
AcDbVertex
100
AcDb2dVertex
 10
-14362.066164889909
 20
-2378.101087839805
 30
0.0
  0
VERTEX
  5
2ED
100
AcDbEntity
  8
Frei
  6
CONTINUOUS
 62
           7
100
AcDbVertex
100
AcDb2dVertex
 10
-14362.236673274654
 20
-2378.400123617573
 30
0.0
 42
0.045929593741
  0
VERTEX
  5
2EE
100
AcDbEntity
  8
Frei
  6
CONTINUOUS
 62
           7
100
AcDbVertex
100
AcDb2dVertex
 10
-14362.490359057099
 20
-2379.034021815256
 30
0.0
  0
VERTEX
  5
2EF
100
AcDbEntity
  8
Frei
  6
CONTINUOUS
 62
           7
100
AcDbVertex
100
AcDb2dVertex
 10
-14362.571964420647
 20
-2379.364516257906
 30
0.0
  0
VERTEX
  5
2F0
100
AcDbEntity
  8
Frei
  6
CONTINUOUS
 62
           7
100
AcDbVertex
100
AcDb2dVertex
 10
-14362.622635385993
 20
-2379.701143090511
 30
0.0
  0
SEQEND
  5
2F1
100
AcDbEntity
  8
Frei
  6
CONTINUOUS
 62
           7
  0
POLYLINE
  5
2F2
100
AcDbEntity
  8
Frei
  6
CONTINUOUS
 62
           7
100
AcDb2dPolyline
 66
           1
 10
0.0
 20
0.0
 30
0.0
  0
VERTEX
  5
2F3
100
AcDbEntity
  8
Frei
  6
CONTINUOUS
 62
           7
100
AcDbVertex
100
AcDb2dVertex
 10
-14358.085427766455
 20
-2376.165368037414
 30
0.0
 42
0.046286845788
  0
VERTEX
  5
2F4
100
AcDbEntity
  8
Frei
  6
CONTINUOUS
 62
           7
100
AcDbVertex
100
AcDb2dVertex
 10
-14358.861464723059
 20
-2376.157554054204
 30
0.0
  0
VERTEX
  5
2F5
100
AcDbEntity
  8
Frei
  6
CONTINUOUS
 62
           7
100
AcDbVertex
100
AcDb2dVertex
 10
-14359.248200252467
 20
-2376.207678504706
 30
0.0
  0
VERTEX
  5
2F6
100
AcDbEntity
  8
Frei
  6
CONTINUOUS
 62
           7
100
AcDbVertex
100
AcDb2dVertex
 10
-14359.628702865215
 20
-2376.293104862118
 30
0.0
 42
0.045273723548
  0
VERTEX
  5
2F7
100
AcDbEntity
  8
Frei
  6
CONTINUOUS
 62
           7
100
AcDbVertex
100
AcDb2dVertex
 10
-14360.363830050217
 20
-2376.56790181845
 30
0.0
  0
VERTEX
  5
2F8
100
AcDbEntity
  8
Frei
  6
CONTINUOUS
 62
           7
100
AcDbVertex
100
AcDb2dVertex
 10
-14360.71319193855
 20
-2376.755604937438
 30
0.0
  0
VERTEX
  5
2F9
100
AcDbEntity
  8
Frei
  6
CONTINUOUS
 62
           7
100
AcDbVertex
100
AcDb2dVertex
 10
-14361.044509810539
 20
-2376.973595356735
 30
0.0
 42
0.04348253534
  0
VERTEX
  5
2FA
100
AcDbEntity
  8
Frei
  6
CONTINUOUS
 62
           7
100
AcDbVertex
100
AcDb2dVertex
 10
-14361.650060036107
 20
-2377.497858684106
 30
0.0
  0
VERTEX
  5
2FB
100
AcDbEntity
  8
Frei
  6
CONTINUOUS
 62
           7
100
AcDbVertex
100
AcDb2dVertex
 10
-14361.919437446179
 20
-2377.80038966494
 30
0.0
  0
VERTEX
  5
2FC
100
AcDbEntity
  8
Frei
  6
CONTINUOUS
 62
           7
100
AcDbVertex
100
AcDb2dVertex
 10
-14362.162081389735
 20
-2378.124762324649
 30
0.0
 42
0.041825507476
  0
VERTEX
  5
2FD
100
AcDbEntity
  8
Frei
  6
CONTINUOUS
 62
           7
100
AcDbVertex
100
AcDb2dVertex
 10
-14362.565016361694
 20
-2378.835258128473
 30
0.0
  0
VERTEX
  5
2FE
100
AcDbEntity
  8
Frei
  6
CONTINUOUS
 62
           7
100
AcDbVertex
100
AcDb2dVertex
 10
-14362.721785262282
 20
-2379.215686417943
 30
0.0
  0
VERTEX
  5
2FF
100
AcDbEntity
  8
Frei
  6
CONTINUOUS
 62
           7
100
AcDbVertex
100
AcDb2dVertex
 10
-14362.846621976752
 20
-2379.607758040109
 30
0.0
 42
0.040993490695
  0
VERTEX
  5
300
100
AcDbEntity
  8
Frei
  6
CONTINUOUS
 62
           7
100
AcDbVertex
100
AcDb2dVertex
 10
-14362.998341790799
 20
-2380.418790040648
 30
0.0
  0
VERTEX
  5
301
100
AcDbEntity
  8
Frei
  6
CONTINUOUS
 62
           7
100
AcDbVertex
100
AcDb2dVertex
 10
-14363.023885751289
 20
-2380.830897605844
 30
0.0
  0
VERTEX
  5
302
100
AcDbEntity
  8
Frei
  6
CONTINUOUS
 62
           7
100
AcDbVertex
100
AcDb2dVertex
 10
-14363.015565874055
 20
-2381.243711333151
 30
0.0
 42
0.041278481646
  0
VERTEX
  5
303
100
AcDbEntity
  8
Frei
  6
CONTINUOUS
 62
           7
100
AcDbVertex
100
AcDb2dVertex
 10
-14362.897770881467
 20
-2382.057457101579
 30
0.0
  0
VERTEX
  5
304
100
AcDbEntity
  8
Frei
  6
CONTINUOUS
 62
           7
100
AcDbVertex
100
AcDb2dVertex
 10
-14362.789443325773
 20
-2382.451601407651
 30
0.0
  0
VERTEX
  5
305
100
AcDbEntity
  8
Frei
  6
CONTINUOUS
 62
           7
100
AcDbVertex
100
AcDb2dVertex
 10
-14362.64853595428
 20
-2382.835302092532
 30
0.0
 42
0.042584509173
  0
VERTEX
  5
306
100
AcDbEntity
  8
Frei
  6
CONTINUOUS
 62
           7
100
AcDbVertex
100
AcDb2dVertex
 10
-14362.275433969637
 20
-2383.553611879568
 30
0.0
  0
VERTEX
  5
307
100
AcDbEntity
  8
Frei
  6
CONTINUOUS
 62
           7
100
AcDbVertex
100
AcDb2dVertex
 10
-14362.046485601588
 20
-2383.88266383665
 30
0.0
  0
VERTEX
  5
308
100
AcDbEntity
  8
Frei
  6
CONTINUOUS
 62
           7
100
AcDbVertex
100
AcDb2dVertex
 10
-14361.789801442539
 20
-2384.190560983291
 30
0.0
 42
0.044417198743
  0
VERTEX
  5
309
100
AcDbEntity
  8
Frei
  6
CONTINUOUS
 62
           7
100
AcDbVertex
100
AcDb2dVertex
 10
-14361.206394071582
 20
-2384.726796027496
 30
0.0
  0
VERTEX
  5
30A
100
AcDbEntity
  8
Frei
  6
CONTINUOUS
 62
           7
100
AcDbVertex
100
AcDb2dVertex
 10
-14360.88417000031
 20
-2384.951455592044
 30
0.0
  0
VERTEX
  5
30B
100
AcDbEntity
  8
Frei
  6
CONTINUOUS
 62
           7
100
AcDbVertex
100
AcDb2dVertex
 10
-14360.542938394516
 20
-2385.146023781715
 30
0.0
 42
0.045929593742
  0
VERTEX
  5
30C
100
AcDbEntity
  8
Frei
  6
CONTINUOUS
 62
           7
100
AcDbVertex
100
AcDb2dVertex
 10
-14359.819593176362
 20
-2385.435506222772
 30
0.0
  0
VERTEX
  5
30D
100
AcDbEntity
  8
Frei
  6
CONTINUOUS
 62
           7
100
AcDbVertex
100
AcDb2dVertex
 10
-14359.442463890317
 20
-2385.528626616099
 30
0.0
  0
VERTEX
  5
30E
100
AcDbEntity
  8
Frei
  6
CONTINUOUS
 62
           7
100
AcDbVertex
100
AcDb2dVertex
 10
-14359.058336895545
 20
-2385.586447573181
 30
0.0
 42
0.046286845788
  0
VERTEX
  5
30F
100
AcDbEntity
  8
Frei
  6
CONTINUOUS
 62
           7
100
AcDbVertex
100
AcDb2dVertex
 10
-14358.282299938943
 20
-2385.594261556393
 30
0.0
  0
VERTEX
  5
310
100
AcDbEntity
  8
Frei
  6
CONTINUOUS
 62
           7
100
AcDbVertex
100
AcDb2dVertex
 10
-14357.895564409533
 20
-2385.544137105891
 30
0.0
  0
VERTEX
  5
311
100
AcDbEntity
  8
Frei
  6
CONTINUOUS
 62
           7
100
AcDbVertex
100
AcDb2dVertex
 10
-14357.515061796787
 20
-2385.45871074848
 30
0.0
 42
0.045273723548
  0
VERTEX
  5
312
100
AcDbEntity
  8
Frei
  6
CONTINUOUS
 62
           7
100
AcDbVertex
100
AcDb2dVertex
 10
-14356.779934611783
 20
-2385.183913792147
 30
0.0
  0
VERTEX
  5
313
100
AcDbEntity
  8
Frei
  6
CONTINUOUS
 62
           7
100
AcDbVertex
100
AcDb2dVertex
 10
-14356.43057272345
 20
-2384.996210673157
 30
0.0
  0
VERTEX
  5
314
100
AcDbEntity
  8
Frei
  6
CONTINUOUS
 62
           7
100
AcDbVertex
100
AcDb2dVertex
 10
-14356.099254851462
 20
-2384.778220253861
 30
0.0
 42
0.04348253534
  0
VERTEX
  5
315
100
AcDbEntity
  8
Frei
  6
CONTINUOUS
 62
           7
100
AcDbVertex
100
AcDb2dVertex
 10
-14355.493704625895
 20
-2384.25395692649
 30
0.0
  0
VERTEX
  5
316
100
AcDbEntity
  8
Frei
  6
CONTINUOUS
 62
           7
100
AcDbVertex
100
AcDb2dVertex
 10
-14355.224327215821
 20
-2383.951425945657
 30
0.0
  0
VERTEX
  5
317
100
AcDbEntity
  8
Frei
  6
CONTINUOUS
 62
           7
100
AcDbVertex
100
AcDb2dVertex
 10
-14354.981683272264
 20
-2383.627053285949
 30
0.0
 42
0.041825507476
  0
VERTEX
  5
318
100
AcDbEntity
  8
Frei
  6
CONTINUOUS
 62
           7
100
AcDbVertex
100
AcDb2dVertex
 10
-14354.578748300306
 20
-2382.916557482123
 30
0.0
  0
VERTEX
  5
319
100
AcDbEntity
  8
Frei
  6
CONTINUOUS
 62
           7
100
AcDbVertex
100
AcDb2dVertex
 10
-14354.421979399722
 20
-2382.536129192653
 30
0.0
  0
VERTEX
  5
31A
100
AcDbEntity
  8
Frei
  6
CONTINUOUS
 62
           7
100
AcDbVertex
100
AcDb2dVertex
 10
-14354.297142685247
 20
-2382.144057570486
 30
0.0
 42
0.040993490695
  0
VERTEX
  5
31B
100
AcDbEntity
  8
Frei
  6
CONTINUOUS
 62
           7
100
AcDbVertex
100
AcDb2dVertex
 10
-14354.145422871201
 20
-2381.333025569949
 30
0.0
  0
VERTEX
  5
31C
100
AcDbEntity
  8
Frei
  6
CONTINUOUS
 62
           7
100
AcDbVertex
100
AcDb2dVertex
 10
-14354.119878910711
 20
-2380.920918004752
 30
0.0
  0
VERTEX
  5
31D
100
AcDbEntity
  8
Frei
  6
CONTINUOUS
 62
           7
100
AcDbVertex
100
AcDb2dVertex
 10
-14354.128198787945
 20
-2380.508104277444
 30
0.0
 42
0.041278481646
  0
VERTEX
  5
31E
100
AcDbEntity
  8
Frei
  6
CONTINUOUS
 62
           7
100
AcDbVertex
100
AcDb2dVertex
 10
-14354.245993780532
 20
-2379.694358509017
 30
0.0
  0
VERTEX
  5
31F
100
AcDbEntity
  8
Frei
  6
CONTINUOUS
 62
           7
100
AcDbVertex
100
AcDb2dVertex
 10
-14354.354321336228
 20
-2379.300214202946
 30
0.0
  0
VERTEX
  5
320
100
AcDbEntity
  8
Frei
  6
CONTINUOUS
 62
           7
100
AcDbVertex
100
AcDb2dVertex
 10
-14354.495228707721
 20
-2378.916513518065
 30
0.0
 42
0.042584509173
  0
VERTEX
  5
321
100
AcDbEntity
  8
Frei
  6
CONTINUOUS
 62
           7
100
AcDbVertex
100
AcDb2dVertex
 10
-14354.868330692365
 20
-2378.198203731029
 30
0.0
  0
VERTEX
  5
322
100
AcDbEntity
  8
Frei
  6
CONTINUOUS
 62
           7
100
AcDbVertex
100
AcDb2dVertex
 10
-14355.097279060412
 20
-2377.869151773945
 30
0.0
  0
VERTEX
  5
323
100
AcDbEntity
  8
Frei
  6
CONTINUOUS
 62
           7
100
AcDbVertex
100
AcDb2dVertex
 10
-14355.353963219464
 20
-2377.561254627305
 30
0.0
 42
0.044417198743
  0
VERTEX
  5
324
100
AcDbEntity
  8
Frei
  6
CONTINUOUS
 62
           7
100
AcDbVertex
100
AcDb2dVertex
 10
-14355.937370590418
 20
-2377.0250195831
 30
0.0
  0
VERTEX
  5
325
100
AcDbEntity
  8
Frei
  6
CONTINUOUS
 62
           7
100
AcDbVertex
100
AcDb2dVertex
 10
-14356.259594661689
 20
-2376.800360018553
 30
0.0
  0
VERTEX
  5
326
100
AcDbEntity
  8
Frei
  6
CONTINUOUS
 62
           7
100
AcDbVertex
100
AcDb2dVertex
 10
-14356.600826267486
 20
-2376.605791828883
 30
0.0
 42
0.045929593742
  0
VERTEX
  5
327
100
AcDbEntity
  8
Frei
  6
CONTINUOUS
 62
           7
100
AcDbVertex
100
AcDb2dVertex
 10
-14357.324171485638
 20
-2376.316309387825
 30
0.0
  0
VERTEX
  5
328
100
AcDbEntity
  8
Frei
  6
CONTINUOUS
 62
           7
100
AcDbVertex
100
AcDb2dVertex
 10
-14357.701300771683
 20
-2376.223188994497
 30
0.0
  0
VERTEX
  5
329
100
AcDbEntity
  8
Frei
  6
CONTINUOUS
 62
           7
100
AcDbVertex
100
AcDb2dVertex
 10
-14358.085427766455
 20
-2376.165368037414
 30
0.0
  0
SEQEND
  5
32A
100
AcDbEntity
  8
Frei
  6
CONTINUOUS
 62
           7
  0
ARC
  5
32B
100
AcDbEntity
  8
Frei
  6
CONTINUOUS
 62
           7
100
AcDbCircle
 10
-14225.133486693179
 20
-2399.424347782904
 30
0.0
 40
0.5
100
AcDbArc
 50
271.253821982568
 51
354.103999999999
  0
ARC
  5
32C
100
AcDbEntity
  8
Frei
  6
CONTINUOUS
 62
           7
100
AcDbCircle
 10
-14224.607790696307
 20
-2394.333817074442
 30
0.0
 40
0.5
100
AcDbArc
 50
354.103999999999
 51
76.954178017423
  0
ARC
  5
32D
100
AcDbEntity
  8
Frei
  6
CONTINUOUS
 62
           7
100
AcDbCircle
 10
-14377.992100615731
 20
-2356.37691395385
 30
0.0
 40
0.5
100
AcDbArc
 50
91.253821982565
 51
174.104
  0
ARC
  5
32E
100
AcDbEntity
  8
Frei
  6
CONTINUOUS
 62
           7
100
AcDbCircle
 10
-14378.517796612605
 20
-2361.467444662311
 30
0.0
 40
0.5
100
AcDbArc
 50
174.104
 51
256.954178017419
  0
ARC
  5
32F
100
AcDbEntity
  8
Frei
  6
CONTINUOUS
 62
           7
100
AcDbCircle
 10
-14408.258536502066
 20
-2357.275486800375
 30
0.0
 40
2.0
100
AcDbArc
 50
86.104
 51
174.104
  0
ARC
  5
330
100
AcDbEntity
  8
Frei
  6
CONTINUOUS
 62
           7
100
AcDbCircle
 10
-14426.00465544757
 20
-2412.299548488901
 30
0.0
 40
1.5
100
AcDbArc
 50
174.104
 51
264.104
  0
ARC
  5
331
100
AcDbEntity
  8
Frei
  6
CONTINUOUS
 62
           7
100
AcDbCircle
 10
-14424.463809049872
 20
-2397.378898624411
 30
0.0
 40
1.5
100
AcDbArc
 50
84.104
 51
174.104
  0
ARC
  5
332
100
AcDbEntity
  8
Frei
  6
CONTINUOUS
 62
           7
100
AcDbCircle
 10
-14413.862689369618
 20
-2411.542805625127
 30
0.0
 40
1.5
100
AcDbArc
 50
174.104
 51
264.104
  0
ARC
  5
333
100
AcDbEntity
  8
Frei
  6
CONTINUOUS
 62
           7
100
AcDbCircle
 10
-14388.994939595468
 20
-2414.110882954623
 30
0.0
 40
1.5
100
AcDbArc
 50
264.104
 51
354.103999999999
  0
ARC
  5
334
100
AcDbEntity
  8
Frei
  6
CONTINUOUS
 62
           7
100
AcDbCircle
 10
-14223.873081095113
 20
-2431.162916422479
 30
0.0
 40
1.5
100
AcDbArc
 50
174.104
 51
264.104000000001
  0
ARC
  5
335
100
AcDbEntity
  8
Frei
  6
CONTINUOUS
 62
           7
100
AcDbCircle
 10
-14199.005331320963
 20
-2433.730993751976
 30
0.0
 40
1.5
100
AcDbArc
 50
264.104000000001
 51
354.103999999999
  0
ARC
  5
336
100
AcDbEntity
  8
Frei
  6
CONTINUOUS
 62
           7
100
AcDbCircle
 10
-14185.733411218032
 20
-2422.032440987576
 30
0.0
 40
1.5
100
AcDbArc
 50
354.103999999999
 51
84.104
  0
ARC
  5
337
100
AcDbEntity
  8
Frei
  6
CONTINUOUS
 62
           7
100
AcDbCircle
 10
-14187.274257615731
 20
-2436.953090852066
 30
0.0
 40
1.5
100
AcDbArc
 50
264.104000000001
 51
354.103999999999
  0
ARC
  5
338
100
AcDbEntity
  8
Frei
  6
CONTINUOUS
 62
           7
100
AcDbCircle
 10
-14193.401178453409
 20
-2379.463674927224
 30
0.0
 40
2.0
100
AcDbArc
 50
354.103999999999
 51
82.104
  0
ARC
  5
339
100
AcDbEntity
  8
Frei
  6
CONTINUOUS
 62
           7
100
AcDbCircle
 10
-14222.134528917079
 20
-2370.520708049727
 30
0.0
 40
1.0
100
AcDbArc
 50
354.103999999999
 51
84.104
  0
ARC
  5
33A
100
AcDbEntity
  8
Frei
  6
CONTINUOUS
 62
           7
100
AcDbCircle
 10
-14225.318944805653
 20
-2401.356717769673
 30
0.0
 40
1.0
100
AcDbArc
 50
264.103999999999
 51
354.103999999999
  0
ARC
  5
33B
100
AcDbEntity
  8
Frei
  6
CONTINUOUS
 62
           7
100
AcDbCircle
 10
-14381.488413387317
 20
-2385.229192140436
 30
0.0
 40
1.0
100
AcDbArc
 50
174.104
 51
264.104
  0
ARC
  5
33C
100
AcDbEntity
  8
Frei
  6
CONTINUOUS
 62
           7
100
AcDbCircle
 10
-14378.303997498741
 20
-2354.39318242049
 30
0.0
 40
1.0
100
AcDbArc
 50
84.104
 51
174.104
  0
LINE
  5
33D
100
AcDbEntity
  8
Frei
  6
CONTINUOUS
 62
           7
100
AcDbLine
 10
-14664.032971816729
 20
-2346.559862461806
 30
0.0
 11
-14664.032971816729
 21
-2426.559862461806
 31
0.0
  0
LINE
  5
33E
100
AcDbEntity
  8
Frei
  6
CONTINUOUS
 62
           7
100
AcDbLine
 10
-14118.144086816728
 20
-2426.559862461806
 30
0.0
 11
-14118.144086816728
 21
-2346.559862461806
 31
0.0
  0
LINE
  5
33F
100
AcDbEntity
  8
Frei
  6
CONTINUOUS
 62
          15
100
AcDbLine
 10
-14588.938955676116
 20
-2346.559862461806
 30
0.0
 11
-14664.032971816729
 21
-2346.559862461806
 31
0.0
  0
LINE
  5
340
100
AcDbEntity
  8
Frei
  6
GESTRICHELT
 62
          15
100
AcDbLine
 10
-14481.975557537908
 20
-2346.559862461806
 30
0.0
 11
-14588.938955676116
 21
-2346.559862461806
 31
0.0
  0
LINE
  5
341
100
AcDbEntity
  8
Frei
  6
CONTINUOUS
 62
          15
100
AcDbLine
 10
-14464.633857325089
 20
-2346.559862461806
 30
0.0
 11
-14481.975557537908
 21
-2346.559862461806
 31
0.0
  0
LINE
  5
342
100
AcDbEntity
  8
Frei
  6
GESTRICHELT
 62
          15
100
AcDbLine
 10
-14267.246737818912
 20
-2346.559862461806
 30
0.0
 11
-14464.633857325089
 21
-2346.559862461806
 31
0.0
  0
LINE
  5
343
100
AcDbEntity
  8
Frei
  6
CONTINUOUS
 62
          15
100
AcDbLine
 10
-14118.144086816728
 20
-2346.559862461806
 30
0.0
 11
-14267.246737818912
 21
-2346.559862461806
 31
0.0
  0
LINE
  5
344
100
AcDbEntity
  8
Frei
  6
CONTINUOUS
 62
          15
100
AcDbLine
 10
-14224.905703737304
 20
-2426.559862461806
 30
0.0
 11
-14664.032971816729
 21
-2426.559862461806
 31
0.0
  0
LINE
  5
345
100
AcDbEntity
  8
Frei
  6
GESTRICHELT
 62
          15
100
AcDbLine
 10
-14174.639796634629
 20
-2426.559862461806
 30
0.0
 11
-14224.905703737304
 21
-2426.559862461806
 31
0.0
  0
LINE
  5
346
100
AcDbEntity
  8
Frei
  6
CONTINUOUS
 62
          15
100
AcDbLine
 10
-14118.144086816728
 20
-2426.559862461806
 30
0.0
 11
-14174.639796634629
 21
-2426.559862461806
 31
0.0
  0
TEXT
  5
347
100
AcDbEntity
  8
FREI
  6
CONTINUOUS
 62
          15
100
AcDbText
 10
-14787.428973989487
 20
-2458.314950530122
 30
0.0
 40
3.527777671814
  1
200-700
 41
0.899999979725
  7
GOTHICG
100
AcDbText
  0
ENDSEC
  0
SECTION
  2
OBJECTS
  0
DICTIONARY
  5
19
100
AcDbDictionary
  3
ACAD_GROUP
350
1A
  3
ACAD_MLINESTYLE
350
1B
  0
DICTIONARY
  5
1A
102
{ACAD_REACTORS
330
19
102
}
100
AcDbDictionary
  0
DICTIONARY
  5
1B
102
{ACAD_REACTORS
330
19
102
}
100
AcDbDictionary
  3
STANDARD
350
1C
  0
MLINESTYLE
  5
1C
102
{ACAD_REACTORS
330
1B
102
}
100
AcDbMlineStyle
  2
STANDARD
 70
           0
  3

 62
           0
 51
90.0
 52
90.0
 71
           2
 49
0.5
 62
         256
  6
BYLAYER
 49
-0.5
 62
         256
  6
BYLAYER
  0
ENDSEC
  0
EOF
