  0
SECTION
  2
HEADER
  9
$ACADVER
  1
AC1012
  9
$DWGCODEPAGE
  3
dos850
  9
$INSBASE
 10
0.0
 20
0.0
 30
0.0
  9
$EXTMIN
 10
-14865.653565404869
 20
-3042.701533225528
 30
0.0
  9
$EXTMAX
 10
-14134.40380977723
 20
-2704.025309298341
 30
0.0
  9
$LIMMIN
 10
-14865.653565404869
 20
-3042.701533225528
  9
$LIMMAX
 10
-14134.40380977723
 20
-2704.025309298341
  9
$ORTHOMODE
 70
           0
  9
$REGENMODE
 70
           1
  9
$FILLMODE
 70
           1
  9
$QTEXTMODE
 70
           0
  9
$MIRRTEXT
 70
           1
  9
$DRAGMODE
 70
           2
  9
$LTSCALE
 40
5.0
  9
$OSMODE
 70
           0
  9
$ATTMODE
 70
           1
  9
$TEXTSIZE
 40
0.2
  9
$TRACEWID
 40
0.05
  9
$TEXTSTYLE
  7
TXT
  9
$CLAYER
  8
0
  9
$CELTYPE
  6
CONTINUOUS
  9
$CECOLOR
 62
         256
  9
$CELTSCALE
 40
1.0
  9
$DELOBJ
 70
           1
  9
$DISPSILH
 70
           0
  9
$DIMSCALE
 40
1.0
  9
$DIMASZ
 40
3.5
  9
$DIMEXO
 40
0.0625
  9
$DIMDLI
 40
0.38
  9
$DIMRND
 40
0.0
  9
$DIMDLE
 40
0.0
  9
$DIMEXE
 40
0.18
  9
$DIMTP
 40
0.0
  9
$DIMTM
 40
0.0
  9
$DIMTXT
 40
3.5
  9
$DIMCEN
 40
0.09
  9
$DIMTSZ
 40
0.0
  9
$DIMTOL
 70
           0
  9
$DIMLIM
 70
           0
  9
$DIMTIH
 70
           1
  9
$DIMTOH
 70
           1
  9
$DIMSE1
 70
           0
  9
$DIMSE2
 70
           0
  9
$DIMTAD
 70
           0
  9
$DIMZIN
 70
           0
  9
$DIMBLK
  1

  9
$DIMASO
 70
           1
  9
$DIMSHO
 70
           1
  9
$DIMPOST
  1

  9
$DIMAPOST
  1

  9
$DIMALT
 70
           0
  9
$DIMALTD
 70
           2
  9
$DIMALTF
 40
25.4
  9
$DIMLFAC
 40
1.0
  9
$DIMTOFL
 70
           0
  9
$DIMTVP
 40
0.0
  9
$DIMTIX
 70
           0
  9
$DIMSOXD
 70
           0
  9
$DIMSAH
 70
           0
  9
$DIMBLK1
  1

  9
$DIMBLK2
  1

  9
$DIMSTYLE
  2
STANDARD
  9
$DIMCLRD
 70
           0
  9
$DIMCLRE
 70
           0
  9
$DIMCLRT
 70
           0
  9
$DIMTFAC
 40
1.0
  9
$DIMGAP
 40
0.09
  9
$DIMJUST
 70
           0
  9
$DIMSD1
 70
           0
  9
$DIMSD2
 70
           0
  9
$DIMTOLJ
 70
           1
  9
$DIMTZIN
 70
           0
  9
$DIMALTZ
 70
           0
  9
$DIMALTTZ
 70
           0
  9
$DIMFIT
 70
           3
  9
$DIMUPT
 70
           0
  9
$DIMUNIT
 70
           2
  9
$DIMDEC
 70
           4
  9
$DIMTDEC
 70
           4
  9
$DIMALTU
 70
           2
  9
$DIMALTTD
 70
           2
  9
$DIMTXSTY
  7
TXT
  9
$DIMAUNIT
 70
           0
  9
$LUNITS
 70
           2
  9
$LUPREC
 70
           3
  9
$SKETCHINC
 40
0.1
  9
$FILLETRAD
 40
0.0
  9
$AUNITS
 70
           0
  9
$AUPREC
 70
           3
  9
$MENU
  1
acad
  9
$ELEVATION
 40
0.0
  9
$PELEVATION
 40
0.0
  9
$THICKNESS
 40
0.0
  9
$LIMCHECK
 70
           0
  9
$BLIPMODE
 70
           1
  9
$CHAMFERA
 40
0.0
  9
$CHAMFERB
 40
0.0
  9
$CHAMFERC
 40
0.0
  9
$CHAMFERD
 40
0.0
  9
$SKPOLY
 70
           0
  9
$TDCREATE
 40
0.000000000
  9
$TDUPDATE
 40
0.000000000
  9
$TDINDWG
 40
0.0000000000
  9
$TDUSRTIMER
 40
0.0000000000
  9
$USRTIMER
 70
           1
  9
$ANGBASE
 50
0.0
  9
$ANGDIR
 70
           0
  9
$PDMODE
 70
           2
  9
$PDSIZE
 40
0.5
  9
$PLINEWID
 40
0.0
  9
$COORDS
 70
           0
  9
$SPLFRAME
 70
           0
  9
$SPLINETYPE
 70
           6
  9
$SPLINESEGS
 70
           8
  9
$ATTDIA
 70
           0
  9
$ATTREQ
 70
           1
  9
$HANDLING
 70
           1
  9
$HANDSEED
  5
3A4
  9
$SURFTAB1
 70
           6
  9
$SURFTAB2
 70
           6
  9
$SURFTYPE
 70
           6
  9
$SURFU
 70
           6
  9
$SURFV
 70
           6
  9
$UCSNAME
  2

  9
$UCSORG
 10
0.0
 20
0.0
 30
0.0
  9
$UCSXDIR
 10
1.0
 20
0.0
 30
0.0
  9
$UCSYDIR
 10
0.0
 20
1.0
 30
0.0
  9
$PUCSNAME
  2

  9
$PUCSORG
 10
0.0
 20
0.0
 30
0.0
  9
$PUCSXDIR
 10
1.0
 20
0.0
 30
0.0
  9
$PUCSYDIR
 10
0.0
 20
1.0
 30
0.0
  9
$USERI1
 70
           0
  9
$USERI2
 70
           0
  9
$USERI3
 70
           0
  9
$USERI4
 70
           0
  9
$USERI5
 70
           0
  9
$USERR1
 40
0.0
  9
$USERR2
 40
0.0
  9
$USERR3
 40
0.0
  9
$USERR4
 40
0.0
  9
$USERR5
 40
0.0
  9
$WORLDVIEW
 70
           1
  9
$SHADEDGE
 70
           3
  9
$SHADEDIF
 70
          70
  9
$TILEMODE
 70
           1
  9
$MAXACTVP
 70
          16
  9
$PINSBASE
 10
0.0
 20
0.0
 30
0.0
  9
$PLIMCHECK
 70
           0
  9
$PEXTMIN
 10
1.000000000000E+20
 20
1.000000000000E+20
 30
1.000000000000E+20
  9
$PEXTMAX
 10
-1.000000000000E+20
 20
-1.000000000000E+20
 30
-1.000000000000E+20
  9
$PLIMMIN
 10
0.0
 20
0.0
  9
$PLIMMAX
 10
12.0
 20
9.0
  9
$UNITMODE
 70
           0
  9
$VISRETAIN
 70
           0
  9
$PLINEGEN
 70
           1
  9
$PSLTSCALE
 70
           0
  9
$TREEDEPTH
 70
        3020
  9
$PICKSTYLE
 70
           1
  9
$CMLSTYLE
  2
STANDARD
  9
$CMLJUST
 70
           0
  9
$CMLSCALE
 40
1.0
  9
$SAVEIMAGES
 70
           0
  0
ENDSEC
  0
SECTION
  2
CLASSES
  0
CLASS
  1
LWPOLYLINE
  2
AcDbPolyline
  3
"AutoCAD"
 90
        0
280
           0
281
           1
  0
CLASS
  1
IMAGE
  2
AcDbRasterImage
  3
ISM
 90
      127
280
           0
281
           1
  0
CLASS
  1
OLE2FRAME
  2
AcDbOle2Frame
  3
""
 90
        0
280
           0
281
           1
  0
CLASS
  1
HATCH
  2
AcDbHatch
  3
"ACAD_SEDONA"
 90
        0
280
           0
281
           1
  0
CLASS
  1
DICTIONARYVAR
  2
AcDbDictionaryVar
  3
"AutoCAD"
 90
        0
280
           0
281
           0
  0
CLASS
  1
RASTERVARIABLES
  2
AcDbRasterVariables
  3
ISM
 90
        0
280
           0
281
           0
  0
CLASS
  1
IMAGEDEF
  2
AcDbRasterImageDef
  3
ISM
 90
        0
280
           0
281
           0
  0
CLASS
  1
IMAGEDEF_REACTOR
  2
AcDbRasterImageDefReactor
  3
ISM
 90
        1
280
           0
281
           0
  0
CLASS
  1
IDBUFFER
  2
AcDbIdBuffer
  3
"Acad"
 90
        0
280
           0
281
           0
  0
CLASS
  1
SPATIAL_FILTER
  2
AcDbSpatialFilter
  3
"Acad"
 90
        0
280
           0
281
           0
  0
CLASS
  1
XRECORD
  2
AcDbXrecord
  3
"<Built In>"
 90
        0
280
           0
281
           0
  0
ENDSEC
  0
SECTION
  2
TABLES
  0
TABLE
  2
VPORT
  5
7
100
AcDbSymbolTable
 70
           1
  0
VPORT
  5
15
100
AcDbSymbolTableRecord
100
AcDbViewportTableRecord
  2
*ACTIVE
 70
           0
 10
0.0
 20
0.0
 11
1.0
 21
1.0
 12
6.591288
 22
4.579184
 13
0.0
 23
0.0
 14
1.0
 24
1.0
 15
0.0
 25
0.0
 16
0.0
 26
0.0
 36
1.0
 17
0.0
 27
0.0
 37
0.0
 40
9.158369
 41
0.688564
 42
50.0
 43
0.0
 44
0.0
 50
0.0
 51
0.0
 71
           0
 72
         100
 73
           1
 74
           1
 75
           0
 76
           0
 77
           0
 78
           0
  0
ENDTAB
  0
TABLE
  2
LTYPE
  5
4
100
AcDbSymbolTable
 70
           5
  0
LTYPE
  5
11
100
AcDbSymbolTableRecord
100
AcDbLinetypeTableRecord
  2
BYBLOCK
 70
           0
  3

 72
          65
 73
           0
 40
0.0
  0
LTYPE
  5
12
100
AcDbSymbolTableRecord
100
AcDbLinetypeTableRecord
  2
BYLAYER
 70
           0
  3

 72
          65
 73
           0
 40
0.0
  0
LTYPE
  5
13
100
AcDbSymbolTableRecord
100
AcDbLinetypeTableRecord
  2
CONTINUOUS
 70
           0
  3
Solid line
 72
          65
 73
           0
 40
0.0
  0
LTYPE
  5
1D
100
AcDbSymbolTableRecord
100
AcDbLinetypeTableRecord
  2
GESTRICHELT
 70
           0
  3

 72
          65
 73
           2
 40
0.75
 49
0.5
 74
           0
 49
-0.25
 74
           0
  0
LTYPE
  5
1E
100
AcDbSymbolTableRecord
100
AcDbLinetypeTableRecord
  2
STRICHPUNKT
 70
           0
  3

 72
          65
 73
           4
 40
1.0
 49
0.5
 74
           0
 49
-0.25
 74
           0
 49
0.0
 74
           0
 49
-0.25
 74
           0
  0
ENDTAB
  0
TABLE
  2
LAYER
  5
2
100
AcDbSymbolTable
 70
           3
  0
LAYER
  5
14
100
AcDbSymbolTableRecord
100
AcDbLayerTableRecord
  2
0
 70
           0
 62
           7
  6
CONTINUOUS
  0
LAYER
  5
20
100
AcDbSymbolTableRecord
100
AcDbLayerTableRecord
  2
FREI
 70
           0
 62
           7
  6
CONTINUOUS
  0
LAYER
  5
21
100
AcDbSymbolTableRecord
100
AcDbLayerTableRecord
  2
Frei
 70
           0
 62
           7
  6
CONTINUOUS
  0
ENDTAB
  0
TABLE
  2
STYLE
  5
3
100
AcDbSymbolTable
 70
           2
  0
STYLE
  5
17
100
AcDbSymbolTableRecord
100
AcDbTextStyleTableRecord
  2
TXT
 70
           0
 40
3.5
 41
1.0
 50
0.0
 71
           0
 42
3.5
  3
TXT
  4

  0
STYLE
  5
1F
100
AcDbSymbolTableRecord
100
AcDbTextStyleTableRecord
  2
GOTHICG
 70
           0
 40
3.5
 41
1.0
 50
0.0
 71
           0
 42
3.5
  3
GOTHICG
  4

  0
ENDTAB
  0
TABLE
  2
VIEW
  5
5
100
AcDbSymbolTable
 70
           0
  0
ENDTAB
  0
TABLE
  2
UCS
  5
6
100
AcDbSymbolTable
 70
           0
  0
ENDTAB
  0
TABLE
  2
APPID
  5
8
100
AcDbSymbolTable
 70
           2
  0
APPID
  5
16
100
AcDbSymbolTableRecord
100
AcDbRegAppTableRecord
  2
ACAD
 70
           0
  0
APPID
  5
22
100
AcDbSymbolTableRecord
100
AcDbRegAppTableRecord
  2
MegaCADPntStyle
 70
           0
  0
ENDTAB
  0
TABLE
  2
DIMSTYLE
  5
9
100
AcDbSymbolTable
 70
           1
  0
DIMSTYLE
105
18
100
AcDbSymbolTableRecord
100
AcDbDimStyleTableRecord
  2
STANDARD
 70
           0
  3

  4

  5

  6

  7

 40
1.0
 41
0.18
 42
0.0625
 43
0.38
 44
0.18
 45
0.0
 46
0.0
 47
0.0
 48
0.0
140
0.18
141
0.09
142
0.0
143
25.4
144
1.0
145
0.0
146
1.0
147
0.09
 71
           0
 72
           0
 73
           1
 74
           1
 75
           0
 76
           0
 77
           0
 78
           0
170
           0
171
           2
172
           0
173
           0
174
           0
175
           0
176
           0
177
           0
178
           0
270
           2
271
           4
272
           4
273
           2
274
           2
340
17
275
           0
280
           0
281
           0
282
           0
283
           1
284
           0
285
           0
286
           0
287
           0
288
           0
  0
ENDTAB
  0
TABLE
  2
BLOCK_RECORD
  5
1
100
AcDbSymbolTable
 70
           3
  0
BLOCK_RECORD
  5
A
100
AcDbSymbolTableRecord
100
AcDbBlockTableRecord
  2
*MODEL_SPACE
  0
BLOCK_RECORD
  5
B
100
AcDbSymbolTableRecord
100
AcDbBlockTableRecord
  2
*PAPER_SPACE
  0
BLOCK_RECORD
  5
23
100
AcDbSymbolTableRecord
100
AcDbBlockTableRecord
  2
ELIPPSE
  0
BLOCK_RECORD
  5
24
100
AcDbSymbolTableRecord
100
AcDbBlockTableRecord
  2
MAK1
  0
BLOCK_RECORD
  5
25
100
AcDbSymbolTableRecord
100
AcDbBlockTableRecord
  2
MAK2
  0
ENDTAB
  0
ENDSEC
  0
SECTION
  2
BLOCKS
  0
BLOCK
  5
D
100
AcDbEntity
  8
0
100
AcDbBlockBegin
  2
*MODEL_SPACE
 70
           0
 10
0.0
 20
0.0
 30
0.0
  3
*MODEL_SPACE
  1

  0
ENDBLK
  5
E
100
AcDbEntity
  8
0
100
AcDbBlockEnd
  0
BLOCK
  5
F
100
AcDbEntity
 67
           1
  8
0
100
AcDbBlockBegin
  2
*PAPER_SPACE
 70
           0
 10
0.0
 20
0.0
 30
0.0
  3
*PAPER_SPACE
  1

  0
ENDBLK
  5
10
100
AcDbEntity
 67
           1
  8
0
100
AcDbBlockEnd
  0
BLOCK
  5
348
100
AcDbEntity
  8
0
100
AcDbBlockBegin
  2
ELIPPSE
 70
          64
 10
0.0
 20
0.0
 30
0.0
  3
ELIPPSE
  1

  0
CIRCLE
  5
349
100
AcDbEntity
  8
0
  6
BYBLOCK
 62
           0
100
AcDbCircle
 10
0.0
 20
0.0
 30
0.0
 40
1.0
  0
ENDBLK
  5
34A
100
AcDbEntity
  8
0
  6
BYBLOCK
 62
           0
100
AcDbBlockEnd
  0
BLOCK
  5
34B
100
AcDbEntity
  8
0
100
AcDbBlockBegin
  2
MAK1
 70
          64
 10
0.0
 20
0.0
 30
0.0
  3
MAK1
  1

  0
LINE
  5
34C
100
AcDbEntity
  8
Frei
  6
CONTINUOUS
 62
           2
100
AcDbLine
 10
191.903508353413
 20
615.10691689356
 30
0.0
 11
192.293358480829
 21
615.496767020979
 31
0.0
  0
LINE
  5
34D
100
AcDbEntity
  8
Frei
  6
CONTINUOUS
 62
           2
100
AcDbLine
 10
191.903508353413
 20
614.046256721781
 30
0.0
 11
193.35401865261
 21
615.496767020979
 31
0.0
  0
LINE
  5
34E
100
AcDbEntity
  8
Frei
  6
CONTINUOUS
 62
           2
100
AcDbLine
 10
191.903508353413
 20
612.985596550001
 30
0.0
 11
193.903508353413
 21
614.985596550001
 31
0.0
  0
LINE
  5
34F
100
AcDbEntity
  8
Frei
  6
CONTINUOUS
 62
           2
100
AcDbLine
 10
191.903508353411
 20
611.924936378221
 30
0.0
 11
193.903508353413
 21
613.924936378221
 31
0.0
  0
LINE
  5
350
100
AcDbEntity
  8
Frei
  6
CONTINUOUS
 62
           2
100
AcDbLine
 10
191.903508353413
 20
610.864276206442
 30
0.0
 11
193.903508353413
 21
612.864276206441
 31
0.0
  0
LINE
  5
351
100
AcDbEntity
  8
Frei
  6
CONTINUOUS
 62
           2
100
AcDbLine
 10
191.903508353413
 20
609.803616034662
 30
0.0
 11
193.903508353413
 21
611.803616034662
 31
0.0
  0
LINE
  5
352
100
AcDbEntity
  8
Frei
  6
CONTINUOUS
 62
           2
100
AcDbLine
 10
191.903508353415
 20
608.742955862882
 30
0.0
 11
193.903508353413
 21
610.742955862882
 31
0.0
  0
LINE
  5
353
100
AcDbEntity
  8
Frei
  6
CONTINUOUS
 62
           2
100
AcDbLine
 10
191.903508353413
 20
607.682295691102
 30
0.0
 11
193.903508353413
 21
609.682295691102
 31
0.0
  0
LINE
  5
354
100
AcDbEntity
  8
Frei
  6
CONTINUOUS
 62
           2
100
AcDbLine
 10
191.903508353413
 20
606.621635519322
 30
0.0
 11
193.903508353413
 21
608.621635519322
 31
0.0
  0
LINE
  5
355
100
AcDbEntity
  8
Frei
  6
CONTINUOUS
 62
           2
100
AcDbLine
 10
191.903508353413
 20
605.560975347542
 30
0.0
 11
193.903508353415
 21
607.560975347543
 31
0.0
  0
LINE
  5
356
100
AcDbEntity
  8
Frei
  6
CONTINUOUS
 62
           2
100
AcDbLine
 10
191.903508353413
 20
604.500315175763
 30
0.0
 11
193.903508353413
 21
606.500315175763
 31
0.0
  0
LINE
  5
357
100
AcDbEntity
  8
Frei
  6
CONTINUOUS
 62
           2
100
AcDbLine
 10
191.903508353413
 20
603.439655003983
 30
0.0
 11
193.903508353415
 21
605.439655003983
 31
0.0
  0
LINE
  5
358
100
AcDbEntity
  8
Frei
  6
CONTINUOUS
 62
           2
100
AcDbLine
 10
191.903508353413
 20
602.378994832204
 30
0.0
 11
193.903508353413
 21
604.378994832203
 31
0.0
  0
LINE
  5
359
100
AcDbEntity
  8
Frei
  6
CONTINUOUS
 62
           2
100
AcDbLine
 10
191.903508353411
 20
601.318334660424
 30
0.0
 11
193.903508353413
 21
603.318334660423
 31
0.0
  0
LINE
  5
35A
100
AcDbEntity
  8
Frei
  6
CONTINUOUS
 62
           2
100
AcDbLine
 10
191.903508353413
 20
600.257674488644
 30
0.0
 11
193.903508353413
 21
602.257674488643
 31
0.0
  0
LINE
  5
35B
100
AcDbEntity
  8
Frei
  6
CONTINUOUS
 62
           2
100
AcDbLine
 10
191.903508353411
 20
599.197014316864
 30
0.0
 11
193.903508353413
 21
601.197014316864
 31
0.0
  0
LINE
  5
35C
100
AcDbEntity
  8
Frei
  6
CONTINUOUS
 62
           2
100
AcDbLine
 10
191.903508353415
 20
598.136354145084
 30
0.0
 11
193.903508353413
 21
600.136354145084
 31
0.0
  0
LINE
  5
35D
100
AcDbEntity
  8
Frei
  6
CONTINUOUS
 62
           2
100
AcDbLine
 10
191.903508353415
 20
597.075693973305
 30
0.0
 11
193.903508353413
 21
599.075693973305
 31
0.0
  0
LINE
  5
35E
100
AcDbEntity
  8
Frei
  6
CONTINUOUS
 62
           2
100
AcDbLine
 10
191.903508353415
 20
596.015033801525
 30
0.0
 11
193.903508353411
 21
598.015033801525
 31
0.0
  0
LINE
  5
35F
100
AcDbEntity
  8
Frei
  6
CONTINUOUS
 62
           2
100
AcDbLine
 10
192.445901744648
 20
595.496767020979
 30
0.0
 11
193.903508353413
 21
596.954373629745
 31
0.0
  0
LINE
  5
360
100
AcDbEntity
  8
Frei
  6
CONTINUOUS
 62
           2
100
AcDbLine
 10
193.506561916425
 20
595.496767020979
 30
0.0
 11
193.903508353413
 21
595.893713457965
 31
0.0
  0
LINE
  5
361
100
AcDbEntity
  8
Frei
  6
CONTINUOUS
 62
           2
100
AcDbLine
 10
192.573740611429
 20
595.496767020979
 30
0.0
 11
191.903508353413
 21
596.166999278998
 31
0.0
  0
LINE
  5
362
100
AcDbEntity
  8
Frei
  6
CONTINUOUS
 62
           2
100
AcDbLine
 10
193.634400783209
 20
595.496767020979
 30
0.0
 11
191.903508353413
 21
597.227659450778
 31
0.0
  0
LINE
  5
363
100
AcDbEntity
  8
Frei
  6
CONTINUOUS
 62
           2
100
AcDbLine
 10
193.903508353413
 20
596.288319622557
 30
0.0
 11
191.903508353413
 21
598.288319622557
 31
0.0
  0
LINE
  5
364
100
AcDbEntity
  8
Frei
  6
CONTINUOUS
 62
           2
100
AcDbLine
 10
193.903508353415
 20
597.348979794337
 30
0.0
 11
191.903508353415
 21
599.348979794337
 31
0.0
  0
LINE
  5
365
100
AcDbEntity
  8
Frei
  6
CONTINUOUS
 62
           2
100
AcDbLine
 10
193.903508353413
 20
598.409639966117
 30
0.0
 11
191.903508353413
 21
600.409639966117
 31
0.0
  0
LINE
  5
366
100
AcDbEntity
  8
Frei
  6
CONTINUOUS
 62
           2
100
AcDbLine
 10
193.903508353415
 20
599.470300137897
 30
0.0
 11
191.903508353415
 21
601.470300137896
 31
0.0
  0
LINE
  5
367
100
AcDbEntity
  8
Frei
  6
CONTINUOUS
 62
           2
100
AcDbLine
 10
193.903508353413
 20
600.530960309676
 30
0.0
 11
191.903508353413
 21
602.530960309676
 31
0.0
  0
LINE
  5
368
100
AcDbEntity
  8
Frei
  6
CONTINUOUS
 62
           2
100
AcDbLine
 10
193.903508353413
 20
601.591620481456
 30
0.0
 11
191.903508353413
 21
603.591620481457
 31
0.0
  0
LINE
  5
369
100
AcDbEntity
  8
Frei
  6
CONTINUOUS
 62
           2
100
AcDbLine
 10
193.903508353415
 20
602.652280653236
 30
0.0
 11
191.903508353413
 21
604.652280653236
 31
0.0
  0
LINE
  5
36A
100
AcDbEntity
  8
Frei
  6
CONTINUOUS
 62
           2
100
AcDbLine
 10
193.903508353413
 20
603.712940825016
 30
0.0
 11
191.903508353413
 21
605.712940825016
 31
0.0
  0
LINE
  5
36B
100
AcDbEntity
  8
Frei
  6
CONTINUOUS
 62
           2
100
AcDbLine
 10
193.903508353413
 20
604.773600996795
 30
0.0
 11
191.903508353413
 21
606.773600996795
 31
0.0
  0
LINE
  5
36C
100
AcDbEntity
  8
Frei
  6
CONTINUOUS
 62
           2
100
AcDbLine
 10
193.903508353411
 20
605.834261168575
 30
0.0
 11
191.903508353413
 21
607.834261168575
 31
0.0
  0
LINE
  5
36D
100
AcDbEntity
  8
Frei
  6
CONTINUOUS
 62
           2
100
AcDbLine
 10
193.903508353413
 20
606.894921340355
 30
0.0
 11
191.903508353413
 21
608.894921340355
 31
0.0
  0
LINE
  5
36E
100
AcDbEntity
  8
Frei
  6
CONTINUOUS
 62
           2
100
AcDbLine
 10
193.903508353413
 20
607.955581512135
 30
0.0
 11
191.903508353415
 21
609.955581512135
 31
0.0
  0
LINE
  5
36F
100
AcDbEntity
  8
Frei
  6
CONTINUOUS
 62
           2
100
AcDbLine
 10
193.903508353413
 20
609.016241683914
 30
0.0
 11
191.903508353413
 21
611.016241683914
 31
0.0
  0
LINE
  5
370
100
AcDbEntity
  8
Frei
  6
CONTINUOUS
 62
           2
100
AcDbLine
 10
193.903508353413
 20
610.076901855694
 30
0.0
 11
191.903508353415
 21
612.076901855693
 31
0.0
  0
LINE
  5
371
100
AcDbEntity
  8
Frei
  6
CONTINUOUS
 62
           2
100
AcDbLine
 10
193.903508353413
 20
611.137562027474
 30
0.0
 11
191.903508353413
 21
613.137562027474
 31
0.0
  0
LINE
  5
372
100
AcDbEntity
  8
Frei
  6
CONTINUOUS
 62
           2
100
AcDbLine
 10
193.903508353413
 20
612.198222199254
 30
0.0
 11
191.903508353415
 21
614.198222199254
 31
0.0
  0
LINE
  5
373
100
AcDbEntity
  8
Frei
  6
CONTINUOUS
 62
           2
100
AcDbLine
 10
193.903508353415
 20
613.258882371033
 30
0.0
 11
191.903508353415
 21
615.258882371033
 31
0.0
  0
LINE
  5
374
100
AcDbEntity
  8
Frei
  6
CONTINUOUS
 62
           2
100
AcDbLine
 10
193.903508353413
 20
614.319542542813
 30
0.0
 11
192.726283875247
 21
615.496767020979
 31
0.0
  0
LINE
  5
375
100
AcDbEntity
  8
Frei
  6
CONTINUOUS
 62
           2
100
AcDbLine
 10
193.903508353415
 20
615.380202714593
 30
0.0
 11
193.786944047026
 21
615.496767020979
 31
0.0
  0
ENDBLK
  5
376
100
AcDbEntity
  8
0
  6
BYBLOCK
 62
           0
100
AcDbBlockEnd
  0
BLOCK
  5
377
100
AcDbEntity
  8
0
100
AcDbBlockBegin
  2
MAK2
 70
          64
 10
0.0
 20
0.0
 30
0.0
  3
MAK2
  1

  0
LINE
  5
378
100
AcDbEntity
  8
Frei
  6
CONTINUOUS
 62
           2
100
AcDbLine
 10
-32.096491646587
 20
614.906213139104
 30
0.0
 11
-31.505937764712
 21
615.496767020979
 31
0.0
  0
LINE
  5
379
100
AcDbEntity
  8
Frei
  6
CONTINUOUS
 62
           2
100
AcDbLine
 10
-32.096491646589
 20
613.845552967323
 30
0.0
 11
-30.445277592933
 21
615.496767020979
 31
0.0
  0
LINE
  5
37A
100
AcDbEntity
  8
Frei
  6
CONTINUOUS
 62
           2
100
AcDbLine
 10
-32.096491646589
 20
612.784892795543
 30
0.0
 11
-30.096491646589
 21
614.784892795543
 31
0.0
  0
LINE
  5
37B
100
AcDbEntity
  8
Frei
  6
CONTINUOUS
 62
           2
100
AcDbLine
 10
-32.096491646589
 20
611.724232623763
 30
0.0
 11
-30.096491646589
 21
613.724232623763
 31
0.0
  0
LINE
  5
37C
100
AcDbEntity
  8
Frei
  6
CONTINUOUS
 62
           2
100
AcDbLine
 10
-32.096491646589
 20
610.663572451983
 30
0.0
 11
-30.096491646589
 21
612.663572451983
 31
0.0
  0
LINE
  5
37D
100
AcDbEntity
  8
Frei
  6
CONTINUOUS
 62
           2
100
AcDbLine
 10
-32.096491646589
 20
609.602912280204
 30
0.0
 11
-30.096491646587
 21
611.602912280204
 31
0.0
  0
LINE
  5
37E
100
AcDbEntity
  8
Frei
  6
CONTINUOUS
 62
           2
100
AcDbLine
 10
-32.096491646587
 20
608.542252108424
 30
0.0
 11
-30.096491646589
 21
610.542252108424
 31
0.0
  0
LINE
  5
37F
100
AcDbEntity
  8
Frei
  6
CONTINUOUS
 62
           2
100
AcDbLine
 10
-32.096491646589
 20
607.481591936644
 30
0.0
 11
-30.096491646589
 21
609.481591936644
 31
0.0
  0
LINE
  5
380
100
AcDbEntity
  8
Frei
  6
CONTINUOUS
 62
           2
100
AcDbLine
 10
-32.096491646587
 20
606.420931764865
 30
0.0
 11
-30.096491646589
 21
608.420931764864
 31
0.0
  0
LINE
  5
381
100
AcDbEntity
  8
Frei
  6
CONTINUOUS
 62
           2
100
AcDbLine
 10
-32.096491646589
 20
605.360271593085
 30
0.0
 11
-30.096491646589
 21
607.360271593085
 31
0.0
  0
LINE
  5
382
100
AcDbEntity
  8
Frei
  6
CONTINUOUS
 62
           2
100
AcDbLine
 10
-32.096491646587
 20
604.299611421304
 30
0.0
 11
-30.096491646589
 21
606.299611421305
 31
0.0
  0
LINE
  5
383
100
AcDbEntity
  8
Frei
  6
CONTINUOUS
 62
           2
100
AcDbLine
 10
-32.096491646589
 20
603.238951249525
 30
0.0
 11
-30.096491646587
 21
605.238951249525
 31
0.0
  0
LINE
  5
384
100
AcDbEntity
  8
Frei
  6
CONTINUOUS
 62
           2
100
AcDbLine
 10
-32.096491646587
 20
602.178291077745
 30
0.0
 11
-30.096491646589
 21
604.178291077745
 31
0.0
  0
LINE
  5
385
100
AcDbEntity
  8
Frei
  6
CONTINUOUS
 62
           2
100
AcDbLine
 10
-32.096491646589
 20
601.117630905966
 30
0.0
 11
-30.096491646587
 21
603.117630905966
 31
0.0
  0
LINE
  5
386
100
AcDbEntity
  8
Frei
  6
CONTINUOUS
 62
           2
100
AcDbLine
 10
-32.096491646589
 20
600.056970734186
 30
0.0
 11
-30.096491646589
 21
602.056970734186
 31
0.0
  0
LINE
  5
387
100
AcDbEntity
  8
Frei
  6
CONTINUOUS
 62
           2
100
AcDbLine
 10
-32.096491646589
 20
598.996310562406
 30
0.0
 11
-30.096491646587
 21
600.996310562406
 31
0.0
  0
LINE
  5
388
100
AcDbEntity
  8
Frei
  6
CONTINUOUS
 62
           2
100
AcDbLine
 10
-32.096491646589
 20
597.935650390627
 30
0.0
 11
-30.096491646589
 21
599.935650390627
 31
0.0
  0
LINE
  5
389
100
AcDbEntity
  8
Frei
  6
CONTINUOUS
 62
           2
100
AcDbLine
 10
-32.096491646589
 20
596.874990218847
 30
0.0
 11
-30.096491646589
 21
598.874990218847
 31
0.0
  0
LINE
  5
38A
100
AcDbEntity
  8
Frei
  6
CONTINUOUS
 62
           2
100
AcDbLine
 10
-32.096491646589
 20
595.814330047067
 30
0.0
 11
-30.096491646589
 21
597.814330047067
 31
0.0
  0
LINE
  5
38B
100
AcDbEntity
  8
Frei
  6
CONTINUOUS
 62
           2
100
AcDbLine
 10
-31.353394500895
 20
595.49676702098
 30
0.0
 11
-30.096491646589
 21
596.753669875287
 31
0.0
  0
LINE
  5
38C
100
AcDbEntity
  8
Frei
  6
CONTINUOUS
 62
           2
100
AcDbLine
 10
-30.292734329116
 20
595.496767020979
 30
0.0
 11
-30.096491646589
 21
595.693009703506
 31
0.0
  0
LINE
  5
38D
100
AcDbEntity
  8
Frei
  6
CONTINUOUS
 62
           2
100
AcDbLine
 10
-31.225555634113
 20
595.496767020979
 30
0.0
 11
-32.096491646587
 21
596.367703033456
 31
0.0
  0
LINE
  5
38E
100
AcDbEntity
  8
Frei
  6
CONTINUOUS
 62
           2
100
AcDbLine
 10
-30.164895462332
 20
595.496767020979
 30
0.0
 11
-32.096491646587
 21
597.428363205235
 31
0.0
  0
LINE
  5
38F
100
AcDbEntity
  8
Frei
  6
CONTINUOUS
 62
           2
100
AcDbLine
 10
-30.096491646589
 20
596.489023377015
 30
0.0
 11
-32.096491646589
 21
598.489023377015
 31
0.0
  0
LINE
  5
390
100
AcDbEntity
  8
Frei
  6
CONTINUOUS
 62
           2
100
AcDbLine
 10
-30.096491646587
 20
597.549683548795
 30
0.0
 11
-32.096491646589
 21
599.549683548796
 31
0.0
  0
LINE
  5
391
100
AcDbEntity
  8
Frei
  6
CONTINUOUS
 62
           2
100
AcDbLine
 10
-30.096491646589
 20
598.610343720575
 30
0.0
 11
-32.096491646591
 21
600.610343720575
 31
0.0
  0
LINE
  5
392
100
AcDbEntity
  8
Frei
  6
CONTINUOUS
 62
           2
100
AcDbLine
 10
-30.096491646587
 20
599.671003892355
 30
0.0
 11
-32.096491646589
 21
601.671003892354
 31
0.0
  0
LINE
  5
393
100
AcDbEntity
  8
Frei
  6
CONTINUOUS
 62
           2
100
AcDbLine
 10
-30.096491646589
 20
600.731664064134
 30
0.0
 11
-32.096491646589
 21
602.731664064133
 31
0.0
  0
LINE
  5
394
100
AcDbEntity
  8
Frei
  6
CONTINUOUS
 62
           2
100
AcDbLine
 10
-30.096491646589
 20
601.792324235914
 30
0.0
 11
-32.096491646589
 21
603.792324235914
 31
0.0
  0
LINE
  5
395
100
AcDbEntity
  8
Frei
  6
CONTINUOUS
 62
           2
100
AcDbLine
 10
-30.096491646589
 20
602.852984407693
 30
0.0
 11
-32.096491646589
 21
604.852984407694
 31
0.0
  0
LINE
  5
396
100
AcDbEntity
  8
Frei
  6
CONTINUOUS
 62
           2
100
AcDbLine
 10
-30.096491646589
 20
603.913644579473
 30
0.0
 11
-32.096491646589
 21
605.913644579473
 31
0.0
  0
LINE
  5
397
100
AcDbEntity
  8
Frei
  6
CONTINUOUS
 62
           2
100
AcDbLine
 10
-30.096491646589
 20
604.974304751253
 30
0.0
 11
-32.096491646589
 21
606.974304751253
 31
0.0
  0
LINE
  5
398
100
AcDbEntity
  8
Frei
  6
CONTINUOUS
 62
           2
100
AcDbLine
 10
-30.096491646587
 20
606.034964923033
 30
0.0
 11
-32.096491646587
 21
608.034964923033
 31
0.0
  0
LINE
  5
399
100
AcDbEntity
  8
Frei
  6
CONTINUOUS
 62
           2
100
AcDbLine
 10
-30.096491646589
 20
607.095625094813
 30
0.0
 11
-32.096491646589
 21
609.095625094813
 31
0.0
  0
LINE
  5
39A
100
AcDbEntity
  8
Frei
  6
CONTINUOUS
 62
           2
100
AcDbLine
 10
-30.096491646587
 20
608.156285266593
 30
0.0
 11
-32.096491646587
 21
610.156285266592
 31
0.0
  0
LINE
  5
39B
100
AcDbEntity
  8
Frei
  6
CONTINUOUS
 62
           2
100
AcDbLine
 10
-30.096491646589
 20
609.216945438372
 30
0.0
 11
-32.096491646589
 21
611.216945438372
 31
0.0
  0
LINE
  5
39C
100
AcDbEntity
  8
Frei
  6
CONTINUOUS
 62
           2
100
AcDbLine
 10
-30.096491646587
 20
610.277605610152
 30
0.0
 11
-32.096491646589
 21
612.277605610152
 31
0.0
  0
LINE
  5
39D
100
AcDbEntity
  8
Frei
  6
CONTINUOUS
 62
           2
100
AcDbLine
 10
-30.096491646587
 20
611.338265781932
 30
0.0
 11
-32.096491646589
 21
613.338265781932
 31
0.0
  0
LINE
  5
39E
100
AcDbEntity
  8
Frei
  6
CONTINUOUS
 62
           2
100
AcDbLine
 10
-30.096491646589
 20
612.398925953711
 30
0.0
 11
-32.096491646589
 21
614.398925953711
 31
0.0
  0
LINE
  5
39F
100
AcDbEntity
  8
Frei
  6
CONTINUOUS
 62
           2
100
AcDbLine
 10
-30.096491646589
 20
613.459586125491
 30
0.0
 11
-32.096491646589
 21
615.459586125491
 31
0.0
  0
LINE
  5
3A0
100
AcDbEntity
  8
Frei
  6
CONTINUOUS
 62
           2
100
AcDbLine
 10
-30.096491646591
 20
614.520246297271
 30
0.0
 11
-31.073012370296
 21
615.496767020979
 31
0.0
  0
ENDBLK
  5
3A1
100
AcDbEntity
  8
0
  6
BYBLOCK
 62
           0
100
AcDbBlockEnd
  0
ENDSEC
  0
SECTION
  2
ENTITIES
  0
INSERT
  5
26
100
AcDbEntity
  8
FREI
  6
CONTINUOUS
 62
           7
100
AcDbBlockReference
  2
MAK1
 10
-14460.745222994834
 20
-3429.65675529116
 30
0.0
 50
354.103999999999
  0
INSERT
  5
27
100
AcDbEntity
  8
FREI
  6
CONTINUOUS
 62
           7
100
AcDbBlockReference
  2
MAK2
 10
-14460.745222994834
 20
-3429.65675529116
 30
0.0
 50
354.103999999999
  0
LINE
  5
28
100
AcDbEntity
  8
FREI
  6
STRICHPUNKT
 62
          15
100
AcDbLine
 10
-14645.292694777228
 20
-2774.025309298341
 30
0.0
 11
-14767.792694777228
 21
-2986.201533225528
 31
0.0
  0
LINE
  5
29
100
AcDbEntity
  8
FREI
  6
CONTINUOUS
 62
          15
100
AcDbLine
 10
-14775.773855614085
 20
-2774.025309298341
 30
0.0
 11
-14865.653565404869
 21
-2929.701533225528
 31
0.0
  0
LINE
  5
2A
100
AcDbEntity
  8
FREI
  6
CONTINUOUS
 62
          15
100
AcDbLine
 10
-14645.292694777228
 20
-3000.025309298341
 30
0.0
 11
-14669.931824149588
 21
-3042.701533225528
 31
0.0
  0
LINE
  5
2B
100
AcDbEntity
  8
FREI
  6
STRICHPUNKT
 62
          15
100
AcDbLine
 10
-14645.292694777228
 20
-2704.025309298341
 30
0.0
 11
-14645.292694777228
 21
-2774.025309298341
 31
0.0
  0
LINE
  5
2C
100
AcDbEntity
  8
FREI
  6
STRICHPUNKT
 62
          15
100
AcDbLine
 10
-14645.292694777228
 20
-2774.025309298341
 30
0.0
 11
-14522.792694777228
 21
-2986.201533225528
 31
0.0
  0
LINE
  5
2D
100
AcDbEntity
  8
FREI
  6
CONTINUOUS
 62
          15
100
AcDbLine
 10
-14451.110554239785
 20
-2884.358642631673
 30
0.0
 11
-14424.931824149588
 21
-2929.701533225528
 31
0.0
  0
LINE
  5
2E
100
AcDbEntity
  8
FREI
  6
GESTRICHELT
 62
          15
100
AcDbLine
 10
-14499.963778006906
 20
-2799.742376953486
 30
0.0
 11
-14451.110554239785
 21
-2884.358642631673
 31
0.0
  0
LINE
  5
2F
100
AcDbEntity
  8
FREI
  6
CONTINUOUS
 62
          15
100
AcDbLine
 10
-14514.811533940372
 20
-2774.025309298341
 30
0.0
 11
-14499.963778006906
 21
-2799.742376953486
 31
0.0
  0
LINE
  5
30
100
AcDbEntity
  8
FREI
  6
CONTINUOUS
 62
          15
100
AcDbLine
 10
-14645.292694777228
 20
-3000.025309298341
 30
0.0
 11
-14620.653565404869
 21
-3042.701533225528
 31
0.0
  0
LINE
  5
31
100
AcDbEntity
  8
FREI
  6
CONTINUOUS
 62
          15
100
AcDbLine
 10
-14775.773855614085
 20
-2774.025309298341
 30
0.0
 11
-14514.811533940372
 21
-2774.025309298341
 31
0.0
  0
LINE
  5
32
100
AcDbEntity
  8
FREI
  6
CONTINUOUS
 62
          15
100
AcDbLine
 10
-14424.931824149588
 20
-2929.701533225528
 30
0.0
 11
-14620.653565404869
 21
-3042.701533225528
 31
0.0
  0
LINE
  5
33
100
AcDbEntity
  8
FREI
  6
CONTINUOUS
 62
          15
100
AcDbLine
 10
-14669.931824149588
 20
-3042.701533225528
 30
0.0
 11
-14865.653565404869
 21
-2929.701533225528
 31
0.0
  0
LINE
  5
34
100
AcDbEntity
  8
FREI
  6
CONTINUOUS
 62
          15
100
AcDbLine
 10
-14645.292694777228
 20
-2804.358642631674
 30
0.0
 11
-14645.292694777228
 21
-2774.025309298341
 31
0.0
  0
LINE
  5
35
100
AcDbEntity
  8
FREI
  6
GESTRICHELT
 62
          15
100
AcDbLine
 10
-14645.292694777228
 20
-2842.110676307469
 30
0.0
 11
-14645.292694777228
 21
-2804.358642631674
 31
0.0
  0
LINE
  5
36
100
AcDbEntity
  8
FREI
  6
GESTRICHELT
 62
          15
100
AcDbLine
 10
-14645.292694777228
 20
-2884.358642631674
 30
0.0
 11
-14645.292694777228
 21
-2856.606608955879
 31
0.0
  0
LINE
  5
37
100
AcDbEntity
  8
FREI
  6
CONTINUOUS
 62
          15
100
AcDbLine
 10
-14645.292694777228
 20
-3000.025309298341
 30
0.0
 11
-14645.292694777228
 21
-2884.358642631674
 31
0.0
  0
LINE
  5
38
100
AcDbEntity
  8
FREI
  6
CONTINUOUS
 62
          15
100
AcDbLine
 10
-14775.773855614085
 20
-2774.025309298341
 30
0.0
 11
-14758.292694777228
 21
-2704.025309298341
 31
0.0
  0
LINE
  5
39
100
AcDbEntity
  8
FREI
  6
CONTINUOUS
 62
          15
100
AcDbLine
 10
-14758.292694777228
 20
-2704.025309298341
 30
0.0
 11
-14532.292694777228
 21
-2704.025309298341
 31
0.0
  0
LINE
  5
3A
100
AcDbEntity
  8
FREI
  6
CONTINUOUS
 62
          15
100
AcDbLine
 10
-14532.292694777228
 20
-2704.025309298341
 30
0.0
 11
-14514.811533940372
 21
-2774.025309298341
 31
0.0
  0
CIRCLE
  5
3B
100
AcDbEntity
  8
FREI
  6
CONTINUOUS
 62
          15
100
AcDbCircle
 10
-14645.292694777228
 20
-2849.358642631674
 30
0.0
 40
7.247966324205
  0
CIRCLE
  5
3C
100
AcDbEntity
  8
Frei
  6
CONTINUOUS
 62
           7
100
AcDbCircle
 10
-14154.403747777229
 20
-2849.358642631674
 30
0.0
 40
6.25
  0
CIRCLE
  5
3D
100
AcDbEntity
  8
FREI
  6
CONTINUOUS
 62
          15
100
AcDbCircle
 10
-14570.814510051767
 20
-2806.358642631674
 30
0.0
 40
8.25
  0
ARC
  5
3E
100
AcDbEntity
  8
FREI
  6
CONTINUOUS
 62
          15
100
AcDbCircle
 10
-14645.292694777228
 20
-2849.358642631674
 30
0.0
 40
20.25
100
AcDbArc
 50
118.385820858495
 51
327.117816039372
  0
ARC
  5
3F
100
AcDbEntity
  8
FREI
  6
GESTRICHELT
 62
          15
100
AcDbCircle
 10
-14570.814510051767
 20
-2806.358642631674
 30
0.0
 40
18.25
100
AcDbArc
 50
112.839580585602
 51
118.385820858496
  0
ARC
  5
40
100
AcDbEntity
  8
FREI
  6
CONTINUOUS
 62
          15
100
AcDbCircle
 10
-14570.814510051767
 20
-2806.358642631674
 30
0.0
 40
18.25
100
AcDbArc
 50
55.368419414393
 51
112.839580585602
  0
ARC
  5
41
100
AcDbEntity
  8
FREI
  6
GESTRICHELT
 62
          15
100
AcDbCircle
 10
-14570.814510051767
 20
-2806.358642631674
 30
0.0
 40
18.25
100
AcDbArc
 50
292.871848138221
 51
55.368419414393
  0
ARC
  5
42
100
AcDbEntity
  8
FREI
  6
CONTINUOUS
 62
          15
100
AcDbCircle
 10
-14570.814510051767
 20
-2806.358642631674
 30
0.0
 40
18.25
100
AcDbArc
 50
235.336151861781
 51
292.871848138221
  0
ARC
  5
43
100
AcDbEntity
  8
FREI
  6
GESTRICHELT
 62
          15
100
AcDbCircle
 10
-14570.814510051767
 20
-2806.358642631674
 30
0.0
 40
18.25
100
AcDbArc
 50
219.400297985065
 51
235.336151861781
  0
LINE
  5
44
100
AcDbEntity
  8
FREI
  6
GESTRICHELT
 62
          15
100
AcDbLine
 10
-14588.229828634659
 20
-2795.080999708917
 30
0.0
 11
-14579.490678777089
 21
-2790.302908570293
 31
0.0
  0
LINE
  5
45
100
AcDbEntity
  8
FREI
  6
CONTINUOUS
 62
          15
100
AcDbLine
 10
-14654.919676513544
 20
-2831.543376070417
 30
0.0
 11
-14588.229828634659
 21
-2795.080999708917
 31
0.0
  0
LINE
  5
46
100
AcDbEntity
  8
FREI
  6
CONTINUOUS
 62
          15
100
AcDbLine
 10
-14592.608215454742
 20
-2817.899310602078
 30
0.0
 11
-14628.286973131488
 21
-2860.352637870328
 31
0.0
  0
ARC
  5
47
100
AcDbEntity
  8
FREI
  6
CONTINUOUS
 62
          15
100
AcDbCircle
 10
-14588.780488884311
 20
-2821.116220501657
 30
0.0
 40
5.0
100
AcDbArc
 50
98.870845309048
 51
139.955529992632
  0
ARC
  5
48
100
AcDbEntity
  8
FREI
  6
GESTRICHELT
 62
          15
100
AcDbCircle
 10
-14588.780488884311
 20
-2821.116220501657
 30
0.0
 40
5.0
100
AcDbArc
 50
39.400297985059
 51
98.870845309048
  0
LINE
  5
49
100
AcDbEntity
  8
Frei
  6
GESTRICHELT
 62
           7
100
AcDbLine
 10
-14177.311465779272
 20
-2846.992790167409
 30
0.0
 11
-14175.257003915676
 21
-2827.09859034809
 31
0.0
  0
LINE
  5
4A
100
AcDbEntity
  8
Frei
  6
GESTRICHELT
 62
           7
100
AcDbLine
 10
-14175.257003915676
 20
-2827.09859034809
 30
0.0
 11
-14179.23584387954
 21
-2826.68769797537
 31
0.0
  0
LINE
  5
4B
100
AcDbEntity
  8
Frei
  6
CONTINUOUS
 62
           7
100
AcDbLine
 10
-14178.003166761382
 20
-2814.751178083778
 30
0.0
 11
-14207.446582493974
 21
-2811.710574525655
 31
0.0
  0
LINE
  5
4C
100
AcDbEntity
  8
Frei
  6
CONTINUOUS
 62
           7
100
AcDbLine
 10
-14207.446582493974
 20
-2811.710574525655
 30
0.0
 11
-14207.497944040564
 21
-2812.207929521137
 31
0.0
  0
LINE
  5
4D
100
AcDbEntity
  8
Frei
  6
CONTINUOUS
 62
           7
100
AcDbLine
 10
-14207.497944040564
 20
-2812.207929521137
 30
0.0
 11
-14421.515461518151
 21
-2790.106657635723
 31
0.0
  0
LINE
  5
4E
100
AcDbEntity
  8
Frei
  6
CONTINUOUS
 62
           7
100
AcDbLine
 10
-14421.515461518151
 20
-2790.106657635723
 30
0.0
 11
-14421.464099971561
 21
-2789.60930264024
 31
0.0
  0
LINE
  5
4F
100
AcDbEntity
  8
Frei
  6
CONTINUOUS
 62
           7
100
AcDbLine
 10
-14421.464099971561
 20
-2789.60930264024
 30
0.0
 11
-14450.907515704155
 21
-2786.568699082116
 31
0.0
  0
LINE
  5
50
100
AcDbEntity
  8
Frei
  6
CONTINUOUS
 62
           7
100
AcDbLine
 10
-14450.907515704155
 20
-2786.568699082116
 30
0.0
 11
-14452.140192822313
 21
-2798.505218973708
 31
0.0
  0
LINE
  5
51
100
AcDbEntity
  8
Frei
  6
CONTINUOUS
 62
           7
100
AcDbLine
 10
-14452.140192822313
 20
-2798.505218973708
 30
0.0
 11
-14463.579357718421
 21
-2797.32390340214
 31
0.0
  0
LINE
  5
52
100
AcDbEntity
  8
Frei
  6
CONTINUOUS
 62
           7
100
AcDbLine
 10
-14463.579357718421
 20
-2797.32390340214
 30
0.0
 11
-14463.682080811601
 21
-2798.318613393106
 31
0.0
  0
LINE
  5
53
100
AcDbEntity
  8
Frei
  6
CONTINUOUS
 62
           7
100
AcDbLine
 10
-14463.682080811601
 20
-2798.318613393106
 30
0.0
 11
-14480.09479566254
 21
-2796.623682355638
 31
0.0
  0
LINE
  5
54
100
AcDbEntity
  8
Frei
  6
CONTINUOUS
 62
           7
100
AcDbLine
 10
-14480.09479566254
 20
-2796.623682355638
 30
0.0
 11
-14483.998273203375
 21
-2834.422662012346
 31
0.0
  0
LINE
  5
55
100
AcDbEntity
  8
Frei
  6
CONTINUOUS
 62
           7
100
AcDbLine
 10
-14483.998273203375
 20
-2834.422662012346
 30
0.0
 11
-14467.585558352435
 21
-2836.117593049814
 31
0.0
  0
LINE
  5
56
100
AcDbEntity
  8
Frei
  6
CONTINUOUS
 62
           7
100
AcDbLine
 10
-14467.585558352435
 20
-2836.117593049814
 30
0.0
 11
-14467.688281445617
 21
-2837.11230304078
 31
0.0
  0
LINE
  5
57
100
AcDbEntity
  8
Frei
  6
CONTINUOUS
 62
           7
100
AcDbLine
 10
-14467.688281445617
 20
-2837.11230304078
 30
0.0
 11
-14456.249116549507
 21
-2838.293618612348
 31
0.0
  0
LINE
  5
58
100
AcDbEntity
  8
Frei
  6
CONTINUOUS
 62
           7
100
AcDbLine
 10
-14456.249116549507
 20
-2838.293618612348
 30
0.0
 11
-14457.481793667665
 21
-2850.23013850394
 31
0.0
  0
LINE
  5
59
100
AcDbEntity
  8
Frei
  6
GESTRICHELT
 62
           7
100
AcDbLine
 10
-14429.950372731155
 20
-2853.073291527354
 30
0.0
 11
-14428.038377935072
 21
-2853.270742062064
 31
0.0
  0
LINE
  5
5A
100
AcDbEntity
  8
Frei
  6
CONTINUOUS
 62
           7
100
AcDbLine
 10
-14457.481793667665
 20
-2850.23013850394
 30
0.0
 11
-14429.950372731155
 21
-2853.073291527354
 31
0.0
  0
LINE
  5
5B
100
AcDbEntity
  8
Frei
  6
CONTINUOUS
 62
           7
100
AcDbLine
 10
-14428.038377935072
 20
-2853.270742062064
 30
0.0
 11
-14427.987016388483
 21
-2852.773387066581
 31
0.0
  0
LINE
  5
5C
100
AcDbEntity
  8
Frei
  6
GESTRICHELT
 62
           7
100
AcDbLine
 10
-14239.909386170588
 20
-2872.195885234029
 30
0.0
 11
-14213.969498910896
 21
-2874.874658951995
 31
0.0
  0
LINE
  5
5D
100
AcDbEntity
  8
Frei
  6
CONTINUOUS
 62
           7
100
AcDbLine
 10
-14402.04712912879
 20
-2855.452160784547
 30
0.0
 11
-14239.909386170588
 21
-2872.195885234029
 31
0.0
  0
LINE
  5
5E
100
AcDbEntity
  8
Frei
  6
GESTRICHELT
 62
           7
100
AcDbLine
 10
-14427.987016388483
 20
-2852.773387066581
 30
0.0
 11
-14402.04712912879
 21
-2855.452160784547
 31
0.0
  0
LINE
  5
5F
100
AcDbEntity
  8
Frei
  6
CONTINUOUS
 62
           7
100
AcDbLine
 10
-14213.969498910896
 20
-2874.874658951995
 30
0.0
 11
-14214.020860457485
 21
-2875.372013947478
 31
0.0
  0
LINE
  5
60
100
AcDbEntity
  8
Frei
  6
CONTINUOUS
 62
           7
100
AcDbLine
 10
-14212.108865661403
 20
-2875.569464482188
 30
0.0
 11
-14184.577444724891
 21
-2878.412617505602
 31
0.0
  0
LINE
  5
61
100
AcDbEntity
  8
Frei
  6
GESTRICHELT
 62
           7
100
AcDbLine
 10
-14214.020860457485
 20
-2875.372013947478
 30
0.0
 11
-14212.108865661403
 21
-2875.569464482188
 31
0.0
  0
LINE
  5
62
100
AcDbEntity
  8
Frei
  6
GESTRICHELT
 62
           7
100
AcDbLine
 10
-14183.344767606734
 20
-2866.47609761401
 30
0.0
 11
-14179.36592764287
 21
-2866.886989986729
 31
0.0
  0
LINE
  5
63
100
AcDbEntity
  8
Frei
  6
GESTRICHELT
 62
           7
100
AcDbLine
 10
-14179.36592764287
 20
-2866.886989986729
 30
0.0
 11
-14177.311465779272
 21
-2846.992790167409
 31
0.0
  0
LINE
  5
64
100
AcDbEntity
  8
Frei
  6
GESTRICHELT
 62
           7
100
AcDbLine
 10
-14209.873745438214
 20
-2835.213792308527
 30
0.0
 11
-14213.969498910896
 21
-2874.874658951995
 31
0.0
  0
LINE
  5
65
100
AcDbEntity
  8
Frei
  6
CONTINUOUS
 62
           7
100
AcDbLine
 10
-14207.497944040564
 20
-2812.207929521137
 30
0.0
 11
-14209.873745438214
 21
-2835.213792308527
 31
0.0
  0
LINE
  5
66
100
AcDbEntity
  8
Frei
  6
GESTRICHELT
 62
           7
100
AcDbLine
 10
-14423.8912438676
 20
-2813.112335971558
 30
0.0
 11
-14427.987016388483
 21
-2852.773387066581
 31
0.0
  0
LINE
  5
67
100
AcDbEntity
  8
Frei
  6
CONTINUOUS
 62
           7
100
AcDbLine
 10
-14421.515461518151
 20
-2790.106657635723
 30
0.0
 11
-14423.8912438676
 21
-2813.112335971558
 31
0.0
  0
LINE
  5
68
100
AcDbEntity
  8
Frei
  6
CONTINUOUS
 62
           7
100
AcDbLine
 10
-14452.140192822313
 20
-2798.505218973708
 30
0.0
 11
-14456.249116549507
 21
-2838.293618612348
 31
0.0
  0
LINE
  5
69
100
AcDbEntity
  8
Frei
  6
CONTINUOUS
 62
           7
100
AcDbLine
 10
-14463.579357718421
 20
-2797.32390340214
 30
0.0
 11
-14467.688281445617
 21
-2837.11230304078
 31
0.0
  0
LINE
  5
6A
100
AcDbEntity
  8
Frei
  6
GESTRICHELT
 62
           7
100
AcDbLine
 10
-14498.383459692286
 20
-2805.793522754929
 30
0.0
 11
-14521.092626654437
 21
-2803.448360953925
 31
0.0
  0
LINE
  5
6B
100
AcDbEntity
  8
Frei
  6
CONTINUOUS
 62
           7
100
AcDbLine
 10
-14490.177139606212
 20
-2806.640984417646
 30
0.0
 11
-14498.383459692286
 21
-2805.793522754929
 31
0.0
  0
LINE
  5
6C
100
AcDbEntity
  8
Frei
  6
GESTRICHELT
 62
           7
100
AcDbLine
 10
-14500.027029183164
 20
-2821.708882610385
 30
0.0
 11
-14522.736196145315
 21
-2819.363720809381
 31
0.0
  0
LINE
  5
6D
100
AcDbEntity
  8
Frei
  6
CONTINUOUS
 62
           7
100
AcDbLine
 10
-14491.82070909709
 20
-2822.556344273102
 30
0.0
 11
-14500.027029183164
 21
-2821.708882610385
 31
0.0
  0
LINE
  5
6E
100
AcDbEntity
  8
Frei
  6
CONTINUOUS
 62
           7
100
AcDbLine
 10
-14522.102378944082
 20
-2804.269117886978
 30
0.0
 11
-14521.092626654437
 21
-2803.448360953925
 31
0.0
  0
LINE
  5
6F
100
AcDbEntity
  8
Frei
  6
CONTINUOUS
 62
           7
100
AcDbLine
 10
-14523.556909181043
 20
-2818.353932840259
 30
0.0
 11
-14522.736196145315
 21
-2819.363720809381
 31
0.0
  0
LINE
  5
70
100
AcDbEntity
  8
Frei
  6
GESTRICHELT
 62
           7
100
AcDbLine
 10
-14522.102378944082
 20
-2804.269117886978
 30
0.0
 11
-14523.556909181043
 21
-2818.353932840259
 31
0.0
  0
LINE
  5
71
100
AcDbEntity
  8
Frei
  6
CONTINUOUS
 62
           7
100
AcDbLine
 10
-14498.477979319245
 20
-2806.708795206016
 30
0.0
 11
-14490.271659233171
 21
-2807.556256868733
 31
0.0
  0
LINE
  5
72
100
AcDbEntity
  8
Frei
  6
GESTRICHELT
 62
           7
100
AcDbLine
 10
-14522.102378944082
 20
-2804.269117886978
 30
0.0
 11
-14498.477979319245
 21
-2806.708795206016
 31
0.0
  0
LINE
  5
73
100
AcDbEntity
  8
Frei
  6
CONTINUOUS
 62
           7
100
AcDbLine
 10
-14499.932509556205
 20
-2820.793610159297
 30
0.0
 11
-14491.726189470131
 21
-2821.641071822014
 31
0.0
  0
LINE
  5
74
100
AcDbEntity
  8
Frei
  6
GESTRICHELT
 62
           7
100
AcDbLine
 10
-14523.556909181043
 20
-2818.353932840259
 30
0.0
 11
-14499.932509556205
 21
-2820.793610159297
 31
0.0
  0
LINE
  5
75
100
AcDbEntity
  8
Frei
  6
GESTRICHELT
 62
           7
100
AcDbLine
 10
-14521.092626654437
 20
-2803.448360953925
 30
0.0
 11
-14522.736196145315
 21
-2819.363720809381
 31
0.0
  0
LINE
  5
76
100
AcDbEntity
  8
Frei
  6
CONTINUOUS
 62
           7
100
AcDbLine
 10
-14481.01930350116
 20
-2805.576072274333
 30
0.0
 11
-14489.971693419853
 21
-2804.651564435714
 31
0.0
  0
LINE
  5
77
100
AcDbEntity
  8
Frei
  6
CONTINUOUS
 62
           7
100
AcDbLine
 10
-14489.971693419853
 20
-2804.651564435714
 30
0.0
 11
-14492.026155283451
 21
-2824.545764255034
 31
0.0
  0
LINE
  5
78
100
AcDbEntity
  8
Frei
  6
CONTINUOUS
 62
           7
100
AcDbLine
 10
-14492.026155283451
 20
-2824.545764255034
 30
0.0
 11
-14483.073765364756
 21
-2825.470272093652
 31
0.0
  0
LINE
  5
79
100
AcDbEntity
  8
Frei
  6
CONTINUOUS
 62
           7
100
AcDbLine
 10
-14490.457796559705
 20
-2809.358701213663
 30
0.0
 11
-14483.826393304233
 21
-2810.043522177272
 31
0.0
  0
LINE
  5
7A
100
AcDbEntity
  8
Frei
  6
CONTINUOUS
 62
           7
100
AcDbLine
 10
-14491.540052143597
 20
-2819.838627477084
 30
0.0
 11
-14484.908648888124
 21
-2820.523448440693
 31
0.0
  0
LINE
  5
7B
100
AcDbEntity
  8
Frei
  6
CONTINUOUS
 62
           7
100
AcDbLine
 10
-14483.826393304233
 20
-2810.043522177272
 30
0.0
 11
-14484.908648888124
 21
-2820.523448440693
 31
0.0
  0
LINE
  5
7C
100
AcDbEntity
  8
Frei
  6
CONTINUOUS
 62
           7
100
AcDbLine
 10
-14490.457796559705
 20
-2809.358701213663
 30
0.0
 11
-14484.908648888124
 21
-2820.523448440693
 31
0.0
  0
LINE
  5
7D
100
AcDbEntity
  8
Frei
  6
CONTINUOUS
 62
           7
100
AcDbLine
 10
-14483.826393304233
 20
-2810.043522177272
 30
0.0
 11
-14491.540052143597
 21
-2819.838627477084
 31
0.0
  0
CIRCLE
  5
7E
100
AcDbEntity
  8
Frei
  6
CONTINUOUS
 62
           7
100
AcDbCircle
 10
-14441.141861104416
 20
-2828.292577020757
 30
0.0
 40
5.7225
  0
ARC
  5
7F
100
AcDbEntity
  8
Frei
  6
CONTINUOUS
 62
           7
100
AcDbCircle
 10
-14441.141861104416
 20
-2828.292577020757
 30
0.0
 40
6.5785
100
AcDbArc
 50
104.104
 51
14.104
  0
CIRCLE
  5
80
100
AcDbEntity
  8
Frei
  6
CONTINUOUS
 62
           7
100
AcDbCircle
 10
-14194.343099324631
 20
-2836.688739566961
 30
0.0
 40
5.7225
  0
ARC
  5
81
100
AcDbEntity
  8
Frei
  6
CONTINUOUS
 62
           7
100
AcDbCircle
 10
-14194.343099324631
 20
-2836.688739566961
 30
0.0
 40
6.57849
100
AcDbArc
 50
104.104
 51
14.104
  0
LINE
  5
82
100
AcDbEntity
  8
Frei
  6
CONTINUOUS
 62
           7
100
AcDbLine
 10
-14429.034828485399
 20
-2806.843784554698
 30
0.0
 11
-14438.273787363667
 21
-2814.35314470399
 31
0.0
  0
LINE
  5
83
100
AcDbEntity
  8
Frei
  6
CONTINUOUS
 62
           7
100
AcDbLine
 10
-14429.980958987881
 20
-2805.679737282344
 30
0.0
 11
-14439.219923002303
 21
-2813.189147167136
 31
0.0
  0
CIRCLE
  5
84
100
AcDbEntity
  8
Frei
  6
CONTINUOUS
 62
           7
100
AcDbCircle
 10
-14434.127373689389
 20
-2810.016445966717
 30
0.0
 40
6.0
  0
LINE
  5
85
100
AcDbEntity
  8
Frei
  6
CONTINUOUS
 62
           7
100
AcDbLine
 10
-14196.264739013746
 20
-2851.79220023751
 30
0.0
 11
-14205.504001441166
 21
-2859.301579305374
 31
0.0
  0
LINE
  5
86
100
AcDbEntity
  8
Frei
  6
CONTINUOUS
 62
           7
100
AcDbLine
 10
-14197.21117306538
 20
-2850.628171883728
 30
0.0
 11
-14206.450430356645
 21
-2858.137501216093
 31
0.0
  0
CIRCLE
  5
87
100
AcDbEntity
  8
Frei
  6
CONTINUOUS
 62
           7
100
AcDbCircle
 10
-14201.357586739658
 20
-2854.964870621001
 30
0.0
 40
6.0
  0
LINE
  5
88
100
AcDbEntity
  8
Frei
  6
CONTINUOUS
 62
           7
100
AcDbLine
 10
-14498.271626279702
 20
-2799.917124428757
 30
0.0
 11
-14501.755598023059
 21
-2799.557336794895
 31
0.0
  0
LINE
  5
89
100
AcDbEntity
  8
Frei
  6
CONTINUOUS
 62
           7
100
AcDbLine
 10
-14505.239569766418
 20
-2799.197549161032
 30
0.0
 11
-14501.755598023059
 21
-2799.557336794895
 31
0.0
  0
LINE
  5
8A
100
AcDbEntity
  8
Frei
  6
CONTINUOUS
 62
           7
100
AcDbLine
 10
-14508.086396481567
 20
-2826.764543966668
 30
0.0
 11
-14504.602424738208
 21
-2827.12433160053
 31
0.0
  0
LINE
  5
8B
100
AcDbEntity
  8
Frei
  6
CONTINUOUS
 62
           7
100
AcDbLine
 10
-14501.118452994851
 20
-2827.484119234392
 30
0.0
 11
-14504.602424738208
 21
-2827.12433160053
 31
0.0
  0
LINE
  5
8C
100
AcDbEntity
  8
Frei
  6
CONTINUOUS
 62
           7
100
AcDbLine
 10
-14498.983331931258
 20
-2806.808863183066
 30
0.0
 11
-14502.467303674615
 21
-2806.449075549203
 31
0.0
  0
LINE
  5
8D
100
AcDbEntity
  8
Frei
  6
CONTINUOUS
 62
           7
100
AcDbLine
 10
-14505.951275417974
 20
-2806.089287915341
 30
0.0
 11
-14502.467303674615
 21
-2806.449075549203
 31
0.0
  0
LINE
  5
8E
100
AcDbEntity
  8
Frei
  6
CONTINUOUS
 62
           7
100
AcDbLine
 10
-14507.374690830011
 20
-2819.872805212358
 30
0.0
 11
-14503.890719086652
 21
-2820.232592846221
 31
0.0
  0
LINE
  5
8F
100
AcDbEntity
  8
Frei
  6
CONTINUOUS
 62
           7
100
AcDbLine
 10
-14500.406747343293
 20
-2820.592380480083
 30
0.0
 11
-14503.890719086652
 21
-2820.232592846221
 31
0.0
  0
ARC
  5
90
100
AcDbEntity
  8
Frei
  6
CONTINUOUS
 62
           7
100
AcDbCircle
 10
-14547.928328157212
 20
-2808.719599587902
 30
0.0
 40
48.982199999993
100
AcDbArc
 50
354.963436999999
 51
2.235610000001
  0
ARC
  5
91
100
AcDbEntity
  8
Frei
  6
CONTINUOUS
 62
           7
100
AcDbCircle
 10
-14458.429694604047
 20
-2817.962068807523
 30
0.0
 40
48.982200000003
100
AcDbArc
 50
165.972
 51
173.245
  0
ARC
  5
92
100
AcDbEntity
  8
Frei
  6
CONTINUOUS
 62
           7
100
AcDbCircle
 10
-14458.429694604047
 20
-2817.962068807523
 30
0.0
 40
48.982200000003
100
AcDbArc
 50
174.962999999999
 51
182.235999999999
  0
ARC
  5
93
100
AcDbEntity
  8
Frei
  6
CONTINUOUS
 62
           7
100
AcDbCircle
 10
-14547.928328157212
 20
-2808.719599587903
 30
0.0
 40
48.982199999993
100
AcDbArc
 50
345.972389999999
 51
353.244563
  0
LINE
  5
94
100
AcDbEntity
  8
Frei
  6
CONTINUOUS
 62
           7
100
AcDbLine
 10
-14499.135244069777
 20
-2813.019818307022
 30
0.0
 11
-14499.205244437724
 21
-2813.751202682656
 31
0.0
  0
LINE
  5
95
100
AcDbEntity
  8
Frei
  6
CONTINUOUS
 62
           7
100
AcDbLine
 10
-14507.071836145697
 20
-2812.200211291158
 30
0.0
 11
-14507.152778323545
 21
-2812.930465712768
 31
0.0
  0
LINE
  5
96
100
AcDbEntity
  8
Frei
  6
CONTINUOUS
 62
           7
100
AcDbLine
 10
-14507.222778691492
 20
-2813.661850088403
 30
0.0
 11
-14507.152778323545
 21
-2812.930465712768
 31
0.0
  0
LINE
  5
97
100
AcDbEntity
  8
Frei
  6
CONTINUOUS
 62
           7
100
AcDbLine
 10
-14499.286186615573
 20
-2814.481457104267
 30
0.0
 11
-14499.205244437724
 21
-2813.751202682656
 31
0.0
  0
ARC
  5
98
100
AcDbEntity
  8
Frei
  6
CONTINUOUS
 62
           7
100
AcDbCircle
 10
-14510.871364897896
 20
-2802.098580225511
 30
0.0
 40
12.801500000001
100
AcDbArc
 50
338.385499999999
 51
354.103999999999
  0
ARC
  5
99
100
AcDbEntity
  8
Frei
  6
CONTINUOUS
 62
           7
100
AcDbCircle
 10
-14493.351498038612
 20
-2803.907846174611
 30
0.0
 40
12.787200000001
100
AcDbArc
 50
174.104000000001
 51
189.822999999999
  0
ARC
  5
9A
100
AcDbEntity
  8
Frei
  6
CONTINUOUS
 62
           7
100
AcDbCircle
 10
-14495.486618074974
 20
-2824.583092278837
 30
0.0
 40
12.8015
100
AcDbArc
 50
158.385
 51
174.104000000001
  0
ARC
  5
9B
100
AcDbEntity
  8
Frei
  6
CONTINUOUS
 62
           7
100
AcDbCircle
 10
-14513.006484934258
 20
-2822.773826329737
 30
0.0
 40
12.787200000001
100
AcDbArc
 50
354.103999999998
 51
9.822499999999
  0
ARC
  5
9C
100
AcDbEntity
  8
Frei
  6
CONTINUOUS
 62
           7
100
AcDbCircle
 10
-14510.871364897896
 20
-2802.098580225511
 30
0.0
 40
12.787200000001
100
AcDbArc
 50
354.103999999998
 51
9.822499999999
  0
ARC
  5
9D
100
AcDbEntity
  8
Frei
  6
CONTINUOUS
 62
           7
100
AcDbCircle
 10
-14493.351498038612
 20
-2803.907846174611
 30
0.0
 40
12.8015
100
AcDbArc
 50
158.385
 51
174.104000000001
  0
ARC
  5
9E
100
AcDbEntity
  8
Frei
  6
CONTINUOUS
 62
           7
100
AcDbCircle
 10
-14495.486618074972
 20
-2824.583092278837
 30
0.0
 40
12.787200000001
100
AcDbArc
 50
174.104000000001
 51
189.822999999999
  0
ARC
  5
9F
100
AcDbEntity
  8
Frei
  6
CONTINUOUS
 62
           7
100
AcDbCircle
 10
-14513.006484934258
 20
-2822.773826329737
 30
0.0
 40
12.801500000001
100
AcDbArc
 50
338.385499999999
 51
354.103999999999
  0
LINE
  5
A0
100
AcDbEntity
  8
Frei
  6
CONTINUOUS
 62
           7
100
AcDbLine
 10
-14498.137684419544
 20
-2803.413579630544
 30
0.0
 11
-14499.205244437724
 21
-2813.751202682656
 31
0.0
  0
LINE
  5
A1
100
AcDbEntity
  8
Frei
  6
CONTINUOUS
 62
           7
100
AcDbLine
 10
-14506.085218305363
 20
-2802.592842660655
 30
0.0
 11
-14507.152778323545
 21
-2812.930465712768
 31
0.0
  0
LINE
  5
A2
100
AcDbEntity
  8
Frei
  6
CONTINUOUS
 62
           7
100
AcDbLine
 10
-14508.220338341725
 20
-2823.268088764881
 30
0.0
 11
-14507.152778323545
 21
-2812.930465712768
 31
0.0
  0
LINE
  5
A3
100
AcDbEntity
  8
Frei
  6
CONTINUOUS
 62
           7
100
AcDbLine
 10
-14500.272804455906
 20
-2824.08882573477
 30
0.0
 11
-14499.205244437724
 21
-2813.751202682656
 31
0.0
  0
LINE
  5
A4
100
AcDbEntity
  8
Frei
  6
CONTINUOUS
 62
           7
100
AcDbLine
 10
-14507.974563068983
 20
-2820.888145640496
 30
0.0
 11
-14507.892384594439
 21
-2820.092377647723
 31
0.0
  0
LINE
  5
A5
100
AcDbEntity
  8
Frei
  6
CONTINUOUS
 62
           7
100
AcDbLine
 10
-14507.892384594439
 20
-2820.092377647723
 30
0.0
 11
-14506.413172052649
 21
-2805.768553777813
 31
0.0
  0
LINE
  5
A6
100
AcDbEntity
  8
Frei
  6
CONTINUOUS
 62
           7
100
AcDbLine
 10
-14506.413172052649
 20
-2805.768553777813
 30
0.0
 11
-14506.330993578105
 21
-2804.97278578504
 31
0.0
  0
LINE
  5
A7
100
AcDbEntity
  8
Frei
  6
CONTINUOUS
 62
           7
100
AcDbLine
 10
-14506.330993578105
 20
-2804.97278578504
 30
0.0
 11
-14505.879011968114
 21
-2800.59606182479
 31
0.0
  0
LINE
  5
A8
100
AcDbEntity
  8
Frei
  6
CONTINUOUS
 62
           7
100
AcDbLine
 10
-14540.627067525334
 20
-2825.558686586469
 30
0.0
 11
-14538.897370356697
 21
-2825.737311356543
 31
0.0
  0
LINE
  5
A9
100
AcDbEntity
  8
Frei
  6
CONTINUOUS
 62
           7
100
AcDbLine
 10
-14535.610231374942
 20
-2793.906591645631
 30
0.0
 11
-14537.339928543579
 21
-2793.727966875557
 31
0.0
  0
LINE
  5
AA
100
AcDbEntity
  8
Frei
  6
CONTINUOUS
 62
           7
100
AcDbLine
 10
-14538.897370356697
 20
-2825.737311356543
 30
0.0
 11
-14533.863039586766
 21
-2826.257203620092
 31
0.0
  0
LINE
  5
AB
100
AcDbEntity
  8
Frei
  6
CONTINUOUS
 62
           7
100
AcDbLine
 10
-14530.57590060501
 20
-2794.42648390918
 30
0.0
 11
-14535.610231374942
 21
-2793.906591645631
 31
0.0
  0
LINE
  5
AC
100
AcDbEntity
  8
Frei
  6
CONTINUOUS
 62
           7
100
AcDbLine
 10
-14584.470479425412
 20
-2788.860823674199
 30
0.0
 11
-14537.339928543579
 21
-2793.727966875557
 31
0.0
  0
LINE
  5
AD
100
AcDbEntity
  8
Frei
  6
CONTINUOUS
 62
           7
100
AcDbLine
 10
-14587.757618407168
 20
-2820.691543385111
 30
0.0
 11
-14540.627067525334
 21
-2825.558686586469
 31
0.0
  0
LINE
  5
AE
100
AcDbEntity
  8
Frei
  6
CONTINUOUS
 62
           7
100
AcDbLine
 10
-14529.628784039482
 20
-2796.937055599314
 30
0.0
 11
-14532.422852173975
 21
-2823.993167353589
 31
0.0
  0
LINE
  5
AF
100
AcDbEntity
  8
Frei
  6
CONTINUOUS
 62
           7
100
AcDbLine
 10
-14506.949396245458
 20
-2799.279142123815
 30
0.0
 11
-14510.557381199904
 21
-2798.906547721393
 31
0.0
  0
LINE
  5
B0
100
AcDbEntity
  8
Frei
  6
CONTINUOUS
 62
           7
100
AcDbLine
 10
-14508.426544678974
 20
-2825.264869600746
 30
0.0
 11
-14507.974563068983
 21
-2820.888145640496
 31
0.0
  0
LINE
  5
B1
100
AcDbEntity
  8
Frei
  6
CONTINUOUS
 62
           7
100
AcDbLine
 10
-14531.229200184815
 20
-2824.116435065405
 30
0.0
 11
-14528.788130297411
 21
-2824.368522861627
 31
0.0
  0
LINE
  5
B2
100
AcDbEntity
  8
Frei
  6
CONTINUOUS
 62
           7
100
AcDbLine
 10
-14525.829705213831
 20
-2795.720875121806
 30
0.0
 11
-14525.994062162919
 21
-2797.312411107352
 31
0.0
  0
LINE
  5
B3
100
AcDbEntity
  8
Frei
  6
CONTINUOUS
 62
           7
100
AcDbLine
 10
-14525.994062162919
 20
-2797.312411107352
 30
0.0
 11
-14528.435132050323
 21
-2797.06032331113
 31
0.0
  0
LINE
  5
B4
100
AcDbEntity
  8
Frei
  6
CONTINUOUS
 62
           7
100
AcDbLine
 10
-14525.994062162919
 20
-2797.312411107352
 30
0.0
 11
-14528.788130297411
 21
-2824.368522861627
 31
0.0
  0
LINE
  5
B5
100
AcDbEntity
  8
Frei
  6
CONTINUOUS
 62
           7
100
AcDbLine
 10
-14528.788130297411
 20
-2824.368522861627
 30
0.0
 11
-14528.952487246499
 21
-2825.960058847172
 31
0.0
  0
LINE
  5
B6
100
AcDbEntity
  8
Frei
  6
CONTINUOUS
 62
           7
100
AcDbLine
 10
-14513.515806283483
 20
-2827.554195461214
 30
0.0
 11
-14513.351449334396
 21
-2825.962659475668
 31
0.0
  0
LINE
  5
B7
100
AcDbEntity
  8
Frei
  6
CONTINUOUS
 62
           7
100
AcDbLine
 10
-14513.351449334396
 20
-2825.962659475668
 30
0.0
 11
-14509.74346437995
 21
-2826.33525387809
 31
0.0
  0
LINE
  5
B8
100
AcDbEntity
  8
Frei
  6
CONTINUOUS
 62
           7
100
AcDbLine
 10
-14513.351449334396
 20
-2825.962659475668
 30
0.0
 11
-14510.557381199904
 21
-2798.906547721393
 31
0.0
  0
LINE
  5
B9
100
AcDbEntity
  8
Frei
  6
CONTINUOUS
 62
           7
100
AcDbLine
 10
-14510.557381199904
 20
-2798.906547721393
 30
0.0
 11
-14510.393024250816
 21
-2797.315011735847
 31
0.0
  0
LINE
  5
BA
100
AcDbEntity
  8
Frei
  6
CONTINUOUS
 62
           7
100
AcDbLine
 10
-14525.829705213831
 20
-2795.720875121806
 30
0.0
 11
-14510.393024250816
 21
-2797.315011735847
 31
0.0
  0
LINE
  5
BB
100
AcDbEntity
  8
Frei
  6
CONTINUOUS
 62
           7
100
AcDbLine
 10
-14528.952487246499
 20
-2825.960058847172
 30
0.0
 11
-14513.515806283483
 21
-2827.554195461214
 31
0.0
  0
ARC
  5
BC
100
AcDbEntity
  8
Frei
  6
CONTINUOUS
 62
           7
100
AcDbCircle
 10
-14559.893770649796
 20
-2807.483935650407
 30
0.0
 40
27.821476415485
100
AcDbArc
 50
318.997694434247
 51
29.210305565753
  0
ARC
  5
BD
100
AcDbEntity
  8
Frei
  6
CONTINUOUS
 62
           7
100
AcDbCircle
 10
-14546.776247548245
 20
-2808.838574248679
 30
0.0
 40
39.547005383793
100
AcDbArc
 50
150.23907458395
 51
197.96892541605
  0
ARC
  5
BE
100
AcDbEntity
  8
Frei
  6
CONTINUOUS
 62
           7
100
AcDbCircle
 10
-14560.845021350098
 20
-2807.385700571628
 30
0.0
 40
30.02221399786
100
AcDbArc
 50
141.899772496028
 51
206.308227503973
  0
CIRCLE
  5
BF
100
AcDbEntity
  8
Frei
  6
CONTINUOUS
 62
           7
100
AcDbCircle
 10
-14570.814217745368
 20
-2806.356187749258
 30
0.0
 40
6.8
  0
ARC
  5
C0
100
AcDbEntity
  8
Frei
  6
CONTINUOUS
 62
           7
100
AcDbCircle
 10
-14530.699168316825
 20
-2795.620135898339
 30
0.0
 40
1.2
100
AcDbArc
 50
354.103999999999
 51
84.104
  0
ARC
  5
C1
100
AcDbEntity
  8
Frei
  6
CONTINUOUS
 62
           7
100
AcDbCircle
 10
-14528.311864338508
 20
-2795.866671321971
 30
0.0
 40
1.2
100
AcDbArc
 50
174.104
 51
264.103999999999
  0
ARC
  5
C2
100
AcDbEntity
  8
Frei
  6
CONTINUOUS
 62
           7
100
AcDbCircle
 10
-14507.072663957273
 20
-2800.472794112974
 30
0.0
 40
1.2
100
AcDbArc
 50
354.103999999999
 51
84.104
  0
ARC
  5
C3
100
AcDbEntity
  8
Frei
  6
CONTINUOUS
 62
           7
100
AcDbCircle
 10
-14509.620196668135
 20
-2825.14160188893
 30
0.0
 40
1.2
100
AcDbArc
 50
264.103999999999
 51
354.103999999999
  0
ARC
  5
C4
100
AcDbEntity
  8
Frei
  6
CONTINUOUS
 62
           7
100
AcDbCircle
 10
-14531.352467896631
 20
-2825.310087054564
 30
0.0
 40
1.2
100
AcDbArc
 50
84.104
 51
174.104
  0
ARC
  5
C5
100
AcDbEntity
  8
Frei
  6
CONTINUOUS
 62
           7
100
AcDbCircle
 10
-14533.739771874949
 20
-2825.063551630932
 30
0.0
 40
1.2
100
AcDbArc
 50
264.103999999999
 51
354.103999999999
  0
LINE
  5
C6
100
AcDbEntity
  8
FREI
  6
CONTINUOUS
 62
           7
100
AcDbLine
 10
-14178.003139557584
 20
-2814.750914658208
 30
0.0
 11
-14184.577471928689
 21
-2878.412880931172
 31
0.0
  0
LINE
  5
C7
100
AcDbEntity
  8
FREI
  6
CONTINUOUS
 62
           7
100
AcDbLine
 10
-14176.939017895946
 20
-2872.665566733078
 30
0.0
 11
-14177.383125896515
 21
-2876.966047292604
 31
0.0
  0
LINE
  5
C8
100
AcDbEntity
  8
FREI
  6
CONTINUOUS
 62
           7
100
AcDbLine
 10
-14171.256335604769
 20
-2817.637815177513
 30
0.0
 11
-14171.700443605338
 21
-2821.938295737042
 31
0.0
  0
LINE
  5
C9
100
AcDbEntity
  8
FREI
  6
CONTINUOUS
 62
           7
100
AcDbLine
 10
-14171.700443605338
 20
-2821.938295737042
 30
0.0
 11
-14172.626502522049
 21
-2830.905705383311
 31
0.0
  0
LINE
  5
CA
100
AcDbEntity
  8
FREI
  6
CONTINUOUS
 62
           7
100
AcDbLine
 10
-14176.012958979234
 20
-2863.698157086805
 30
0.0
 11
-14176.939017895946
 21
-2872.665566733078
 31
0.0
  0
LINE
  5
CB
100
AcDbEntity
  8
Frei
  6
CONTINUOUS
 62
           7
100
AcDbLine
 10
-14179.510764266006
 20
-2878.757939041673
 30
0.0
 11
-14184.577471928689
 21
-2878.412880931172
 31
0.0
  0
LINE
  5
CC
100
AcDbEntity
  8
Frei
  6
CONTINUOUS
 62
           7
100
AcDbLine
 10
-14172.97288227354
 20
-2815.448936787643
 30
0.0
 11
-14178.003177653982
 21
-2814.751283561315
 31
0.0
  0
LINE
  5
CD
100
AcDbEntity
  8
FREI
  6
CONTINUOUS
 62
           7
100
AcDbLine
 10
-14175.834993000271
 20
-2872.74075416638
 30
0.0
 11
-14176.939017895946
 21
-2872.665566733078
 31
0.0
  0
LINE
  5
CE
100
AcDbEntity
  8
Frei
  6
CONTINUOUS
 62
           7
100
AcDbLine
 10
-14168.029532865883
 20
-2825.373630485988
 30
0.0
 11
-14168.953654632631
 21
-2834.32228191185
 31
0.0
  0
LINE
  5
CF
100
AcDbEntity
  8
FREI
  6
CONTINUOUS
 62
           7
100
AcDbLine
 10
-14171.700443605338
 20
-2821.938295737042
 30
0.0
 11
-14170.604352869037
 21
-2822.090312901182
 31
0.0
  0
LINE
  5
D0
100
AcDbEntity
  8
Frei
  6
CONTINUOUS
 62
           7
100
AcDbLine
 10
-14171.70052522862
 20
-2860.921360474806
 30
0.0
 11
-14171.719413679288
 21
-2861.104265116913
 31
0.0
  0
LINE
  5
D1
100
AcDbEntity
  8
FREI
  6
CONTINUOUS
 62
           7
100
AcDbLine
 10
-14152.961359789855
 20
-2837.43240956596
 30
0.0
 11
-14168.096942933576
 21
-2835.601874879264
 31
0.0
  0
LINE
  5
D2
100
AcDbEntity
  8
FREI
  6
CONTINUOUS
 62
           7
100
AcDbLine
 10
-14155.429037569265
 20
-2861.327949173248
 30
0.0
 11
-14170.619285263945
 21
-2860.026753832839
 31
0.0
  0
LINE
  5
D3
100
AcDbEntity
  8
FREI
  6
CONTINUOUS
 62
           7
100
AcDbLine
 10
-14168.747242624884
 20
-2835.247180059852
 30
0.0
 11
-14171.328346197832
 21
-2860.241068310812
 31
0.0
  0
LINE
  5
D4
100
AcDbEntity
  8
Frei
  6
CONTINUOUS
 62
           7
100
AcDbLine
 10
-14170.875302222603
 20
-2833.099082033925
 30
0.0
 11
-14169.829254782355
 21
-2833.225593586542
 31
0.0
  0
LINE
  5
D5
100
AcDbEntity
  8
Frei
  6
CONTINUOUS
 62
           7
100
AcDbLine
 10
-14168.953654632631
 20
-2834.32228191185
 30
0.0
 11
-14168.972543083299
 21
-2834.505186553958
 31
0.0
  0
LINE
  5
D6
100
AcDbEntity
  8
Frei
  6
CONTINUOUS
 62
           7
100
AcDbLine
 10
-14171.719413679288
 20
-2861.104265116913
 30
0.0
 11
-14172.643535446035
 21
-2870.052916542777
 31
0.0
  0
LINE
  5
D7
100
AcDbEntity
  8
Frei
  6
CONTINUOUS
 62
           7
100
AcDbLine
 10
-14172.800653643963
 20
-2861.998871758879
 30
0.0
 11
-14173.850479049885
 21
-2861.908943802872
 31
0.0
  0
ARC
  5
D8
100
AcDbEntity
  8
FREI
  6
CONTINUOUS
 62
           7
100
AcDbCircle
 10
-14154.403747777229
 20
-2849.358642631674
 30
0.0
 40
12.0131394
100
AcDbArc
 50
265.103999999997
 51
83.104000000003
  0
ARC
  5
D9
100
AcDbEntity
  8
Frei
  6
CONTINUOUS
 62
           7
100
AcDbCircle
 10
-14173.247933902108
 20
-2817.432144037852
 30
0.0
 40
2.0021899
100
AcDbArc
 50
354.103999999993
 51
82.104000000031
  0
ARC
  5
DA
100
AcDbEntity
  8
Frei
  6
CONTINUOUS
 62
           7
100
AcDbCircle
 10
-14171.016930311895
 20
-2825.065123776496
 30
0.0
 40
3.00328485
100
AcDbArc
 50
354.103999999999
 51
82.103999999981
  0
ARC
  5
DB
100
AcDbEntity
  8
Frei
  6
CONTINUOUS
 62
           7
100
AcDbCircle
 10
-14175.630932892047
 20
-2869.744409833284
 30
0.0
 40
3.00328485
100
AcDbArc
 50
266.103999999994
 51
354.103999999999
  0
ARC
  5
DC
100
AcDbEntity
  8
Frei
  6
CONTINUOUS
 62
           7
100
AcDbCircle
 10
-14179.374724193856
 20
-2876.760376152943
 30
0.0
 40
2.0021899
100
AcDbArc
 50
266.103999999968
 51
354.104000000006
  0
ARC
  5
DD
100
AcDbEntity
  8
Frei
  6
CONTINUOUS
 62
           7
100
AcDbCircle
 10
-14169.949453781301
 20
-2834.219446342019
 30
0.0
 40
1.00109495
100
AcDbArc
 50
354.103999999999
 51
83.10400000007
  0
ARC
  5
DE
100
AcDbEntity
  8
Frei
  6
CONTINUOUS
 62
           7
100
AcDbCircle
 10
-14170.634904224707
 20
-2831.111376522973
 30
0.0
 40
2.0021899
100
AcDbArc
 50
174.104
 51
263.104000000015
  0
ARC
  5
DF
100
AcDbEntity
  8
Frei
  6
CONTINUOUS
 62
           7
100
AcDbCircle
 10
-14167.976743934629
 20
-2834.608022123788
 30
0.0
 40
1.001094950001
100
AcDbArc
 50
219.67699599927
 51
263.104000000022
  0
ARC
  5
E0
100
AcDbEntity
  8
Frei
  6
CONTINUOUS
 62
           7
100
AcDbCircle
 10
-14167.976743934629
 20
-2834.608022123789
 30
0.0
 40
1.001094949999
100
AcDbArc
 50
174.103999999987
 51
219.676995999281
  0
ARC
  5
E1
100
AcDbEntity
  8
Frei
  6
CONTINUOUS
 62
           7
100
AcDbCircle
 10
-14174.021360681892
 20
-2863.903828226466
 30
0.0
 40
2.002189899999
100
AcDbArc
 50
85.103999999931
 51
174.104
  0
ARC
  5
E2
100
AcDbEntity
  8
Frei
  6
CONTINUOUS
 62
           7
100
AcDbCircle
 10
-14172.715212827959
 20
-2861.001429547083
 30
0.0
 40
1.001094949999
100
AcDbArc
 50
265.103999999922
 51
354.104000000012
  0
ARC
  5
E3
100
AcDbEntity
  8
Frei
  6
CONTINUOUS
 62
           7
100
AcDbCircle
 10
-14170.704726079948
 20
-2861.024196044637
 30
0.0
 40
1.00109495
100
AcDbArc
 50
128.531004000815
 51
174.104
  0
ARC
  5
E4
100
AcDbEntity
  8
Frei
  6
CONTINUOUS
 62
           7
100
AcDbCircle
 10
-14170.704726079948
 20
-2861.024196044638
 30
0.0
 40
1.001094950001
100
AcDbArc
 50
85.104000000004
 51
128.531004000779
  0
LINE
  5
E5
100
AcDbEntity
  8
Frei
  6
CONTINUOUS
 62
           7
100
AcDbLine
 10
-14245.162875827717
 20
-2859.790677104377
 30
0.0
 11
-14241.681390859336
 21
-2860.150207930507
 31
0.0
  0
LINE
  5
E6
100
AcDbEntity
  8
Frei
  6
CONTINUOUS
 62
           7
100
AcDbLine
 10
-14244.957429641356
 20
-2857.801257122445
 30
0.0
 11
-14245.162875827717
 21
-2859.790677104377
 31
0.0
  0
LINE
  5
E7
100
AcDbEntity
  8
Frei
  6
CONTINUOUS
 62
           7
100
AcDbLine
 10
-14239.710811483161
 20
-2850.80318610951
 30
0.0
 11
-14240.583957775189
 21
-2859.258221032721
 31
0.0
  0
LINE
  5
E8
100
AcDbEntity
  8
Frei
  6
CONTINUOUS
 62
           7
100
AcDbLine
 10
-14244.187006442507
 20
-2850.3409321902
 30
0.0
 11
-14239.710811483161
 21
-2850.80318610951
 31
0.0
  0
LINE
  5
E9
100
AcDbEntity
  8
Frei
  6
CONTINUOUS
 62
           7
100
AcDbLine
 10
-14244.238367989097
 20
-2850.838287185684
 30
0.0
 11
-14244.187006442507
 21
-2850.3409321902
 31
0.0
  0
LINE
  5
EA
100
AcDbEntity
  8
Frei
  6
CONTINUOUS
 62
           7
100
AcDbLine
 10
-14240.754648542114
 20
-2851.645502319389
 30
0.0
 11
-14244.238367989097
 21
-2850.838287185684
 31
0.0
  0
LINE
  5
EB
100
AcDbEntity
  8
Frei
  6
CONTINUOUS
 62
           7
100
AcDbLine
 10
-14240.581645113172
 20
-2854.231869149648
 30
0.0
 11
-14240.370158661326
 21
-2852.1839587909
 31
0.0
  0
LINE
  5
EC
100
AcDbEntity
  8
Frei
  6
CONTINUOUS
 62
           7
100
AcDbLine
 10
-14244.957429641356
 20
-2857.801257122445
 30
0.0
 11
-14244.238367989097
 21
-2850.838287185684
 31
0.0
  0
LINE
  5
ED
100
AcDbEntity
  8
Frei
  6
CONTINUOUS
 62
           7
100
AcDbLine
 10
-14241.382268866035
 20
-2857.723008237605
 30
0.0
 11
-14244.957429641356
 21
-2857.801257122445
 31
0.0
  0
LINE
  5
EE
100
AcDbEntity
  8
Frei
  6
CONTINUOUS
 62
           7
100
AcDbLine
 10
-14240.684368206352
 20
-2855.226579140614
 30
0.0
 11
-14240.895854658198
 21
-2857.274489499361
 31
0.0
  0
LINE
  5
EF
100
AcDbEntity
  8
Frei
  6
CONTINUOUS
 62
           2
100
AcDbLine
 10
-14242.210932243906
 20
-2854.566272733881
 30
0.0
 11
-14239.448767502428
 21
-2854.851519799553
 31
0.0
  0
LINE
  5
F0
100
AcDbEntity
  8
Frei
  6
CONTINUOUS
 62
           7
100
AcDbLine
 10
-14242.159570697315
 20
-2854.068917738399
 30
0.0
 11
-14240.581645113172
 21
-2854.231869149648
 31
0.0
  0
LINE
  5
F1
100
AcDbEntity
  8
Frei
  6
CONTINUOUS
 62
           7
100
AcDbLine
 10
-14242.210932243906
 20
-2854.566272733881
 30
0.0
 11
-14242.159570697315
 21
-2854.068917738399
 31
0.0
  0
LINE
  5
F2
100
AcDbEntity
  8
Frei
  6
CONTINUOUS
 62
           7
100
AcDbLine
 10
-14242.262293790496
 20
-2855.063627729366
 30
0.0
 11
-14242.210932243906
 21
-2854.566272733881
 31
0.0
  0
LINE
  5
F3
100
AcDbEntity
  8
Frei
  6
CONTINUOUS
 62
           7
100
AcDbLine
 10
-14240.684368206352
 20
-2855.226579140614
 30
0.0
 11
-14242.262293790496
 21
-2855.063627729366
 31
0.0
  0
LINE
  5
F4
100
AcDbEntity
  8
Frei
  6
CONTINUOUS
 62
           7
100
AcDbLine
 10
-14383.924919567473
 20
-2845.460805605788
 30
0.0
 11
-14380.535057492538
 21
-2812.63537590391
 31
0.0
  0
LINE
  5
F5
100
AcDbEntity
  8
Frei
  6
CONTINUOUS
 62
           7
100
AcDbLine
 10
-14397.850859440998
 20
-2844.02268230127
 30
0.0
 11
-14383.924919567473
 21
-2845.460805605788
 31
0.0
  0
LINE
  5
F6
100
AcDbEntity
  8
Frei
  6
CONTINUOUS
 62
           7
100
AcDbLine
 10
-14390.482157402199
 20
-2811.608144972111
 30
0.0
 11
-14381.032412488021
 21
-2812.58401435732
 31
0.0
  0
LINE
  5
F7
100
AcDbEntity
  8
Frei
  6
CONTINUOUS
 62
           7
100
AcDbLine
 10
-14390.687603588558
 20
-2813.597564954043
 30
0.0
 11
-14390.482157402199
 21
-2811.608144972111
 31
0.0
  0
LINE
  5
F8
100
AcDbEntity
  8
Frei
  6
CONTINUOUS
 62
           7
100
AcDbLine
 10
-14391.406665240816
 20
-2820.560534890805
 30
0.0
 11
-14391.458026787406
 21
-2821.057889886289
 31
0.0
  0
LINE
  5
F9
100
AcDbEntity
  8
Frei
  6
CONTINUOUS
 62
           7
100
AcDbLine
 10
-14396.431576742238
 20
-2820.544274420389
 30
0.0
 11
-14395.558430450208
 21
-2812.089239497178
 31
0.0
  0
LINE
  5
FA
100
AcDbEntity
  8
Frei
  6
CONTINUOUS
 62
           7
100
AcDbLine
 10
-14391.458026787406
 20
-2821.057889886289
 30
0.0
 11
-14396.431576742238
 21
-2820.544274420389
 31
0.0
  0
LINE
  5
FB
100
AcDbEntity
  8
Frei
  6
CONTINUOUS
 62
           7
100
AcDbLine
 10
-14394.460997366063
 20
-2811.197252599392
 30
0.0
 11
-14390.482157402199
 21
-2811.608144972111
 31
0.0
  0
LINE
  5
FC
100
AcDbEntity
  8
Frei
  6
CONTINUOUS
 62
           7
100
AcDbLine
 10
-14394.8903846878
 20
-2819.753319757101
 30
0.0
 11
-14391.406665240816
 21
-2820.560534890805
 31
0.0
  0
LINE
  5
FD
100
AcDbEntity
  8
Frei
  6
CONTINUOUS
 62
           7
100
AcDbLine
 10
-14395.063388116743
 20
-2817.166952926841
 30
0.0
 11
-14395.274874568589
 21
-2819.214863285589
 31
0.0
  0
LINE
  5
FE
100
AcDbEntity
  8
Frei
  6
CONTINUOUS
 62
           7
100
AcDbLine
 10
-14390.687603588558
 20
-2813.597564954043
 30
0.0
 11
-14391.406665240816
 21
-2820.560534890805
 31
0.0
  0
LINE
  5
FF
100
AcDbEntity
  8
Frei
  6
CONTINUOUS
 62
           7
100
AcDbLine
 10
-14394.262764363879
 20
-2813.675813838884
 30
0.0
 11
-14390.687603588558
 21
-2813.597564954043
 31
0.0
  0
LINE
  5
100
100
AcDbEntity
  8
Frei
  6
CONTINUOUS
 62
           7
100
AcDbLine
 10
-14394.960665023562
 20
-2816.172242935875
 30
0.0
 11
-14394.749178571716
 21
-2814.124332577128
 31
0.0
  0
LINE
  5
101
100
AcDbEntity
  8
Frei
  6
CONTINUOUS
 62
           2
100
AcDbLine
 10
-14393.434100986009
 20
-2816.832549342607
 30
0.0
 11
-14396.196265727487
 21
-2816.547302276936
 31
0.0
  0
LINE
  5
102
100
AcDbEntity
  8
Frei
  6
CONTINUOUS
 62
           7
100
AcDbLine
 10
-14393.485462532599
 20
-2817.329904338089
 30
0.0
 11
-14395.063388116743
 21
-2817.166952926841
 31
0.0
  0
LINE
  5
103
100
AcDbEntity
  8
Frei
  6
CONTINUOUS
 62
           7
100
AcDbLine
 10
-14393.434100986009
 20
-2816.832549342607
 30
0.0
 11
-14393.485462532599
 21
-2817.329904338089
 31
0.0
  0
LINE
  5
104
100
AcDbEntity
  8
Frei
  6
CONTINUOUS
 62
           7
100
AcDbLine
 10
-14393.382739439419
 20
-2816.335194347123
 30
0.0
 11
-14393.434100986009
 21
-2816.832549342607
 31
0.0
  0
LINE
  5
105
100
AcDbEntity
  8
Frei
  6
CONTINUOUS
 62
           7
100
AcDbLine
 10
-14394.960665023562
 20
-2816.172242935875
 30
0.0
 11
-14393.382739439419
 21
-2816.335194347123
 31
0.0
  0
LINE
  5
106
100
AcDbEntity
  8
Frei
  6
CONTINUOUS
 62
           7
100
AcDbLine
 10
-14358.401446009851
 20
-2851.414148998652
 30
0.0
 11
-14358.452807556441
 21
-2851.911503994135
 31
0.0
  0
LINE
  5
107
100
AcDbEntity
  8
Frei
  6
CONTINUOUS
 62
           7
100
AcDbLine
 10
-14358.452807556441
 20
-2851.911503994135
 30
0.0
 11
-14281.860138252059
 21
-2859.821182168984
 31
0.0
  0
LINE
  5
108
100
AcDbEntity
  8
Frei
  6
CONTINUOUS
 62
           7
100
AcDbLine
 10
-14281.860138252059
 20
-2859.821182168984
 30
0.0
 11
-14277.032152872605
 21
-2813.069812593583
 31
0.0
  0
LINE
  5
109
100
AcDbEntity
  8
Frei
  6
CONTINUOUS
 62
           7
100
AcDbLine
 10
-14277.032152872605
 20
-2813.069812593583
 30
0.0
 11
-14353.624822176989
 21
-2805.160134418734
 31
0.0
  0
LINE
  5
10A
100
AcDbEntity
  8
Frei
  6
CONTINUOUS
 62
           7
100
AcDbLine
 10
-14381.032412488021
 20
-2812.58401435732
 30
0.0
 11
-14380.535057492538
 21
-2812.63537590391
 31
0.0
  0
LINE
  5
10B
100
AcDbEntity
  8
Frei
  6
CONTINUOUS
 62
           7
100
AcDbLine
 10
-14354.619532167955
 20
-2805.057411325554
 30
0.0
 11
-14379.984636937586
 21
-2802.437972449468
 31
0.0
  0
LINE
  5
10C
100
AcDbEntity
  8
Frei
  6
CONTINUOUS
 62
           7
100
AcDbLine
 10
-14384.315267321557
 20
-2849.240703571459
 30
0.0
 11
-14383.924919567473
 21
-2845.460805605788
 31
0.0
  0
LINE
  5
10D
100
AcDbEntity
  8
Frei
  6
CONTINUOUS
 62
           7
100
AcDbLine
 10
-14381.032412488021
 20
-2812.58401435732
 30
0.0
 11
-14379.984636937586
 21
-2802.437972449468
 31
0.0
  0
LINE
  5
10E
100
AcDbEntity
  8
Frei
  6
CONTINUOUS
 62
           7
100
AcDbLine
 10
-14358.401446009851
 20
-2851.414148998652
 30
0.0
 11
-14359.396156000817
 21
-2851.311425905472
 31
0.0
  0
LINE
  5
10F
100
AcDbEntity
  8
Frei
  6
CONTINUOUS
 62
           7
100
AcDbLine
 10
-14353.676183723579
 20
-2805.657489414216
 30
0.0
 11
-14358.401446009851
 21
-2851.414148998652
 31
0.0
  0
LINE
  5
110
100
AcDbEntity
  8
Frei
  6
CONTINUOUS
 62
           7
100
AcDbLine
 10
-14353.676183723579
 20
-2805.657489414216
 30
0.0
 11
-14354.670893714545
 21
-2805.554766321036
 31
0.0
  0
LINE
  5
111
100
AcDbEntity
  8
Frei
  6
CONTINUOUS
 62
           7
100
AcDbLine
 10
-14353.624822176989
 20
-2805.160134418734
 30
0.0
 11
-14353.676183723579
 21
-2805.657489414216
 31
0.0
  0
LINE
  5
112
100
AcDbEntity
  8
Frei
  6
CONTINUOUS
 62
           7
100
AcDbLine
 10
-14359.396156000817
 20
-2851.311425905472
 30
0.0
 11
-14354.619532167955
 21
-2805.057411325554
 31
0.0
  0
LINE
  5
113
100
AcDbEntity
  8
Frei
  6
CONTINUOUS
 62
           7
100
AcDbLine
 10
-14359.447517547407
 20
-2851.808780900955
 30
0.0
 11
-14359.396156000817
 21
-2851.311425905472
 31
0.0
  0
LINE
  5
114
100
AcDbEntity
  8
Frei
  6
CONTINUOUS
 62
           7
100
AcDbLine
 10
-14384.315267321557
 20
-2849.240703571459
 30
0.0
 11
-14359.447517547407
 21
-2851.808780900955
 31
0.0
  0
LINE
  5
115
100
AcDbEntity
  8
Frei
  6
CONTINUOUS
 62
           7
100
AcDbLine
 10
-14280.865428261091
 20
-2859.923905262163
 30
0.0
 11
-14255.997678486943
 21
-2862.49198259166
 31
0.0
  0
LINE
  5
116
100
AcDbEntity
  8
Frei
  6
CONTINUOUS
 62
           7
100
AcDbLine
 10
-14280.814066714502
 20
-2859.42655026668
 30
0.0
 11
-14280.865428261091
 21
-2859.923905262163
 31
0.0
  0
LINE
  5
117
100
AcDbEntity
  8
Frei
  6
CONTINUOUS
 62
           7
100
AcDbLine
 10
-14276.037442881639
 20
-2813.172535686763
 30
0.0
 11
-14280.814066714502
 21
-2859.42655026668
 31
0.0
  0
LINE
  5
118
100
AcDbEntity
  8
Frei
  6
CONTINUOUS
 62
           7
100
AcDbLine
 10
-14276.088804428229
 20
-2813.669890682245
 30
0.0
 11
-14277.083514419195
 21
-2813.567167589065
 31
0.0
  0
LINE
  5
119
100
AcDbEntity
  8
Frei
  6
CONTINUOUS
 62
           7
100
AcDbLine
 10
-14280.814066714502
 20
-2859.42655026668
 30
0.0
 11
-14281.808776705468
 21
-2859.323827173501
 31
0.0
  0
LINE
  5
11A
100
AcDbEntity
  8
Frei
  6
CONTINUOUS
 62
           7
100
AcDbLine
 10
-14250.672338112006
 20
-2815.791974562849
 30
0.0
 11
-14251.720113662441
 21
-2825.938016470701
 31
0.0
  0
LINE
  5
11B
100
AcDbEntity
  8
Frei
  6
CONTINUOUS
 62
           7
100
AcDbLine
 10
-14250.672338112006
 20
-2815.791974562849
 30
0.0
 11
-14276.037442881639
 21
-2813.172535686763
 31
0.0
  0
LINE
  5
11C
100
AcDbEntity
  8
Frei
  6
CONTINUOUS
 62
           7
100
AcDbLine
 10
-14252.217468657924
 20
-2825.886654924111
 30
0.0
 11
-14251.720113662441
 21
-2825.938016470701
 31
0.0
  0
LINE
  5
11D
100
AcDbEntity
  8
Frei
  6
CONTINUOUS
 62
           7
100
AcDbLine
 10
-14252.217468657924
 20
-2825.886654924111
 30
0.0
 11
-14255.997678486943
 21
-2862.49198259166
 31
0.0
  0
LINE
  5
11E
100
AcDbEntity
  8
Frei
  6
CONTINUOUS
 62
           7
100
AcDbLine
 10
-14427.456772178126
 20
-2814.324367012326
 30
0.0
 11
-14429.446192160058
 21
-2814.118920825966
 31
0.0
  0
LINE
  5
11F
100
AcDbEntity
  8
Frei
  6
CONTINUOUS
 62
           7
100
AcDbLine
 10
-14428.413800957578
 20
-2833.32657993386
 30
0.0
 11
-14426.564785280339
 21
-2815.421800096472
 31
0.0
  0
LINE
  5
120
100
AcDbEntity
  8
Frei
  6
CONTINUOUS
 62
           7
100
AcDbLine
 10
-14431.500654023655
 20
-2834.013120645286
 30
0.0
 11
-14429.511234041724
 21
-2834.218566831646
 31
0.0
  0
LINE
  5
121
100
AcDbEntity
  8
Frei
  6
CONTINUOUS
 62
           7
100
AcDbLine
 10
-14431.879025455542
 20
-2827.94213760631
 30
0.0
 11
-14432.392640921442
 21
-2832.91568756114
 31
0.0
  0
LINE
  5
122
100
AcDbEntity
  8
Frei
  6
CONTINUOUS
 62
           7
100
AcDbLine
 10
-14429.446192160058
 20
-2814.118920825966
 30
0.0
 11
-14430.543625244203
 21
-2815.010907723752
 31
0.0
  0
LINE
  5
123
100
AcDbEntity
  8
Frei
  6
CONTINUOUS
 62
           7
100
AcDbLine
 10
-14427.456772178126
 20
-2814.324367012326
 30
0.0
 11
-14426.564785280339
 21
-2815.421800096472
 31
0.0
  0
LINE
  5
124
100
AcDbEntity
  8
Frei
  6
CONTINUOUS
 62
           7
100
AcDbLine
 10
-14428.413800957578
 20
-2833.32657993386
 30
0.0
 11
-14429.511234041724
 21
-2834.218566831646
 31
0.0
  0
LINE
  5
125
100
AcDbEntity
  8
Frei
  6
CONTINUOUS
 62
           7
100
AcDbLine
 10
-14431.500654023655
 20
-2834.013120645286
 30
0.0
 11
-14432.392640921442
 21
-2832.91568756114
 31
0.0
  0
LINE
  5
126
100
AcDbEntity
  8
Frei
  6
CONTINUOUS
 62
           7
100
AcDbLine
 10
-14431.500654023655
 20
-2834.013120645286
 30
0.0
 11
-14429.446192160058
 21
-2814.118920825966
 31
0.0
  0
LINE
  5
127
100
AcDbEntity
  8
Frei
  6
CONTINUOUS
 62
           7
100
AcDbLine
 10
-14429.511234041724
 20
-2834.218566831646
 30
0.0
 11
-14427.456772178126
 21
-2814.324367012326
 31
0.0
  0
LINE
  5
128
100
AcDbEntity
  8
Frei
  6
CONTINUOUS
 62
           7
100
AcDbLine
 10
-14429.184224156426
 20
-2840.786904866104
 30
0.0
 11
-14428.413800957578
 21
-2833.32657993386
 31
0.0
  0
LINE
  5
129
100
AcDbEntity
  8
Frei
  6
CONTINUOUS
 62
           7
100
AcDbLine
 10
-14399.361765033203
 20
-2834.316129654143
 30
0.0
 11
-14400.337634418413
 21
-2843.76587456832
 31
0.0
  0
LINE
  5
12A
100
AcDbEntity
  8
Frei
  6
CONTINUOUS
 62
           7
100
AcDbLine
 10
-14432.15467379425
 20
-2820.876444576368
 30
0.0
 11
-14431.057240710103
 21
-2819.984457678582
 31
0.0
  0
LINE
  5
12B
100
AcDbEntity
  8
Frei
  6
CONTINUOUS
 62
           7
100
AcDbLine
 10
-14430.543625244203
 20
-2815.010907723752
 30
0.0
 11
-14431.057240710103
 21
-2819.984457678582
 31
0.0
  0
LINE
  5
12C
100
AcDbEntity
  8
Frei
  6
CONTINUOUS
 62
           7
100
AcDbLine
 10
-14432.20603534084
 20
-2821.373799571851
 30
0.0
 11
-14432.15467379425
 21
-2820.876444576368
 31
0.0
  0
LINE
  5
12D
100
AcDbEntity
  8
Frei
  6
CONTINUOUS
 62
           7
100
AcDbLine
 10
-14431.879025455542
 20
-2827.94213760631
 30
0.0
 11
-14432.771012353329
 21
-2826.844704522164
 31
0.0
  0
LINE
  5
12E
100
AcDbEntity
  8
Frei
  6
CONTINUOUS
 62
           7
100
AcDbLine
 10
-14431.776302362363
 20
-2826.947427615344
 30
0.0
 11
-14431.879025455542
 21
-2827.94213760631
 31
0.0
  0
LINE
  5
12F
100
AcDbEntity
  8
Frei
  6
CONTINUOUS
 62
           2
100
AcDbLine
 10
-14431.159963803284
 20
-2820.979167669548
 30
0.0
 11
-14432.15467379425
 21
-2820.876444576368
 31
0.0
  0
LINE
  5
130
100
AcDbEntity
  8
Frei
  6
CONTINUOUS
 62
           7
100
AcDbLine
 10
-14431.057240710103
 20
-2819.984457678582
 30
0.0
 11
-14431.159963803284
 21
-2820.979167669548
 31
0.0
  0
LINE
  5
131
100
AcDbEntity
  8
Frei
  6
CONTINUOUS
 62
           2
100
AcDbLine
 10
-14431.776302362363
 20
-2826.947427615344
 30
0.0
 11
-14432.771012353329
 21
-2826.844704522164
 31
0.0
  0
LINE
  5
132
100
AcDbEntity
  8
Frei
  6
CONTINUOUS
 62
           7
100
AcDbLine
 10
-14431.159963803284
 20
-2820.979167669548
 30
0.0
 11
-14431.776302362363
 21
-2826.947427615344
 31
0.0
  0
LINE
  5
133
100
AcDbEntity
  8
Frei
  6
CONTINUOUS
 62
           1
100
AcDbLine
 10
-14429.730847796893
 20
-2821.629410677625
 30
0.0
 11
-14432.20603534084
 21
-2821.373799571851
 31
0.0
  0
LINE
  5
134
100
AcDbEntity
  8
Frei
  6
CONTINUOUS
 62
           7
100
AcDbLine
 10
-14432.257396887429
 20
-2821.871154567334
 30
0.0
 11
-14432.20603534084
 21
-2821.373799571851
 31
0.0
  0
LINE
  5
135
100
AcDbEntity
  8
Frei
  6
CONTINUOUS
 62
           1
100
AcDbLine
 10
-14430.244463262792
 20
-2826.602960632455
 30
0.0
 11
-14432.719650806739
 21
-2826.347349526681
 31
0.0
  0
LINE
  5
136
100
AcDbEntity
  8
Frei
  6
CONTINUOUS
 62
           7
100
AcDbLine
 10
-14432.771012353329
 20
-2826.844704522164
 30
0.0
 11
-14432.719650806739
 21
-2826.347349526681
 31
0.0
  0
LINE
  5
137
100
AcDbEntity
  8
Frei
  6
CONTINUOUS
 62
           1
100
AcDbLine
 10
-14429.782209343482
 20
-2822.126765673108
 30
0.0
 11
-14432.257396887429
 21
-2821.871154567334
 31
0.0
  0
LINE
  5
138
100
AcDbEntity
  8
Frei
  6
CONTINUOUS
 62
           7
100
AcDbLine
 10
-14432.668289260148
 20
-2825.849994531198
 30
0.0
 11
-14432.257396887429
 21
-2821.871154567334
 31
0.0
  0
LINE
  5
139
100
AcDbEntity
  8
Frei
  6
CONTINUOUS
 62
           1
100
AcDbLine
 10
-14430.193101716202
 20
-2826.105605636972
 30
0.0
 11
-14432.668289260148
 21
-2825.849994531198
 31
0.0
  0
LINE
  5
13A
100
AcDbEntity
  8
Frei
  6
CONTINUOUS
 62
           7
100
AcDbLine
 10
-14432.719650806739
 20
-2826.347349526681
 30
0.0
 11
-14432.668289260148
 21
-2825.849994531198
 31
0.0
  0
LINE
  5
13B
100
AcDbEntity
  8
Frei
  6
CONTINUOUS
 62
           7
100
AcDbLine
 10
-14424.382368184572
 20
-2813.078888920709
 30
0.0
 11
-14397.358664716197
 21
-2814.919284830306
 31
0.0
  0
LINE
  5
13C
100
AcDbEntity
  8
Frei
  6
CONTINUOUS
 62
           7
100
AcDbLine
 10
-14426.507679444499
 20
-2814.868820783883
 30
0.0
 11
-14426.564785280339
 21
-2815.421800096472
 31
0.0
  0
LINE
  5
13D
100
AcDbEntity
  8
Frei
  6
CONTINUOUS
 62
           7
100
AcDbLine
 10
-14400.337634418413
 20
-2843.76587456832
 30
0.0
 11
-14429.184224156426
 21
-2840.786904866104
 31
0.0
  0
LINE
  5
13E
100
AcDbEntity
  8
Frei
  6
CONTINUOUS
 62
           7
100
AcDbLine
 10
-14429.286947249606
 20
-2841.78161485707
 30
0.0
 11
-14429.184224156426
 21
-2840.786904866104
 31
0.0
  0
LINE
  5
13F
100
AcDbEntity
  8
Frei
  6
CONTINUOUS
 62
           7
100
AcDbLine
 10
-14428.789592254123
 20
-2841.83297640366
 30
0.0
 11
-14429.286947249606
 21
-2841.78161485707
 31
0.0
  0
LINE
  5
140
100
AcDbEntity
  8
Frei
  6
CONTINUOUS
 62
           7
100
AcDbLine
 10
-14400.337634418413
 20
-2843.76587456832
 30
0.0
 11
-14400.440357511592
 21
-2844.760584559286
 31
0.0
  0
LINE
  5
141
100
AcDbEntity
  8
Frei
  6
CONTINUOUS
 62
           7
100
AcDbLine
 10
-14440.569447370604
 20
-2853.68561380783
 30
0.0
 11
-14430.124992465462
 21
-2854.764206286218
 31
0.0
  0
LINE
  5
142
100
AcDbEntity
  8
Frei
  6
CONTINUOUS
 62
           7
100
AcDbLine
 10
-14443.705081847931
 20
-2869.446889023516
 30
0.0
 11
-14443.756443394521
 21
-2869.944244018999
 31
0.0
  0
LINE
  5
143
100
AcDbEntity
  8
Frei
  6
CONTINUOUS
 62
           7
100
AcDbLine
 10
-14442.418463047841
 20
-2871.590393645218
 30
0.0
 11
-14431.974008142699
 21
-2872.668986123606
 31
0.0
  0
LINE
  5
144
100
AcDbEntity
  8
Frei
  6
CONTINUOUS
 62
           7
100
AcDbLine
 10
-14431.614477316569
 20
-2869.187501155225
 30
0.0
 11
-14428.789592254123
 21
-2841.83297640366
 31
0.0
  0
LINE
  5
145
100
AcDbEntity
  8
Frei
  6
CONTINUOUS
 62
           7
100
AcDbLine
 10
-14400.937712507075
 20
-2844.709223012696
 30
0.0
 11
-14428.789592254123
 21
-2841.83297640366
 31
0.0
  0
LINE
  5
146
100
AcDbEntity
  8
Frei
  6
CONTINUOUS
 62
           7
100
AcDbLine
 10
-14430.276496969889
 20
-2870.833650781444
 30
0.0
 11
-14424.343945506176
 21
-2871.44630174739
 31
0.0
  0
LINE
  5
147
100
AcDbEntity
  8
Frei
  6
CONTINUOUS
 62
           7
100
AcDbLine
 10
-14403.762597569521
 20
-2872.063747764261
 30
0.0
 11
-14400.937712507075
 21
-2844.709223012696
 31
0.0
  0
LINE
  5
148
100
AcDbEntity
  8
Frei
  6
CONTINUOUS
 62
           7
100
AcDbLine
 10
-14400.440357511592
 20
-2844.760584559286
 30
0.0
 11
-14400.937712507075
 21
-2844.709223012696
 31
0.0
  0
LINE
  5
149
100
AcDbEntity
  8
Frei
  6
CONTINUOUS
 62
           7
100
AcDbLine
 10
-14424.343945506176
 20
-2871.44630174739
 30
0.0
 11
-14431.974008142699
 21
-2872.668986123606
 31
0.0
  0
LINE
  5
14A
100
AcDbEntity
  8
Frei
  6
CONTINUOUS
 62
           7
100
AcDbLine
 10
-14405.408747195741
 20
-2873.40172811094
 30
0.0
 11
-14424.343945506176
 21
-2871.44630174739
 31
0.0
  0
LINE
  5
14B
100
AcDbEntity
  8
Frei
  6
CONTINUOUS
 62
           7
100
AcDbLine
 10
-14447.240508498244
 20
-2855.007333684092
 30
0.0
 11
-14442.266958543412
 21
-2855.520949149992
 31
0.0
  0
LINE
  5
14C
100
AcDbEntity
  8
Frei
  6
CONTINUOUS
 62
           7
100
AcDbLine
 10
-14442.215596996823
 20
-2855.023594154509
 30
0.0
 11
-14442.266958543412
 21
-2855.520949149992
 31
0.0
  0
LINE
  5
14D
100
AcDbEntity
  8
Frei
  6
CONTINUOUS
 62
           7
100
AcDbLine
 10
-14448.678631802761
 20
-2868.933273557616
 30
0.0
 11
-14443.705081847931
 21
-2869.446889023516
 31
0.0
  0
LINE
  5
14E
100
AcDbEntity
  8
Frei
  6
CONTINUOUS
 62
           7
100
AcDbLine
 10
-14443.602358754752
 20
-2868.45217903255
 30
0.0
 11
-14443.705081847931
 21
-2869.446889023516
 31
0.0
  0
LINE
  5
14F
100
AcDbEntity
  8
Frei
  6
CONTINUOUS
 62
           2
100
AcDbLine
 10
-14442.369681636594
 20
-2856.515659140958
 30
0.0
 11
-14447.343231591423
 21
-2856.002043675059
 31
0.0
  0
LINE
  5
150
100
AcDbEntity
  8
Frei
  6
CONTINUOUS
 62
           7
100
AcDbLine
 10
-14442.266958543412
 20
-2855.520949149992
 30
0.0
 11
-14442.369681636594
 21
-2856.515659140958
 31
0.0
  0
LINE
  5
151
100
AcDbEntity
  8
Frei
  6
CONTINUOUS
 62
           2
100
AcDbLine
 10
-14443.602358754752
 20
-2868.45217903255
 30
0.0
 11
-14448.575908709581
 21
-2867.93856356665
 31
0.0
  0
LINE
  5
152
100
AcDbEntity
  8
Frei
  6
CONTINUOUS
 62
           7
100
AcDbLine
 10
-14442.369681636594
 20
-2856.515659140958
 30
0.0
 11
-14443.602358754752
 21
-2868.45217903255
 31
0.0
  0
LINE
  5
153
100
AcDbEntity
  8
Frei
  6
CONTINUOUS
 62
           7
100
AcDbLine
 10
-14397.923641728687
 20
-2820.39018978062
 30
0.0
 11
-14397.171652259643
 21
-2820.467847273758
 31
0.0
  0
LINE
  5
154
100
AcDbEntity
  8
Frei
  6
CONTINUOUS
 62
           7
100
AcDbLine
 10
-14397.358664716197
 20
-2814.919284830306
 30
0.0
 11
-14397.923641728687
 21
-2820.39018978062
 31
0.0
  0
LINE
  5
155
100
AcDbEntity
  8
Frei
  6
CONTINUOUS
 62
           7
100
AcDbLine
 10
-14398.283172554815
 20
-2823.871674749001
 30
0.0
 11
-14397.531183085774
 21
-2823.94933224214
 31
0.0
  0
LINE
  5
156
100
AcDbEntity
  8
Frei
  6
CONTINUOUS
 62
           7
100
AcDbLine
 10
-14397.923641728687
 20
-2820.39018978062
 30
0.0
 11
-14398.283172554815
 21
-2823.871674749001
 31
0.0
  0
LINE
  5
157
100
AcDbEntity
  8
Frei
  6
CONTINUOUS
 62
           7
100
AcDbLine
 10
-14399.002234207075
 20
-2830.834644685762
 30
0.0
 11
-14398.250244738032
 21
-2830.912302178901
 31
0.0
  0
LINE
  5
158
100
AcDbEntity
  8
Frei
  6
CONTINUOUS
 62
           7
100
AcDbLine
 10
-14398.283172554815
 20
-2823.871674749001
 30
0.0
 11
-14399.002234207075
 21
-2830.834644685762
 31
0.0
  0
LINE
  5
159
100
AcDbEntity
  8
Frei
  6
CONTINUOUS
 62
           7
100
AcDbLine
 10
-14399.361765033203
 20
-2834.316129654143
 30
0.0
 11
-14398.609775564162
 21
-2834.393787147282
 31
0.0
  0
LINE
  5
15A
100
AcDbEntity
  8
Frei
  6
CONTINUOUS
 62
           7
100
AcDbLine
 10
-14399.002234207075
 20
-2830.834644685762
 30
0.0
 11
-14399.361765033203
 21
-2834.316129654143
 31
0.0
  0
LINE
  5
15B
100
AcDbEntity
  8
Frei
  6
CONTINUOUS
 62
           7
100
AcDbLine
 10
-14397.150638394496
 20
-2827.507244357151
 30
0.0
 11
-14396.611342155302
 21
-2822.28501690458
 31
0.0
  0
LINE
  5
15C
100
AcDbEntity
  8
Frei
  6
CONTINUOUS
 62
           7
100
AcDbLine
 10
-14447.14516059133
 20
-2854.084040657291
 30
0.0
 11
-14447.010654862512
 21
-2852.781566324058
 31
0.0
  0
LINE
  5
15D
100
AcDbEntity
  8
Frei
  6
CONTINUOUS
 62
           7
100
AcDbLine
 10
-14453.130051486416
 20
-2870.723082370493
 30
0.0
 11
-14448.908485438493
 21
-2871.159040917652
 31
0.0
  0
LINE
  5
15E
100
AcDbEntity
  8
Frei
  6
CONTINUOUS
 62
           7
100
AcDbLine
 10
-14452.118710546159
 20
-2853.570425191392
 30
0.0
 11
-14447.14516059133
 21
-2854.084040657291
 31
0.0
  0
LINE
  5
15F
100
AcDbEntity
  8
Frei
  6
CONTINUOUS
 62
           7
100
AcDbLine
 10
-14447.350606777689
 20
-2856.073460639223
 30
0.0
 11
-14447.14516059133
 21
-2854.084040657291
 31
0.0
  0
LINE
  5
160
100
AcDbEntity
  8
Frei
  6
CONTINUOUS
 62
           7
100
AcDbLine
 10
-14447.350606777689
 20
-2856.073460639223
 30
0.0
 11
-14452.324156732519
 21
-2855.559845173324
 31
0.0
  0
LINE
  5
161
100
AcDbEntity
  8
Frei
  6
CONTINUOUS
 62
           7
100
AcDbLine
 10
-14452.118710546159
 20
-2853.570425191392
 30
0.0
 11
-14452.324156732519
 21
-2855.559845173324
 31
0.0
  0
LINE
  5
162
100
AcDbEntity
  8
Frei
  6
CONTINUOUS
 62
           7
100
AcDbLine
 10
-14447.485112506507
 20
-2857.375934972456
 30
0.0
 11
-14447.350606777689
 21
-2856.073460639223
 31
0.0
  0
LINE
  5
163
100
AcDbEntity
  8
Frei
  6
CONTINUOUS
 62
           7
100
AcDbLine
 10
-14447.754123964141
 20
-2859.980883638923
 30
0.0
 11
-14447.485112506507
 21
-2857.375934972456
 31
0.0
  0
LINE
  5
164
100
AcDbEntity
  8
Frei
  6
CONTINUOUS
 62
           7
100
AcDbLine
 10
-14447.754123964141
 20
-2859.980883638923
 30
0.0
 11
-14452.727673918973
 21
-2859.467268173024
 31
0.0
  0
LINE
  5
165
100
AcDbEntity
  8
Frei
  6
CONTINUOUS
 62
           7
100
AcDbLine
 10
-14452.324156732519
 20
-2855.559845173324
 30
0.0
 11
-14452.727673918973
 21
-2859.467268173024
 31
0.0
  0
LINE
  5
166
100
AcDbEntity
  8
Frei
  6
CONTINUOUS
 62
           7
100
AcDbLine
 10
-14448.165016336861
 20
-2863.959723602787
 30
0.0
 11
-14447.754123964141
 21
-2859.980883638923
 31
0.0
  0
LINE
  5
167
100
AcDbEntity
  8
Frei
  6
CONTINUOUS
 62
           7
100
AcDbLine
 10
-14448.165016336861
 20
-2863.959723602787
 30
0.0
 11
-14453.138566291691
 21
-2863.446108136887
 31
0.0
  0
LINE
  5
168
100
AcDbEntity
  8
Frei
  6
CONTINUOUS
 62
           7
100
AcDbLine
 10
-14452.727673918973
 20
-2859.467268173024
 30
0.0
 11
-14453.138566291691
 21
-2863.446108136887
 31
0.0
  0
LINE
  5
169
100
AcDbEntity
  8
Frei
  6
CONTINUOUS
 62
           7
100
AcDbLine
 10
-14448.434027794498
 20
-2866.564672269254
 30
0.0
 11
-14448.165016336861
 21
-2863.959723602787
 31
0.0
  0
LINE
  5
16A
100
AcDbEntity
  8
Frei
  6
CONTINUOUS
 62
           7
100
AcDbLine
 10
-14448.568533523314
 20
-2867.867146602487
 30
0.0
 11
-14448.434027794498
 21
-2866.564672269254
 31
0.0
  0
LINE
  5
16B
100
AcDbEntity
  8
Frei
  6
CONTINUOUS
 62
           7
100
AcDbLine
 10
-14448.568533523314
 20
-2867.867146602487
 30
0.0
 11
-14453.542083478145
 21
-2867.353531136588
 31
0.0
  0
LINE
  5
16C
100
AcDbEntity
  8
Frei
  6
CONTINUOUS
 62
           7
100
AcDbLine
 10
-14453.138566291691
 20
-2863.446108136887
 30
0.0
 11
-14453.542083478145
 21
-2867.353531136588
 31
0.0
  0
LINE
  5
16D
100
AcDbEntity
  8
Frei
  6
CONTINUOUS
 62
           7
100
AcDbLine
 10
-14448.773979709675
 20
-2869.856566584419
 30
0.0
 11
-14448.568533523314
 21
-2867.867146602487
 31
0.0
  0
LINE
  5
16E
100
AcDbEntity
  8
Frei
  6
CONTINUOUS
 62
           7
100
AcDbLine
 10
-14448.773979709675
 20
-2869.856566584419
 30
0.0
 11
-14453.747529664504
 21
-2869.34295111852
 31
0.0
  0
LINE
  5
16F
100
AcDbEntity
  8
Frei
  6
CONTINUOUS
 62
           7
100
AcDbLine
 10
-14453.542083478145
 20
-2867.353531136588
 30
0.0
 11
-14453.747529664504
 21
-2869.34295111852
 31
0.0
  0
LINE
  5
170
100
AcDbEntity
  8
Frei
  6
CONTINUOUS
 62
           7
100
AcDbLine
 10
-14448.908485438493
 20
-2871.159040917652
 30
0.0
 11
-14448.773979709675
 21
-2869.856566584419
 31
0.0
  0
LINE
  5
171
100
AcDbEntity
  8
Frei
  6
CONTINUOUS
 62
           7
100
AcDbLine
 10
-14452.118710546159
 20
-2853.570425191392
 30
0.0
 11
-14451.232220910437
 21
-2852.345607776899
 31
0.0
  0
LINE
  5
172
100
AcDbEntity
  8
Frei
  6
CONTINUOUS
 62
           7
100
AcDbLine
 10
-14447.010654862512
 20
-2852.781566324058
 30
0.0
 11
-14451.232220910437
 21
-2852.345607776899
 31
0.0
  0
LINE
  5
173
100
AcDbEntity
  8
Frei
  6
CONTINUOUS
 62
           7
100
AcDbLine
 10
-14453.130051486416
 20
-2870.723082370493
 30
0.0
 11
-14453.747529664504
 21
-2869.34295111852
 31
0.0
  0
LINE
  5
174
100
AcDbEntity
  8
Frei
  6
CONTINUOUS
 62
           7
100
AcDbLine
 10
-14451.706678554432
 20
-2856.939976425297
 30
0.0
 11
-14452.324156732519
 21
-2855.559845173324
 31
0.0
  0
LINE
  5
175
100
AcDbEntity
  8
Frei
  6
CONTINUOUS
 62
           7
100
AcDbLine
 10
-14447.485112506507
 20
-2857.375934972456
 30
0.0
 11
-14451.706678554432
 21
-2856.939976425297
 31
0.0
  0
LINE
  5
176
100
AcDbEntity
  8
Frei
  6
CONTINUOUS
 62
           7
100
AcDbLine
 10
-14452.727673918973
 20
-2859.467268173024
 30
0.0
 11
-14451.706678554432
 21
-2856.939976425297
 31
0.0
  0
LINE
  5
177
100
AcDbEntity
  8
Frei
  6
CONTINUOUS
 62
           7
100
AcDbLine
 10
-14452.655593842423
 20
-2866.128713722094
 30
0.0
 11
-14453.138566291691
 21
-2863.446108136887
 31
0.0
  0
LINE
  5
178
100
AcDbEntity
  8
Frei
  6
CONTINUOUS
 62
           7
100
AcDbLine
 10
-14448.434027794498
 20
-2866.564672269254
 30
0.0
 11
-14452.655593842423
 21
-2866.128713722094
 31
0.0
  0
LINE
  5
179
100
AcDbEntity
  8
Frei
  6
CONTINUOUS
 62
           7
100
AcDbLine
 10
-14453.542083478145
 20
-2867.353531136588
 30
0.0
 11
-14452.655593842423
 21
-2866.128713722094
 31
0.0
  0
LINE
  5
17A
100
AcDbEntity
  8
Frei
  6
CONTINUOUS
 62
           3
100
AcDbLine
 10
-14408.160898202545
 20
-2865.979756348953
 30
0.0
 11
-14426.065678039931
 21
-2864.130740671715
 31
0.0
  0
LINE
  5
17B
100
AcDbEntity
  8
Frei
  6
CONTINUOUS
 62
           3
100
AcDbLine
 10
-14408.81935805303
 20
-2866.514948487624
 30
0.0
 11
-14408.160898202545
 21
-2865.979756348953
 31
0.0
  0
LINE
  5
17C
100
AcDbEntity
  8
Frei
  6
CONTINUOUS
 62
           3
100
AcDbLine
 10
-14408.28416591436
 20
-2867.173408338112
 30
0.0
 11
-14408.81935805303
 21
-2866.514948487624
 31
0.0
  0
LINE
  5
17D
100
AcDbEntity
  8
Frei
  6
CONTINUOUS
 62
           3
100
AcDbLine
 10
-14426.188945751748
 20
-2865.324392660874
 30
0.0
 11
-14408.28416591436
 21
-2867.173408338112
 31
0.0
  0
LINE
  5
17E
100
AcDbEntity
  8
Frei
  6
CONTINUOUS
 62
           3
100
AcDbLine
 10
-14425.530485901259
 20
-2864.789200522202
 30
0.0
 11
-14426.188945751748
 21
-2865.324392660874
 31
0.0
  0
LINE
  5
17F
100
AcDbEntity
  8
Frei
  6
CONTINUOUS
 62
           3
100
AcDbLine
 10
-14426.065678039931
 20
-2864.130740671715
 30
0.0
 11
-14425.530485901259
 21
-2864.789200522202
 31
0.0
  0
LINE
  5
180
100
AcDbEntity
  8
Frei
  6
CONTINUOUS
 62
           3
100
AcDbLine
 10
-14408.81935805303
 20
-2866.514948487624
 30
0.0
 11
-14425.530485901259
 21
-2864.789200522202
 31
0.0
  0
LINE
  5
181
100
AcDbEntity
  8
Frei
  6
CONTINUOUS
 62
           3
100
AcDbLine
 10
-14425.983499565389
 20
-2863.334972678942
 30
0.0
 11
-14425.3250397149
 21
-2862.79978054027
 31
0.0
  0
LINE
  5
182
100
AcDbEntity
  8
Frei
  6
CONTINUOUS
 62
           3
100
AcDbLine
 10
-14408.078719728001
 20
-2865.18398835618
 30
0.0
 11
-14425.983499565389
 21
-2863.334972678942
 31
0.0
  0
LINE
  5
183
100
AcDbEntity
  8
Frei
  6
CONTINUOUS
 62
           3
100
AcDbLine
 10
-14408.613911866671
 20
-2864.525528505692
 30
0.0
 11
-14408.078719728001
 21
-2865.18398835618
 31
0.0
  0
LINE
  5
184
100
AcDbEntity
  8
Frei
  6
CONTINUOUS
 62
           3
100
AcDbLine
 10
-14407.955452016184
 20
-2863.990336367021
 30
0.0
 11
-14408.613911866671
 21
-2864.525528505692
 31
0.0
  0
LINE
  5
185
100
AcDbEntity
  8
Frei
  6
CONTINUOUS
 62
           3
100
AcDbLine
 10
-14425.860231853572
 20
-2862.141320689783
 30
0.0
 11
-14407.955452016184
 21
-2863.990336367021
 31
0.0
  0
LINE
  5
186
100
AcDbEntity
  8
Frei
  6
CONTINUOUS
 62
           3
100
AcDbLine
 10
-14425.3250397149
 20
-2862.79978054027
 30
0.0
 11
-14425.860231853572
 21
-2862.141320689783
 31
0.0
  0
LINE
  5
187
100
AcDbEntity
  8
Frei
  6
CONTINUOUS
 62
           3
100
AcDbLine
 10
-14425.3250397149
 20
-2862.79978054027
 30
0.0
 11
-14408.613911866671
 21
-2864.525528505692
 31
0.0
  0
LINE
  5
188
100
AcDbEntity
  8
Frei
  6
CONTINUOUS
 62
           3
100
AcDbLine
 10
-14425.778053379028
 20
-2861.34555269701
 30
0.0
 11
-14425.119593528541
 21
-2860.810360558338
 31
0.0
  0
LINE
  5
189
100
AcDbEntity
  8
Frei
  6
CONTINUOUS
 62
           3
100
AcDbLine
 10
-14407.87327354164
 20
-2863.194568374248
 30
0.0
 11
-14425.778053379028
 21
-2861.34555269701
 31
0.0
  0
LINE
  5
18A
100
AcDbEntity
  8
Frei
  6
CONTINUOUS
 62
           3
100
AcDbLine
 10
-14408.408465680312
 20
-2862.53610852376
 30
0.0
 11
-14407.87327354164
 21
-2863.194568374248
 31
0.0
  0
LINE
  5
18B
100
AcDbEntity
  8
Frei
  6
CONTINUOUS
 62
           3
100
AcDbLine
 10
-14407.750005829825
 20
-2862.000916385089
 30
0.0
 11
-14408.408465680312
 21
-2862.53610852376
 31
0.0
  0
LINE
  5
18C
100
AcDbEntity
  8
Frei
  6
CONTINUOUS
 62
           3
100
AcDbLine
 10
-14425.654785667213
 20
-2860.151900707851
 30
0.0
 11
-14407.750005829825
 21
-2862.000916385089
 31
0.0
  0
LINE
  5
18D
100
AcDbEntity
  8
Frei
  6
CONTINUOUS
 62
           3
100
AcDbLine
 10
-14425.119593528541
 20
-2860.810360558338
 30
0.0
 11
-14425.654785667213
 21
-2860.151900707851
 31
0.0
  0
LINE
  5
18E
100
AcDbEntity
  8
Frei
  6
CONTINUOUS
 62
           3
100
AcDbLine
 10
-14425.572607192669
 20
-2859.356132715078
 30
0.0
 11
-14424.914147342181
 21
-2858.820940576406
 31
0.0
  0
LINE
  5
18F
100
AcDbEntity
  8
Frei
  6
CONTINUOUS
 62
           3
100
AcDbLine
 10
-14419.511919502738
 20
-2859.982016230838
 30
0.0
 11
-14425.572607192669
 21
-2859.356132715078
 31
0.0
  0
LINE
  5
190
100
AcDbEntity
  8
Frei
  6
CONTINUOUS
 62
           3
100
AcDbLine
 10
-14408.203019493951
 20
-2860.546688541828
 30
0.0
 11
-14407.667827355281
 21
-2861.205148392316
 31
0.0
  0
LINE
  5
191
100
AcDbEntity
  8
Frei
  6
CONTINUOUS
 62
           3
100
AcDbLine
 10
-14407.544559643466
 20
-2860.011496403157
 30
0.0
 11
-14408.203019493951
 21
-2860.546688541828
 31
0.0
  0
LINE
  5
192
100
AcDbEntity
  8
Frei
  6
CONTINUOUS
 62
           3
100
AcDbLine
 10
-14413.605247333395
 20
-2859.385612887398
 30
0.0
 11
-14407.544559643466
 21
-2860.011496403157
 31
0.0
  0
LINE
  5
193
100
AcDbEntity
  8
Frei
  6
CONTINUOUS
 62
           3
100
AcDbLine
 10
-14424.914147342181
 20
-2858.820940576406
 30
0.0
 11
-14425.449339480852
 21
-2858.16248072592
 31
0.0
  0
LINE
  5
194
100
AcDbEntity
  8
Frei
  6
CONTINUOUS
 62
           3
100
AcDbLine
 10
-14425.367161006308
 20
-2857.366712733146
 30
0.0
 11
-14424.708701155821
 21
-2856.831520594475
 31
0.0
  0
LINE
  5
195
100
AcDbEntity
  8
Frei
  6
CONTINUOUS
 62
           3
100
AcDbLine
 10
-14420.048741924762
 20
-2857.91594262311
 30
0.0
 11
-14425.367161006308
 21
-2857.366712733146
 31
0.0
  0
LINE
  5
196
100
AcDbEntity
  8
Frei
  6
CONTINUOUS
 62
           3
100
AcDbLine
 10
-14407.997573307592
 20
-2858.557268559896
 30
0.0
 11
-14407.462381168922
 21
-2859.215728410384
 31
0.0
  0
LINE
  5
197
100
AcDbEntity
  8
Frei
  6
CONTINUOUS
 62
           3
100
AcDbLine
 10
-14413.31599238914
 20
-2858.008038669933
 30
0.0
 11
-14407.997573307592
 21
-2858.557268559896
 31
0.0
  0
LINE
  5
198
100
AcDbEntity
  8
Frei
  6
CONTINUOUS
 62
           3
100
AcDbLine
 10
-14418.853459652251
 20
-2859.446824092166
 30
0.0
 11
-14424.914147342181
 21
-2858.820940576406
 31
0.0
  0
LINE
  5
199
100
AcDbEntity
  8
Frei
  6
CONTINUOUS
 62
           3
100
AcDbLine
 10
-14408.408465680312
 20
-2862.53610852376
 30
0.0
 11
-14425.119593528541
 21
-2860.810360558338
 31
0.0
  0
LINE
  5
19A
100
AcDbEntity
  8
Frei
  6
CONTINUOUS
 62
           3
100
AcDbLine
 10
-14418.853459652251
 20
-2859.446824092166
 30
0.0
 11
-14419.388651790921
 21
-2858.788364241679
 31
0.0
  0
LINE
  5
19B
100
AcDbEntity
  8
Frei
  6
CONTINUOUS
 62
           3
100
AcDbLine
 10
-14425.449339480852
 20
-2858.16248072592
 30
0.0
 11
-14419.388651790921
 21
-2858.788364241679
 31
0.0
  0
LINE
  5
19C
100
AcDbEntity
  8
Frei
  6
CONTINUOUS
 62
           3
100
AcDbLine
 10
-14419.511919502738
 20
-2859.982016230838
 30
0.0
 11
-14418.853459652251
 21
-2859.446824092166
 31
0.0
  0
LINE
  5
19D
100
AcDbEntity
  8
Frei
  6
CONTINUOUS
 62
           3
100
AcDbLine
 10
-14419.390282074273
 20
-2857.380750484437
 30
0.0
 11
-14420.048741924762
 21
-2857.91594262311
 31
0.0
  0
LINE
  5
19E
100
AcDbEntity
  8
Frei
  6
CONTINUOUS
 62
           3
100
AcDbLine
 10
-14424.708701155821
 20
-2856.831520594475
 30
0.0
 11
-14419.390282074273
 21
-2857.380750484437
 31
0.0
  0
LINE
  5
19F
100
AcDbEntity
  8
Frei
  6
CONTINUOUS
 62
           3
100
AcDbLine
 10
-14412.780800250466
 20
-2858.666498520421
 30
0.0
 11
-14413.31599238914
 21
-2858.008038669933
 31
0.0
  0
LINE
  5
1A0
100
AcDbEntity
  8
Frei
  6
CONTINUOUS
 62
           3
100
AcDbLine
 10
-14407.462381168922
 20
-2859.215728410384
 30
0.0
 11
-14412.780800250466
 21
-2858.666498520421
 31
0.0
  0
LINE
  5
1A1
100
AcDbEntity
  8
Frei
  6
CONTINUOUS
 62
           3
100
AcDbLine
 10
-14414.263707183882
 20
-2859.920805026069
 30
0.0
 11
-14413.605247333395
 21
-2859.385612887398
 31
0.0
  0
LINE
  5
1A2
100
AcDbEntity
  8
Frei
  6
CONTINUOUS
 62
           3
100
AcDbLine
 10
-14408.203019493951
 20
-2860.546688541828
 30
0.0
 11
-14414.263707183882
 21
-2859.920805026069
 31
0.0
  0
LINE
  5
1A3
100
AcDbEntity
  8
Frei
  6
CONTINUOUS
 62
           3
100
AcDbLine
 10
-14413.72851504521
 20
-2860.579264876556
 30
0.0
 11
-14414.263707183882
 21
-2859.920805026069
 31
0.0
  0
LINE
  5
1A4
100
AcDbEntity
  8
Frei
  6
CONTINUOUS
 62
           3
100
AcDbLine
 10
-14407.667827355281
 20
-2861.205148392316
 30
0.0
 11
-14413.72851504521
 21
-2860.579264876556
 31
0.0
  0
LINE
  5
1A5
100
AcDbEntity
  8
Frei
  6
CONTINUOUS
 62
           3
100
AcDbLine
 10
-14425.449339480852
 20
-2858.16248072592
 30
0.0
 11
-14425.572607192669
 21
-2859.356132715078
 31
0.0
  0
LINE
  5
1A6
100
AcDbEntity
  8
Frei
  6
CONTINUOUS
 62
           3
100
AcDbLine
 10
-14425.778053379028
 20
-2861.34555269701
 30
0.0
 11
-14425.654785667213
 21
-2860.151900707851
 31
0.0
  0
LINE
  5
1A7
100
AcDbEntity
  8
Frei
  6
CONTINUOUS
 62
           3
100
AcDbLine
 10
-14425.983499565389
 20
-2863.334972678942
 30
0.0
 11
-14425.860231853572
 21
-2862.141320689783
 31
0.0
  0
LINE
  5
1A8
100
AcDbEntity
  8
Frei
  6
CONTINUOUS
 62
           3
100
AcDbLine
 10
-14426.188945751748
 20
-2865.324392660874
 30
0.0
 11
-14426.065678039931
 21
-2864.130740671715
 31
0.0
  0
LINE
  5
1A9
100
AcDbEntity
  8
Frei
  6
CONTINUOUS
 62
           3
100
AcDbLine
 10
-14425.305527150402
 20
-2856.769886738566
 30
0.0
 11
-14425.367161006308
 21
-2857.366712733146
 31
0.0
  0
LINE
  5
1AA
100
AcDbEntity
  8
Frei
  6
CONTINUOUS
 62
           3
100
AcDbLine
 10
-14407.462381168922
 20
-2859.215728410384
 30
0.0
 11
-14407.400747313013
 21
-2858.618902415804
 31
0.0
  0
LINE
  5
1AB
100
AcDbEntity
  8
Frei
  6
CONTINUOUS
 62
           3
100
AcDbLine
 10
-14407.667827355281
 20
-2861.205148392316
 30
0.0
 11
-14407.544559643466
 21
-2860.011496403157
 31
0.0
  0
LINE
  5
1AC
100
AcDbEntity
  8
Frei
  6
CONTINUOUS
 62
           3
100
AcDbLine
 10
-14407.87327354164
 20
-2863.194568374248
 30
0.0
 11
-14407.750005829825
 21
-2862.000916385089
 31
0.0
  0
LINE
  5
1AD
100
AcDbEntity
  8
Frei
  6
CONTINUOUS
 62
           3
100
AcDbLine
 10
-14408.078719728001
 20
-2865.18398835618
 30
0.0
 11
-14407.955452016184
 21
-2863.990336367021
 31
0.0
  0
LINE
  5
1AE
100
AcDbEntity
  8
Frei
  6
CONTINUOUS
 62
           3
100
AcDbLine
 10
-14408.28416591436
 20
-2867.173408338112
 30
0.0
 11
-14408.160898202545
 21
-2865.979756348953
 31
0.0
  0
LINE
  5
1AF
100
AcDbEntity
  8
Frei
  6
CONTINUOUS
 62
           3
100
AcDbLine
 10
-14406.640596423482
 20
-2851.258048482656
 30
0.0
 11
-14406.517328711667
 21
-2850.064396493497
 31
0.0
  0
LINE
  5
1B0
100
AcDbEntity
  8
Frei
  6
CONTINUOUS
 62
           3
100
AcDbLine
 10
-14406.846042609843
 20
-2853.247468464588
 30
0.0
 11
-14406.722774898026
 21
-2852.053816475429
 31
0.0
  0
LINE
  5
1B1
100
AcDbEntity
  8
Frei
  6
CONTINUOUS
 62
           3
100
AcDbLine
 10
-14407.051488796202
 20
-2855.23688844652
 30
0.0
 11
-14406.928221084387
 21
-2854.043236457361
 31
0.0
  0
LINE
  5
1B2
100
AcDbEntity
  8
Frei
  6
CONTINUOUS
 62
           3
100
AcDbLine
 10
-14407.256934982561
 20
-2857.226308428452
 30
0.0
 11
-14407.133667270746
 21
-2856.032656439293
 31
0.0
  0
LINE
  5
1B3
100
AcDbEntity
  8
Frei
  6
CONTINUOUS
 62
           3
100
AcDbLine
 10
-14407.400747313013
 20
-2858.618902415804
 30
0.0
 11
-14407.339113457105
 21
-2858.022076421225
 31
0.0
  0
LINE
  5
1B4
100
AcDbEntity
  8
Frei
  6
CONTINUOUS
 62
           3
100
AcDbLine
 10
-14425.243893294493
 20
-2856.173060743988
 30
0.0
 11
-14425.305527150402
 21
-2856.769886738566
 31
0.0
  0
LINE
  5
1B5
100
AcDbEntity
  8
Frei
  6
CONTINUOUS
 62
           3
100
AcDbLine
 10
-14424.54537626087
 20
-2849.409032805419
 30
0.0
 11
-14424.422108549055
 21
-2848.215380816259
 31
0.0
  0
LINE
  5
1B6
100
AcDbEntity
  8
Frei
  6
CONTINUOUS
 62
           3
100
AcDbLine
 10
-14424.750822447229
 20
-2851.39845278735
 30
0.0
 11
-14424.627554735414
 21
-2850.204800798191
 31
0.0
  0
LINE
  5
1B7
100
AcDbEntity
  8
Frei
  6
CONTINUOUS
 62
           3
100
AcDbLine
 10
-14424.95626863359
 20
-2853.387872769283
 30
0.0
 11
-14424.833000921773
 21
-2852.194220780123
 31
0.0
  0
LINE
  5
1B8
100
AcDbEntity
  8
Frei
  6
CONTINUOUS
 62
           3
100
AcDbLine
 10
-14425.038447108134
 20
-2854.183640762055
 30
0.0
 11
-14425.161714819949
 21
-2855.377292751215
 31
0.0
  0
LINE
  5
1B9
100
AcDbEntity
  8
Frei
  6
CONTINUOUS
 62
           3
100
AcDbLine
 10
-14413.194354960675
 20
-2855.406772923534
 30
0.0
 11
-14407.133667270746
 21
-2856.032656439293
 31
0.0
  0
LINE
  5
1BA
100
AcDbEntity
  8
Frei
  6
CONTINUOUS
 62
           3
100
AcDbLine
 10
-14413.852814811164
 20
-2855.941965062205
 30
0.0
 11
-14413.194354960675
 21
-2855.406772923534
 31
0.0
  0
LINE
  5
1BB
100
AcDbEntity
  8
Frei
  6
CONTINUOUS
 62
           3
100
AcDbLine
 10
-14413.852814811164
 20
-2855.941965062205
 30
0.0
 11
-14407.792127121231
 21
-2856.567848577965
 31
0.0
  0
LINE
  5
1BC
100
AcDbEntity
  8
Frei
  6
CONTINUOUS
 62
           3
100
AcDbLine
 10
-14413.317622672492
 20
-2856.600424912693
 30
0.0
 11
-14413.852814811164
 21
-2855.941965062205
 31
0.0
  0
LINE
  5
1BD
100
AcDbEntity
  8
Frei
  6
CONTINUOUS
 62
           3
100
AcDbLine
 10
-14412.657532538651
 20
-2857.472846531262
 30
0.0
 11
-14407.339113457105
 21
-2858.022076421225
 31
0.0
  0
LINE
  5
1BE
100
AcDbEntity
  8
Frei
  6
CONTINUOUS
 62
           3
100
AcDbLine
 10
-14413.31599238914
 20
-2858.008038669933
 30
0.0
 11
-14412.657532538651
 21
-2857.472846531262
 31
0.0
  0
LINE
  5
1BF
100
AcDbEntity
  8
Frei
  6
CONTINUOUS
 62
           3
100
AcDbLine
 10
-14419.925474212945
 20
-2856.72229063395
 30
0.0
 11
-14419.390282074273
 21
-2857.380750484437
 31
0.0
  0
LINE
  5
1C0
100
AcDbEntity
  8
Frei
  6
CONTINUOUS
 62
           3
100
AcDbLine
 10
-14418.442567279531
 20
-2855.467984128301
 30
0.0
 11
-14418.977759418201
 21
-2854.809524277815
 31
0.0
  0
LINE
  5
1C1
100
AcDbEntity
  8
Frei
  6
CONTINUOUS
 62
           3
100
AcDbLine
 10
-14419.101027130018
 20
-2856.003176266974
 30
0.0
 11
-14425.161714819949
 21
-2855.377292751215
 31
0.0
  0
LINE
  5
1C2
100
AcDbEntity
  8
Frei
  6
CONTINUOUS
 62
           3
100
AcDbLine
 10
-14419.101027130018
 20
-2856.003176266974
 30
0.0
 11
-14418.442567279531
 21
-2855.467984128301
 31
0.0
  0
LINE
  5
1C3
100
AcDbEntity
  8
Frei
  6
CONTINUOUS
 62
           3
100
AcDbLine
 10
-14424.297808783102
 20
-2852.85268063061
 30
0.0
 11
-14407.586680934872
 21
-2854.578428596032
 31
0.0
  0
LINE
  5
1C4
100
AcDbEntity
  8
Frei
  6
CONTINUOUS
 62
           3
100
AcDbLine
 10
-14424.503254969461
 20
-2854.842100612543
 30
0.0
 11
-14418.442567279531
 21
-2855.467984128301
 31
0.0
  0
LINE
  5
1C5
100
AcDbEntity
  8
Frei
  6
CONTINUOUS
 62
           3
100
AcDbLine
 10
-14407.339113457105
 20
-2858.022076421225
 30
0.0
 11
-14407.997573307592
 21
-2858.557268559896
 31
0.0
  0
LINE
  5
1C6
100
AcDbEntity
  8
Frei
  6
CONTINUOUS
 62
           3
100
AcDbLine
 10
-14425.243893294493
 20
-2856.173060743988
 30
0.0
 11
-14419.925474212945
 21
-2856.72229063395
 31
0.0
  0
LINE
  5
1C7
100
AcDbEntity
  8
Frei
  6
CONTINUOUS
 62
           3
100
AcDbLine
 10
-14424.708701155821
 20
-2856.831520594475
 30
0.0
 11
-14425.243893294493
 21
-2856.173060743988
 31
0.0
  0
LINE
  5
1C8
100
AcDbEntity
  8
Frei
  6
CONTINUOUS
 62
           3
100
AcDbLine
 10
-14425.161714819949
 20
-2855.377292751215
 30
0.0
 11
-14424.503254969461
 21
-2854.842100612543
 31
0.0
  0
LINE
  5
1C9
100
AcDbEntity
  8
Frei
  6
CONTINUOUS
 62
           3
100
AcDbLine
 10
-14407.256934982561
 20
-2857.226308428452
 30
0.0
 11
-14413.317622672492
 21
-2856.600424912693
 31
0.0
  0
LINE
  5
1CA
100
AcDbEntity
  8
Frei
  6
CONTINUOUS
 62
           3
100
AcDbLine
 10
-14407.792127121231
 20
-2856.567848577965
 30
0.0
 11
-14407.256934982561
 21
-2857.226308428452
 31
0.0
  0
LINE
  5
1CB
100
AcDbEntity
  8
Frei
  6
CONTINUOUS
 62
           3
100
AcDbLine
 10
-14407.133667270746
 20
-2856.032656439293
 30
0.0
 11
-14407.792127121231
 21
-2856.567848577965
 31
0.0
  0
LINE
  5
1CC
100
AcDbEntity
  8
Frei
  6
CONTINUOUS
 62
           3
100
AcDbLine
 10
-14425.038447108134
 20
-2854.183640762055
 30
0.0
 11
-14418.977759418201
 21
-2854.809524277815
 31
0.0
  0
LINE
  5
1CD
100
AcDbEntity
  8
Frei
  6
CONTINUOUS
 62
           3
100
AcDbLine
 10
-14424.503254969461
 20
-2854.842100612543
 30
0.0
 11
-14425.038447108134
 21
-2854.183640762055
 31
0.0
  0
LINE
  5
1CE
100
AcDbEntity
  8
Frei
  6
CONTINUOUS
 62
           3
100
AcDbLine
 10
-14424.95626863359
 20
-2853.387872769283
 30
0.0
 11
-14424.297808783102
 21
-2852.85268063061
 31
0.0
  0
LINE
  5
1CF
100
AcDbEntity
  8
Frei
  6
CONTINUOUS
 62
           3
100
AcDbLine
 10
-14407.051488796202
 20
-2855.23688844652
 30
0.0
 11
-14424.95626863359
 21
-2853.387872769283
 31
0.0
  0
LINE
  5
1D0
100
AcDbEntity
  8
Frei
  6
CONTINUOUS
 62
           3
100
AcDbLine
 10
-14407.586680934872
 20
-2854.578428596032
 30
0.0
 11
-14407.051488796202
 21
-2855.23688844652
 31
0.0
  0
LINE
  5
1D1
100
AcDbEntity
  8
Frei
  6
CONTINUOUS
 62
           3
100
AcDbLine
 10
-14406.928221084387
 20
-2854.043236457361
 30
0.0
 11
-14407.586680934872
 21
-2854.578428596032
 31
0.0
  0
LINE
  5
1D2
100
AcDbEntity
  8
Frei
  6
CONTINUOUS
 62
           3
100
AcDbLine
 10
-14424.833000921773
 20
-2852.194220780123
 30
0.0
 11
-14406.928221084387
 21
-2854.043236457361
 31
0.0
  0
LINE
  5
1D3
100
AcDbEntity
  8
Frei
  6
CONTINUOUS
 62
           3
100
AcDbLine
 10
-14424.297808783102
 20
-2852.85268063061
 30
0.0
 11
-14424.833000921773
 21
-2852.194220780123
 31
0.0
  0
LINE
  5
1D4
100
AcDbEntity
  8
Frei
  6
CONTINUOUS
 62
           3
100
AcDbLine
 10
-14407.381234748513
 20
-2852.5890086141
 30
0.0
 11
-14424.092362596743
 21
-2850.863260648679
 31
0.0
  0
LINE
  5
1D5
100
AcDbEntity
  8
Frei
  6
CONTINUOUS
 62
           3
100
AcDbLine
 10
-14424.750822447229
 20
-2851.39845278735
 30
0.0
 11
-14424.092362596743
 21
-2850.863260648679
 31
0.0
  0
LINE
  5
1D6
100
AcDbEntity
  8
Frei
  6
CONTINUOUS
 62
           3
100
AcDbLine
 10
-14406.846042609843
 20
-2853.247468464588
 30
0.0
 11
-14424.750822447229
 21
-2851.39845278735
 31
0.0
  0
LINE
  5
1D7
100
AcDbEntity
  8
Frei
  6
CONTINUOUS
 62
           3
100
AcDbLine
 10
-14407.381234748513
 20
-2852.5890086141
 30
0.0
 11
-14406.846042609843
 21
-2853.247468464588
 31
0.0
  0
LINE
  5
1D8
100
AcDbEntity
  8
Frei
  6
CONTINUOUS
 62
           3
100
AcDbLine
 10
-14406.722774898026
 20
-2852.053816475429
 30
0.0
 11
-14407.381234748513
 21
-2852.5890086141
 31
0.0
  0
LINE
  5
1D9
100
AcDbEntity
  8
Frei
  6
CONTINUOUS
 62
           3
100
AcDbLine
 10
-14424.627554735414
 20
-2850.204800798191
 30
0.0
 11
-14406.722774898026
 21
-2852.053816475429
 31
0.0
  0
LINE
  5
1DA
100
AcDbEntity
  8
Frei
  6
CONTINUOUS
 62
           3
100
AcDbLine
 10
-14424.092362596743
 20
-2850.863260648679
 30
0.0
 11
-14424.627554735414
 21
-2850.204800798191
 31
0.0
  0
LINE
  5
1DB
100
AcDbEntity
  8
Frei
  6
CONTINUOUS
 62
           3
100
AcDbLine
 10
-14423.886916410382
 20
-2848.873840666746
 30
0.0
 11
-14407.175788562152
 21
-2850.599588632168
 31
0.0
  0
LINE
  5
1DC
100
AcDbEntity
  8
Frei
  6
CONTINUOUS
 62
           3
100
AcDbLine
 10
-14423.886916410382
 20
-2848.873840666746
 30
0.0
 11
-14424.54537626087
 21
-2849.409032805419
 31
0.0
  0
LINE
  5
1DD
100
AcDbEntity
  8
Frei
  6
CONTINUOUS
 62
           3
100
AcDbLine
 10
-14424.422108549055
 20
-2848.215380816259
 30
0.0
 11
-14423.886916410382
 21
-2848.873840666746
 31
0.0
  0
LINE
  5
1DE
100
AcDbEntity
  8
Frei
  6
CONTINUOUS
 62
           3
100
AcDbLine
 10
-14406.517328711667
 20
-2850.064396493497
 30
0.0
 11
-14424.422108549055
 21
-2848.215380816259
 31
0.0
  0
LINE
  5
1DF
100
AcDbEntity
  8
Frei
  6
CONTINUOUS
 62
           3
100
AcDbLine
 10
-14407.175788562152
 20
-2850.599588632168
 30
0.0
 11
-14406.517328711667
 21
-2850.064396493497
 31
0.0
  0
LINE
  5
1E0
100
AcDbEntity
  8
Frei
  6
CONTINUOUS
 62
           3
100
AcDbLine
 10
-14406.640596423482
 20
-2851.258048482656
 30
0.0
 11
-14407.175788562152
 21
-2850.599588632168
 31
0.0
  0
LINE
  5
1E1
100
AcDbEntity
  8
Frei
  6
CONTINUOUS
 62
           3
100
AcDbLine
 10
-14424.54537626087
 20
-2849.409032805419
 30
0.0
 11
-14406.640596423482
 21
-2851.258048482656
 31
0.0
  0
LINE
  5
1E2
100
AcDbEntity
  8
Frei
  6
CONTINUOUS
 62
           3
100
AcDbLine
 10
-14234.555767986363
 20
-2869.029143602771
 30
0.0
 11
-14216.650988148976
 21
-2870.878159280008
 31
0.0
  0
LINE
  5
1E3
100
AcDbEntity
  8
Frei
  6
CONTINUOUS
 62
           3
100
AcDbLine
 10
-14233.897308135878
 20
-2868.493951464098
 30
0.0
 11
-14234.555767986363
 21
-2869.029143602771
 31
0.0
  0
LINE
  5
1E4
100
AcDbEntity
  8
Frei
  6
CONTINUOUS
 62
           3
100
AcDbLine
 10
-14234.432500274548
 20
-2867.835491613611
 30
0.0
 11
-14233.897308135878
 21
-2868.493951464098
 31
0.0
  0
LINE
  5
1E5
100
AcDbEntity
  8
Frei
  6
CONTINUOUS
 62
           3
100
AcDbLine
 10
-14216.52772043716
 20
-2869.684507290849
 30
0.0
 11
-14234.432500274548
 21
-2867.835491613611
 31
0.0
  0
LINE
  5
1E6
100
AcDbEntity
  8
Frei
  6
CONTINUOUS
 62
           3
100
AcDbLine
 10
-14217.186180287648
 20
-2870.21969942952
 30
0.0
 11
-14216.52772043716
 21
-2869.684507290849
 31
0.0
  0
LINE
  5
1E7
100
AcDbEntity
  8
Frei
  6
CONTINUOUS
 62
           3
100
AcDbLine
 10
-14216.650988148976
 20
-2870.878159280008
 30
0.0
 11
-14217.186180287648
 21
-2870.21969942952
 31
0.0
  0
LINE
  5
1E8
100
AcDbEntity
  8
Frei
  6
CONTINUOUS
 62
           3
100
AcDbLine
 10
-14233.897308135878
 20
-2868.493951464098
 30
0.0
 11
-14217.186180287648
 21
-2870.21969942952
 31
0.0
  0
LINE
  5
1E9
100
AcDbEntity
  8
Frei
  6
CONTINUOUS
 62
           3
100
AcDbLine
 10
-14216.73316662352
 20
-2871.673927272781
 30
0.0
 11
-14217.391626474007
 21
-2872.209119411452
 31
0.0
  0
LINE
  5
1EA
100
AcDbEntity
  8
Frei
  6
CONTINUOUS
 62
           3
100
AcDbLine
 10
-14234.637946460907
 20
-2869.824911595544
 30
0.0
 11
-14216.73316662352
 21
-2871.673927272781
 31
0.0
  0
LINE
  5
1EB
100
AcDbEntity
  8
Frei
  6
CONTINUOUS
 62
           3
100
AcDbLine
 10
-14234.102754322237
 20
-2870.483371446031
 30
0.0
 11
-14234.637946460907
 21
-2869.824911595544
 31
0.0
  0
LINE
  5
1EC
100
AcDbEntity
  8
Frei
  6
CONTINUOUS
 62
           3
100
AcDbLine
 10
-14234.761214172724
 20
-2871.018563584703
 30
0.0
 11
-14234.102754322237
 21
-2870.483371446031
 31
0.0
  0
LINE
  5
1ED
100
AcDbEntity
  8
Frei
  6
CONTINUOUS
 62
           3
100
AcDbLine
 10
-14216.856434335336
 20
-2872.86757926194
 30
0.0
 11
-14234.761214172724
 21
-2871.018563584703
 31
0.0
  0
LINE
  5
1EE
100
AcDbEntity
  8
Frei
  6
CONTINUOUS
 62
           3
100
AcDbLine
 10
-14217.391626474007
 20
-2872.209119411452
 30
0.0
 11
-14216.856434335336
 21
-2872.86757926194
 31
0.0
  0
LINE
  5
1EF
100
AcDbEntity
  8
Frei
  6
CONTINUOUS
 62
           3
100
AcDbLine
 10
-14217.391626474007
 20
-2872.209119411452
 30
0.0
 11
-14234.102754322237
 21
-2870.483371446031
 31
0.0
  0
LINE
  5
1F0
100
AcDbEntity
  8
Frei
  6
CONTINUOUS
 62
           3
100
AcDbLine
 10
-14216.938612809879
 20
-2873.663347254713
 30
0.0
 11
-14217.597072660368
 21
-2874.198539393384
 31
0.0
  0
LINE
  5
1F1
100
AcDbEntity
  8
Frei
  6
CONTINUOUS
 62
           3
100
AcDbLine
 10
-14234.843392647268
 20
-2871.814331577476
 30
0.0
 11
-14216.938612809879
 21
-2873.663347254713
 31
0.0
  0
LINE
  5
1F2
100
AcDbEntity
  8
Frei
  6
CONTINUOUS
 62
           3
100
AcDbLine
 10
-14234.308200508598
 20
-2872.472791427962
 30
0.0
 11
-14234.843392647268
 21
-2871.814331577476
 31
0.0
  0
LINE
  5
1F3
100
AcDbEntity
  8
Frei
  6
CONTINUOUS
 62
           3
100
AcDbLine
 10
-14234.966660359083
 20
-2873.007983566635
 30
0.0
 11
-14234.308200508598
 21
-2872.472791427962
 31
0.0
  0
LINE
  5
1F4
100
AcDbEntity
  8
Frei
  6
CONTINUOUS
 62
           3
100
AcDbLine
 10
-14217.061880521696
 20
-2874.856999243873
 30
0.0
 11
-14234.966660359083
 21
-2873.007983566635
 31
0.0
  0
LINE
  5
1F5
100
AcDbEntity
  8
Frei
  6
CONTINUOUS
 62
           3
100
AcDbLine
 10
-14217.597072660368
 20
-2874.198539393384
 30
0.0
 11
-14217.061880521696
 21
-2874.856999243873
 31
0.0
  0
LINE
  5
1F6
100
AcDbEntity
  8
Frei
  6
CONTINUOUS
 62
           3
100
AcDbLine
 10
-14217.14405899624
 20
-2875.652767236645
 30
0.0
 11
-14217.802518846727
 21
-2876.187959375317
 31
0.0
  0
LINE
  5
1F7
100
AcDbEntity
  8
Frei
  6
CONTINUOUS
 62
           3
100
AcDbLine
 10
-14223.204746686171
 20
-2875.026883720886
 30
0.0
 11
-14217.14405899624
 21
-2875.652767236645
 31
0.0
  0
LINE
  5
1F8
100
AcDbEntity
  8
Frei
  6
CONTINUOUS
 62
           3
100
AcDbLine
 10
-14234.513646694957
 20
-2874.462211409895
 30
0.0
 11
-14235.048838833627
 21
-2873.803751559408
 31
0.0
  0
LINE
  5
1F9
100
AcDbEntity
  8
Frei
  6
CONTINUOUS
 62
           3
100
AcDbLine
 10
-14235.172106545444
 20
-2874.997403548567
 30
0.0
 11
-14234.513646694957
 21
-2874.462211409895
 31
0.0
  0
LINE
  5
1FA
100
AcDbEntity
  8
Frei
  6
CONTINUOUS
 62
           3
100
AcDbLine
 10
-14229.111418855513
 20
-2875.623287064326
 30
0.0
 11
-14235.172106545444
 21
-2874.997403548567
 31
0.0
  0
LINE
  5
1FB
100
AcDbEntity
  8
Frei
  6
CONTINUOUS
 62
           3
100
AcDbLine
 10
-14217.802518846727
 20
-2876.187959375317
 30
0.0
 11
-14217.267326708055
 21
-2876.846419225804
 31
0.0
  0
LINE
  5
1FC
100
AcDbEntity
  8
Frei
  6
CONTINUOUS
 62
           3
100
AcDbLine
 10
-14217.349505182599
 20
-2877.642187218577
 30
0.0
 11
-14218.007965033086
 21
-2878.177379357248
 31
0.0
  0
LINE
  5
1FD
100
AcDbEntity
  8
Frei
  6
CONTINUOUS
 62
           3
100
AcDbLine
 10
-14222.667924264148
 20
-2877.092957328614
 30
0.0
 11
-14217.349505182599
 21
-2877.642187218577
 31
0.0
  0
LINE
  5
1FE
100
AcDbEntity
  8
Frei
  6
CONTINUOUS
 62
           3
100
AcDbLine
 10
-14234.719092881316
 20
-2876.451631391827
 30
0.0
 11
-14235.254285019988
 21
-2875.79317154134
 31
0.0
  0
LINE
  5
1FF
100
AcDbEntity
  8
Frei
  6
CONTINUOUS
 62
           3
100
AcDbLine
 10
-14223.863206536656
 20
-2875.562075859557
 30
0.0
 11
-14217.802518846727
 21
-2876.187959375317
 31
0.0
  0
LINE
  5
200
100
AcDbEntity
  8
Frei
  6
CONTINUOUS
 62
           3
100
AcDbLine
 10
-14234.308200508598
 20
-2872.472791427962
 30
0.0
 11
-14217.597072660368
 21
-2874.198539393384
 31
0.0
  0
LINE
  5
201
100
AcDbEntity
  8
Frei
  6
CONTINUOUS
 62
           3
100
AcDbLine
 10
-14223.863206536656
 20
-2875.562075859557
 30
0.0
 11
-14223.328014397986
 21
-2876.220535710045
 31
0.0
  0
LINE
  5
202
100
AcDbEntity
  8
Frei
  6
CONTINUOUS
 62
           3
100
AcDbLine
 10
-14217.267326708055
 20
-2876.846419225804
 30
0.0
 11
-14223.328014397986
 21
-2876.220535710045
 31
0.0
  0
LINE
  5
203
100
AcDbEntity
  8
Frei
  6
CONTINUOUS
 62
           3
100
AcDbLine
 10
-14223.204746686171
 20
-2875.026883720886
 30
0.0
 11
-14223.863206536656
 21
-2875.562075859557
 31
0.0
  0
LINE
  5
204
100
AcDbEntity
  8
Frei
  6
CONTINUOUS
 62
           3
100
AcDbLine
 10
-14223.326384114634
 20
-2877.628149467285
 30
0.0
 11
-14222.667924264148
 21
-2877.092957328614
 31
0.0
  0
LINE
  5
205
100
AcDbEntity
  8
Frei
  6
CONTINUOUS
 62
           3
100
AcDbLine
 10
-14229.935865938442
 20
-2876.342401431302
 30
0.0
 11
-14229.40067379977
 21
-2877.000861281789
 31
0.0
  0
LINE
  5
206
100
AcDbEntity
  8
Frei
  6
CONTINUOUS
 62
           3
100
AcDbLine
 10
-14235.254285019988
 20
-2875.79317154134
 30
0.0
 11
-14229.935865938442
 21
-2876.342401431302
 31
0.0
  0
LINE
  5
207
100
AcDbEntity
  8
Frei
  6
CONTINUOUS
 62
           3
100
AcDbLine
 10
-14228.452959005026
 20
-2875.088094925654
 30
0.0
 11
-14229.111418855513
 21
-2875.623287064326
 31
0.0
  0
LINE
  5
208
100
AcDbEntity
  8
Frei
  6
CONTINUOUS
 62
           3
100
AcDbLine
 10
-14234.513646694957
 20
-2874.462211409895
 30
0.0
 11
-14228.452959005026
 21
-2875.088094925654
 31
0.0
  0
LINE
  5
209
100
AcDbEntity
  8
Frei
  6
CONTINUOUS
 62
           3
100
AcDbLine
 10
-14228.988151143698
 20
-2874.429635075167
 30
0.0
 11
-14228.452959005026
 21
-2875.088094925654
 31
0.0
  0
LINE
  5
20A
100
AcDbEntity
  8
Frei
  6
CONTINUOUS
 62
           3
100
AcDbLine
 10
-14235.048838833627
 20
-2873.803751559408
 30
0.0
 11
-14228.988151143698
 21
-2874.429635075167
 31
0.0
  0
LINE
  5
20B
100
AcDbEntity
  8
Frei
  6
CONTINUOUS
 62
           3
100
AcDbLine
 10
-14217.267326708055
 20
-2876.846419225804
 30
0.0
 11
-14217.14405899624
 21
-2875.652767236645
 31
0.0
  0
LINE
  5
20C
100
AcDbEntity
  8
Frei
  6
CONTINUOUS
 62
           3
100
AcDbLine
 10
-14216.938612809879
 20
-2873.663347254713
 30
0.0
 11
-14217.061880521696
 21
-2874.856999243873
 31
0.0
  0
LINE
  5
20D
100
AcDbEntity
  8
Frei
  6
CONTINUOUS
 62
           3
100
AcDbLine
 10
-14216.73316662352
 20
-2871.673927272781
 30
0.0
 11
-14216.856434335336
 21
-2872.86757926194
 31
0.0
  0
LINE
  5
20E
100
AcDbEntity
  8
Frei
  6
CONTINUOUS
 62
           3
100
AcDbLine
 10
-14216.52772043716
 20
-2869.684507290849
 30
0.0
 11
-14216.650988148976
 21
-2870.878159280008
 31
0.0
  0
LINE
  5
20F
100
AcDbEntity
  8
Frei
  6
CONTINUOUS
 62
           3
100
AcDbLine
 10
-14217.411139038508
 20
-2878.239013213156
 30
0.0
 11
-14217.349505182599
 21
-2877.642187218577
 31
0.0
  0
LINE
  5
210
100
AcDbEntity
  8
Frei
  6
CONTINUOUS
 62
           3
100
AcDbLine
 10
-14235.254285019988
 20
-2875.79317154134
 30
0.0
 11
-14235.315918875895
 21
-2876.389997535919
 31
0.0
  0
LINE
  5
211
100
AcDbEntity
  8
Frei
  6
CONTINUOUS
 62
           3
100
AcDbLine
 10
-14235.048838833627
 20
-2873.803751559408
 30
0.0
 11
-14235.172106545444
 21
-2874.997403548567
 31
0.0
  0
LINE
  5
212
100
AcDbEntity
  8
Frei
  6
CONTINUOUS
 62
           3
100
AcDbLine
 10
-14234.843392647268
 20
-2871.814331577476
 30
0.0
 11
-14234.966660359083
 21
-2873.007983566635
 31
0.0
  0
LINE
  5
213
100
AcDbEntity
  8
Frei
  6
CONTINUOUS
 62
           3
100
AcDbLine
 10
-14234.637946460907
 20
-2869.824911595544
 30
0.0
 11
-14234.761214172724
 21
-2871.018563584703
 31
0.0
  0
LINE
  5
214
100
AcDbEntity
  8
Frei
  6
CONTINUOUS
 62
           3
100
AcDbLine
 10
-14234.432500274548
 20
-2867.835491613611
 30
0.0
 11
-14234.555767986363
 21
-2869.029143602771
 31
0.0
  0
LINE
  5
215
100
AcDbEntity
  8
Frei
  6
CONTINUOUS
 62
           3
100
AcDbLine
 10
-14236.076069765426
 20
-2883.750851469068
 30
0.0
 11
-14236.199337477241
 21
-2884.944503458227
 31
0.0
  0
LINE
  5
216
100
AcDbEntity
  8
Frei
  6
CONTINUOUS
 62
           3
100
AcDbLine
 10
-14235.870623579067
 20
-2881.761431487135
 30
0.0
 11
-14235.993891290882
 21
-2882.955083476295
 31
0.0
  0
LINE
  5
217
100
AcDbEntity
  8
Frei
  6
CONTINUOUS
 62
           3
100
AcDbLine
 10
-14235.665177392706
 20
-2879.772011505203
 30
0.0
 11
-14235.788445104523
 21
-2880.965663494363
 31
0.0
  0
LINE
  5
218
100
AcDbEntity
  8
Frei
  6
CONTINUOUS
 62
           3
100
AcDbLine
 10
-14235.459731206347
 20
-2877.782591523272
 30
0.0
 11
-14235.582998918162
 21
-2878.97624351243
 31
0.0
  0
LINE
  5
219
100
AcDbEntity
  8
Frei
  6
CONTINUOUS
 62
           3
100
AcDbLine
 10
-14235.315918875895
 20
-2876.389997535919
 30
0.0
 11
-14235.377552731803
 21
-2876.986823530498
 31
0.0
  0
LINE
  5
21A
100
AcDbEntity
  8
Frei
  6
CONTINUOUS
 62
           3
100
AcDbLine
 10
-14217.472772894414
 20
-2878.835839207736
 30
0.0
 11
-14217.411139038508
 21
-2878.239013213156
 31
0.0
  0
LINE
  5
21B
100
AcDbEntity
  8
Frei
  6
CONTINUOUS
 62
           3
100
AcDbLine
 10
-14218.171289928037
 20
-2885.599867146305
 30
0.0
 11
-14218.294557639854
 21
-2886.793519135464
 31
0.0
  0
LINE
  5
21C
100
AcDbEntity
  8
Frei
  6
CONTINUOUS
 62
           3
100
AcDbLine
 10
-14217.965843741678
 20
-2883.610447164373
 30
0.0
 11
-14218.089111453493
 21
-2884.804099153532
 31
0.0
  0
LINE
  5
21D
100
AcDbEntity
  8
Frei
  6
CONTINUOUS
 62
           3
100
AcDbLine
 10
-14217.760397555319
 20
-2881.621027182441
 30
0.0
 11
-14217.883665267134
 21
-2882.8146791716
 31
0.0
  0
LINE
  5
21E
100
AcDbEntity
  8
Frei
  6
CONTINUOUS
 62
           3
100
AcDbLine
 10
-14217.678219080775
 20
-2880.825259189668
 30
0.0
 11
-14217.554951368958
 21
-2879.631607200509
 31
0.0
  0
LINE
  5
21F
100
AcDbEntity
  8
Frei
  6
CONTINUOUS
 62
           3
100
AcDbLine
 10
-14229.522311228233
 20
-2879.60212702819
 30
0.0
 11
-14235.582998918162
 21
-2878.97624351243
 31
0.0
  0
LINE
  5
220
100
AcDbEntity
  8
Frei
  6
CONTINUOUS
 62
           3
100
AcDbLine
 10
-14228.863851377746
 20
-2879.066934889518
 30
0.0
 11
-14229.522311228233
 21
-2879.60212702819
 31
0.0
  0
LINE
  5
221
100
AcDbEntity
  8
Frei
  6
CONTINUOUS
 62
           3
100
AcDbLine
 10
-14228.863851377746
 20
-2879.066934889518
 30
0.0
 11
-14234.924539067677
 21
-2878.441051373759
 31
0.0
  0
LINE
  5
222
100
AcDbEntity
  8
Frei
  6
CONTINUOUS
 62
           3
100
AcDbLine
 10
-14229.399043516418
 20
-2878.408475039031
 30
0.0
 11
-14228.863851377746
 21
-2879.066934889518
 31
0.0
  0
LINE
  5
223
100
AcDbEntity
  8
Frei
  6
CONTINUOUS
 62
           3
100
AcDbLine
 10
-14230.059133650257
 20
-2877.536053420462
 30
0.0
 11
-14235.377552731803
 21
-2876.986823530498
 31
0.0
  0
LINE
  5
224
100
AcDbEntity
  8
Frei
  6
CONTINUOUS
 62
           3
100
AcDbLine
 10
-14229.40067379977
 20
-2877.000861281789
 30
0.0
 11
-14230.059133650257
 21
-2877.536053420462
 31
0.0
  0
LINE
  5
225
100
AcDbEntity
  8
Frei
  6
CONTINUOUS
 62
           3
100
AcDbLine
 10
-14223.326384114634
 20
-2877.628149467285
 30
0.0
 11
-14218.007965033086
 21
-2878.177379357248
 31
0.0
  0
LINE
  5
226
100
AcDbEntity
  8
Frei
  6
CONTINUOUS
 62
           3
100
AcDbLine
 10
-14222.791191975963
 20
-2878.286609317773
 30
0.0
 11
-14223.326384114634
 21
-2877.628149467285
 31
0.0
  0
LINE
  5
227
100
AcDbEntity
  8
Frei
  6
CONTINUOUS
 62
           3
100
AcDbLine
 10
-14224.274098909376
 20
-2879.540915823421
 30
0.0
 11
-14223.738906770706
 21
-2880.199375673908
 31
0.0
  0
LINE
  5
228
100
AcDbEntity
  8
Frei
  6
CONTINUOUS
 62
           3
100
AcDbLine
 10
-14223.615639058891
 20
-2879.00572368475
 30
0.0
 11
-14217.554951368958
 21
-2879.631607200509
 31
0.0
  0
LINE
  5
229
100
AcDbEntity
  8
Frei
  6
CONTINUOUS
 62
           3
100
AcDbLine
 10
-14223.615639058891
 20
-2879.00572368475
 30
0.0
 11
-14224.274098909376
 21
-2879.540915823421
 31
0.0
  0
LINE
  5
22A
100
AcDbEntity
  8
Frei
  6
CONTINUOUS
 62
           3
100
AcDbLine
 10
-14218.418857405806
 20
-2882.156219321112
 30
0.0
 11
-14235.129985254036
 21
-2880.43047135569
 31
0.0
  0
LINE
  5
22B
100
AcDbEntity
  8
Frei
  6
CONTINUOUS
 62
           3
100
AcDbLine
 10
-14218.213411219447
 20
-2880.16679933918
 30
0.0
 11
-14224.274098909376
 21
-2879.540915823421
 31
0.0
  0
LINE
  5
22C
100
AcDbEntity
  8
Frei
  6
CONTINUOUS
 62
           3
100
AcDbLine
 10
-14234.719092881316
 20
-2876.451631391827
 30
0.0
 11
-14229.40067379977
 21
-2877.000861281789
 31
0.0
  0
LINE
  5
22D
100
AcDbEntity
  8
Frei
  6
CONTINUOUS
 62
           3
100
AcDbLine
 10
-14235.377552731803
 20
-2876.986823530498
 30
0.0
 11
-14234.719092881316
 21
-2876.451631391827
 31
0.0
  0
LINE
  5
22E
100
AcDbEntity
  8
Frei
  6
CONTINUOUS
 62
           3
100
AcDbLine
 10
-14217.472772894414
 20
-2878.835839207736
 30
0.0
 11
-14222.791191975963
 21
-2878.286609317773
 31
0.0
  0
LINE
  5
22F
100
AcDbEntity
  8
Frei
  6
CONTINUOUS
 62
           3
100
AcDbLine
 10
-14218.007965033086
 20
-2878.177379357248
 30
0.0
 11
-14217.472772894414
 21
-2878.835839207736
 31
0.0
  0
LINE
  5
230
100
AcDbEntity
  8
Frei
  6
CONTINUOUS
 62
           3
100
AcDbLine
 10
-14217.554951368958
 20
-2879.631607200509
 30
0.0
 11
-14218.213411219447
 21
-2880.16679933918
 31
0.0
  0
LINE
  5
231
100
AcDbEntity
  8
Frei
  6
CONTINUOUS
 62
           3
100
AcDbLine
 10
-14235.459731206347
 20
-2877.782591523272
 30
0.0
 11
-14229.399043516418
 21
-2878.408475039031
 31
0.0
  0
LINE
  5
232
100
AcDbEntity
  8
Frei
  6
CONTINUOUS
 62
           3
100
AcDbLine
 10
-14234.924539067677
 20
-2878.441051373759
 30
0.0
 11
-14235.459731206347
 21
-2877.782591523272
 31
0.0
  0
LINE
  5
233
100
AcDbEntity
  8
Frei
  6
CONTINUOUS
 62
           3
100
AcDbLine
 10
-14235.582998918162
 20
-2878.97624351243
 30
0.0
 11
-14234.924539067677
 21
-2878.441051373759
 31
0.0
  0
LINE
  5
234
100
AcDbEntity
  8
Frei
  6
CONTINUOUS
 62
           3
100
AcDbLine
 10
-14217.678219080775
 20
-2880.825259189668
 30
0.0
 11
-14223.738906770706
 21
-2880.199375673908
 31
0.0
  0
LINE
  5
235
100
AcDbEntity
  8
Frei
  6
CONTINUOUS
 62
           3
100
AcDbLine
 10
-14218.213411219447
 20
-2880.16679933918
 30
0.0
 11
-14217.678219080775
 21
-2880.825259189668
 31
0.0
  0
LINE
  5
236
100
AcDbEntity
  8
Frei
  6
CONTINUOUS
 62
           3
100
AcDbLine
 10
-14217.760397555319
 20
-2881.621027182441
 30
0.0
 11
-14218.418857405806
 21
-2882.156219321112
 31
0.0
  0
LINE
  5
237
100
AcDbEntity
  8
Frei
  6
CONTINUOUS
 62
           3
100
AcDbLine
 10
-14235.665177392706
 20
-2879.772011505203
 30
0.0
 11
-14217.760397555319
 21
-2881.621027182441
 31
0.0
  0
LINE
  5
238
100
AcDbEntity
  8
Frei
  6
CONTINUOUS
 62
           3
100
AcDbLine
 10
-14235.129985254036
 20
-2880.43047135569
 30
0.0
 11
-14235.665177392706
 21
-2879.772011505203
 31
0.0
  0
LINE
  5
239
100
AcDbEntity
  8
Frei
  6
CONTINUOUS
 62
           3
100
AcDbLine
 10
-14235.788445104523
 20
-2880.965663494363
 30
0.0
 11
-14235.129985254036
 21
-2880.43047135569
 31
0.0
  0
LINE
  5
23A
100
AcDbEntity
  8
Frei
  6
CONTINUOUS
 62
           3
100
AcDbLine
 10
-14217.883665267134
 20
-2882.8146791716
 30
0.0
 11
-14235.788445104523
 21
-2880.965663494363
 31
0.0
  0
LINE
  5
23B
100
AcDbEntity
  8
Frei
  6
CONTINUOUS
 62
           3
100
AcDbLine
 10
-14218.418857405806
 20
-2882.156219321112
 30
0.0
 11
-14217.883665267134
 21
-2882.8146791716
 31
0.0
  0
LINE
  5
23C
100
AcDbEntity
  8
Frei
  6
CONTINUOUS
 62
           3
100
AcDbLine
 10
-14235.335431440395
 20
-2882.419891337622
 30
0.0
 11
-14218.624303592167
 21
-2884.145639303044
 31
0.0
  0
LINE
  5
23D
100
AcDbEntity
  8
Frei
  6
CONTINUOUS
 62
           3
100
AcDbLine
 10
-14217.965843741678
 20
-2883.610447164373
 30
0.0
 11
-14218.624303592167
 21
-2884.145639303044
 31
0.0
  0
LINE
  5
23E
100
AcDbEntity
  8
Frei
  6
CONTINUOUS
 62
           3
100
AcDbLine
 10
-14235.870623579067
 20
-2881.761431487135
 30
0.0
 11
-14217.965843741678
 21
-2883.610447164373
 31
0.0
  0
LINE
  5
23F
100
AcDbEntity
  8
Frei
  6
CONTINUOUS
 62
           3
100
AcDbLine
 10
-14235.335431440395
 20
-2882.419891337622
 30
0.0
 11
-14235.870623579067
 21
-2881.761431487135
 31
0.0
  0
LINE
  5
240
100
AcDbEntity
  8
Frei
  6
CONTINUOUS
 62
           3
100
AcDbLine
 10
-14235.993891290882
 20
-2882.955083476295
 30
0.0
 11
-14235.335431440395
 21
-2882.419891337622
 31
0.0
  0
LINE
  5
241
100
AcDbEntity
  8
Frei
  6
CONTINUOUS
 62
           3
100
AcDbLine
 10
-14218.089111453493
 20
-2884.804099153532
 30
0.0
 11
-14235.993891290882
 21
-2882.955083476295
 31
0.0
  0
LINE
  5
242
100
AcDbEntity
  8
Frei
  6
CONTINUOUS
 62
           3
100
AcDbLine
 10
-14218.624303592167
 20
-2884.145639303044
 30
0.0
 11
-14218.089111453493
 21
-2884.804099153532
 31
0.0
  0
LINE
  5
243
100
AcDbEntity
  8
Frei
  6
CONTINUOUS
 62
           3
100
AcDbLine
 10
-14218.829749778526
 20
-2886.135059284976
 30
0.0
 11
-14235.540877626756
 21
-2884.409311319554
 31
0.0
  0
LINE
  5
244
100
AcDbEntity
  8
Frei
  6
CONTINUOUS
 62
           3
100
AcDbLine
 10
-14218.829749778526
 20
-2886.135059284976
 30
0.0
 11
-14218.171289928037
 21
-2885.599867146305
 31
0.0
  0
LINE
  5
245
100
AcDbEntity
  8
Frei
  6
CONTINUOUS
 62
           3
100
AcDbLine
 10
-14218.294557639854
 20
-2886.793519135464
 30
0.0
 11
-14218.829749778526
 21
-2886.135059284976
 31
0.0
  0
LINE
  5
246
100
AcDbEntity
  8
Frei
  6
CONTINUOUS
 62
           3
100
AcDbLine
 10
-14236.199337477241
 20
-2884.944503458227
 30
0.0
 11
-14218.294557639854
 21
-2886.793519135464
 31
0.0
  0
LINE
  5
247
100
AcDbEntity
  8
Frei
  6
CONTINUOUS
 62
           3
100
AcDbLine
 10
-14235.540877626756
 20
-2884.409311319554
 30
0.0
 11
-14236.199337477241
 21
-2884.944503458227
 31
0.0
  0
LINE
  5
248
100
AcDbEntity
  8
Frei
  6
CONTINUOUS
 62
           3
100
AcDbLine
 10
-14236.076069765426
 20
-2883.750851469068
 30
0.0
 11
-14235.540877626756
 21
-2884.409311319554
 31
0.0
  0
LINE
  5
249
100
AcDbEntity
  8
Frei
  6
CONTINUOUS
 62
           3
100
AcDbLine
 10
-14218.171289928037
 20
-2885.599867146305
 30
0.0
 11
-14236.076069765426
 21
-2883.750851469068
 31
0.0
  0
LINE
  5
24A
100
AcDbEntity
  8
Frei
  6
CONTINUOUS
 62
           7
100
AcDbLine
 10
-14192.550834032174
 20
-2892.989573390915
 30
0.0
 11
-14191.933355854087
 21
-2894.36970464289
 31
0.0
  0
LINE
  5
24B
100
AcDbEntity
  8
Frei
  6
CONTINUOUS
 62
           7
100
AcDbLine
 10
-14192.550834032174
 20
-2892.989573390915
 30
0.0
 11
-14196.772400080099
 21
-2892.553614843757
 31
0.0
  0
LINE
  5
24C
100
AcDbEntity
  8
Frei
  6
CONTINUOUS
 62
           7
100
AcDbLine
 10
-14191.529838667633
 20
-2890.462281643189
 30
0.0
 11
-14192.550834032174
 21
-2892.989573390915
 31
0.0
  0
LINE
  5
24D
100
AcDbEntity
  8
Frei
  6
CONTINUOUS
 62
           7
100
AcDbLine
 10
-14191.601918744183
 20
-2883.800836094118
 30
0.0
 11
-14191.118946294915
 21
-2886.483441679325
 31
0.0
  0
LINE
  5
24E
100
AcDbEntity
  8
Frei
  6
CONTINUOUS
 62
           7
100
AcDbLine
 10
-14191.601918744183
 20
-2883.800836094118
 30
0.0
 11
-14195.823484792109
 21
-2883.364877546959
 31
0.0
  0
LINE
  5
24F
100
AcDbEntity
  8
Frei
  6
CONTINUOUS
 62
           7
100
AcDbLine
 10
-14190.715429108461
 20
-2882.576018679625
 30
0.0
 11
-14191.601918744183
 21
-2883.800836094118
 31
0.0
  0
LINE
  5
250
100
AcDbEntity
  8
Frei
  6
CONTINUOUS
 62
           7
100
AcDbLine
 10
-14192.138802040447
 20
-2896.359124624822
 30
0.0
 11
-14193.025291676169
 21
-2897.583942039314
 31
0.0
  0
LINE
  5
251
100
AcDbEntity
  8
Frei
  6
CONTINUOUS
 62
           7
100
AcDbLine
 10
-14191.12746110019
 20
-2879.20646744572
 30
0.0
 11
-14195.349027148115
 21
-2878.770508898561
 31
0.0
  0
LINE
  5
252
100
AcDbEntity
  8
Frei
  6
CONTINUOUS
 62
           7
100
AcDbLine
 10
-14191.12746110019
 20
-2879.20646744572
 30
0.0
 11
-14190.509982922102
 21
-2880.586598697693
 31
0.0
  0
LINE
  5
253
100
AcDbEntity
  8
Frei
  6
CONTINUOUS
 62
           7
100
AcDbLine
 10
-14197.112351995276
 20
-2895.845509158922
 30
0.0
 11
-14197.246857724094
 21
-2897.147983492156
 31
0.0
  0
LINE
  5
254
100
AcDbEntity
  8
Frei
  6
CONTINUOUS
 62
           7
100
AcDbLine
 10
-14192.138802040447
 20
-2896.359124624822
 30
0.0
 11
-14191.933355854087
 21
-2894.36970464289
 31
0.0
  0
LINE
  5
255
100
AcDbEntity
  8
Frei
  6
CONTINUOUS
 62
           7
100
AcDbLine
 10
-14192.138802040447
 20
-2896.359124624822
 30
0.0
 11
-14197.112351995276
 21
-2895.845509158922
 31
0.0
  0
LINE
  5
256
100
AcDbEntity
  8
Frei
  6
CONTINUOUS
 62
           7
100
AcDbLine
 10
-14196.906905808917
 20
-2893.85608917699
 30
0.0
 11
-14197.112351995276
 21
-2895.845509158922
 31
0.0
  0
LINE
  5
257
100
AcDbEntity
  8
Frei
  6
CONTINUOUS
 62
           7
100
AcDbLine
 10
-14191.933355854087
 20
-2894.36970464289
 30
0.0
 11
-14191.529838667633
 21
-2890.462281643189
 31
0.0
  0
LINE
  5
258
100
AcDbEntity
  8
Frei
  6
CONTINUOUS
 62
           7
100
AcDbLine
 10
-14191.933355854087
 20
-2894.36970464289
 30
0.0
 11
-14196.906905808917
 21
-2893.85608917699
 31
0.0
  0
LINE
  5
259
100
AcDbEntity
  8
Frei
  6
CONTINUOUS
 62
           7
100
AcDbLine
 10
-14196.772400080099
 20
-2892.553614843757
 30
0.0
 11
-14196.906905808917
 21
-2893.85608917699
 31
0.0
  0
LINE
  5
25A
100
AcDbEntity
  8
Frei
  6
CONTINUOUS
 62
           7
100
AcDbLine
 10
-14196.503388622465
 20
-2889.94866617729
 30
0.0
 11
-14196.772400080099
 21
-2892.553614843757
 31
0.0
  0
LINE
  5
25B
100
AcDbEntity
  8
Frei
  6
CONTINUOUS
 62
           7
100
AcDbLine
 10
-14191.529838667633
 20
-2890.462281643189
 30
0.0
 11
-14191.118946294915
 21
-2886.483441679325
 31
0.0
  0
LINE
  5
25C
100
AcDbEntity
  8
Frei
  6
CONTINUOUS
 62
           7
100
AcDbLine
 10
-14191.529838667633
 20
-2890.462281643189
 30
0.0
 11
-14196.503388622465
 21
-2889.94866617729
 31
0.0
  0
LINE
  5
25D
100
AcDbEntity
  8
Frei
  6
CONTINUOUS
 62
           7
100
AcDbLine
 10
-14196.092496249745
 20
-2885.969826213426
 30
0.0
 11
-14196.503388622465
 21
-2889.94866617729
 31
0.0
  0
LINE
  5
25E
100
AcDbEntity
  8
Frei
  6
CONTINUOUS
 62
           7
100
AcDbLine
 10
-14191.118946294915
 20
-2886.483441679325
 30
0.0
 11
-14190.715429108461
 21
-2882.576018679625
 31
0.0
  0
LINE
  5
25F
100
AcDbEntity
  8
Frei
  6
CONTINUOUS
 62
           7
100
AcDbLine
 10
-14191.118946294915
 20
-2886.483441679325
 30
0.0
 11
-14196.092496249745
 21
-2885.969826213426
 31
0.0
  0
LINE
  5
260
100
AcDbEntity
  8
Frei
  6
CONTINUOUS
 62
           7
100
AcDbLine
 10
-14195.823484792109
 20
-2883.364877546959
 30
0.0
 11
-14196.092496249745
 21
-2885.969826213426
 31
0.0
  0
LINE
  5
261
100
AcDbEntity
  8
Frei
  6
CONTINUOUS
 62
           7
100
AcDbLine
 10
-14195.688979063292
 20
-2882.062403213726
 30
0.0
 11
-14195.823484792109
 21
-2883.364877546959
 31
0.0
  0
LINE
  5
262
100
AcDbEntity
  8
Frei
  6
CONTINUOUS
 62
           7
100
AcDbLine
 10
-14190.715429108461
 20
-2882.576018679625
 30
0.0
 11
-14190.509982922102
 21
-2880.586598697693
 31
0.0
  0
LINE
  5
263
100
AcDbEntity
  8
Frei
  6
CONTINUOUS
 62
           7
100
AcDbLine
 10
-14190.715429108461
 20
-2882.576018679625
 30
0.0
 11
-14195.688979063292
 21
-2882.062403213726
 31
0.0
  0
LINE
  5
264
100
AcDbEntity
  8
Frei
  6
CONTINUOUS
 62
           7
100
AcDbLine
 10
-14195.483532876931
 20
-2880.072983231794
 30
0.0
 11
-14195.688979063292
 21
-2882.062403213726
 31
0.0
  0
LINE
  5
265
100
AcDbEntity
  8
Frei
  6
CONTINUOUS
 62
           7
100
AcDbLine
 10
-14195.483532876931
 20
-2880.072983231794
 30
0.0
 11
-14190.509982922102
 21
-2880.586598697693
 31
0.0
  0
LINE
  5
266
100
AcDbEntity
  8
Frei
  6
CONTINUOUS
 62
           7
100
AcDbLine
 10
-14197.246857724094
 20
-2897.147983492156
 30
0.0
 11
-14193.025291676169
 21
-2897.583942039314
 31
0.0
  0
LINE
  5
267
100
AcDbEntity
  8
Frei
  6
CONTINUOUS
 62
           7
100
AcDbLine
 10
-14195.349027148115
 20
-2878.770508898561
 30
0.0
 11
-14195.483532876931
 21
-2880.072983231794
 31
0.0
  0
LINE
  5
268
100
AcDbEntity
  8
Frei
  6
CONTINUOUS
 62
           7
100
AcDbLine
 10
-14238.991749830902
 20
-2843.840216172748
 30
0.0
 11
-14239.531046070097
 21
-2849.062443625319
 31
0.0
  0
LINE
  5
269
100
AcDbEntity
  8
Frei
  6
CONTINUOUS
 62
           7
100
AcDbLine
 10
-14238.218746496712
 20
-2850.95727074928
 30
0.0
 11
-14237.859215670582
 21
-2847.475785780899
 31
0.0
  0
LINE
  5
26A
100
AcDbEntity
  8
Frei
  6
CONTINUOUS
 62
           7
100
AcDbLine
 10
-14238.970735965751
 20
-2850.879613256141
 30
0.0
 11
-14238.218746496712
 21
-2850.95727074928
 31
0.0
  0
LINE
  5
26B
100
AcDbEntity
  8
Frei
  6
CONTINUOUS
 62
           7
100
AcDbLine
 10
-14237.859215670582
 20
-2847.475785780899
 30
0.0
 11
-14237.140154018323
 21
-2840.512815844137
 31
0.0
  0
LINE
  5
26C
100
AcDbEntity
  8
Frei
  6
CONTINUOUS
 62
           7
100
AcDbLine
 10
-14238.611205139623
 20
-2847.39812828776
 30
0.0
 11
-14237.859215670582
 21
-2847.475785780899
 31
0.0
  0
LINE
  5
26D
100
AcDbEntity
  8
Frei
  6
CONTINUOUS
 62
           7
100
AcDbLine
 10
-14237.140154018323
 20
-2840.512815844137
 30
0.0
 11
-14236.780623192193
 21
-2837.031330875756
 31
0.0
  0
LINE
  5
26E
100
AcDbEntity
  8
Frei
  6
CONTINUOUS
 62
           7
100
AcDbLine
 10
-14237.892143487363
 20
-2840.435158350998
 30
0.0
 11
-14237.140154018323
 21
-2840.512815844137
 31
0.0
  0
LINE
  5
26F
100
AcDbEntity
  8
Frei
  6
CONTINUOUS
 62
           7
100
AcDbLine
 10
-14236.780623192193
 20
-2837.031330875756
 30
0.0
 11
-14236.215646179704
 21
-2831.560425925443
 31
0.0
  0
LINE
  5
270
100
AcDbEntity
  8
Frei
  6
CONTINUOUS
 62
           7
100
AcDbLine
 10
-14237.532612661234
 20
-2836.953673382617
 30
0.0
 11
-14236.780623192193
 21
-2837.031330875756
 31
0.0
  0
LINE
  5
271
100
AcDbEntity
  8
Frei
  6
CONTINUOUS
 62
           7
100
AcDbLine
 10
-14201.887830950012
 20
-2893.413890675255
 30
0.0
 11
-14200.655153831854
 21
-2881.477370783663
 31
0.0
  0
LINE
  5
272
100
AcDbEntity
  8
Frei
  6
CONTINUOUS
 62
           2
100
AcDbLine
 10
-14196.914280995183
 20
-2893.927506141154
 30
0.0
 11
-14201.887830950012
 21
-2893.413890675255
 31
0.0
  0
LINE
  5
273
100
AcDbEntity
  8
Frei
  6
CONTINUOUS
 62
           7
100
AcDbLine
 10
-14200.655153831854
 20
-2881.477370783663
 30
0.0
 11
-14200.552430738675
 21
-2880.482660792697
 31
0.0
  0
LINE
  5
274
100
AcDbEntity
  8
Frei
  6
CONTINUOUS
 62
           2
100
AcDbLine
 10
-14195.681603877025
 20
-2881.990986249562
 30
0.0
 11
-14200.655153831854
 21
-2881.477370783663
 31
0.0
  0
LINE
  5
275
100
AcDbEntity
  8
Frei
  6
CONTINUOUS
 62
           7
100
AcDbLine
 10
-14201.990554043194
 20
-2894.408600666221
 30
0.0
 11
-14201.887830950012
 21
-2893.413890675255
 31
0.0
  0
LINE
  5
276
100
AcDbEntity
  8
Frei
  6
CONTINUOUS
 62
           7
100
AcDbLine
 10
-14201.990554043194
 20
-2894.408600666221
 30
0.0
 11
-14197.017004088364
 21
-2894.92221613212
 31
0.0
  0
LINE
  5
277
100
AcDbEntity
  8
Frei
  6
CONTINUOUS
 62
           7
100
AcDbLine
 10
-14200.552430738675
 20
-2880.482660792697
 30
0.0
 11
-14200.501069192085
 21
-2879.985305797214
 31
0.0
  0
LINE
  5
278
100
AcDbEntity
  8
Frei
  6
CONTINUOUS
 62
           7
100
AcDbLine
 10
-14200.552430738675
 20
-2880.482660792697
 30
0.0
 11
-14195.578880783845
 21
-2880.996276258596
 31
0.0
  0
LINE
  5
279
100
AcDbEntity
  8
Frei
  6
CONTINUOUS
 62
           7
100
AcDbLine
 10
-14221.351690384949
 20
-2892.409187942347
 30
0.0
 11
-14240.286888695384
 21
-2890.453761578796
 31
0.0
  0
LINE
  5
27A
100
AcDbEntity
  8
Frei
  6
CONTINUOUS
 62
           7
100
AcDbLine
 10
-14214.132520121144
 20
-2895.165343529994
 30
0.0
 11
-14221.351690384949
 21
-2892.409187942347
 31
0.0
  0
LINE
  5
27B
100
AcDbEntity
  8
Frei
  6
CONTINUOUS
 62
           7
100
AcDbLine
 10
-14238.799983979618
 20
-2861.453087201013
 30
0.0
 11
-14239.297338975101
 21
-2861.401725654423
 31
0.0
  0
LINE
  5
27C
100
AcDbEntity
  8
Frei
  6
CONTINUOUS
 62
           7
100
AcDbLine
 10
-14238.799983979618
 20
-2861.453087201013
 30
0.0
 11
-14241.624869042063
 21
-2888.807611952578
 31
0.0
  0
LINE
  5
27D
100
AcDbEntity
  8
Frei
  6
CONTINUOUS
 62
           7
100
AcDbLine
 10
-14221.351690384949
 20
-2892.409187942347
 30
0.0
 11
-14215.419138921234
 21
-2893.021838908293
 31
0.0
  0
LINE
  5
27E
100
AcDbEntity
  8
Frei
  6
CONTINUOUS
 62
           7
100
AcDbLine
 10
-14210.94810423257
 20
-2864.329333810048
 30
0.0
 11
-14238.799983979618
 21
-2861.453087201013
 31
0.0
  0
LINE
  5
27F
100
AcDbEntity
  8
Frei
  6
CONTINUOUS
 62
           7
100
AcDbLine
 10
-14210.94810423257
 20
-2864.329333810048
 30
0.0
 11
-14213.772989295016
 21
-2891.683858561613
 31
0.0
  0
LINE
  5
280
100
AcDbEntity
  8
Frei
  6
CONTINUOUS
 62
           7
100
AcDbLine
 10
-14214.132520121144
 20
-2895.165343529994
 30
0.0
 11
-14203.688065216002
 21
-2896.243936008383
 31
0.0
  0
LINE
  5
281
100
AcDbEntity
  8
Frei
  6
CONTINUOUS
 62
           7
100
AcDbLine
 10
-14202.041915589783
 20
-2894.905955661704
 30
0.0
 11
-14201.990554043194
 21
-2894.408600666221
 31
0.0
  0
LINE
  5
282
100
AcDbEntity
  8
Frei
  6
CONTINUOUS
 62
           7
100
AcDbLine
 10
-14212.283504443907
 20
-2877.260563692606
 30
0.0
 11
-14201.839049538765
 21
-2878.339156170995
 31
0.0
  0
LINE
  5
283
100
AcDbEntity
  8
Frei
  6
CONTINUOUS
 62
           7
100
AcDbLine
 10
-14239.297338975101
 20
-2861.401725654423
 30
0.0
 11
-14239.194615881921
 21
-2860.407015663457
 31
0.0
  0
LINE
  5
284
100
AcDbEntity
  8
Frei
  6
CONTINUOUS
 62
           7
100
AcDbLine
 10
-14210.450749237087
 20
-2864.380695356638
 30
0.0
 11
-14210.94810423257
 21
-2864.329333810048
 31
0.0
  0
LINE
  5
285
100
AcDbEntity
  8
Frei
  6
CONTINUOUS
 62
           7
100
AcDbLine
 10
-14210.348026143907
 20
-2863.385985365672
 30
0.0
 11
-14210.450749237087
 21
-2864.380695356638
 31
0.0
  0
LINE
  5
286
100
AcDbEntity
  8
Frei
  6
CONTINUOUS
 62
           7
100
AcDbLine
 10
-14210.348026143907
 20
-2863.385985365672
 30
0.0
 11
-14239.194615881921
 21
-2860.407015663457
 31
0.0
  0
LINE
  5
287
100
AcDbEntity
  8
Frei
  6
CONTINUOUS
 62
           7
100
AcDbLine
 10
-14207.72858726782
 20
-2838.02088059604
 30
0.0
 11
-14207.671481431978
 21
-2837.467901283451
 31
0.0
  0
LINE
  5
288
100
AcDbEntity
  8
Frei
  6
CONTINUOUS
 62
           7
100
AcDbLine
 10
-14236.215646179704
 20
-2831.560425925443
 30
0.0
 11
-14209.386150623717
 21
-2835.281416984564
 31
0.0
  0
LINE
  5
289
100
AcDbEntity
  8
Frei
  6
CONTINUOUS
 62
           7
100
AcDbLine
 10
-14203.884991337969
 20
-2849.476305962565
 30
0.0
 11
-14203.936352884559
 21
-2849.973660958048
 31
0.0
  0
LINE
  5
28A
100
AcDbEntity
  8
Frei
  6
CONTINUOUS
 62
           1
100
AcDbLine
 10
-14203.884991337969
 20
-2849.476305962565
 30
0.0
 11
-14206.360178881916
 21
-2849.220694856792
 31
0.0
  0
LINE
  5
28B
100
AcDbEntity
  8
Frei
  6
CONTINUOUS
 62
           7
100
AcDbLine
 10
-14203.474098965249
 20
-2845.497465998701
 30
0.0
 11
-14203.884991337969
 21
-2849.476305962565
 31
0.0
  0
LINE
  5
28C
100
AcDbEntity
  8
Frei
  6
CONTINUOUS
 62
           1
100
AcDbLine
 10
-14203.474098965249
 20
-2845.497465998701
 30
0.0
 11
-14205.949286509196
 21
-2845.241854892928
 31
0.0
  0
LINE
  5
28D
100
AcDbEntity
  8
Frei
  6
CONTINUOUS
 62
           7
100
AcDbLine
 10
-14203.936352884559
 20
-2849.973660958048
 30
0.0
 11
-14203.987714431149
 21
-2850.471015953531
 31
0.0
  0
LINE
  5
28E
100
AcDbEntity
  8
Frei
  6
CONTINUOUS
 62
           1
100
AcDbLine
 10
-14203.936352884559
 20
-2849.973660958048
 30
0.0
 11
-14206.411540428506
 21
-2849.718049852275
 31
0.0
  0
LINE
  5
28F
100
AcDbEntity
  8
Frei
  6
CONTINUOUS
 62
           7
100
AcDbLine
 10
-14203.422737418659
 20
-2845.000111003218
 30
0.0
 11
-14203.474098965249
 21
-2845.497465998701
 31
0.0
  0
LINE
  5
290
100
AcDbEntity
  8
Frei
  6
CONTINUOUS
 62
           1
100
AcDbLine
 10
-14203.422737418659
 20
-2845.000111003218
 30
0.0
 11
-14205.897924962606
 21
-2844.744499897445
 31
0.0
  0
LINE
  5
291
100
AcDbEntity
  8
Frei
  6
CONTINUOUS
 62
           7
100
AcDbLine
 10
-14204.982424422114
 20
-2850.368292860351
 30
0.0
 11
-14204.366085863036
 21
-2844.400032914555
 31
0.0
  0
LINE
  5
292
100
AcDbEntity
  8
Frei
  6
CONTINUOUS
 62
           2
100
AcDbLine
 10
-14203.987714431149
 20
-2850.471015953531
 30
0.0
 11
-14204.982424422114
 21
-2850.368292860351
 31
0.0
  0
LINE
  5
293
100
AcDbEntity
  8
Frei
  6
CONTINUOUS
 62
           7
100
AcDbLine
 10
-14204.366085863036
 20
-2844.400032914555
 30
0.0
 11
-14204.263362769856
 21
-2843.405322923589
 31
0.0
  0
LINE
  5
294
100
AcDbEntity
  8
Frei
  6
CONTINUOUS
 62
           2
100
AcDbLine
 10
-14203.37137587207
 20
-2844.502756007735
 30
0.0
 11
-14204.366085863036
 21
-2844.400032914555
 31
0.0
  0
LINE
  5
295
100
AcDbEntity
  8
Frei
  6
CONTINUOUS
 62
           7
100
AcDbLine
 10
-14205.085147515294
 20
-2851.363002851317
 30
0.0
 11
-14204.982424422114
 21
-2850.368292860351
 31
0.0
  0
LINE
  5
296
100
AcDbEntity
  8
Frei
  6
CONTINUOUS
 62
           7
100
AcDbLine
 10
-14203.987714431149
 20
-2850.471015953531
 30
0.0
 11
-14205.085147515294
 21
-2851.363002851317
 31
0.0
  0
LINE
  5
297
100
AcDbEntity
  8
Frei
  6
CONTINUOUS
 62
           7
100
AcDbLine
 10
-14203.37137587207
 20
-2844.502756007735
 30
0.0
 11
-14203.422737418659
 21
-2845.000111003218
 31
0.0
  0
LINE
  5
298
100
AcDbEntity
  8
Frei
  6
CONTINUOUS
 62
           7
100
AcDbLine
 10
-14204.263362769856
 20
-2843.405322923589
 30
0.0
 11
-14203.749747303957
 21
-2838.431772968759
 31
0.0
  0
LINE
  5
299
100
AcDbEntity
  8
Frei
  6
CONTINUOUS
 62
           7
100
AcDbLine
 10
-14204.263362769856
 20
-2843.405322923589
 30
0.0
 11
-14203.37137587207
 21
-2844.502756007735
 31
0.0
  0
LINE
  5
29A
100
AcDbEntity
  8
Frei
  6
CONTINUOUS
 62
           7
100
AcDbLine
 10
-14239.194615881921
 20
-2860.407015663457
 30
0.0
 11
-14238.218746496712
 21
-2850.95727074928
 31
0.0
  0
LINE
  5
29B
100
AcDbEntity
  8
Frei
  6
CONTINUOUS
 62
           7
100
AcDbLine
 10
-14209.577602945057
 20
-2855.925660433428
 30
0.0
 11
-14210.348026143907
 21
-2863.385985365672
 31
0.0
  0
LINE
  5
29C
100
AcDbEntity
  8
Frei
  6
CONTINUOUS
 62
           7
100
AcDbLine
 10
-14206.631154183675
 20
-2837.128893698254
 30
0.0
 11
-14208.685616047271
 21
-2857.023093517573
 31
0.0
  0
LINE
  5
29D
100
AcDbEntity
  8
Frei
  6
CONTINUOUS
 62
           7
100
AcDbLine
 10
-14204.641734201743
 20
-2837.334339884613
 30
0.0
 11
-14206.696196065339
 21
-2857.228539703933
 31
0.0
  0
LINE
  5
29E
100
AcDbEntity
  8
Frei
  6
CONTINUOUS
 62
           7
100
AcDbLine
 10
-14205.598762981193
 20
-2856.336552806147
 30
0.0
 11
-14206.696196065339
 21
-2857.228539703933
 31
0.0
  0
LINE
  5
29F
100
AcDbEntity
  8
Frei
  6
CONTINUOUS
 62
           7
100
AcDbLine
 10
-14208.685616047271
 20
-2857.023093517573
 30
0.0
 11
-14209.577602945057
 21
-2855.925660433428
 31
0.0
  0
LINE
  5
2A0
100
AcDbEntity
  8
Frei
  6
CONTINUOUS
 62
           7
100
AcDbLine
 10
-14207.72858726782
 20
-2838.02088059604
 30
0.0
 11
-14206.631154183675
 21
-2837.128893698254
 31
0.0
  0
LINE
  5
2A1
100
AcDbEntity
  8
Frei
  6
CONTINUOUS
 62
           7
100
AcDbLine
 10
-14203.749747303957
 20
-2838.431772968759
 30
0.0
 11
-14204.641734201743
 21
-2837.334339884613
 31
0.0
  0
LINE
  5
2A2
100
AcDbEntity
  8
Frei
  6
CONTINUOUS
 62
           7
100
AcDbLine
 10
-14205.598762981193
 20
-2856.336552806147
 30
0.0
 11
-14205.085147515294
 21
-2851.363002851317
 31
0.0
  0
LINE
  5
2A3
100
AcDbEntity
  8
Frei
  6
CONTINUOUS
 62
           7
100
AcDbLine
 10
-14208.685616047271
 20
-2857.023093517573
 30
0.0
 11
-14206.696196065339
 21
-2857.228539703933
 31
0.0
  0
LINE
  5
2A4
100
AcDbEntity
  8
Frei
  6
CONTINUOUS
 62
           7
100
AcDbLine
 10
-14207.72858726782
 20
-2838.02088059604
 30
0.0
 11
-14209.577602945057
 21
-2855.925660433428
 31
0.0
  0
LINE
  5
2A5
100
AcDbEntity
  8
Frei
  6
CONTINUOUS
 62
           7
100
AcDbLine
 10
-14204.641734201743
 20
-2837.334339884613
 30
0.0
 11
-14206.631154183675
 21
-2837.128893698254
 31
0.0
  0
LINE
  5
2A6
100
AcDbEntity
  8
Frei
  6
CONTINUOUS
 62
           7
100
AcDbLine
 10
-14255.607330732859
 20
-2858.712084625989
 30
0.0
 11
-14245.162875827717
 21
-2859.790677104377
 31
0.0
  0
LINE
  5
2A7
100
AcDbEntity
  8
Frei
  6
CONTINUOUS
 62
           7
100
AcDbLine
 10
-14238.291528784401
 20
-2827.324778228629
 30
0.0
 11
-14252.217468657924
 21
-2825.886654924111
 31
0.0
  0
LINE
  5
2A8
100
AcDbEntity
  8
Frei
  6
CONTINUOUS
 62
           7
100
AcDbLine
 10
-14237.399541886614
 20
-2828.422211312775
 30
0.0
 11
-14239.710811483161
 21
-2850.80318610951
 31
0.0
  0
LINE
  5
2A9
100
AcDbEntity
  8
Frei
  6
CONTINUOUS
 62
           7
100
AcDbLine
 10
-14398.742846338784
 20
-2842.925249217124
 30
0.0
 11
-14396.431576742238
 21
-2820.544274420389
 31
0.0
  0
LINE
  5
2AA
100
AcDbEntity
  8
Frei
  6
CONTINUOUS
 62
           7
100
AcDbLine
 10
-14397.68993463369
 20
-2832.729471809723
 30
0.0
 11
-14397.150638394496
 21
-2827.507244357151
 31
0.0
  0
LINE
  5
2AB
100
AcDbEntity
  8
Frei
  6
CONTINUOUS
 62
           7
100
AcDbLine
 10
-14238.452453591708
 20
-2838.617988720177
 30
0.0
 11
-14238.991749830902
 21
-2843.840216172748
 31
0.0
  0
ARC
  5
2AC
100
AcDbEntity
  8
Frei
  6
CONTINUOUS
 62
           7
100
AcDbCircle
 10
-14405.709528033816
 20
-2826.623373052026
 30
0.0
 40
8.604407030244
100
AcDbArc
 50
330.102014671726
 51
354.103999999999
  0
ARC
  5
2AD
100
AcDbEntity
  8
Frei
  6
CONTINUOUS
 62
           7
100
AcDbCircle
 10
-14399.028592884159
 20
-2822.035388898312
 30
0.0
 40
2.430106011614
100
AcDbArc
 50
308.038521857266
 51
354.103999999999
  0
ARC
  5
2AE
100
AcDbEntity
  8
Frei
  6
CONTINUOUS
 62
           7
100
AcDbCircle
 10
-14400.107185362547
 20
-2832.479843803455
 30
0.0
 40
2.430106011614
100
AcDbArc
 50
308.038521857266
 51
354.103999999999
  0
ARC
  5
2AF
100
AcDbEntity
  8
Frei
  6
CONTINUOUS
 62
           7
100
AcDbCircle
 10
-14399.028592884159
 20
-2822.035388898312
 30
0.0
 40
2.430106011614
100
AcDbArc
 50
354.103999999999
 51
40.169478142733
  0
ARC
  5
2B0
100
AcDbEntity
  8
Frei
  6
CONTINUOUS
 62
           7
100
AcDbCircle
 10
-14400.107185362547
 20
-2832.479843803455
 30
0.0
 40
2.430106011614
100
AcDbArc
 50
354.103999999999
 51
40.169478142733
  0
ARC
  5
2B1
100
AcDbEntity
  8
Frei
  6
CONTINUOUS
 62
           7
100
AcDbCircle
 10
-14237.113795341236
 20
-2849.312071631588
 30
0.0
 40
2.430106011614
100
AcDbArc
 50
128.038521857263
 51
174.104
  0
ARC
  5
2B2
100
AcDbEntity
  8
Frei
  6
CONTINUOUS
 62
           7
100
AcDbCircle
 10
-14236.035202862848
 20
-2838.867616726445
 30
0.0
 40
2.430106011614
100
AcDbArc
 50
128.038521857263
 51
174.104
  0
ARC
  5
2B3
100
AcDbEntity
  8
Frei
  6
CONTINUOUS
 62
           7
100
AcDbCircle
 10
-14237.113795341236
 20
-2849.312071631588
 30
0.0
 40
2.430106011614
100
AcDbArc
 50
174.104
 51
220.169478142737
  0
ARC
  5
2B4
100
AcDbEntity
  8
Frei
  6
CONTINUOUS
 62
           7
100
AcDbCircle
 10
-14236.035202862848
 20
-2838.867616726445
 30
0.0
 40
2.430106011614
100
AcDbArc
 50
174.104
 51
220.169478142737
  0
ARC
  5
2B5
100
AcDbEntity
  8
Frei
  6
CONTINUOUS
 62
           7
100
AcDbCircle
 10
-14230.43286019158
 20
-2844.724087477873
 30
0.0
 40
8.604407030244
100
AcDbArc
 50
150.102014671724
 51
174.104
  0
ARC
  5
2B6
100
AcDbEntity
  8
Frei
  6
CONTINUOUS
 62
           7
100
AcDbCircle
 10
-14374.723461360305
 20
-2837.627485778518
 30
0.0
 40
4.481959213903
100
AcDbArc
 50
182.482955885586
 51
345.725044114414
  0
ARC
  5
2B7
100
AcDbEntity
  8
Frei
  6
CONTINUOUS
 62
           7
100
AcDbCircle
 10
-14405.709528033816
 20
-2826.623373052026
 30
0.0
 40
8.604407030244
100
AcDbArc
 50
354.103999999999
 51
18.105985328274
  0
ARC
  5
2B8
100
AcDbEntity
  8
Frei
  6
CONTINUOUS
 62
           7
100
AcDbCircle
 10
-14230.43286019158
 20
-2844.724087477873
 30
0.0
 40
8.604407030244
100
AcDbArc
 50
174.104
 51
198.105985328276
  0
POLYLINE
  5
2B9
100
AcDbEntity
  8
Frei
  6
CONTINUOUS
 62
           7
100
AcDb2dPolyline
 66
           1
 10
0.0
 20
0.0
 30
0.0
  0
VERTEX
  5
2BA
100
AcDbEntity
  8
Frei
  6
CONTINUOUS
 62
           7
100
AcDbVertex
100
AcDb2dVertex
 10
-14378.882358346495
 20
-2837.499923260379
 30
0.0
 42
0.046286845788
  0
VERTEX
  5
2BB
100
AcDbEntity
  8
Frei
  6
CONTINUOUS
 62
           7
100
AcDbVertex
100
AcDb2dVertex
 10
-14378.889206072519
 20
-2838.179997470838
 30
0.0
  0
VERTEX
  5
2BC
100
AcDbEntity
  8
Frei
  6
CONTINUOUS
 62
           7
100
AcDbVertex
100
AcDb2dVertex
 10
-14378.845279883426
 20
-2838.518910273356
 30
0.0
  0
VERTEX
  5
2BD
100
AcDbEntity
  8
Frei
  6
CONTINUOUS
 62
           7
100
AcDbVertex
100
AcDb2dVertex
 10
-14378.770417130983
 20
-2838.852360905752
 30
0.0
 42
0.045273723548
  0
VERTEX
  5
2BE
100
AcDbEntity
  8
Frei
  6
CONTINUOUS
 62
           7
100
AcDbVertex
100
AcDb2dVertex
 10
-14378.529600863762
 20
-2839.496584142382
 30
0.0
  0
VERTEX
  5
2BF
100
AcDbEntity
  8
Frei
  6
CONTINUOUS
 62
           7
100
AcDbVertex
100
AcDb2dVertex
 10
-14378.36510863261
 20
-2839.802744832734
 30
0.0
  0
VERTEX
  5
2C0
100
AcDbEntity
  8
Frei
  6
CONTINUOUS
 62
           7
100
AcDbVertex
100
AcDb2dVertex
 10
-14378.174074351278
 20
-2840.093092783675
 30
0.0
 42
0.04348253534
  0
VERTEX
  5
2C1
100
AcDbEntity
  8
Frei
  6
CONTINUOUS
 62
           7
100
AcDbVertex
100
AcDb2dVertex
 10
-14377.714640086711
 20
-2840.623762216415
 30
0.0
  0
VERTEX
  5
2C2
100
AcDbEntity
  8
Frei
  6
CONTINUOUS
 62
           7
100
AcDbVertex
100
AcDb2dVertex
 10
-14377.449519313559
 20
-2840.859829104613
 30
0.0
  0
VERTEX
  5
2C3
100
AcDbEntity
  8
Frei
  6
CONTINUOUS
 62
           7
100
AcDbVertex
100
AcDb2dVertex
 10
-14377.165257747703
 20
-2841.072468318419
 30
0.0
 42
0.041825507476
  0
VERTEX
  5
2C4
100
AcDbEntity
  8
Frei
  6
CONTINUOUS
 62
           7
100
AcDbVertex
100
AcDb2dVertex
 10
-14376.542620038621
 20
-2841.425577381834
 30
0.0
  0
VERTEX
  5
2C5
100
AcDbEntity
  8
Frei
  6
CONTINUOUS
 62
           7
100
AcDbVertex
100
AcDb2dVertex
 10
-14376.209234538876
 20
-2841.562960640947
 30
0.0
  0
VERTEX
  5
2C6
100
AcDbEntity
  8
Frei
  6
CONTINUOUS
 62
           7
100
AcDbVertex
100
AcDb2dVertex
 10
-14375.865645491189
 20
-2841.672360366449
 30
0.0
 42
0.040993490696
  0
VERTEX
  5
2C7
100
AcDbEntity
  8
Frei
  6
CONTINUOUS
 62
           7
100
AcDbVertex
100
AcDb2dVertex
 10
-14375.154903634466
 20
-2841.805318896157
 30
0.0
  0
VERTEX
  5
2C8
100
AcDbEntity
  8
Frei
  6
CONTINUOUS
 62
           7
100
AcDbVertex
100
AcDb2dVertex
 10
-14374.793756237244
 20
-2841.827704155794
 30
0.0
  0
VERTEX
  5
2C9
100
AcDbEntity
  8
Frei
  6
CONTINUOUS
 62
           7
100
AcDbVertex
100
AcDb2dVertex
 10
-14374.431990000112
 20
-2841.820413093309
 30
0.0
 42
0.041278481646
  0
VERTEX
  5
2CA
100
AcDbEntity
  8
Frei
  6
CONTINUOUS
 62
           7
100
AcDbVertex
100
AcDb2dVertex
 10
-14373.718869953098
 20
-2841.717184328368
 30
0.0
  0
VERTEX
  5
2CB
100
AcDbEntity
  8
Frei
  6
CONTINUOUS
 62
           7
100
AcDbVertex
100
AcDb2dVertex
 10
-14373.373464524298
 20
-2841.622252281273
 30
0.0
  0
VERTEX
  5
2CC
100
AcDbEntity
  8
Frei
  6
CONTINUOUS
 62
           7
100
AcDbVertex
100
AcDb2dVertex
 10
-14373.037211285193
 20
-2841.498769155115
 30
0.0
 42
0.042584509173
  0
VERTEX
  5
2CD
100
AcDbEntity
  8
Frei
  6
CONTINUOUS
 62
           7
100
AcDbVertex
100
AcDb2dVertex
 10
-14372.407725850089
 20
-2841.17180400807
 30
0.0
  0
VERTEX
  5
2CE
100
AcDbEntity
  8
Frei
  6
CONTINUOUS
 62
           7
100
AcDbVertex
100
AcDb2dVertex
 10
-14372.11936361681
 20
-2840.971166809918
 30
0.0
  0
VERTEX
  5
2CF
100
AcDbEntity
  8
Frei
  6
CONTINUOUS
 62
           7
100
AcDbVertex
100
AcDb2dVertex
 10
-14371.849540244195
 20
-2840.746223557772
 30
0.0
 42
0.044417198743
  0
VERTEX
  5
2D0
100
AcDbEntity
  8
Frei
  6
CONTINUOUS
 62
           7
100
AcDbVertex
100
AcDb2dVertex
 10
-14371.37961465469
 20
-2840.23495885085
 30
0.0
  0
VERTEX
  5
2D1
100
AcDbEntity
  8
Frei
  6
CONTINUOUS
 62
           7
100
AcDbVertex
100
AcDb2dVertex
 10
-14371.182735917562
 20
-2839.952580184478
 30
0.0
  0
VERTEX
  5
2D2
100
AcDbEntity
  8
Frei
  6
CONTINUOUS
 62
           7
100
AcDbVertex
100
AcDb2dVertex
 10
-14371.012227532821
 20
-2839.653544406709
 30
0.0
 42
0.045929593742
  0
VERTEX
  5
2D3
100
AcDbEntity
  8
Frei
  6
CONTINUOUS
 62
           7
100
AcDbVertex
100
AcDb2dVertex
 10
-14370.758541750372
 20
-2839.019646209026
 30
0.0
  0
VERTEX
  5
2D4
100
AcDbEntity
  8
Frei
  6
CONTINUOUS
 62
           7
100
AcDbVertex
100
AcDb2dVertex
 10
-14370.676936386824
 20
-2838.689151766376
 30
0.0
  0
VERTEX
  5
2D5
100
AcDbEntity
  8
Frei
  6
CONTINUOUS
 62
           7
100
AcDbVertex
100
AcDb2dVertex
 10
-14370.626265421479
 20
-2838.352524933771
 30
0.0
 42
0.046286845788
  0
VERTEX
  5
2D6
100
AcDbEntity
  8
Frei
  6
CONTINUOUS
 62
           7
100
AcDbVertex
100
AcDb2dVertex
 10
-14370.619417695454
 20
-2837.672450723312
 30
0.0
  0
VERTEX
  5
2D7
100
AcDbEntity
  8
Frei
  6
CONTINUOUS
 62
           7
100
AcDbVertex
100
AcDb2dVertex
 10
-14370.663343884549
 20
-2837.333537920795
 30
0.0
  0
VERTEX
  5
2D8
100
AcDbEntity
  8
Frei
  6
CONTINUOUS
 62
           7
100
AcDbVertex
100
AcDb2dVertex
 10
-14370.738206636994
 20
-2837.000087288398
 30
0.0
 42
0.045273723548
  0
VERTEX
  5
2D9
100
AcDbEntity
  8
Frei
  6
CONTINUOUS
 62
           7
100
AcDbVertex
100
AcDb2dVertex
 10
-14370.979022904212
 20
-2836.355864051768
 30
0.0
  0
VERTEX
  5
2DA
100
AcDbEntity
  8
Frei
  6
CONTINUOUS
 62
           7
100
AcDbVertex
100
AcDb2dVertex
 10
-14371.143515135365
 20
-2836.049703361416
 30
0.0
  0
VERTEX
  5
2DB
100
AcDbEntity
  8
Frei
  6
CONTINUOUS
 62
           7
100
AcDbVertex
100
AcDb2dVertex
 10
-14371.334549416695
 20
-2835.759355410474
 30
0.0
 42
0.04348253534
  0
VERTEX
  5
2DC
100
AcDbEntity
  8
Frei
  6
CONTINUOUS
 62
           7
100
AcDbVertex
100
AcDb2dVertex
 10
-14371.793983681264
 20
-2835.228685977736
 30
0.0
  0
VERTEX
  5
2DD
100
AcDbEntity
  8
Frei
  6
CONTINUOUS
 62
           7
100
AcDbVertex
100
AcDb2dVertex
 10
-14372.059104454416
 20
-2834.992619089537
 30
0.0
  0
VERTEX
  5
2DE
100
AcDbEntity
  8
Frei
  6
CONTINUOUS
 62
           7
100
AcDbVertex
100
AcDb2dVertex
 10
-14372.343366020272
 20
-2834.779979875731
 30
0.0
 42
0.041825507476
  0
VERTEX
  5
2DF
100
AcDbEntity
  8
Frei
  6
CONTINUOUS
 62
           7
100
AcDbVertex
100
AcDb2dVertex
 10
-14372.966003729352
 20
-2834.426870812315
 30
0.0
  0
VERTEX
  5
2E0
100
AcDbEntity
  8
Frei
  6
CONTINUOUS
 62
           7
100
AcDbVertex
100
AcDb2dVertex
 10
-14373.299389229098
 20
-2834.289487553203
 30
0.0
  0
VERTEX
  5
2E1
100
AcDbEntity
  8
Frei
  6
CONTINUOUS
 62
           7
100
AcDbVertex
100
AcDb2dVertex
 10
-14373.642978276785
 20
-2834.180087827701
 30
0.0
 42
0.040993490695
  0
VERTEX
  5
2E2
100
AcDbEntity
  8
Frei
  6
CONTINUOUS
 62
           7
100
AcDbVertex
100
AcDb2dVertex
 10
-14374.353720133509
 20
-2834.047129297995
 30
0.0
  0
VERTEX
  5
2E3
100
AcDbEntity
  8
Frei
  6
CONTINUOUS
 62
           7
100
AcDbVertex
100
AcDb2dVertex
 10
-14374.714867530731
 20
-2834.024744038356
 30
0.0
  0
VERTEX
  5
2E4
100
AcDbEntity
  8
Frei
  6
CONTINUOUS
 62
           7
100
AcDbVertex
100
AcDb2dVertex
 10
-14375.076633767861
 20
-2834.032035100841
 30
0.0
 42
0.041278481646
  0
VERTEX
  5
2E5
100
AcDbEntity
  8
Frei
  6
CONTINUOUS
 62
           7
100
AcDbVertex
100
AcDb2dVertex
 10
-14375.789753814875
 20
-2834.135263865783
 30
0.0
  0
VERTEX
  5
2E6
100
AcDbEntity
  8
Frei
  6
CONTINUOUS
 62
           7
100
AcDbVertex
100
AcDb2dVertex
 10
-14376.135159243675
 20
-2834.230195912876
 30
0.0
  0
VERTEX
  5
2E7
100
AcDbEntity
  8
Frei
  6
CONTINUOUS
 62
           7
100
AcDbVertex
100
AcDb2dVertex
 10
-14376.471412482781
 20
-2834.353679039034
 30
0.0
 42
0.042584509172
  0
VERTEX
  5
2E8
100
AcDbEntity
  8
Frei
  6
CONTINUOUS
 62
           7
100
AcDbVertex
100
AcDb2dVertex
 10
-14377.100897917884
 20
-2834.680644186081
 30
0.0
  0
VERTEX
  5
2E9
100
AcDbEntity
  8
Frei
  6
CONTINUOUS
 62
           7
100
AcDbVertex
100
AcDb2dVertex
 10
-14377.389260151163
 20
-2834.881281384233
 30
0.0
  0
VERTEX
  5
2EA
100
AcDbEntity
  8
Frei
  6
CONTINUOUS
 62
           7
100
AcDbVertex
100
AcDb2dVertex
 10
-14377.659083523778
 20
-2835.106224636378
 30
0.0
 42
0.044417198743
  0
VERTEX
  5
2EB
100
AcDbEntity
  8
Frei
  6
CONTINUOUS
 62
           7
100
AcDbVertex
100
AcDb2dVertex
 10
-14378.129009113283
 20
-2835.6174893433
 30
0.0
  0
VERTEX
  5
2EC
100
AcDbEntity
  8
Frei
  6
CONTINUOUS
 62
           7
100
AcDbVertex
100
AcDb2dVertex
 10
-14378.325887850411
 20
-2835.899868009673
 30
0.0
  0
VERTEX
  5
2ED
100
AcDbEntity
  8
Frei
  6
CONTINUOUS
 62
           7
100
AcDbVertex
100
AcDb2dVertex
 10
-14378.496396235156
 20
-2836.198903787441
 30
0.0
 42
0.045929593741
  0
VERTEX
  5
2EE
100
AcDbEntity
  8
Frei
  6
CONTINUOUS
 62
           7
100
AcDbVertex
100
AcDb2dVertex
 10
-14378.750082017601
 20
-2836.832801985123
 30
0.0
  0
VERTEX
  5
2EF
100
AcDbEntity
  8
Frei
  6
CONTINUOUS
 62
           7
100
AcDbVertex
100
AcDb2dVertex
 10
-14378.831687381149
 20
-2837.163296427774
 30
0.0
  0
VERTEX
  5
2F0
100
AcDbEntity
  8
Frei
  6
CONTINUOUS
 62
           7
100
AcDbVertex
100
AcDb2dVertex
 10
-14378.882358346495
 20
-2837.499923260379
 30
0.0
  0
SEQEND
  5
2F1
100
AcDbEntity
  8
Frei
  6
CONTINUOUS
 62
           7
  0
POLYLINE
  5
2F2
100
AcDbEntity
  8
Frei
  6
CONTINUOUS
 62
           7
100
AcDb2dPolyline
 66
           1
 10
0.0
 20
0.0
 30
0.0
  0
VERTEX
  5
2F3
100
AcDbEntity
  8
Frei
  6
CONTINUOUS
 62
           7
100
AcDbVertex
100
AcDb2dVertex
 10
-14374.345150726956
 20
-2833.964148207282
 30
0.0
 42
0.046286845788
  0
VERTEX
  5
2F4
100
AcDbEntity
  8
Frei
  6
CONTINUOUS
 62
           7
100
AcDbVertex
100
AcDb2dVertex
 10
-14375.12118768356
 20
-2833.956334224072
 30
0.0
  0
VERTEX
  5
2F5
100
AcDbEntity
  8
Frei
  6
CONTINUOUS
 62
           7
100
AcDbVertex
100
AcDb2dVertex
 10
-14375.507923212968
 20
-2834.006458674573
 30
0.0
  0
VERTEX
  5
2F6
100
AcDbEntity
  8
Frei
  6
CONTINUOUS
 62
           7
100
AcDbVertex
100
AcDb2dVertex
 10
-14375.888425825717
 20
-2834.091885031985
 30
0.0
 42
0.045273723548
  0
VERTEX
  5
2F7
100
AcDbEntity
  8
Frei
  6
CONTINUOUS
 62
           7
100
AcDbVertex
100
AcDb2dVertex
 10
-14376.623553010719
 20
-2834.366681988317
 30
0.0
  0
VERTEX
  5
2F8
100
AcDbEntity
  8
Frei
  6
CONTINUOUS
 62
           7
100
AcDbVertex
100
AcDb2dVertex
 10
-14376.972914899052
 20
-2834.554385107306
 30
0.0
  0
VERTEX
  5
2F9
100
AcDbEntity
  8
Frei
  6
CONTINUOUS
 62
           7
100
AcDbVertex
100
AcDb2dVertex
 10
-14377.304232771041
 20
-2834.772375526602
 30
0.0
 42
0.04348253534
  0
VERTEX
  5
2FA
100
AcDbEntity
  8
Frei
  6
CONTINUOUS
 62
           7
100
AcDbVertex
100
AcDb2dVertex
 10
-14377.909782996609
 20
-2835.296638853974
 30
0.0
  0
VERTEX
  5
2FB
100
AcDbEntity
  8
Frei
  6
CONTINUOUS
 62
           7
100
AcDbVertex
100
AcDb2dVertex
 10
-14378.17916040668
 20
-2835.599169834808
 30
0.0
  0
VERTEX
  5
2FC
100
AcDbEntity
  8
Frei
  6
CONTINUOUS
 62
           7
100
AcDbVertex
100
AcDb2dVertex
 10
-14378.421804350237
 20
-2835.923542494516
 30
0.0
 42
0.041825507476
  0
VERTEX
  5
2FD
100
AcDbEntity
  8
Frei
  6
CONTINUOUS
 62
           7
100
AcDbVertex
100
AcDb2dVertex
 10
-14378.824739322195
 20
-2836.634038298341
 30
0.0
  0
VERTEX
  5
2FE
100
AcDbEntity
  8
Frei
  6
CONTINUOUS
 62
           7
100
AcDbVertex
100
AcDb2dVertex
 10
-14378.981508222783
 20
-2837.014466587811
 30
0.0
  0
VERTEX
  5
2FF
100
AcDbEntity
  8
Frei
  6
CONTINUOUS
 62
           7
100
AcDbVertex
100
AcDb2dVertex
 10
-14379.106344937254
 20
-2837.406538209977
 30
0.0
 42
0.040993490695
  0
VERTEX
  5
300
100
AcDbEntity
  8
Frei
  6
CONTINUOUS
 62
           7
100
AcDbVertex
100
AcDb2dVertex
 10
-14379.2580647513
 20
-2838.217570210516
 30
0.0
  0
VERTEX
  5
301
100
AcDbEntity
  8
Frei
  6
CONTINUOUS
 62
           7
100
AcDbVertex
100
AcDb2dVertex
 10
-14379.28360871179
 20
-2838.629677775712
 30
0.0
  0
VERTEX
  5
302
100
AcDbEntity
  8
Frei
  6
CONTINUOUS
 62
           7
100
AcDbVertex
100
AcDb2dVertex
 10
-14379.275288834557
 20
-2839.042491503019
 30
0.0
 42
0.041278481646
  0
VERTEX
  5
303
100
AcDbEntity
  8
Frei
  6
CONTINUOUS
 62
           7
100
AcDbVertex
100
AcDb2dVertex
 10
-14379.157493841969
 20
-2839.856237271447
 30
0.0
  0
VERTEX
  5
304
100
AcDbEntity
  8
Frei
  6
CONTINUOUS
 62
           7
100
AcDbVertex
100
AcDb2dVertex
 10
-14379.049166286275
 20
-2840.250381577519
 30
0.0
  0
VERTEX
  5
305
100
AcDbEntity
  8
Frei
  6
CONTINUOUS
 62
           7
100
AcDbVertex
100
AcDb2dVertex
 10
-14378.908258914782
 20
-2840.6340822624
 30
0.0
 42
0.042584509173
  0
VERTEX
  5
306
100
AcDbEntity
  8
Frei
  6
CONTINUOUS
 62
           7
100
AcDbVertex
100
AcDb2dVertex
 10
-14378.535156930138
 20
-2841.352392049435
 30
0.0
  0
VERTEX
  5
307
100
AcDbEntity
  8
Frei
  6
CONTINUOUS
 62
           7
100
AcDbVertex
100
AcDb2dVertex
 10
-14378.30620856209
 20
-2841.681444006518
 30
0.0
  0
VERTEX
  5
308
100
AcDbEntity
  8
Frei
  6
CONTINUOUS
 62
           7
100
AcDbVertex
100
AcDb2dVertex
 10
-14378.049524403041
 20
-2841.989341153159
 30
0.0
 42
0.044417198743
  0
VERTEX
  5
309
100
AcDbEntity
  8
Frei
  6
CONTINUOUS
 62
           7
100
AcDbVertex
100
AcDb2dVertex
 10
-14377.466117032083
 20
-2842.525576197364
 30
0.0
  0
VERTEX
  5
30A
100
AcDbEntity
  8
Frei
  6
CONTINUOUS
 62
           7
100
AcDbVertex
100
AcDb2dVertex
 10
-14377.143892960812
 20
-2842.750235761911
 30
0.0
  0
VERTEX
  5
30B
100
AcDbEntity
  8
Frei
  6
CONTINUOUS
 62
           7
100
AcDbVertex
100
AcDb2dVertex
 10
-14376.802661355017
 20
-2842.944803951582
 30
0.0
 42
0.045929593742
  0
VERTEX
  5
30C
100
AcDbEntity
  8
Frei
  6
CONTINUOUS
 62
           7
100
AcDbVertex
100
AcDb2dVertex
 10
-14376.079316136864
 20
-2843.23428639264
 30
0.0
  0
VERTEX
  5
30D
100
AcDbEntity
  8
Frei
  6
CONTINUOUS
 62
           7
100
AcDbVertex
100
AcDb2dVertex
 10
-14375.702186850818
 20
-2843.327406785967
 30
0.0
  0
VERTEX
  5
30E
100
AcDbEntity
  8
Frei
  6
CONTINUOUS
 62
           7
100
AcDbVertex
100
AcDb2dVertex
 10
-14375.318059856047
 20
-2843.385227743049
 30
0.0
 42
0.046286845788
  0
VERTEX
  5
30F
100
AcDbEntity
  8
Frei
  6
CONTINUOUS
 62
           7
100
AcDbVertex
100
AcDb2dVertex
 10
-14374.542022899444
 20
-2843.393041726261
 30
0.0
  0
VERTEX
  5
310
100
AcDbEntity
  8
Frei
  6
CONTINUOUS
 62
           7
100
AcDbVertex
100
AcDb2dVertex
 10
-14374.155287370035
 20
-2843.342917275759
 30
0.0
  0
VERTEX
  5
311
100
AcDbEntity
  8
Frei
  6
CONTINUOUS
 62
           7
100
AcDbVertex
100
AcDb2dVertex
 10
-14373.774784757288
 20
-2843.257490918347
 30
0.0
 42
0.045273723548
  0
VERTEX
  5
312
100
AcDbEntity
  8
Frei
  6
CONTINUOUS
 62
           7
100
AcDbVertex
100
AcDb2dVertex
 10
-14373.039657572284
 20
-2842.982693962014
 30
0.0
  0
VERTEX
  5
313
100
AcDbEntity
  8
Frei
  6
CONTINUOUS
 62
           7
100
AcDbVertex
100
AcDb2dVertex
 10
-14372.690295683951
 20
-2842.794990843025
 30
0.0
  0
VERTEX
  5
314
100
AcDbEntity
  8
Frei
  6
CONTINUOUS
 62
           7
100
AcDbVertex
100
AcDb2dVertex
 10
-14372.358977811964
 20
-2842.577000423728
 30
0.0
 42
0.04348253534
  0
VERTEX
  5
315
100
AcDbEntity
  8
Frei
  6
CONTINUOUS
 62
           7
100
AcDbVertex
100
AcDb2dVertex
 10
-14371.753427586396
 20
-2842.052737096358
 30
0.0
  0
VERTEX
  5
316
100
AcDbEntity
  8
Frei
  6
CONTINUOUS
 62
           7
100
AcDbVertex
100
AcDb2dVertex
 10
-14371.484050176323
 20
-2841.750206115525
 30
0.0
  0
VERTEX
  5
317
100
AcDbEntity
  8
Frei
  6
CONTINUOUS
 62
           7
100
AcDbVertex
100
AcDb2dVertex
 10
-14371.241406232766
 20
-2841.425833455816
 30
0.0
 42
0.041825507476
  0
VERTEX
  5
318
100
AcDbEntity
  8
Frei
  6
CONTINUOUS
 62
           7
100
AcDbVertex
100
AcDb2dVertex
 10
-14370.838471260808
 20
-2840.715337651991
 30
0.0
  0
VERTEX
  5
319
100
AcDbEntity
  8
Frei
  6
CONTINUOUS
 62
           7
100
AcDbVertex
100
AcDb2dVertex
 10
-14370.681702360223
 20
-2840.334909362521
 30
0.0
  0
VERTEX
  5
31A
100
AcDbEntity
  8
Frei
  6
CONTINUOUS
 62
           7
100
AcDbVertex
100
AcDb2dVertex
 10
-14370.556865645749
 20
-2839.942837740354
 30
0.0
 42
0.040993490695
  0
VERTEX
  5
31B
100
AcDbEntity
  8
Frei
  6
CONTINUOUS
 62
           7
100
AcDbVertex
100
AcDb2dVertex
 10
-14370.405145831703
 20
-2839.131805739817
 30
0.0
  0
VERTEX
  5
31C
100
AcDbEntity
  8
Frei
  6
CONTINUOUS
 62
           7
100
AcDbVertex
100
AcDb2dVertex
 10
-14370.379601871213
 20
-2838.719698174619
 30
0.0
  0
VERTEX
  5
31D
100
AcDbEntity
  8
Frei
  6
CONTINUOUS
 62
           7
100
AcDbVertex
100
AcDb2dVertex
 10
-14370.387921748446
 20
-2838.306884447312
 30
0.0
 42
0.041278481646
  0
VERTEX
  5
31E
100
AcDbEntity
  8
Frei
  6
CONTINUOUS
 62
           7
100
AcDbVertex
100
AcDb2dVertex
 10
-14370.505716741034
 20
-2837.493138678885
 30
0.0
  0
VERTEX
  5
31F
100
AcDbEntity
  8
Frei
  6
CONTINUOUS
 62
           7
100
AcDbVertex
100
AcDb2dVertex
 10
-14370.61404429673
 20
-2837.098994372814
 30
0.0
  0
VERTEX
  5
320
100
AcDbEntity
  8
Frei
  6
CONTINUOUS
 62
           7
100
AcDbVertex
100
AcDb2dVertex
 10
-14370.754951668223
 20
-2836.715293687933
 30
0.0
 42
0.042584509173
  0
VERTEX
  5
321
100
AcDbEntity
  8
Frei
  6
CONTINUOUS
 62
           7
100
AcDbVertex
100
AcDb2dVertex
 10
-14371.128053652867
 20
-2835.996983900896
 30
0.0
  0
VERTEX
  5
322
100
AcDbEntity
  8
Frei
  6
CONTINUOUS
 62
           7
100
AcDbVertex
100
AcDb2dVertex
 10
-14371.357002020914
 20
-2835.667931943813
 30
0.0
  0
VERTEX
  5
323
100
AcDbEntity
  8
Frei
  6
CONTINUOUS
 62
           7
100
AcDbVertex
100
AcDb2dVertex
 10
-14371.613686179966
 20
-2835.360034797172
 30
0.0
 42
0.044417198743
  0
VERTEX
  5
324
100
AcDbEntity
  8
Frei
  6
CONTINUOUS
 62
           7
100
AcDbVertex
100
AcDb2dVertex
 10
-14372.19709355092
 20
-2834.823799752968
 30
0.0
  0
VERTEX
  5
325
100
AcDbEntity
  8
Frei
  6
CONTINUOUS
 62
           7
100
AcDbVertex
100
AcDb2dVertex
 10
-14372.519317622191
 20
-2834.59914018842
 30
0.0
  0
VERTEX
  5
326
100
AcDbEntity
  8
Frei
  6
CONTINUOUS
 62
           7
100
AcDbVertex
100
AcDb2dVertex
 10
-14372.860549227988
 20
-2834.40457199875
 30
0.0
 42
0.045929593742
  0
VERTEX
  5
327
100
AcDbEntity
  8
Frei
  6
CONTINUOUS
 62
           7
100
AcDbVertex
100
AcDb2dVertex
 10
-14373.583894446139
 20
-2834.115089557693
 30
0.0
  0
VERTEX
  5
328
100
AcDbEntity
  8
Frei
  6
CONTINUOUS
 62
           7
100
AcDbVertex
100
AcDb2dVertex
 10
-14373.961023732185
 20
-2834.021969164365
 30
0.0
  0
VERTEX
  5
329
100
AcDbEntity
  8
Frei
  6
CONTINUOUS
 62
           7
100
AcDbVertex
100
AcDb2dVertex
 10
-14374.345150726956
 20
-2833.964148207282
 30
0.0
  0
SEQEND
  5
32A
100
AcDbEntity
  8
Frei
  6
CONTINUOUS
 62
           7
  0
ARC
  5
32B
100
AcDbEntity
  8
Frei
  6
CONTINUOUS
 62
           7
100
AcDbCircle
 10
-14241.393209653681
 20
-2857.223127952771
 30
0.0
 40
0.5
100
AcDbArc
 50
271.253821982568
 51
354.103999999999
  0
ARC
  5
32C
100
AcDbEntity
  8
Frei
  6
CONTINUOUS
 62
           7
100
AcDbCircle
 10
-14240.867513656809
 20
-2852.13259724431
 30
0.0
 40
0.5
100
AcDbArc
 50
354.103999999999
 51
76.954178017423
  0
ARC
  5
32D
100
AcDbEntity
  8
Frei
  6
CONTINUOUS
 62
           7
100
AcDbCircle
 10
-14394.251823576233
 20
-2814.175694123718
 30
0.0
 40
0.5
100
AcDbArc
 50
91.253821982565
 51
174.104
  0
ARC
  5
32E
100
AcDbEntity
  8
Frei
  6
CONTINUOUS
 62
           7
100
AcDbCircle
 10
-14394.777519573106
 20
-2819.266224832179
 30
0.0
 40
0.5
100
AcDbArc
 50
174.104
 51
256.954178017419
  0
ARC
  5
32F
100
AcDbEntity
  8
Frei
  6
CONTINUOUS
 62
           7
100
AcDbCircle
 10
-14424.518259462568
 20
-2815.074266970243
 30
0.0
 40
2.0
100
AcDbArc
 50
86.104
 51
174.104
  0
ARC
  5
330
100
AcDbEntity
  8
Frei
  6
CONTINUOUS
 62
           7
100
AcDbCircle
 10
-14442.264378408072
 20
-2870.098328658768
 30
0.0
 40
1.5
100
AcDbArc
 50
174.104
 51
264.104
  0
ARC
  5
331
100
AcDbEntity
  8
Frei
  6
CONTINUOUS
 62
           7
100
AcDbCircle
 10
-14440.723532010374
 20
-2855.177678794279
 30
0.0
 40
1.5
100
AcDbArc
 50
84.104
 51
174.104
  0
ARC
  5
332
100
AcDbEntity
  8
Frei
  6
CONTINUOUS
 62
           7
100
AcDbCircle
 10
-14430.12241233012
 20
-2869.341585794995
 30
0.0
 40
1.5
100
AcDbArc
 50
174.104
 51
264.104
  0
ARC
  5
333
100
AcDbEntity
  8
Frei
  6
CONTINUOUS
 62
           7
100
AcDbCircle
 10
-14405.25466255597
 20
-2871.909663124491
 30
0.0
 40
1.5
100
AcDbArc
 50
264.104
 51
354.103999999999
  0
ARC
  5
334
100
AcDbEntity
  8
Frei
  6
CONTINUOUS
 62
           7
100
AcDbCircle
 10
-14240.132804055615
 20
-2888.961696592347
 30
0.0
 40
1.5
100
AcDbArc
 50
174.104
 51
264.104000000001
  0
ARC
  5
335
100
AcDbEntity
  8
Frei
  6
CONTINUOUS
 62
           7
100
AcDbCircle
 10
-14215.265054281464
 20
-2891.529773921844
 30
0.0
 40
1.5
100
AcDbArc
 50
264.104000000001
 51
354.103999999999
  0
ARC
  5
336
100
AcDbEntity
  8
Frei
  6
CONTINUOUS
 62
           7
100
AcDbCircle
 10
-14201.993134178534
 20
-2879.831221157444
 30
0.0
 40
1.5
100
AcDbArc
 50
354.103999999999
 51
84.104
  0
ARC
  5
337
100
AcDbEntity
  8
Frei
  6
CONTINUOUS
 62
           7
100
AcDbCircle
 10
-14203.533980576232
 20
-2894.751871021934
 30
0.0
 40
1.5
100
AcDbArc
 50
264.104000000001
 51
354.103999999999
  0
ARC
  5
338
100
AcDbEntity
  8
Frei
  6
CONTINUOUS
 62
           7
100
AcDbCircle
 10
-14209.66090141391
 20
-2837.262455097092
 30
0.0
 40
2.0
100
AcDbArc
 50
354.103999999999
 51
82.104
  0
ARC
  5
339
100
AcDbEntity
  8
Frei
  6
CONTINUOUS
 62
           7
100
AcDbCircle
 10
-14238.39425187758
 20
-2828.319488219595
 30
0.0
 40
1.0
100
AcDbArc
 50
354.103999999999
 51
84.104
  0
ARC
  5
33A
100
AcDbEntity
  8
Frei
  6
CONTINUOUS
 62
           7
100
AcDbCircle
 10
-14241.578667766154
 20
-2859.155497939541
 30
0.0
 40
1.0
100
AcDbArc
 50
264.103999999999
 51
354.103999999999
  0
ARC
  5
33B
100
AcDbEntity
  8
Frei
  6
CONTINUOUS
 62
           7
100
AcDbCircle
 10
-14397.748136347818
 20
-2843.027972310304
 30
0.0
 40
1.0
100
AcDbArc
 50
174.104
 51
264.104
  0
ARC
  5
33C
100
AcDbEntity
  8
Frei
  6
CONTINUOUS
 62
           7
100
AcDbCircle
 10
-14394.563720459242
 20
-2812.191962590358
 30
0.0
 40
1.0
100
AcDbArc
 50
84.104
 51
174.104
  0
LINE
  5
33D
100
AcDbEntity
  8
Frei
  6
CONTINUOUS
 62
           7
100
AcDbLine
 10
-14680.29269477723
 20
-2804.358642631674
 30
0.0
 11
-14680.29269477723
 21
-2884.358642631674
 31
0.0
  0
LINE
  5
33E
100
AcDbEntity
  8
Frei
  6
CONTINUOUS
 62
           7
100
AcDbLine
 10
-14134.40380977723
 20
-2884.358642631674
 30
0.0
 11
-14134.40380977723
 21
-2804.358642631674
 31
0.0
  0
LINE
  5
33F
100
AcDbEntity
  8
Frei
  6
CONTINUOUS
 62
          15
100
AcDbLine
 10
-14605.198678636618
 20
-2804.358642631674
 30
0.0
 11
-14680.29269477723
 21
-2804.358642631674
 31
0.0
  0
LINE
  5
340
100
AcDbEntity
  8
Frei
  6
GESTRICHELT
 62
          15
100
AcDbLine
 10
-14498.235280498409
 20
-2804.358642631674
 30
0.0
 11
-14605.198678636618
 21
-2804.358642631674
 31
0.0
  0
LINE
  5
341
100
AcDbEntity
  8
Frei
  6
CONTINUOUS
 62
          15
100
AcDbLine
 10
-14480.89358028559
 20
-2804.358642631674
 30
0.0
 11
-14498.235280498409
 21
-2804.358642631674
 31
0.0
  0
LINE
  5
342
100
AcDbEntity
  8
Frei
  6
GESTRICHELT
 62
          15
100
AcDbLine
 10
-14283.506460779414
 20
-2804.358642631674
 30
0.0
 11
-14480.89358028559
 21
-2804.358642631674
 31
0.0
  0
LINE
  5
343
100
AcDbEntity
  8
Frei
  6
CONTINUOUS
 62
          15
100
AcDbLine
 10
-14134.40380977723
 20
-2804.358642631674
 30
0.0
 11
-14283.506460779414
 21
-2804.358642631674
 31
0.0
  0
LINE
  5
344
100
AcDbEntity
  8
Frei
  6
CONTINUOUS
 62
          15
100
AcDbLine
 10
-14241.165426697806
 20
-2884.358642631674
 30
0.0
 11
-14680.29269477723
 21
-2884.358642631674
 31
0.0
  0
LINE
  5
345
100
AcDbEntity
  8
Frei
  6
GESTRICHELT
 62
          15
100
AcDbLine
 10
-14190.89951959513
 20
-2884.358642631674
 30
0.0
 11
-14241.165426697806
 21
-2884.358642631674
 31
0.0
  0
LINE
  5
346
100
AcDbEntity
  8
Frei
  6
CONTINUOUS
 62
          15
100
AcDbLine
 10
-14134.40380977723
 20
-2884.358642631674
 30
0.0
 11
-14190.89951959513
 21
-2884.358642631674
 31
0.0
  0
TEXT
  5
347
100
AcDbEntity
  8
FREI
  6
CONTINUOUS
 62
          15
100
AcDbText
 10
-14821.924520138073
 20
-2927.048548196204
 30
0.0
 40
3.527777671814
  1
224-700
 41
0.899999979725
  7
GOTHICG
100
AcDbText
  0
ENDSEC
  0
SECTION
  2
OBJECTS
  0
DICTIONARY
  5
19
100
AcDbDictionary
  3
ACAD_GROUP
350
1A
  3
ACAD_MLINESTYLE
350
1B
  0
DICTIONARY
  5
1A
102
{ACAD_REACTORS
330
19
102
}
100
AcDbDictionary
  0
DICTIONARY
  5
1B
102
{ACAD_REACTORS
330
19
102
}
100
AcDbDictionary
  3
STANDARD
350
1C
  0
MLINESTYLE
  5
1C
102
{ACAD_REACTORS
330
1B
102
}
100
AcDbMlineStyle
  2
STANDARD
 70
           0
  3

 62
           0
 51
90.0
 52
90.0
 71
           2
 49
0.5
 62
         256
  6
BYLAYER
 49
-0.5
 62
         256
  6
BYLAYER
  0
ENDSEC
  0
EOF
