  0
SECTION
  2
HEADER
  9
$ACADVER
  1
AC1012
  9
$DWGCODEPAGE
  3
dos850
  9
$INSBASE
 10
0.0
 20
0.0
 30
0.0
  9
$EXTMIN
 10
-14947.874445890453
 20
-5262.841673517688
 30
0.0
  9
$EXTMAX
 10
-14131.354508986837
 20
-4797.9731632499
 30
0.0
  9
$LIMMIN
 10
-14947.874445890453
 20
-5262.841673517688
  9
$LIMMAX
 10
-14131.354508986837
 20
-4797.9731632499
  9
$ORTHOMODE
 70
           0
  9
$REGENMODE
 70
           1
  9
$FILLMODE
 70
           1
  9
$QTEXTMODE
 70
           0
  9
$MIRRTEXT
 70
           1
  9
$DRAGMODE
 70
           2
  9
$LTSCALE
 40
5.0
  9
$OSMODE
 70
           0
  9
$ATTMODE
 70
           1
  9
$TEXTSIZE
 40
0.2
  9
$TRACEWID
 40
0.05
  9
$TEXTSTYLE
  7
TXT
  9
$CLAYER
  8
0
  9
$CELTYPE
  6
CONTINUOUS
  9
$CECOLOR
 62
         256
  9
$CELTSCALE
 40
1.0
  9
$DELOBJ
 70
           1
  9
$DISPSILH
 70
           0
  9
$DIMSCALE
 40
1.0
  9
$DIMASZ
 40
3.5
  9
$DIMEXO
 40
0.0625
  9
$DIMDLI
 40
0.38
  9
$DIMRND
 40
0.0
  9
$DIMDLE
 40
0.0
  9
$DIMEXE
 40
0.18
  9
$DIMTP
 40
0.0
  9
$DIMTM
 40
0.0
  9
$DIMTXT
 40
3.5
  9
$DIMCEN
 40
0.09
  9
$DIMTSZ
 40
0.0
  9
$DIMTOL
 70
           0
  9
$DIMLIM
 70
           0
  9
$DIMTIH
 70
           1
  9
$DIMTOH
 70
           1
  9
$DIMSE1
 70
           0
  9
$DIMSE2
 70
           0
  9
$DIMTAD
 70
           0
  9
$DIMZIN
 70
           0
  9
$DIMBLK
  1

  9
$DIMASO
 70
           1
  9
$DIMSHO
 70
           1
  9
$DIMPOST
  1

  9
$DIMAPOST
  1

  9
$DIMALT
 70
           0
  9
$DIMALTD
 70
           2
  9
$DIMALTF
 40
25.4
  9
$DIMLFAC
 40
1.0
  9
$DIMTOFL
 70
           0
  9
$DIMTVP
 40
0.0
  9
$DIMTIX
 70
           0
  9
$DIMSOXD
 70
           0
  9
$DIMSAH
 70
           0
  9
$DIMBLK1
  1

  9
$DIMBLK2
  1

  9
$DIMSTYLE
  2
STANDARD
  9
$DIMCLRD
 70
           0
  9
$DIMCLRE
 70
           0
  9
$DIMCLRT
 70
           0
  9
$DIMTFAC
 40
1.0
  9
$DIMGAP
 40
0.09
  9
$DIMJUST
 70
           0
  9
$DIMSD1
 70
           0
  9
$DIMSD2
 70
           0
  9
$DIMTOLJ
 70
           1
  9
$DIMTZIN
 70
           0
  9
$DIMALTZ
 70
           0
  9
$DIMALTTZ
 70
           0
  9
$DIMFIT
 70
           3
  9
$DIMUPT
 70
           0
  9
$DIMUNIT
 70
           2
  9
$DIMDEC
 70
           4
  9
$DIMTDEC
 70
           4
  9
$DIMALTU
 70
           2
  9
$DIMALTTD
 70
           2
  9
$DIMTXSTY
  7
TXT
  9
$DIMAUNIT
 70
           0
  9
$LUNITS
 70
           2
  9
$LUPREC
 70
           3
  9
$SKETCHINC
 40
0.1
  9
$FILLETRAD
 40
0.0
  9
$AUNITS
 70
           0
  9
$AUPREC
 70
           3
  9
$MENU
  1
acad
  9
$ELEVATION
 40
0.0
  9
$PELEVATION
 40
0.0
  9
$THICKNESS
 40
0.0
  9
$LIMCHECK
 70
           0
  9
$BLIPMODE
 70
           1
  9
$CHAMFERA
 40
0.0
  9
$CHAMFERB
 40
0.0
  9
$CHAMFERC
 40
0.0
  9
$CHAMFERD
 40
0.0
  9
$SKPOLY
 70
           0
  9
$TDCREATE
 40
0.000000000
  9
$TDUPDATE
 40
0.000000000
  9
$TDINDWG
 40
0.0000000000
  9
$TDUSRTIMER
 40
0.0000000000
  9
$USRTIMER
 70
           1
  9
$ANGBASE
 50
0.0
  9
$ANGDIR
 70
           0
  9
$PDMODE
 70
           2
  9
$PDSIZE
 40
0.5
  9
$PLINEWID
 40
0.0
  9
$COORDS
 70
           0
  9
$SPLFRAME
 70
           0
  9
$SPLINETYPE
 70
           6
  9
$SPLINESEGS
 70
           8
  9
$ATTDIA
 70
           0
  9
$ATTREQ
 70
           1
  9
$HANDLING
 70
           1
  9
$HANDSEED
  5
3A4
  9
$SURFTAB1
 70
           6
  9
$SURFTAB2
 70
           6
  9
$SURFTYPE
 70
           6
  9
$SURFU
 70
           6
  9
$SURFV
 70
           6
  9
$UCSNAME
  2

  9
$UCSORG
 10
0.0
 20
0.0
 30
0.0
  9
$UCSXDIR
 10
1.0
 20
0.0
 30
0.0
  9
$UCSYDIR
 10
0.0
 20
1.0
 30
0.0
  9
$PUCSNAME
  2

  9
$PUCSORG
 10
0.0
 20
0.0
 30
0.0
  9
$PUCSXDIR
 10
1.0
 20
0.0
 30
0.0
  9
$PUCSYDIR
 10
0.0
 20
1.0
 30
0.0
  9
$USERI1
 70
           0
  9
$USERI2
 70
           0
  9
$USERI3
 70
           0
  9
$USERI4
 70
           0
  9
$USERI5
 70
           0
  9
$USERR1
 40
0.0
  9
$USERR2
 40
0.0
  9
$USERR3
 40
0.0
  9
$USERR4
 40
0.0
  9
$USERR5
 40
0.0
  9
$WORLDVIEW
 70
           1
  9
$SHADEDGE
 70
           3
  9
$SHADEDIF
 70
          70
  9
$TILEMODE
 70
           1
  9
$MAXACTVP
 70
          16
  9
$PINSBASE
 10
0.0
 20
0.0
 30
0.0
  9
$PLIMCHECK
 70
           0
  9
$PEXTMIN
 10
1.000000000000E+20
 20
1.000000000000E+20
 30
1.000000000000E+20
  9
$PEXTMAX
 10
-1.000000000000E+20
 20
-1.000000000000E+20
 30
-1.000000000000E+20
  9
$PLIMMIN
 10
0.0
 20
0.0
  9
$PLIMMAX
 10
12.0
 20
9.0
  9
$UNITMODE
 70
           0
  9
$VISRETAIN
 70
           0
  9
$PLINEGEN
 70
           1
  9
$PSLTSCALE
 70
           0
  9
$TREEDEPTH
 70
        3020
  9
$PICKSTYLE
 70
           1
  9
$CMLSTYLE
  2
STANDARD
  9
$CMLJUST
 70
           0
  9
$CMLSCALE
 40
1.0
  9
$SAVEIMAGES
 70
           0
  0
ENDSEC
  0
SECTION
  2
CLASSES
  0
CLASS
  1
LWPOLYLINE
  2
AcDbPolyline
  3
"AutoCAD"
 90
        0
280
           0
281
           1
  0
CLASS
  1
IMAGE
  2
AcDbRasterImage
  3
ISM
 90
      127
280
           0
281
           1
  0
CLASS
  1
OLE2FRAME
  2
AcDbOle2Frame
  3
""
 90
        0
280
           0
281
           1
  0
CLASS
  1
HATCH
  2
AcDbHatch
  3
"ACAD_SEDONA"
 90
        0
280
           0
281
           1
  0
CLASS
  1
DICTIONARYVAR
  2
AcDbDictionaryVar
  3
"AutoCAD"
 90
        0
280
           0
281
           0
  0
CLASS
  1
RASTERVARIABLES
  2
AcDbRasterVariables
  3
ISM
 90
        0
280
           0
281
           0
  0
CLASS
  1
IMAGEDEF
  2
AcDbRasterImageDef
  3
ISM
 90
        0
280
           0
281
           0
  0
CLASS
  1
IMAGEDEF_REACTOR
  2
AcDbRasterImageDefReactor
  3
ISM
 90
        1
280
           0
281
           0
  0
CLASS
  1
IDBUFFER
  2
AcDbIdBuffer
  3
"Acad"
 90
        0
280
           0
281
           0
  0
CLASS
  1
SPATIAL_FILTER
  2
AcDbSpatialFilter
  3
"Acad"
 90
        0
280
           0
281
           0
  0
CLASS
  1
XRECORD
  2
AcDbXrecord
  3
"<Built In>"
 90
        0
280
           0
281
           0
  0
ENDSEC
  0
SECTION
  2
TABLES
  0
TABLE
  2
VPORT
  5
7
100
AcDbSymbolTable
 70
           1
  0
VPORT
  5
15
100
AcDbSymbolTableRecord
100
AcDbViewportTableRecord
  2
*ACTIVE
 70
           0
 10
0.0
 20
0.0
 11
1.0
 21
1.0
 12
6.591288
 22
4.579184
 13
0.0
 23
0.0
 14
1.0
 24
1.0
 15
0.0
 25
0.0
 16
0.0
 26
0.0
 36
1.0
 17
0.0
 27
0.0
 37
0.0
 40
9.158369
 41
0.688564
 42
50.0
 43
0.0
 44
0.0
 50
0.0
 51
0.0
 71
           0
 72
         100
 73
           1
 74
           1
 75
           0
 76
           0
 77
           0
 78
           0
  0
ENDTAB
  0
TABLE
  2
LTYPE
  5
4
100
AcDbSymbolTable
 70
           5
  0
LTYPE
  5
11
100
AcDbSymbolTableRecord
100
AcDbLinetypeTableRecord
  2
BYBLOCK
 70
           0
  3

 72
          65
 73
           0
 40
0.0
  0
LTYPE
  5
12
100
AcDbSymbolTableRecord
100
AcDbLinetypeTableRecord
  2
BYLAYER
 70
           0
  3

 72
          65
 73
           0
 40
0.0
  0
LTYPE
  5
13
100
AcDbSymbolTableRecord
100
AcDbLinetypeTableRecord
  2
CONTINUOUS
 70
           0
  3
Solid line
 72
          65
 73
           0
 40
0.0
  0
LTYPE
  5
1D
100
AcDbSymbolTableRecord
100
AcDbLinetypeTableRecord
  2
GESTRICHELT
 70
           0
  3

 72
          65
 73
           2
 40
0.75
 49
0.5
 74
           0
 49
-0.25
 74
           0
  0
LTYPE
  5
1E
100
AcDbSymbolTableRecord
100
AcDbLinetypeTableRecord
  2
STRICHPUNKT
 70
           0
  3

 72
          65
 73
           4
 40
1.0
 49
0.5
 74
           0
 49
-0.25
 74
           0
 49
0.0
 74
           0
 49
-0.25
 74
           0
  0
ENDTAB
  0
TABLE
  2
LAYER
  5
2
100
AcDbSymbolTable
 70
           3
  0
LAYER
  5
14
100
AcDbSymbolTableRecord
100
AcDbLayerTableRecord
  2
0
 70
           0
 62
           7
  6
CONTINUOUS
  0
LAYER
  5
20
100
AcDbSymbolTableRecord
100
AcDbLayerTableRecord
  2
FREI
 70
           0
 62
           7
  6
CONTINUOUS
  0
LAYER
  5
21
100
AcDbSymbolTableRecord
100
AcDbLayerTableRecord
  2
Frei
 70
           0
 62
           7
  6
CONTINUOUS
  0
ENDTAB
  0
TABLE
  2
STYLE
  5
3
100
AcDbSymbolTable
 70
           2
  0
STYLE
  5
17
100
AcDbSymbolTableRecord
100
AcDbTextStyleTableRecord
  2
TXT
 70
           0
 40
3.5
 41
1.0
 50
0.0
 71
           0
 42
3.5
  3
TXT
  4

  0
STYLE
  5
1F
100
AcDbSymbolTableRecord
100
AcDbTextStyleTableRecord
  2
GOTHICG
 70
           0
 40
3.5
 41
1.0
 50
0.0
 71
           0
 42
3.5
  3
GOTHICG
  4

  0
ENDTAB
  0
TABLE
  2
VIEW
  5
5
100
AcDbSymbolTable
 70
           0
  0
ENDTAB
  0
TABLE
  2
UCS
  5
6
100
AcDbSymbolTable
 70
           0
  0
ENDTAB
  0
TABLE
  2
APPID
  5
8
100
AcDbSymbolTable
 70
           2
  0
APPID
  5
16
100
AcDbSymbolTableRecord
100
AcDbRegAppTableRecord
  2
ACAD
 70
           0
  0
APPID
  5
22
100
AcDbSymbolTableRecord
100
AcDbRegAppTableRecord
  2
MegaCADPntStyle
 70
           0
  0
ENDTAB
  0
TABLE
  2
DIMSTYLE
  5
9
100
AcDbSymbolTable
 70
           1
  0
DIMSTYLE
105
18
100
AcDbSymbolTableRecord
100
AcDbDimStyleTableRecord
  2
STANDARD
 70
           0
  3

  4

  5

  6

  7

 40
1.0
 41
0.18
 42
0.0625
 43
0.38
 44
0.18
 45
0.0
 46
0.0
 47
0.0
 48
0.0
140
0.18
141
0.09
142
0.0
143
25.4
144
1.0
145
0.0
146
1.0
147
0.09
 71
           0
 72
           0
 73
           1
 74
           1
 75
           0
 76
           0
 77
           0
 78
           0
170
           0
171
           2
172
           0
173
           0
174
           0
175
           0
176
           0
177
           0
178
           0
270
           2
271
           4
272
           4
273
           2
274
           2
340
17
275
           0
280
           0
281
           0
282
           0
283
           1
284
           0
285
           0
286
           0
287
           0
288
           0
  0
ENDTAB
  0
TABLE
  2
BLOCK_RECORD
  5
1
100
AcDbSymbolTable
 70
           3
  0
BLOCK_RECORD
  5
A
100
AcDbSymbolTableRecord
100
AcDbBlockTableRecord
  2
*MODEL_SPACE
  0
BLOCK_RECORD
  5
B
100
AcDbSymbolTableRecord
100
AcDbBlockTableRecord
  2
*PAPER_SPACE
  0
BLOCK_RECORD
  5
23
100
AcDbSymbolTableRecord
100
AcDbBlockTableRecord
  2
ELIPPSE
  0
BLOCK_RECORD
  5
24
100
AcDbSymbolTableRecord
100
AcDbBlockTableRecord
  2
MAK1
  0
BLOCK_RECORD
  5
25
100
AcDbSymbolTableRecord
100
AcDbBlockTableRecord
  2
MAK2
  0
ENDTAB
  0
ENDSEC
  0
SECTION
  2
BLOCKS
  0
BLOCK
  5
D
100
AcDbEntity
  8
0
100
AcDbBlockBegin
  2
*MODEL_SPACE
 70
           0
 10
0.0
 20
0.0
 30
0.0
  3
*MODEL_SPACE
  1

  0
ENDBLK
  5
E
100
AcDbEntity
  8
0
100
AcDbBlockEnd
  0
BLOCK
  5
F
100
AcDbEntity
 67
           1
  8
0
100
AcDbBlockBegin
  2
*PAPER_SPACE
 70
           0
 10
0.0
 20
0.0
 30
0.0
  3
*PAPER_SPACE
  1

  0
ENDBLK
  5
10
100
AcDbEntity
 67
           1
  8
0
100
AcDbBlockEnd
  0
BLOCK
  5
348
100
AcDbEntity
  8
0
100
AcDbBlockBegin
  2
ELIPPSE
 70
          64
 10
0.0
 20
0.0
 30
0.0
  3
ELIPPSE
  1

  0
CIRCLE
  5
349
100
AcDbEntity
  8
0
  6
BYBLOCK
 62
           0
100
AcDbCircle
 10
0.0
 20
0.0
 30
0.0
 40
1.0
  0
ENDBLK
  5
34A
100
AcDbEntity
  8
0
  6
BYBLOCK
 62
           0
100
AcDbBlockEnd
  0
BLOCK
  5
34B
100
AcDbEntity
  8
0
100
AcDbBlockBegin
  2
MAK1
 70
          64
 10
0.0
 20
0.0
 30
0.0
  3
MAK1
  1

  0
LINE
  5
34C
100
AcDbEntity
  8
Frei
  6
CONTINUOUS
 62
           2
100
AcDbLine
 10
191.903508353413
 20
615.10691689356
 30
0.0
 11
192.293358480827
 21
615.49676702098
 31
0.0
  0
LINE
  5
34D
100
AcDbEntity
  8
Frei
  6
CONTINUOUS
 62
           2
100
AcDbLine
 10
191.903508353411
 20
614.04625672178
 30
0.0
 11
193.35401865261
 21
615.496767020979
 31
0.0
  0
LINE
  5
34E
100
AcDbEntity
  8
Frei
  6
CONTINUOUS
 62
           2
100
AcDbLine
 10
191.903508353413
 20
612.985596550001
 30
0.0
 11
193.903508353411
 21
614.985596550002
 31
0.0
  0
LINE
  5
34F
100
AcDbEntity
  8
Frei
  6
CONTINUOUS
 62
           2
100
AcDbLine
 10
191.903508353411
 20
611.924936378221
 30
0.0
 11
193.903508353411
 21
613.924936378221
 31
0.0
  0
LINE
  5
350
100
AcDbEntity
  8
Frei
  6
CONTINUOUS
 62
           2
100
AcDbLine
 10
191.903508353411
 20
610.864276206443
 30
0.0
 11
193.903508353411
 21
612.864276206441
 31
0.0
  0
LINE
  5
351
100
AcDbEntity
  8
Frei
  6
CONTINUOUS
 62
           2
100
AcDbLine
 10
191.903508353411
 20
609.803616034663
 30
0.0
 11
193.903508353413
 21
611.803616034661
 31
0.0
  0
LINE
  5
352
100
AcDbEntity
  8
Frei
  6
CONTINUOUS
 62
           2
100
AcDbLine
 10
191.903508353411
 20
608.742955862882
 30
0.0
 11
193.903508353411
 21
610.742955862883
 31
0.0
  0
LINE
  5
353
100
AcDbEntity
  8
Frei
  6
CONTINUOUS
 62
           2
100
AcDbLine
 10
191.903508353411
 20
607.682295691102
 30
0.0
 11
193.903508353413
 21
609.682295691103
 31
0.0
  0
LINE
  5
354
100
AcDbEntity
  8
Frei
  6
CONTINUOUS
 62
           2
100
AcDbLine
 10
191.903508353411
 20
606.621635519322
 30
0.0
 11
193.903508353411
 21
608.621635519322
 31
0.0
  0
LINE
  5
355
100
AcDbEntity
  8
Frei
  6
CONTINUOUS
 62
           2
100
AcDbLine
 10
191.903508353409
 20
605.560975347544
 30
0.0
 11
193.903508353411
 21
607.560975347543
 31
0.0
  0
LINE
  5
356
100
AcDbEntity
  8
Frei
  6
CONTINUOUS
 62
           2
100
AcDbLine
 10
191.903508353411
 20
604.500315175764
 30
0.0
 11
193.903508353411
 21
606.500315175764
 31
0.0
  0
LINE
  5
357
100
AcDbEntity
  8
Frei
  6
CONTINUOUS
 62
           2
100
AcDbLine
 10
191.903508353409
 20
603.439655003983
 30
0.0
 11
193.903508353411
 21
605.439655003984
 31
0.0
  0
LINE
  5
358
100
AcDbEntity
  8
Frei
  6
CONTINUOUS
 62
           2
100
AcDbLine
 10
191.903508353411
 20
602.378994832204
 30
0.0
 11
193.903508353411
 21
604.378994832204
 31
0.0
  0
LINE
  5
359
100
AcDbEntity
  8
Frei
  6
CONTINUOUS
 62
           2
100
AcDbLine
 10
191.903508353411
 20
601.318334660425
 30
0.0
 11
193.903508353411
 21
603.318334660423
 31
0.0
  0
LINE
  5
35A
100
AcDbEntity
  8
Frei
  6
CONTINUOUS
 62
           2
100
AcDbLine
 10
191.903508353413
 20
600.257674488645
 30
0.0
 11
193.903508353409
 21
602.257674488643
 31
0.0
  0
LINE
  5
35B
100
AcDbEntity
  8
Frei
  6
CONTINUOUS
 62
           2
100
AcDbLine
 10
191.903508353411
 20
599.197014316865
 30
0.0
 11
193.903508353411
 21
601.197014316864
 31
0.0
  0
LINE
  5
35C
100
AcDbEntity
  8
Frei
  6
CONTINUOUS
 62
           2
100
AcDbLine
 10
191.903508353411
 20
598.136354145084
 30
0.0
 11
193.903508353411
 21
600.136354145085
 31
0.0
  0
LINE
  5
35D
100
AcDbEntity
  8
Frei
  6
CONTINUOUS
 62
           2
100
AcDbLine
 10
191.903508353413
 20
597.075693973305
 30
0.0
 11
193.903508353413
 21
599.075693973305
 31
0.0
  0
LINE
  5
35E
100
AcDbEntity
  8
Frei
  6
CONTINUOUS
 62
           2
100
AcDbLine
 10
191.903508353411
 20
596.015033801525
 30
0.0
 11
193.903508353411
 21
598.015033801524
 31
0.0
  0
LINE
  5
35F
100
AcDbEntity
  8
Frei
  6
CONTINUOUS
 62
           2
100
AcDbLine
 10
192.445901744644
 20
595.496767020979
 30
0.0
 11
193.903508353411
 21
596.954373629744
 31
0.0
  0
LINE
  5
360
100
AcDbEntity
  8
Frei
  6
CONTINUOUS
 62
           2
100
AcDbLine
 10
193.506561916423
 20
595.496767020979
 30
0.0
 11
193.903508353411
 21
595.893713457964
 31
0.0
  0
LINE
  5
361
100
AcDbEntity
  8
Frei
  6
CONTINUOUS
 62
           2
100
AcDbLine
 10
192.573740611428
 20
595.49676702098
 30
0.0
 11
191.903508353409
 21
596.166999278998
 31
0.0
  0
LINE
  5
362
100
AcDbEntity
  8
Frei
  6
CONTINUOUS
 62
           2
100
AcDbLine
 10
193.634400783209
 20
595.496767020979
 30
0.0
 11
191.903508353411
 21
597.227659450778
 31
0.0
  0
LINE
  5
363
100
AcDbEntity
  8
Frei
  6
CONTINUOUS
 62
           2
100
AcDbLine
 10
193.903508353411
 20
596.288319622557
 30
0.0
 11
191.903508353411
 21
598.288319622557
 31
0.0
  0
LINE
  5
364
100
AcDbEntity
  8
Frei
  6
CONTINUOUS
 62
           2
100
AcDbLine
 10
193.903508353411
 20
597.348979794337
 30
0.0
 11
191.903508353411
 21
599.348979794337
 31
0.0
  0
LINE
  5
365
100
AcDbEntity
  8
Frei
  6
CONTINUOUS
 62
           2
100
AcDbLine
 10
193.903508353411
 20
598.409639966116
 30
0.0
 11
191.903508353411
 21
600.409639966117
 31
0.0
  0
LINE
  5
366
100
AcDbEntity
  8
Frei
  6
CONTINUOUS
 62
           2
100
AcDbLine
 10
193.903508353411
 20
599.470300137896
 30
0.0
 11
191.903508353411
 21
601.470300137896
 31
0.0
  0
LINE
  5
367
100
AcDbEntity
  8
Frei
  6
CONTINUOUS
 62
           2
100
AcDbLine
 10
193.903508353411
 20
600.530960309677
 30
0.0
 11
191.903508353411
 21
602.530960309676
 31
0.0
  0
LINE
  5
368
100
AcDbEntity
  8
Frei
  6
CONTINUOUS
 62
           2
100
AcDbLine
 10
193.903508353411
 20
601.591620481456
 30
0.0
 11
191.903508353413
 21
603.591620481456
 31
0.0
  0
LINE
  5
369
100
AcDbEntity
  8
Frei
  6
CONTINUOUS
 62
           2
100
AcDbLine
 10
193.903508353411
 20
602.652280653236
 30
0.0
 11
191.903508353411
 21
604.652280653236
 31
0.0
  0
LINE
  5
36A
100
AcDbEntity
  8
Frei
  6
CONTINUOUS
 62
           2
100
AcDbLine
 10
193.903508353411
 20
603.712940825016
 30
0.0
 11
191.903508353413
 21
605.712940825016
 31
0.0
  0
LINE
  5
36B
100
AcDbEntity
  8
Frei
  6
CONTINUOUS
 62
           2
100
AcDbLine
 10
193.903508353411
 20
604.773600996795
 30
0.0
 11
191.903508353411
 21
606.773600996795
 31
0.0
  0
LINE
  5
36C
100
AcDbEntity
  8
Frei
  6
CONTINUOUS
 62
           2
100
AcDbLine
 10
193.903508353411
 20
605.834261168576
 30
0.0
 11
191.903508353411
 21
607.834261168575
 31
0.0
  0
LINE
  5
36D
100
AcDbEntity
  8
Frei
  6
CONTINUOUS
 62
           2
100
AcDbLine
 10
193.903508353413
 20
606.894921340356
 30
0.0
 11
191.903508353411
 21
608.894921340355
 31
0.0
  0
LINE
  5
36E
100
AcDbEntity
  8
Frei
  6
CONTINUOUS
 62
           2
100
AcDbLine
 10
193.903508353411
 20
607.955581512136
 30
0.0
 11
191.903508353411
 21
609.955581512135
 31
0.0
  0
LINE
  5
36F
100
AcDbEntity
  8
Frei
  6
CONTINUOUS
 62
           2
100
AcDbLine
 10
193.903508353411
 20
609.016241683914
 30
0.0
 11
191.903508353411
 21
611.016241683914
 31
0.0
  0
LINE
  5
370
100
AcDbEntity
  8
Frei
  6
CONTINUOUS
 62
           2
100
AcDbLine
 10
193.903508353409
 20
610.076901855694
 30
0.0
 11
191.903508353411
 21
612.076901855694
 31
0.0
  0
LINE
  5
371
100
AcDbEntity
  8
Frei
  6
CONTINUOUS
 62
           2
100
AcDbLine
 10
193.903508353411
 20
611.137562027475
 30
0.0
 11
191.903508353411
 21
613.137562027474
 31
0.0
  0
LINE
  5
372
100
AcDbEntity
  8
Frei
  6
CONTINUOUS
 62
           2
100
AcDbLine
 10
193.903508353411
 20
612.198222199254
 30
0.0
 11
191.903508353413
 21
614.198222199254
 31
0.0
  0
LINE
  5
373
100
AcDbEntity
  8
Frei
  6
CONTINUOUS
 62
           2
100
AcDbLine
 10
193.903508353411
 20
613.258882371033
 30
0.0
 11
191.903508353411
 21
615.258882371034
 31
0.0
  0
LINE
  5
374
100
AcDbEntity
  8
Frei
  6
CONTINUOUS
 62
           2
100
AcDbLine
 10
193.903508353411
 20
614.319542542813
 30
0.0
 11
192.726283875245
 21
615.496767020979
 31
0.0
  0
LINE
  5
375
100
AcDbEntity
  8
Frei
  6
CONTINUOUS
 62
           2
100
AcDbLine
 10
193.903508353411
 20
615.380202714593
 30
0.0
 11
193.786944047022
 21
615.496767020979
 31
0.0
  0
ENDBLK
  5
376
100
AcDbEntity
  8
0
  6
BYBLOCK
 62
           0
100
AcDbBlockEnd
  0
BLOCK
  5
377
100
AcDbEntity
  8
0
100
AcDbBlockBegin
  2
MAK2
 70
          64
 10
0.0
 20
0.0
 30
0.0
  3
MAK2
  1

  0
LINE
  5
378
100
AcDbEntity
  8
Frei
  6
CONTINUOUS
 62
           2
100
AcDbLine
 10
-32.096491646591
 20
614.906213139103
 30
0.0
 11
-31.505937764714
 21
615.496767020979
 31
0.0
  0
LINE
  5
379
100
AcDbEntity
  8
Frei
  6
CONTINUOUS
 62
           2
100
AcDbLine
 10
-32.096491646591
 20
613.845552967322
 30
0.0
 11
-30.445277592933
 21
615.496767020978
 31
0.0
  0
LINE
  5
37A
100
AcDbEntity
  8
Frei
  6
CONTINUOUS
 62
           2
100
AcDbLine
 10
-32.096491646589
 20
612.784892795542
 30
0.0
 11
-30.096491646591
 21
614.784892795543
 31
0.0
  0
LINE
  5
37B
100
AcDbEntity
  8
Frei
  6
CONTINUOUS
 62
           2
100
AcDbLine
 10
-32.096491646591
 20
611.724232623762
 30
0.0
 11
-30.096491646593
 21
613.724232623763
 31
0.0
  0
LINE
  5
37C
100
AcDbEntity
  8
Frei
  6
CONTINUOUS
 62
           2
100
AcDbLine
 10
-32.096491646589
 20
610.663572451982
 30
0.0
 11
-30.096491646591
 21
612.663572451983
 31
0.0
  0
LINE
  5
37D
100
AcDbEntity
  8
Frei
  6
CONTINUOUS
 62
           2
100
AcDbLine
 10
-32.096491646591
 20
609.602912280204
 30
0.0
 11
-30.096491646591
 21
611.602912280205
 31
0.0
  0
LINE
  5
37E
100
AcDbEntity
  8
Frei
  6
CONTINUOUS
 62
           2
100
AcDbLine
 10
-32.096491646589
 20
608.542252108423
 30
0.0
 11
-30.096491646589
 21
610.542252108425
 31
0.0
  0
LINE
  5
37F
100
AcDbEntity
  8
Frei
  6
CONTINUOUS
 62
           2
100
AcDbLine
 10
-32.096491646591
 20
607.481591936644
 30
0.0
 11
-30.096491646589
 21
609.481591936645
 31
0.0
  0
LINE
  5
380
100
AcDbEntity
  8
Frei
  6
CONTINUOUS
 62
           2
100
AcDbLine
 10
-32.096491646589
 20
606.420931764866
 30
0.0
 11
-30.096491646591
 21
608.420931764865
 31
0.0
  0
LINE
  5
381
100
AcDbEntity
  8
Frei
  6
CONTINUOUS
 62
           2
100
AcDbLine
 10
-32.096491646591
 20
605.360271593086
 30
0.0
 11
-30.096491646589
 21
607.360271593085
 31
0.0
  0
LINE
  5
382
100
AcDbEntity
  8
Frei
  6
CONTINUOUS
 62
           2
100
AcDbLine
 10
-32.096491646591
 20
604.299611421306
 30
0.0
 11
-30.096491646591
 21
606.299611421306
 31
0.0
  0
LINE
  5
383
100
AcDbEntity
  8
Frei
  6
CONTINUOUS
 62
           2
100
AcDbLine
 10
-32.096491646591
 20
603.238951249525
 30
0.0
 11
-30.096491646589
 21
605.238951249526
 31
0.0
  0
LINE
  5
384
100
AcDbEntity
  8
Frei
  6
CONTINUOUS
 62
           2
100
AcDbLine
 10
-32.096491646591
 20
602.178291077745
 30
0.0
 11
-30.096491646591
 21
604.178291077746
 31
0.0
  0
LINE
  5
385
100
AcDbEntity
  8
Frei
  6
CONTINUOUS
 62
           2
100
AcDbLine
 10
-32.096491646591
 20
601.117630905967
 30
0.0
 11
-30.096491646591
 21
603.117630905966
 31
0.0
  0
LINE
  5
386
100
AcDbEntity
  8
Frei
  6
CONTINUOUS
 62
           2
100
AcDbLine
 10
-32.096491646589
 20
600.056970734187
 30
0.0
 11
-30.096491646591
 21
602.056970734185
 31
0.0
  0
LINE
  5
387
100
AcDbEntity
  8
Frei
  6
CONTINUOUS
 62
           2
100
AcDbLine
 10
-32.096491646591
 20
598.996310562406
 30
0.0
 11
-30.096491646591
 21
600.996310562406
 31
0.0
  0
LINE
  5
388
100
AcDbEntity
  8
Frei
  6
CONTINUOUS
 62
           2
100
AcDbLine
 10
-32.096491646589
 20
597.935650390627
 30
0.0
 11
-30.096491646591
 21
599.935650390627
 31
0.0
  0
LINE
  5
389
100
AcDbEntity
  8
Frei
  6
CONTINUOUS
 62
           2
100
AcDbLine
 10
-32.096491646591
 20
596.874990218847
 30
0.0
 11
-30.096491646591
 21
598.874990218847
 31
0.0
  0
LINE
  5
38A
100
AcDbEntity
  8
Frei
  6
CONTINUOUS
 62
           2
100
AcDbLine
 10
-32.096491646589
 20
595.814330047067
 30
0.0
 11
-30.096491646589
 21
597.814330047067
 31
0.0
  0
LINE
  5
38B
100
AcDbEntity
  8
Frei
  6
CONTINUOUS
 62
           2
100
AcDbLine
 10
-31.353394500899
 20
595.49676702098
 30
0.0
 11
-30.096491646589
 21
596.753669875286
 31
0.0
  0
LINE
  5
38C
100
AcDbEntity
  8
Frei
  6
CONTINUOUS
 62
           2
100
AcDbLine
 10
-30.292734329118
 20
595.496767020979
 30
0.0
 11
-30.096491646591
 21
595.693009703506
 31
0.0
  0
LINE
  5
38D
100
AcDbEntity
  8
Frei
  6
CONTINUOUS
 62
           2
100
AcDbLine
 10
-31.225555634113
 20
595.49676702098
 30
0.0
 11
-32.096491646589
 21
596.367703033456
 31
0.0
  0
LINE
  5
38E
100
AcDbEntity
  8
Frei
  6
CONTINUOUS
 62
           2
100
AcDbLine
 10
-30.164895462332
 20
595.496767020979
 30
0.0
 11
-32.096491646591
 21
597.428363205234
 31
0.0
  0
LINE
  5
38F
100
AcDbEntity
  8
Frei
  6
CONTINUOUS
 62
           2
100
AcDbLine
 10
-30.096491646591
 20
596.489023377015
 30
0.0
 11
-32.096491646591
 21
598.489023377014
 31
0.0
  0
LINE
  5
390
100
AcDbEntity
  8
Frei
  6
CONTINUOUS
 62
           2
100
AcDbLine
 10
-30.096491646591
 20
597.549683548795
 30
0.0
 11
-32.096491646591
 21
599.549683548795
 31
0.0
  0
LINE
  5
391
100
AcDbEntity
  8
Frei
  6
CONTINUOUS
 62
           2
100
AcDbLine
 10
-30.096491646591
 20
598.610343720576
 30
0.0
 11
-32.096491646591
 21
600.610343720574
 31
0.0
  0
LINE
  5
392
100
AcDbEntity
  8
Frei
  6
CONTINUOUS
 62
           2
100
AcDbLine
 10
-30.096491646589
 20
599.671003892355
 30
0.0
 11
-32.096491646589
 21
601.671003892354
 31
0.0
  0
LINE
  5
393
100
AcDbEntity
  8
Frei
  6
CONTINUOUS
 62
           2
100
AcDbLine
 10
-30.096491646591
 20
600.731664064134
 30
0.0
 11
-32.096491646591
 21
602.731664064133
 31
0.0
  0
LINE
  5
394
100
AcDbEntity
  8
Frei
  6
CONTINUOUS
 62
           2
100
AcDbLine
 10
-30.096491646589
 20
601.792324235914
 30
0.0
 11
-32.096491646589
 21
603.792324235913
 31
0.0
  0
LINE
  5
395
100
AcDbEntity
  8
Frei
  6
CONTINUOUS
 62
           2
100
AcDbLine
 10
-30.096491646591
 20
602.852984407694
 30
0.0
 11
-32.096491646593
 21
604.852984407694
 31
0.0
  0
LINE
  5
396
100
AcDbEntity
  8
Frei
  6
CONTINUOUS
 62
           2
100
AcDbLine
 10
-30.096491646589
 20
603.913644579473
 30
0.0
 11
-32.096491646591
 21
605.913644579474
 31
0.0
  0
LINE
  5
397
100
AcDbEntity
  8
Frei
  6
CONTINUOUS
 62
           2
100
AcDbLine
 10
-30.096491646589
 20
604.974304751252
 30
0.0
 11
-32.096491646591
 21
606.974304751253
 31
0.0
  0
LINE
  5
398
100
AcDbEntity
  8
Frei
  6
CONTINUOUS
 62
           2
100
AcDbLine
 10
-30.096491646591
 20
606.034964923033
 30
0.0
 11
-32.096491646591
 21
608.034964923033
 31
0.0
  0
LINE
  5
399
100
AcDbEntity
  8
Frei
  6
CONTINUOUS
 62
           2
100
AcDbLine
 10
-30.096491646591
 20
607.095625094813
 30
0.0
 11
-32.096491646591
 21
609.095625094812
 31
0.0
  0
LINE
  5
39A
100
AcDbEntity
  8
Frei
  6
CONTINUOUS
 62
           2
100
AcDbLine
 10
-30.096491646591
 20
608.156285266593
 30
0.0
 11
-32.096491646591
 21
610.156285266593
 31
0.0
  0
LINE
  5
39B
100
AcDbEntity
  8
Frei
  6
CONTINUOUS
 62
           2
100
AcDbLine
 10
-30.096491646591
 20
609.216945438372
 30
0.0
 11
-32.096491646591
 21
611.216945438373
 31
0.0
  0
LINE
  5
39C
100
AcDbEntity
  8
Frei
  6
CONTINUOUS
 62
           2
100
AcDbLine
 10
-30.096491646589
 20
610.277605610152
 30
0.0
 11
-32.096491646589
 21
612.277605610153
 31
0.0
  0
LINE
  5
39D
100
AcDbEntity
  8
Frei
  6
CONTINUOUS
 62
           2
100
AcDbLine
 10
-30.096491646591
 20
611.338265781932
 30
0.0
 11
-32.096491646591
 21
613.338265781932
 31
0.0
  0
LINE
  5
39E
100
AcDbEntity
  8
Frei
  6
CONTINUOUS
 62
           2
100
AcDbLine
 10
-30.096491646591
 20
612.398925953711
 30
0.0
 11
-32.096491646589
 21
614.398925953711
 31
0.0
  0
LINE
  5
39F
100
AcDbEntity
  8
Frei
  6
CONTINUOUS
 62
           2
100
AcDbLine
 10
-30.096491646591
 20
613.459586125491
 30
0.0
 11
-32.096491646591
 21
615.459586125492
 31
0.0
  0
LINE
  5
3A0
100
AcDbEntity
  8
Frei
  6
CONTINUOUS
 62
           2
100
AcDbLine
 10
-30.096491646591
 20
614.52024629727
 30
0.0
 11
-31.073012370298
 21
615.49676702098
 31
0.0
  0
ENDBLK
  5
3A1
100
AcDbEntity
  8
0
  6
BYBLOCK
 62
           0
100
AcDbBlockEnd
  0
ENDSEC
  0
SECTION
  2
ENTITIES
  0
INSERT
  5
26
100
AcDbEntity
  8
FREI
  6
CONTINUOUS
 62
           7
100
AcDbBlockReference
  2
MAK1
 10
-14457.695922204441
 20
-5579.60460924272
 30
0.0
 50
354.103999999999
  0
INSERT
  5
27
100
AcDbEntity
  8
FREI
  6
CONTINUOUS
 62
           7
100
AcDbBlockReference
  2
MAK2
 10
-14457.695922204441
 20
-5579.60460924272
 30
0.0
 50
354.103999999999
  0
LINE
  5
28
100
AcDbEntity
  8
FREI
  6
STRICHPUNKT
 62
          15
100
AcDbLine
 10
-14642.243393986835
 20
-4797.9731632499
 30
0.0
 11
-14642.243393986835
 21
-4892.9731632499
 31
0.0
  0
LINE
  5
29
100
AcDbEntity
  8
FREI
  6
STRICHPUNKT
 62
          15
100
AcDbLine
 10
-14642.243393986835
 20
-4892.9731632499
 30
0.0
 11
-14474.743393986835
 21
-5183.091673517688
 31
0.0
  0
LINE
  5
2A
100
AcDbEntity
  8
FREI
  6
CONTINUOUS
 62
          15
100
AcDbLine
 10
-14376.469820069877
 20
-5034.306496583234
 30
0.0
 11
-14336.612342083217
 21
-5103.341673517688
 31
0.0
  0
LINE
  5
2B
100
AcDbEntity
  8
FREI
  6
GESTRICHELT
 62
          15
100
AcDbLine
 10
-14431.982307257324
 20
-4938.156048320059
 30
0.0
 11
-14376.469820069877
 21
-5034.306496583234
 31
0.0
  0
LINE
  5
2C
100
AcDbEntity
  8
FREI
  6
CONTINUOUS
 62
          15
100
AcDbLine
 10
-14458.068658115344
 20
-4892.9731632499
 30
0.0
 11
-14431.982307257324
 21
-4938.156048320059
 31
0.0
  0
LINE
  5
2D
100
AcDbEntity
  8
FREI
  6
CONTINUOUS
 62
          15
100
AcDbLine
 10
-14642.243393986835
 20
-5211.9731632499
 30
0.0
 11
-14612.874445890453
 21
-5262.841673517688
 31
0.0
  0
LINE
  5
2E
100
AcDbEntity
  8
FREI
  6
STRICHPUNKT
 62
          15
100
AcDbLine
 10
-14642.243393986835
 20
-4892.9731632499
 30
0.0
 11
-14809.743393986835
 21
-5183.091673517688
 31
0.0
  0
LINE
  5
2F
100
AcDbEntity
  8
FREI
  6
CONTINUOUS
 62
          15
100
AcDbLine
 10
-14826.418129858326
 20
-4892.9731632499
 30
0.0
 11
-14947.874445890453
 21
-5103.341673517688
 31
0.0
  0
LINE
  5
30
100
AcDbEntity
  8
FREI
  6
CONTINUOUS
 62
          15
100
AcDbLine
 10
-14642.243393986835
 20
-5211.9731632499
 30
0.0
 11
-14671.612342083217
 21
-5262.841673517688
 31
0.0
  0
LINE
  5
31
100
AcDbEntity
  8
FREI
  6
CONTINUOUS
 62
          15
100
AcDbLine
 10
-14826.418129858326
 20
-4892.9731632499
 30
0.0
 11
-14458.068658115344
 21
-4892.9731632499
 31
0.0
  0
LINE
  5
32
100
AcDbEntity
  8
FREI
  6
CONTINUOUS
 62
          15
100
AcDbLine
 10
-14458.068658115344
 20
-4892.9731632499
 30
0.0
 11
-14482.743393986835
 21
-4797.9731632499
 31
0.0
  0
LINE
  5
33
100
AcDbEntity
  8
FREI
  6
CONTINUOUS
 62
          15
100
AcDbLine
 10
-14482.743393986835
 20
-4797.9731632499
 30
0.0
 11
-14801.743393986835
 21
-4797.9731632499
 31
0.0
  0
LINE
  5
34
100
AcDbEntity
  8
FREI
  6
CONTINUOUS
 62
          15
100
AcDbLine
 10
-14801.743393986835
 20
-4797.9731632499
 30
0.0
 11
-14826.418129858326
 21
-4892.9731632499
 31
0.0
  0
LINE
  5
35
100
AcDbEntity
  8
FREI
  6
CONTINUOUS
 62
          15
100
AcDbLine
 10
-14642.243393986835
 20
-5034.306496583234
 30
0.0
 11
-14642.243393986835
 21
-5211.9731632499
 31
0.0
  0
LINE
  5
36
100
AcDbEntity
  8
FREI
  6
GESTRICHELT
 62
          15
100
AcDbLine
 10
-14642.243393986835
 20
-5006.554462907438
 30
0.0
 11
-14642.243393986835
 21
-5034.306496583234
 31
0.0
  0
LINE
  5
37
100
AcDbEntity
  8
FREI
  6
GESTRICHELT
 62
          15
100
AcDbLine
 10
-14642.243393986835
 20
-4954.306496583234
 30
0.0
 11
-14642.243393986835
 21
-4992.058530259029
 31
0.0
  0
LINE
  5
38
100
AcDbEntity
  8
FREI
  6
CONTINUOUS
 62
          15
100
AcDbLine
 10
-14642.243393986835
 20
-4892.9731632499
 30
0.0
 11
-14642.243393986835
 21
-4954.306496583234
 31
0.0
  0
CIRCLE
  5
39
100
AcDbEntity
  8
FREI
  6
CONTINUOUS
 62
          15
100
AcDbCircle
 10
-14642.243393986835
 20
-4999.306496583234
 30
0.0
 40
7.247966324205
  0
LINE
  5
3A
100
AcDbEntity
  8
FREI
  6
CONTINUOUS
 62
          15
100
AcDbLine
 10
-14947.874445890453
 20
-5103.341673517688
 30
0.0
 11
-14671.612342083217
 21
-5262.841673517688
 31
0.0
  0
LINE
  5
3B
100
AcDbEntity
  8
FREI
  6
CONTINUOUS
 62
          15
100
AcDbLine
 10
-14612.874445890453
 20
-5262.841673517688
 30
0.0
 11
-14336.612342083217
 21
-5103.341673517688
 31
0.0
  0
CIRCLE
  5
3C
100
AcDbEntity
  8
Frei
  6
CONTINUOUS
 62
           7
100
AcDbCircle
 10
-14151.354446986836
 20
-4999.306496583234
 30
0.0
 40
6.25
  0
CIRCLE
  5
3D
100
AcDbEntity
  8
FREI
  6
CONTINUOUS
 62
          15
100
AcDbCircle
 10
-14567.765209261373
 20
-4956.306496583234
 30
0.0
 40
8.25
  0
ARC
  5
3E
100
AcDbEntity
  8
FREI
  6
CONTINUOUS
 62
          15
100
AcDbCircle
 10
-14642.243393986835
 20
-4999.306496583234
 30
0.0
 40
20.25
100
AcDbArc
 50
118.385820858495
 51
327.117816039372
  0
ARC
  5
3F
100
AcDbEntity
  8
FREI
  6
GESTRICHELT
 62
          15
100
AcDbCircle
 10
-14567.765209261373
 20
-4956.306496583234
 30
0.0
 40
18.25
100
AcDbArc
 50
112.839580585602
 51
118.385820858496
  0
ARC
  5
40
100
AcDbEntity
  8
FREI
  6
CONTINUOUS
 62
          15
100
AcDbCircle
 10
-14567.765209261373
 20
-4956.306496583234
 30
0.0
 40
18.25
100
AcDbArc
 50
55.368419414393
 51
112.839580585602
  0
ARC
  5
41
100
AcDbEntity
  8
FREI
  6
GESTRICHELT
 62
          15
100
AcDbCircle
 10
-14567.765209261373
 20
-4956.306496583234
 30
0.0
 40
18.25
100
AcDbArc
 50
292.871848138221
 51
55.368419414393
  0
ARC
  5
42
100
AcDbEntity
  8
FREI
  6
CONTINUOUS
 62
          15
100
AcDbCircle
 10
-14567.765209261373
 20
-4956.306496583234
 30
0.0
 40
18.25
100
AcDbArc
 50
235.336151861781
 51
292.871848138221
  0
ARC
  5
43
100
AcDbEntity
  8
FREI
  6
GESTRICHELT
 62
          15
100
AcDbCircle
 10
-14567.765209261373
 20
-4956.306496583234
 30
0.0
 40
18.25
100
AcDbArc
 50
219.400297985065
 51
235.336151861781
  0
LINE
  5
44
100
AcDbEntity
  8
FREI
  6
GESTRICHELT
 62
          15
100
AcDbLine
 10
-14585.180527844266
 20
-4945.028853660477
 30
0.0
 11
-14576.441377986695
 21
-4940.250762521853
 31
0.0
  0
LINE
  5
45
100
AcDbEntity
  8
FREI
  6
CONTINUOUS
 62
          15
100
AcDbLine
 10
-14651.870375723151
 20
-4981.491230021977
 30
0.0
 11
-14585.180527844266
 21
-4945.028853660477
 31
0.0
  0
LINE
  5
46
100
AcDbEntity
  8
FREI
  6
CONTINUOUS
 62
          15
100
AcDbLine
 10
-14589.558914664349
 20
-4967.847164553637
 30
0.0
 11
-14625.237672341094
 21
-5010.300491821888
 31
0.0
  0
ARC
  5
47
100
AcDbEntity
  8
FREI
  6
CONTINUOUS
 62
          15
100
AcDbCircle
 10
-14585.731188093918
 20
-4971.064074453217
 30
0.0
 40
5.0
100
AcDbArc
 50
98.870845309048
 51
139.955529992632
  0
ARC
  5
48
100
AcDbEntity
  8
FREI
  6
GESTRICHELT
 62
          15
100
AcDbCircle
 10
-14585.731188093918
 20
-4971.064074453217
 30
0.0
 40
5.0
100
AcDbArc
 50
39.400297985059
 51
98.870845309048
  0
LINE
  5
49
100
AcDbEntity
  8
Frei
  6
GESTRICHELT
 62
           7
100
AcDbLine
 10
-14174.262164988879
 20
-4996.940644118969
 30
0.0
 11
-14172.207703125283
 21
-4977.046444299649
 31
0.0
  0
LINE
  5
4A
100
AcDbEntity
  8
Frei
  6
GESTRICHELT
 62
           7
100
AcDbLine
 10
-14172.207703125283
 20
-4977.046444299649
 30
0.0
 11
-14176.186543089147
 21
-4976.635551926929
 31
0.0
  0
LINE
  5
4B
100
AcDbEntity
  8
Frei
  6
CONTINUOUS
 62
           7
100
AcDbLine
 10
-14174.953865970989
 20
-4964.699032035338
 30
0.0
 11
-14204.397281703581
 21
-4961.658428477214
 31
0.0
  0
LINE
  5
4C
100
AcDbEntity
  8
Frei
  6
CONTINUOUS
 62
           7
100
AcDbLine
 10
-14204.397281703581
 20
-4961.658428477214
 30
0.0
 11
-14204.448643250171
 21
-4962.155783472697
 31
0.0
  0
LINE
  5
4D
100
AcDbEntity
  8
Frei
  6
CONTINUOUS
 62
           7
100
AcDbLine
 10
-14204.448643250171
 20
-4962.155783472697
 30
0.0
 11
-14418.466160727758
 21
-4940.054511587283
 31
0.0
  0
LINE
  5
4E
100
AcDbEntity
  8
Frei
  6
CONTINUOUS
 62
           7
100
AcDbLine
 10
-14418.466160727758
 20
-4940.054511587283
 30
0.0
 11
-14418.414799181168
 21
-4939.5571565918
 31
0.0
  0
LINE
  5
4F
100
AcDbEntity
  8
Frei
  6
CONTINUOUS
 62
           7
100
AcDbLine
 10
-14418.414799181168
 20
-4939.5571565918
 30
0.0
 11
-14447.858214913762
 21
-4936.516553033676
 31
0.0
  0
LINE
  5
50
100
AcDbEntity
  8
Frei
  6
CONTINUOUS
 62
           7
100
AcDbLine
 10
-14447.858214913762
 20
-4936.516553033676
 30
0.0
 11
-14449.09089203192
 21
-4948.453072925267
 31
0.0
  0
LINE
  5
51
100
AcDbEntity
  8
Frei
  6
CONTINUOUS
 62
           7
100
AcDbLine
 10
-14449.09089203192
 20
-4948.453072925267
 30
0.0
 11
-14460.530056928028
 21
-4947.271757353699
 31
0.0
  0
LINE
  5
52
100
AcDbEntity
  8
Frei
  6
CONTINUOUS
 62
           7
100
AcDbLine
 10
-14460.530056928028
 20
-4947.271757353699
 30
0.0
 11
-14460.632780021208
 21
-4948.266467344665
 31
0.0
  0
LINE
  5
53
100
AcDbEntity
  8
Frei
  6
CONTINUOUS
 62
           7
100
AcDbLine
 10
-14460.632780021208
 20
-4948.266467344665
 30
0.0
 11
-14477.045494872147
 21
-4946.571536307198
 31
0.0
  0
LINE
  5
54
100
AcDbEntity
  8
Frei
  6
CONTINUOUS
 62
           7
100
AcDbLine
 10
-14477.045494872147
 20
-4946.571536307198
 30
0.0
 11
-14480.948972412982
 21
-4984.370515963907
 31
0.0
  0
LINE
  5
55
100
AcDbEntity
  8
Frei
  6
CONTINUOUS
 62
           7
100
AcDbLine
 10
-14480.948972412982
 20
-4984.370515963907
 30
0.0
 11
-14464.536257562042
 21
-4986.065447001374
 31
0.0
  0
LINE
  5
56
100
AcDbEntity
  8
Frei
  6
CONTINUOUS
 62
           7
100
AcDbLine
 10
-14464.536257562042
 20
-4986.065447001374
 30
0.0
 11
-14464.638980655223
 21
-4987.06015699234
 31
0.0
  0
LINE
  5
57
100
AcDbEntity
  8
Frei
  6
CONTINUOUS
 62
           7
100
AcDbLine
 10
-14464.638980655223
 20
-4987.06015699234
 30
0.0
 11
-14453.199815759113
 21
-4988.241472563908
 31
0.0
  0
LINE
  5
58
100
AcDbEntity
  8
Frei
  6
CONTINUOUS
 62
           7
100
AcDbLine
 10
-14453.199815759113
 20
-4988.241472563908
 30
0.0
 11
-14454.432492877271
 21
-5000.177992455499
 31
0.0
  0
LINE
  5
59
100
AcDbEntity
  8
Frei
  6
GESTRICHELT
 62
           7
100
AcDbLine
 10
-14426.901071940762
 20
-5003.021145478913
 30
0.0
 11
-14424.989077144679
 21
-5003.218596013623
 31
0.0
  0
LINE
  5
5A
100
AcDbEntity
  8
Frei
  6
CONTINUOUS
 62
           7
100
AcDbLine
 10
-14454.432492877271
 20
-5000.177992455499
 30
0.0
 11
-14426.901071940762
 21
-5003.021145478913
 31
0.0
  0
LINE
  5
5B
100
AcDbEntity
  8
Frei
  6
CONTINUOUS
 62
           7
100
AcDbLine
 10
-14424.989077144679
 20
-5003.218596013623
 30
0.0
 11
-14424.937715598089
 21
-5002.72124101814
 31
0.0
  0
LINE
  5
5C
100
AcDbEntity
  8
Frei
  6
GESTRICHELT
 62
           7
100
AcDbLine
 10
-14236.860085380195
 20
-5022.143739185589
 30
0.0
 11
-14210.920198120502
 21
-5024.822512903555
 31
0.0
  0
LINE
  5
5D
100
AcDbEntity
  8
Frei
  6
CONTINUOUS
 62
           7
100
AcDbLine
 10
-14398.997828338397
 20
-5005.400014736108
 30
0.0
 11
-14236.860085380195
 21
-5022.143739185589
 31
0.0
  0
LINE
  5
5E
100
AcDbEntity
  8
Frei
  6
GESTRICHELT
 62
           7
100
AcDbLine
 10
-14424.937715598089
 20
-5002.72124101814
 30
0.0
 11
-14398.997828338397
 21
-5005.400014736108
 31
0.0
  0
LINE
  5
5F
100
AcDbEntity
  8
Frei
  6
CONTINUOUS
 62
           7
100
AcDbLine
 10
-14210.920198120502
 20
-5024.822512903555
 30
0.0
 11
-14210.971559667092
 21
-5025.319867899038
 31
0.0
  0
LINE
  5
60
100
AcDbEntity
  8
Frei
  6
CONTINUOUS
 62
           7
100
AcDbLine
 10
-14209.05956487101
 20
-5025.517318433747
 30
0.0
 11
-14181.528143934498
 21
-5028.360471457161
 31
0.0
  0
LINE
  5
61
100
AcDbEntity
  8
Frei
  6
GESTRICHELT
 62
           7
100
AcDbLine
 10
-14210.971559667092
 20
-5025.319867899038
 30
0.0
 11
-14209.05956487101
 21
-5025.517318433747
 31
0.0
  0
LINE
  5
62
100
AcDbEntity
  8
Frei
  6
GESTRICHELT
 62
           7
100
AcDbLine
 10
-14180.29546681634
 20
-5016.42395156557
 30
0.0
 11
-14176.316626852476
 21
-5016.834843938289
 31
0.0
  0
LINE
  5
63
100
AcDbEntity
  8
Frei
  6
GESTRICHELT
 62
           7
100
AcDbLine
 10
-14176.316626852476
 20
-5016.834843938289
 30
0.0
 11
-14174.262164988879
 21
-4996.940644118969
 31
0.0
  0
LINE
  5
64
100
AcDbEntity
  8
Frei
  6
GESTRICHELT
 62
           7
100
AcDbLine
 10
-14206.82444464782
 20
-4985.161646260087
 30
0.0
 11
-14210.920198120502
 21
-5024.822512903555
 31
0.0
  0
LINE
  5
65
100
AcDbEntity
  8
Frei
  6
CONTINUOUS
 62
           7
100
AcDbLine
 10
-14204.448643250171
 20
-4962.155783472697
 30
0.0
 11
-14206.82444464782
 21
-4985.161646260087
 31
0.0
  0
LINE
  5
66
100
AcDbEntity
  8
Frei
  6
GESTRICHELT
 62
           7
100
AcDbLine
 10
-14420.841943077206
 20
-4963.060189923119
 30
0.0
 11
-14424.937715598089
 21
-5002.72124101814
 31
0.0
  0
LINE
  5
67
100
AcDbEntity
  8
Frei
  6
CONTINUOUS
 62
           7
100
AcDbLine
 10
-14418.466160727758
 20
-4940.054511587283
 30
0.0
 11
-14420.841943077206
 21
-4963.060189923119
 31
0.0
  0
LINE
  5
68
100
AcDbEntity
  8
Frei
  6
CONTINUOUS
 62
           7
100
AcDbLine
 10
-14449.09089203192
 20
-4948.453072925267
 30
0.0
 11
-14453.199815759113
 21
-4988.241472563908
 31
0.0
  0
LINE
  5
69
100
AcDbEntity
  8
Frei
  6
CONTINUOUS
 62
           7
100
AcDbLine
 10
-14460.530056928028
 20
-4947.271757353699
 30
0.0
 11
-14464.638980655223
 21
-4987.06015699234
 31
0.0
  0
LINE
  5
6A
100
AcDbEntity
  8
Frei
  6
GESTRICHELT
 62
           7
100
AcDbLine
 10
-14495.334158901893
 20
-4955.741376706488
 30
0.0
 11
-14518.043325864044
 21
-4953.396214905485
 31
0.0
  0
LINE
  5
6B
100
AcDbEntity
  8
Frei
  6
CONTINUOUS
 62
           7
100
AcDbLine
 10
-14487.127838815819
 20
-4956.588838369205
 30
0.0
 11
-14495.334158901893
 21
-4955.741376706488
 31
0.0
  0
LINE
  5
6C
100
AcDbEntity
  8
Frei
  6
GESTRICHELT
 62
           7
100
AcDbLine
 10
-14496.977728392771
 20
-4971.656736561945
 30
0.0
 11
-14519.686895354922
 21
-4969.311574760941
 31
0.0
  0
LINE
  5
6D
100
AcDbEntity
  8
Frei
  6
CONTINUOUS
 62
           7
100
AcDbLine
 10
-14488.771408306697
 20
-4972.504198224662
 30
0.0
 11
-14496.977728392771
 21
-4971.656736561945
 31
0.0
  0
LINE
  5
6E
100
AcDbEntity
  8
Frei
  6
CONTINUOUS
 62
           7
100
AcDbLine
 10
-14519.053078153689
 20
-4954.216971838538
 30
0.0
 11
-14518.043325864044
 21
-4953.396214905485
 31
0.0
  0
LINE
  5
6F
100
AcDbEntity
  8
Frei
  6
CONTINUOUS
 62
           7
100
AcDbLine
 10
-14520.50760839065
 20
-4968.301786791819
 30
0.0
 11
-14519.686895354922
 21
-4969.311574760941
 31
0.0
  0
LINE
  5
70
100
AcDbEntity
  8
Frei
  6
GESTRICHELT
 62
           7
100
AcDbLine
 10
-14519.053078153689
 20
-4954.216971838538
 30
0.0
 11
-14520.50760839065
 21
-4968.301786791819
 31
0.0
  0
LINE
  5
71
100
AcDbEntity
  8
Frei
  6
CONTINUOUS
 62
           7
100
AcDbLine
 10
-14495.428678528851
 20
-4956.656649157576
 30
0.0
 11
-14487.222358442777
 21
-4957.504110820293
 31
0.0
  0
LINE
  5
72
100
AcDbEntity
  8
Frei
  6
GESTRICHELT
 62
           7
100
AcDbLine
 10
-14519.053078153689
 20
-4954.216971838538
 30
0.0
 11
-14495.428678528851
 21
-4956.656649157576
 31
0.0
  0
LINE
  5
73
100
AcDbEntity
  8
Frei
  6
CONTINUOUS
 62
           7
100
AcDbLine
 10
-14496.883208765812
 20
-4970.741464110857
 30
0.0
 11
-14488.676888679738
 21
-4971.588925773574
 31
0.0
  0
LINE
  5
74
100
AcDbEntity
  8
Frei
  6
GESTRICHELT
 62
           7
100
AcDbLine
 10
-14520.50760839065
 20
-4968.301786791819
 30
0.0
 11
-14496.883208765812
 21
-4970.741464110857
 31
0.0
  0
LINE
  5
75
100
AcDbEntity
  8
Frei
  6
GESTRICHELT
 62
           7
100
AcDbLine
 10
-14518.043325864044
 20
-4953.396214905485
 30
0.0
 11
-14519.686895354922
 21
-4969.311574760941
 31
0.0
  0
LINE
  5
76
100
AcDbEntity
  8
Frei
  6
CONTINUOUS
 62
           7
100
AcDbLine
 10
-14477.970002710766
 20
-4955.523926225893
 30
0.0
 11
-14486.92239262946
 21
-4954.599418387274
 31
0.0
  0
LINE
  5
77
100
AcDbEntity
  8
Frei
  6
CONTINUOUS
 62
           7
100
AcDbLine
 10
-14486.92239262946
 20
-4954.599418387274
 30
0.0
 11
-14488.976854493058
 21
-4974.493618206594
 31
0.0
  0
LINE
  5
78
100
AcDbEntity
  8
Frei
  6
CONTINUOUS
 62
           7
100
AcDbLine
 10
-14488.976854493058
 20
-4974.493618206594
 30
0.0
 11
-14480.024464574362
 21
-4975.418126045212
 31
0.0
  0
LINE
  5
79
100
AcDbEntity
  8
Frei
  6
CONTINUOUS
 62
           7
100
AcDbLine
 10
-14487.408495769312
 20
-4959.306555165224
 30
0.0
 11
-14480.777092513839
 21
-4959.991376128832
 31
0.0
  0
LINE
  5
7A
100
AcDbEntity
  8
Frei
  6
CONTINUOUS
 62
           7
100
AcDbLine
 10
-14488.490751353203
 20
-4969.786481428644
 30
0.0
 11
-14481.859348097731
 21
-4970.471302392252
 31
0.0
  0
LINE
  5
7B
100
AcDbEntity
  8
Frei
  6
CONTINUOUS
 62
           7
100
AcDbLine
 10
-14480.777092513839
 20
-4959.991376128832
 30
0.0
 11
-14481.859348097731
 21
-4970.471302392252
 31
0.0
  0
LINE
  5
7C
100
AcDbEntity
  8
Frei
  6
CONTINUOUS
 62
           7
100
AcDbLine
 10
-14487.408495769312
 20
-4959.306555165224
 30
0.0
 11
-14481.859348097731
 21
-4970.471302392252
 31
0.0
  0
LINE
  5
7D
100
AcDbEntity
  8
Frei
  6
CONTINUOUS
 62
           7
100
AcDbLine
 10
-14480.777092513839
 20
-4959.991376128832
 30
0.0
 11
-14488.490751353203
 21
-4969.786481428644
 31
0.0
  0
CIRCLE
  5
7E
100
AcDbEntity
  8
Frei
  6
CONTINUOUS
 62
           7
100
AcDbCircle
 10
-14438.092560314022
 20
-4978.240430972317
 30
0.0
 40
5.7225
  0
ARC
  5
7F
100
AcDbEntity
  8
Frei
  6
CONTINUOUS
 62
           7
100
AcDbCircle
 10
-14438.092560314022
 20
-4978.240430972317
 30
0.0
 40
6.5785
100
AcDbArc
 50
104.104
 51
14.104
  0
CIRCLE
  5
80
100
AcDbEntity
  8
Frei
  6
CONTINUOUS
 62
           7
100
AcDbCircle
 10
-14191.293798534238
 20
-4986.63659351852
 30
0.0
 40
5.7225
  0
ARC
  5
81
100
AcDbEntity
  8
Frei
  6
CONTINUOUS
 62
           7
100
AcDbCircle
 10
-14191.293798534238
 20
-4986.63659351852
 30
0.0
 40
6.57849
100
AcDbArc
 50
104.104
 51
14.104
  0
LINE
  5
82
100
AcDbEntity
  8
Frei
  6
CONTINUOUS
 62
           7
100
AcDbLine
 10
-14425.985527695006
 20
-4956.791638506258
 30
0.0
 11
-14435.224486573274
 21
-4964.30099865555
 31
0.0
  0
LINE
  5
83
100
AcDbEntity
  8
Frei
  6
CONTINUOUS
 62
           7
100
AcDbLine
 10
-14426.931658197487
 20
-4955.627591233904
 30
0.0
 11
-14436.17062221191
 21
-4963.137001118696
 31
0.0
  0
CIRCLE
  5
84
100
AcDbEntity
  8
Frei
  6
CONTINUOUS
 62
           7
100
AcDbCircle
 10
-14431.078072898996
 20
-4959.964299918276
 30
0.0
 40
6.0
  0
LINE
  5
85
100
AcDbEntity
  8
Frei
  6
CONTINUOUS
 62
           7
100
AcDbLine
 10
-14193.215438223353
 20
-5001.740054189069
 30
0.0
 11
-14202.454700650773
 21
-5009.249433256933
 31
0.0
  0
LINE
  5
86
100
AcDbEntity
  8
Frei
  6
CONTINUOUS
 62
           7
100
AcDbLine
 10
-14194.161872274986
 20
-5000.576025835288
 30
0.0
 11
-14203.401129566251
 21
-5008.085355167652
 31
0.0
  0
CIRCLE
  5
87
100
AcDbEntity
  8
Frei
  6
CONTINUOUS
 62
           7
100
AcDbCircle
 10
-14198.308285949264
 20
-5004.912724572561
 30
0.0
 40
6.0
  0
LINE
  5
88
100
AcDbEntity
  8
Frei
  6
CONTINUOUS
 62
           7
100
AcDbLine
 10
-14495.222325489309
 20
-4949.864978380318
 30
0.0
 11
-14498.706297232666
 21
-4949.505190746455
 31
0.0
  0
LINE
  5
89
100
AcDbEntity
  8
Frei
  6
CONTINUOUS
 62
           7
100
AcDbLine
 10
-14502.190268976025
 20
-4949.145403112592
 30
0.0
 11
-14498.706297232666
 21
-4949.505190746455
 31
0.0
  0
LINE
  5
8A
100
AcDbEntity
  8
Frei
  6
CONTINUOUS
 62
           7
100
AcDbLine
 10
-14505.037095691174
 20
-4976.712397918227
 30
0.0
 11
-14501.553123947815
 21
-4977.07218555209
 31
0.0
  0
LINE
  5
8B
100
AcDbEntity
  8
Frei
  6
CONTINUOUS
 62
           7
100
AcDbLine
 10
-14498.069152204458
 20
-4977.431973185952
 30
0.0
 11
-14501.553123947815
 21
-4977.07218555209
 31
0.0
  0
LINE
  5
8C
100
AcDbEntity
  8
Frei
  6
CONTINUOUS
 62
           7
100
AcDbLine
 10
-14495.934031140865
 20
-4956.756717134625
 30
0.0
 11
-14499.418002884222
 21
-4956.396929500763
 31
0.0
  0
LINE
  5
8D
100
AcDbEntity
  8
Frei
  6
CONTINUOUS
 62
           7
100
AcDbLine
 10
-14502.901974627581
 20
-4956.037141866901
 30
0.0
 11
-14499.418002884222
 21
-4956.396929500763
 31
0.0
  0
LINE
  5
8E
100
AcDbEntity
  8
Frei
  6
CONTINUOUS
 62
           7
100
AcDbLine
 10
-14504.325390039618
 20
-4969.820659163918
 30
0.0
 11
-14500.841418296259
 21
-4970.18044679778
 31
0.0
  0
LINE
  5
8F
100
AcDbEntity
  8
Frei
  6
CONTINUOUS
 62
           7
100
AcDbLine
 10
-14497.3574465529
 20
-4970.540234431643
 30
0.0
 11
-14500.841418296259
 21
-4970.18044679778
 31
0.0
  0
ARC
  5
90
100
AcDbEntity
  8
Frei
  6
CONTINUOUS
 62
           7
100
AcDbCircle
 10
-14544.879027366818
 20
-4958.667453539462
 30
0.0
 40
48.982199999993
100
AcDbArc
 50
354.963436999999
 51
2.235610000001
  0
ARC
  5
91
100
AcDbEntity
  8
Frei
  6
CONTINUOUS
 62
           7
100
AcDbCircle
 10
-14455.380393813653
 20
-4967.909922759083
 30
0.0
 40
48.982200000003
100
AcDbArc
 50
165.972
 51
173.245
  0
ARC
  5
92
100
AcDbEntity
  8
Frei
  6
CONTINUOUS
 62
           7
100
AcDbCircle
 10
-14455.380393813653
 20
-4967.909922759083
 30
0.0
 40
48.982200000003
100
AcDbArc
 50
174.962999999999
 51
182.235999999999
  0
ARC
  5
93
100
AcDbEntity
  8
Frei
  6
CONTINUOUS
 62
           7
100
AcDbCircle
 10
-14544.879027366818
 20
-4958.667453539463
 30
0.0
 40
48.982199999993
100
AcDbArc
 50
345.972389999999
 51
353.244563
  0
LINE
  5
94
100
AcDbEntity
  8
Frei
  6
CONTINUOUS
 62
           7
100
AcDbLine
 10
-14496.085943279384
 20
-4962.967672258581
 30
0.0
 11
-14496.155943647331
 21
-4963.699056634216
 31
0.0
  0
LINE
  5
95
100
AcDbEntity
  8
Frei
  6
CONTINUOUS
 62
           7
100
AcDbLine
 10
-14504.022535355303
 20
-4962.148065242718
 30
0.0
 11
-14504.103477533152
 21
-4962.878319664327
 31
0.0
  0
LINE
  5
96
100
AcDbEntity
  8
Frei
  6
CONTINUOUS
 62
           7
100
AcDbLine
 10
-14504.173477901099
 20
-4963.609704039964
 30
0.0
 11
-14504.103477533152
 21
-4962.878319664327
 31
0.0
  0
LINE
  5
97
100
AcDbEntity
  8
Frei
  6
CONTINUOUS
 62
           7
100
AcDbLine
 10
-14496.236885825179
 20
-4964.429311055827
 30
0.0
 11
-14496.155943647331
 21
-4963.699056634216
 31
0.0
  0
ARC
  5
98
100
AcDbEntity
  8
Frei
  6
CONTINUOUS
 62
           7
100
AcDbCircle
 10
-14507.822064107502
 20
-4952.046434177071
 30
0.0
 40
12.801500000001
100
AcDbArc
 50
338.385499999999
 51
354.103999999999
  0
ARC
  5
99
100
AcDbEntity
  8
Frei
  6
CONTINUOUS
 62
           7
100
AcDbCircle
 10
-14490.302197248218
 20
-4953.855700126171
 30
0.0
 40
12.787200000001
100
AcDbArc
 50
174.104000000001
 51
189.822999999999
  0
ARC
  5
9A
100
AcDbEntity
  8
Frei
  6
CONTINUOUS
 62
           7
100
AcDbCircle
 10
-14492.437317284581
 20
-4974.530946230398
 30
0.0
 40
12.8015
100
AcDbArc
 50
158.385
 51
174.104000000001
  0
ARC
  5
9B
100
AcDbEntity
  8
Frei
  6
CONTINUOUS
 62
           7
100
AcDbCircle
 10
-14509.957184143865
 20
-4972.721680281296
 30
0.0
 40
12.787200000001
100
AcDbArc
 50
354.103999999998
 51
9.822499999999
  0
ARC
  5
9C
100
AcDbEntity
  8
Frei
  6
CONTINUOUS
 62
           7
100
AcDbCircle
 10
-14507.822064107502
 20
-4952.046434177071
 30
0.0
 40
12.787200000001
100
AcDbArc
 50
354.103999999998
 51
9.822499999999
  0
ARC
  5
9D
100
AcDbEntity
  8
Frei
  6
CONTINUOUS
 62
           7
100
AcDbCircle
 10
-14490.302197248218
 20
-4953.855700126171
 30
0.0
 40
12.8015
100
AcDbArc
 50
158.385
 51
174.104000000001
  0
ARC
  5
9E
100
AcDbEntity
  8
Frei
  6
CONTINUOUS
 62
           7
100
AcDbCircle
 10
-14492.437317284579
 20
-4974.530946230398
 30
0.0
 40
12.787200000001
100
AcDbArc
 50
174.104000000001
 51
189.822999999999
  0
ARC
  5
9F
100
AcDbEntity
  8
Frei
  6
CONTINUOUS
 62
           7
100
AcDbCircle
 10
-14509.957184143865
 20
-4972.721680281296
 30
0.0
 40
12.801500000001
100
AcDbArc
 50
338.385499999999
 51
354.103999999999
  0
LINE
  5
A0
100
AcDbEntity
  8
Frei
  6
CONTINUOUS
 62
           7
100
AcDbLine
 10
-14495.08838362915
 20
-4953.361433582104
 30
0.0
 11
-14496.155943647331
 21
-4963.699056634216
 31
0.0
  0
LINE
  5
A1
100
AcDbEntity
  8
Frei
  6
CONTINUOUS
 62
           7
100
AcDbLine
 10
-14503.03591751497
 20
-4952.540696612216
 30
0.0
 11
-14504.103477533152
 21
-4962.878319664327
 31
0.0
  0
LINE
  5
A2
100
AcDbEntity
  8
Frei
  6
CONTINUOUS
 62
           7
100
AcDbLine
 10
-14505.171037551332
 20
-4973.215942716441
 30
0.0
 11
-14504.103477533152
 21
-4962.878319664327
 31
0.0
  0
LINE
  5
A3
100
AcDbEntity
  8
Frei
  6
CONTINUOUS
 62
           7
100
AcDbLine
 10
-14497.223503665513
 20
-4974.036679686329
 30
0.0
 11
-14496.155943647331
 21
-4963.699056634216
 31
0.0
  0
LINE
  5
A4
100
AcDbEntity
  8
Frei
  6
CONTINUOUS
 62
           7
100
AcDbLine
 10
-14504.92526227859
 20
-4970.835999592056
 30
0.0
 11
-14504.843083804046
 21
-4970.040231599283
 31
0.0
  0
LINE
  5
A5
100
AcDbEntity
  8
Frei
  6
CONTINUOUS
 62
           7
100
AcDbLine
 10
-14504.843083804046
 20
-4970.040231599283
 30
0.0
 11
-14503.363871262256
 21
-4955.716407729373
 31
0.0
  0
LINE
  5
A6
100
AcDbEntity
  8
Frei
  6
CONTINUOUS
 62
           7
100
AcDbLine
 10
-14503.363871262256
 20
-4955.716407729373
 30
0.0
 11
-14503.281692787712
 21
-4954.9206397366
 31
0.0
  0
LINE
  5
A7
100
AcDbEntity
  8
Frei
  6
CONTINUOUS
 62
           7
100
AcDbLine
 10
-14503.281692787712
 20
-4954.9206397366
 30
0.0
 11
-14502.829711177721
 21
-4950.54391577635
 31
0.0
  0
LINE
  5
A8
100
AcDbEntity
  8
Frei
  6
CONTINUOUS
 62
           7
100
AcDbLine
 10
-14537.577766734941
 20
-4975.506540538028
 30
0.0
 11
-14535.848069566304
 21
-4975.685165308103
 31
0.0
  0
LINE
  5
A9
100
AcDbEntity
  8
Frei
  6
CONTINUOUS
 62
           7
100
AcDbLine
 10
-14532.560930584548
 20
-4943.854445597191
 30
0.0
 11
-14534.290627753186
 21
-4943.675820827117
 31
0.0
  0
LINE
  5
AA
100
AcDbEntity
  8
Frei
  6
CONTINUOUS
 62
           7
100
AcDbLine
 10
-14535.848069566304
 20
-4975.685165308103
 30
0.0
 11
-14530.813738796372
 21
-4976.205057571651
 31
0.0
  0
LINE
  5
AB
100
AcDbEntity
  8
Frei
  6
CONTINUOUS
 62
           7
100
AcDbLine
 10
-14527.526599814617
 20
-4944.37433786074
 30
0.0
 11
-14532.560930584548
 21
-4943.854445597191
 31
0.0
  0
LINE
  5
AC
100
AcDbEntity
  8
Frei
  6
CONTINUOUS
 62
           7
100
AcDbLine
 10
-14581.421178635019
 20
-4938.808677625759
 30
0.0
 11
-14534.290627753186
 21
-4943.675820827117
 31
0.0
  0
LINE
  5
AD
100
AcDbEntity
  8
Frei
  6
CONTINUOUS
 62
           7
100
AcDbLine
 10
-14584.708317616774
 20
-4970.63939733667
 30
0.0
 11
-14537.577766734941
 21
-4975.506540538028
 31
0.0
  0
LINE
  5
AE
100
AcDbEntity
  8
Frei
  6
CONTINUOUS
 62
           7
100
AcDbLine
 10
-14526.579483249088
 20
-4946.884909550874
 30
0.0
 11
-14529.373551383582
 21
-4973.941021305149
 31
0.0
  0
LINE
  5
AF
100
AcDbEntity
  8
Frei
  6
CONTINUOUS
 62
           7
100
AcDbLine
 10
-14503.900095455065
 20
-4949.226996075375
 30
0.0
 11
-14507.508080409511
 21
-4948.854401672953
 31
0.0
  0
LINE
  5
B0
100
AcDbEntity
  8
Frei
  6
CONTINUOUS
 62
           7
100
AcDbLine
 10
-14505.377243888581
 20
-4975.212723552306
 30
0.0
 11
-14504.92526227859
 21
-4970.835999592056
 31
0.0
  0
LINE
  5
B1
100
AcDbEntity
  8
Frei
  6
CONTINUOUS
 62
           7
100
AcDbLine
 10
-14528.179899394421
 20
-4974.064289016966
 30
0.0
 11
-14525.738829507018
 21
-4974.316376813187
 31
0.0
  0
LINE
  5
B2
100
AcDbEntity
  8
Frei
  6
CONTINUOUS
 62
           7
100
AcDbLine
 10
-14522.780404423438
 20
-4945.668729073366
 30
0.0
 11
-14522.944761372526
 21
-4947.260265058912
 31
0.0
  0
LINE
  5
B3
100
AcDbEntity
  8
Frei
  6
CONTINUOUS
 62
           7
100
AcDbLine
 10
-14522.944761372526
 20
-4947.260265058912
 30
0.0
 11
-14525.38583125993
 21
-4947.00817726269
 31
0.0
  0
LINE
  5
B4
100
AcDbEntity
  8
Frei
  6
CONTINUOUS
 62
           7
100
AcDbLine
 10
-14522.944761372526
 20
-4947.260265058912
 30
0.0
 11
-14525.738829507018
 21
-4974.316376813187
 31
0.0
  0
LINE
  5
B5
100
AcDbEntity
  8
Frei
  6
CONTINUOUS
 62
           7
100
AcDbLine
 10
-14525.738829507018
 20
-4974.316376813187
 30
0.0
 11
-14525.903186456106
 21
-4975.907912798732
 31
0.0
  0
LINE
  5
B6
100
AcDbEntity
  8
Frei
  6
CONTINUOUS
 62
           7
100
AcDbLine
 10
-14510.46650549309
 20
-4977.502049412773
 30
0.0
 11
-14510.302148544002
 21
-4975.910513427229
 31
0.0
  0
LINE
  5
B7
100
AcDbEntity
  8
Frei
  6
CONTINUOUS
 62
           7
100
AcDbLine
 10
-14510.302148544002
 20
-4975.910513427229
 30
0.0
 11
-14506.694163589556
 21
-4976.28310782965
 31
0.0
  0
LINE
  5
B8
100
AcDbEntity
  8
Frei
  6
CONTINUOUS
 62
           7
100
AcDbLine
 10
-14510.302148544002
 20
-4975.910513427229
 30
0.0
 11
-14507.508080409511
 21
-4948.854401672953
 31
0.0
  0
LINE
  5
B9
100
AcDbEntity
  8
Frei
  6
CONTINUOUS
 62
           7
100
AcDbLine
 10
-14507.508080409511
 20
-4948.854401672953
 30
0.0
 11
-14507.343723460423
 21
-4947.262865687408
 31
0.0
  0
LINE
  5
BA
100
AcDbEntity
  8
Frei
  6
CONTINUOUS
 62
           7
100
AcDbLine
 10
-14522.780404423438
 20
-4945.668729073366
 30
0.0
 11
-14507.343723460423
 21
-4947.262865687408
 31
0.0
  0
LINE
  5
BB
100
AcDbEntity
  8
Frei
  6
CONTINUOUS
 62
           7
100
AcDbLine
 10
-14525.903186456106
 20
-4975.907912798732
 30
0.0
 11
-14510.46650549309
 21
-4977.502049412773
 31
0.0
  0
ARC
  5
BC
100
AcDbEntity
  8
Frei
  6
CONTINUOUS
 62
           7
100
AcDbCircle
 10
-14556.844469859403
 20
-4957.431789601967
 30
0.0
 40
27.821476415485
100
AcDbArc
 50
318.997694434247
 51
29.210305565753
  0
ARC
  5
BD
100
AcDbEntity
  8
Frei
  6
CONTINUOUS
 62
           7
100
AcDbCircle
 10
-14543.726946757852
 20
-4958.786428200239
 30
0.0
 40
39.547005383793
100
AcDbArc
 50
150.23907458395
 51
197.96892541605
  0
ARC
  5
BE
100
AcDbEntity
  8
Frei
  6
CONTINUOUS
 62
           7
100
AcDbCircle
 10
-14557.795720559705
 20
-4957.333554523188
 30
0.0
 40
30.02221399786
100
AcDbArc
 50
141.899772496028
 51
206.308227503973
  0
CIRCLE
  5
BF
100
AcDbEntity
  8
Frei
  6
CONTINUOUS
 62
           7
100
AcDbCircle
 10
-14567.764916954975
 20
-4956.304041700818
 30
0.0
 40
6.8
  0
ARC
  5
C0
100
AcDbEntity
  8
Frei
  6
CONTINUOUS
 62
           7
100
AcDbCircle
 10
-14527.649867526432
 20
-4945.567989849898
 30
0.0
 40
1.2
100
AcDbArc
 50
354.103999999999
 51
84.104
  0
ARC
  5
C1
100
AcDbEntity
  8
Frei
  6
CONTINUOUS
 62
           7
100
AcDbCircle
 10
-14525.262563548114
 20
-4945.81452527353
 30
0.0
 40
1.2
100
AcDbArc
 50
174.104
 51
264.103999999999
  0
ARC
  5
C2
100
AcDbEntity
  8
Frei
  6
CONTINUOUS
 62
           7
100
AcDbCircle
 10
-14504.02336316688
 20
-4950.420648064534
 30
0.0
 40
1.2
100
AcDbArc
 50
354.103999999999
 51
84.104
  0
ARC
  5
C3
100
AcDbEntity
  8
Frei
  6
CONTINUOUS
 62
           7
100
AcDbCircle
 10
-14506.570895877741
 20
-4975.089455840491
 30
0.0
 40
1.2
100
AcDbArc
 50
264.103999999999
 51
354.103999999999
  0
ARC
  5
C4
100
AcDbEntity
  8
Frei
  6
CONTINUOUS
 62
           7
100
AcDbCircle
 10
-14528.303167106238
 20
-4975.257941006124
 30
0.0
 40
1.2
100
AcDbArc
 50
84.104
 51
174.104
  0
ARC
  5
C5
100
AcDbEntity
  8
Frei
  6
CONTINUOUS
 62
           7
100
AcDbCircle
 10
-14530.690471084556
 20
-4975.011405582492
 30
0.0
 40
1.2
100
AcDbArc
 50
264.103999999999
 51
354.103999999999
  0
LINE
  5
C6
100
AcDbEntity
  8
FREI
  6
CONTINUOUS
 62
           7
100
AcDbLine
 10
-14174.953838767191
 20
-4964.698768609767
 30
0.0
 11
-14181.528171138296
 21
-5028.360734882732
 31
0.0
  0
LINE
  5
C7
100
AcDbEntity
  8
FREI
  6
CONTINUOUS
 62
           7
100
AcDbLine
 10
-14173.889717105552
 20
-5022.613420684638
 30
0.0
 11
-14174.333825106121
 21
-5026.913901244165
 31
0.0
  0
LINE
  5
C8
100
AcDbEntity
  8
FREI
  6
CONTINUOUS
 62
           7
100
AcDbLine
 10
-14168.207034814375
 20
-4967.585669129074
 30
0.0
 11
-14168.651142814944
 21
-4971.886149688602
 31
0.0
  0
LINE
  5
C9
100
AcDbEntity
  8
FREI
  6
CONTINUOUS
 62
           7
100
AcDbLine
 10
-14168.651142814944
 20
-4971.886149688602
 30
0.0
 11
-14169.577201731656
 21
-4980.853559334872
 31
0.0
  0
LINE
  5
CA
100
AcDbEntity
  8
FREI
  6
CONTINUOUS
 62
           7
100
AcDbLine
 10
-14172.963658188841
 20
-5013.646011038365
 30
0.0
 11
-14173.889717105552
 21
-5022.613420684638
 31
0.0
  0
LINE
  5
CB
100
AcDbEntity
  8
Frei
  6
CONTINUOUS
 62
           7
100
AcDbLine
 10
-14176.461463475613
 20
-5028.705792993233
 30
0.0
 11
-14181.528171138296
 21
-5028.360734882732
 31
0.0
  0
LINE
  5
CC
100
AcDbEntity
  8
Frei
  6
CONTINUOUS
 62
           7
100
AcDbLine
 10
-14169.923581483146
 20
-4965.396790739203
 30
0.0
 11
-14174.953876863588
 21
-4964.699137512875
 31
0.0
  0
LINE
  5
CD
100
AcDbEntity
  8
FREI
  6
CONTINUOUS
 62
           7
100
AcDbLine
 10
-14172.785692209878
 20
-5022.68860811794
 30
0.0
 11
-14173.889717105552
 21
-5022.613420684638
 31
0.0
  0
LINE
  5
CE
100
AcDbEntity
  8
Frei
  6
CONTINUOUS
 62
           7
100
AcDbLine
 10
-14164.98023207549
 20
-4975.321484437548
 30
0.0
 11
-14165.904353842237
 21
-4984.27013586341
 31
0.0
  0
LINE
  5
CF
100
AcDbEntity
  8
FREI
  6
CONTINUOUS
 62
           7
100
AcDbLine
 10
-14168.651142814944
 20
-4971.886149688602
 30
0.0
 11
-14167.555052078644
 21
-4972.038166852743
 31
0.0
  0
LINE
  5
D0
100
AcDbEntity
  8
Frei
  6
CONTINUOUS
 62
           7
100
AcDbLine
 10
-14168.651224438227
 20
-5010.869214426366
 30
0.0
 11
-14168.670112888894
 21
-5011.052119068473
 31
0.0
  0
LINE
  5
D1
100
AcDbEntity
  8
FREI
  6
CONTINUOUS
 62
           7
100
AcDbLine
 10
-14149.912058999462
 20
-4987.38026351752
 30
0.0
 11
-14165.047642143183
 21
-4985.549728830823
 31
0.0
  0
LINE
  5
D2
100
AcDbEntity
  8
FREI
  6
CONTINUOUS
 62
           7
100
AcDbLine
 10
-14152.379736778872
 20
-5011.275803124809
 30
0.0
 11
-14167.569984473552
 21
-5009.974607784399
 31
0.0
  0
LINE
  5
D3
100
AcDbEntity
  8
FREI
  6
CONTINUOUS
 62
           7
100
AcDbLine
 10
-14165.697941834491
 20
-4985.195034011412
 30
0.0
 11
-14168.279045407438
 21
-5010.188922262372
 31
0.0
  0
LINE
  5
D4
100
AcDbEntity
  8
Frei
  6
CONTINUOUS
 62
           7
100
AcDbLine
 10
-14167.82600143221
 20
-4983.046935985485
 30
0.0
 11
-14166.779953991962
 21
-4983.173447538102
 31
0.0
  0
LINE
  5
D5
100
AcDbEntity
  8
Frei
  6
CONTINUOUS
 62
           7
100
AcDbLine
 10
-14165.904353842237
 20
-4984.27013586341
 30
0.0
 11
-14165.923242292905
 21
-4984.453040505518
 31
0.0
  0
LINE
  5
D6
100
AcDbEntity
  8
Frei
  6
CONTINUOUS
 62
           7
100
AcDbLine
 10
-14168.670112888894
 20
-5011.052119068473
 30
0.0
 11
-14169.594234655642
 21
-5020.000770494336
 31
0.0
  0
LINE
  5
D7
100
AcDbEntity
  8
Frei
  6
CONTINUOUS
 62
           7
100
AcDbLine
 10
-14169.751352853569
 20
-5011.946725710439
 30
0.0
 11
-14170.801178259491
 21
-5011.856797754432
 31
0.0
  0
ARC
  5
D8
100
AcDbEntity
  8
FREI
  6
CONTINUOUS
 62
           7
100
AcDbCircle
 10
-14151.354446986836
 20
-4999.306496583234
 30
0.0
 40
12.0131394
100
AcDbArc
 50
265.103999999997
 51
83.104000000003
  0
ARC
  5
D9
100
AcDbEntity
  8
Frei
  6
CONTINUOUS
 62
           7
100
AcDbCircle
 10
-14170.198633111715
 20
-4967.379997989412
 30
0.0
 40
2.0021899
100
AcDbArc
 50
354.103999999993
 51
82.104000000031
  0
ARC
  5
DA
100
AcDbEntity
  8
Frei
  6
CONTINUOUS
 62
           7
100
AcDbCircle
 10
-14167.967629521501
 20
-4975.012977728056
 30
0.0
 40
3.00328485
100
AcDbArc
 50
354.103999999999
 51
82.103999999981
  0
ARC
  5
DB
100
AcDbEntity
  8
Frei
  6
CONTINUOUS
 62
           7
100
AcDbCircle
 10
-14172.581632101654
 20
-5019.692263784844
 30
0.0
 40
3.00328485
100
AcDbArc
 50
266.103999999994
 51
354.103999999999
  0
ARC
  5
DC
100
AcDbEntity
  8
Frei
  6
CONTINUOUS
 62
           7
100
AcDbCircle
 10
-14176.325423403463
 20
-5026.708230104503
 30
0.0
 40
2.0021899
100
AcDbArc
 50
266.103999999968
 51
354.104000000006
  0
ARC
  5
DD
100
AcDbEntity
  8
Frei
  6
CONTINUOUS
 62
           7
100
AcDbCircle
 10
-14166.900152990907
 20
-4984.167300293579
 30
0.0
 40
1.00109495
100
AcDbArc
 50
354.103999999999
 51
83.10400000007
  0
ARC
  5
DE
100
AcDbEntity
  8
Frei
  6
CONTINUOUS
 62
           7
100
AcDbCircle
 10
-14167.585603434314
 20
-4981.059230474533
 30
0.0
 40
2.0021899
100
AcDbArc
 50
174.104
 51
263.104000000015
  0
ARC
  5
DF
100
AcDbEntity
  8
Frei
  6
CONTINUOUS
 62
           7
100
AcDbCircle
 10
-14164.927443144235
 20
-4984.555876075348
 30
0.0
 40
1.001094950001
100
AcDbArc
 50
219.67699599927
 51
263.104000000022
  0
ARC
  5
E0
100
AcDbEntity
  8
Frei
  6
CONTINUOUS
 62
           7
100
AcDbCircle
 10
-14164.927443144235
 20
-4984.555876075348
 30
0.0
 40
1.001094949999
100
AcDbArc
 50
174.103999999987
 51
219.676995999281
  0
ARC
  5
E1
100
AcDbEntity
  8
Frei
  6
CONTINUOUS
 62
           7
100
AcDbCircle
 10
-14170.972059891499
 20
-5013.851682178027
 30
0.0
 40
2.002189899999
100
AcDbArc
 50
85.103999999931
 51
174.104
  0
ARC
  5
E2
100
AcDbEntity
  8
Frei
  6
CONTINUOUS
 62
           7
100
AcDbCircle
 10
-14169.665912037566
 20
-5010.949283498643
 30
0.0
 40
1.001094949999
100
AcDbArc
 50
265.103999999922
 51
354.104000000012
  0
ARC
  5
E3
100
AcDbEntity
  8
Frei
  6
CONTINUOUS
 62
           7
100
AcDbCircle
 10
-14167.655425289555
 20
-5010.972049996197
 30
0.0
 40
1.00109495
100
AcDbArc
 50
128.531004000815
 51
174.104
  0
ARC
  5
E4
100
AcDbEntity
  8
Frei
  6
CONTINUOUS
 62
           7
100
AcDbCircle
 10
-14167.655425289555
 20
-5010.972049996199
 30
0.0
 40
1.001094950001
100
AcDbArc
 50
85.104000000004
 51
128.531004000779
  0
LINE
  5
E5
100
AcDbEntity
  8
Frei
  6
CONTINUOUS
 62
           7
100
AcDbLine
 10
-14242.113575037323
 20
-5009.738531055937
 30
0.0
 11
-14238.632090068942
 21
-5010.098061882067
 31
0.0
  0
LINE
  5
E6
100
AcDbEntity
  8
Frei
  6
CONTINUOUS
 62
           7
100
AcDbLine
 10
-14241.908128850962
 20
-5007.749111074005
 30
0.0
 11
-14242.113575037323
 21
-5009.738531055937
 31
0.0
  0
LINE
  5
E7
100
AcDbEntity
  8
Frei
  6
CONTINUOUS
 62
           7
100
AcDbLine
 10
-14236.661510692767
 20
-5000.75104006107
 30
0.0
 11
-14237.534656984795
 21
-5009.20607498428
 31
0.0
  0
LINE
  5
E8
100
AcDbEntity
  8
Frei
  6
CONTINUOUS
 62
           7
100
AcDbLine
 10
-14241.137705652114
 20
-5000.28878614176
 30
0.0
 11
-14236.661510692767
 21
-5000.75104006107
 31
0.0
  0
LINE
  5
E9
100
AcDbEntity
  8
Frei
  6
CONTINUOUS
 62
           7
100
AcDbLine
 10
-14241.189067198704
 20
-5000.786141137243
 30
0.0
 11
-14241.137705652114
 21
-5000.28878614176
 31
0.0
  0
LINE
  5
EA
100
AcDbEntity
  8
Frei
  6
CONTINUOUS
 62
           7
100
AcDbLine
 10
-14237.70534775172
 20
-5001.593356270949
 30
0.0
 11
-14241.189067198704
 21
-5000.786141137243
 31
0.0
  0
LINE
  5
EB
100
AcDbEntity
  8
Frei
  6
CONTINUOUS
 62
           7
100
AcDbLine
 10
-14237.532344322779
 20
-5004.179723101208
 30
0.0
 11
-14237.320857870933
 21
-5002.13181274246
 31
0.0
  0
LINE
  5
EC
100
AcDbEntity
  8
Frei
  6
CONTINUOUS
 62
           7
100
AcDbLine
 10
-14241.908128850962
 20
-5007.749111074005
 30
0.0
 11
-14241.189067198704
 21
-5000.786141137243
 31
0.0
  0
LINE
  5
ED
100
AcDbEntity
  8
Frei
  6
CONTINUOUS
 62
           7
100
AcDbLine
 10
-14238.332968075641
 20
-5007.670862189165
 30
0.0
 11
-14241.908128850962
 21
-5007.749111074005
 31
0.0
  0
LINE
  5
EE
100
AcDbEntity
  8
Frei
  6
CONTINUOUS
 62
           7
100
AcDbLine
 10
-14237.635067415958
 20
-5005.174433092174
 30
0.0
 11
-14237.846553867805
 21
-5007.222343450922
 31
0.0
  0
LINE
  5
EF
100
AcDbEntity
  8
Frei
  6
CONTINUOUS
 62
           2
100
AcDbLine
 10
-14239.161631453513
 20
-5004.514126685441
 30
0.0
 11
-14236.399466712035
 21
-5004.799373751113
 31
0.0
  0
LINE
  5
F0
100
AcDbEntity
  8
Frei
  6
CONTINUOUS
 62
           7
100
AcDbLine
 10
-14239.110269906922
 20
-5004.01677168996
 30
0.0
 11
-14237.532344322779
 21
-5004.179723101208
 31
0.0
  0
LINE
  5
F1
100
AcDbEntity
  8
Frei
  6
CONTINUOUS
 62
           7
100
AcDbLine
 10
-14239.161631453513
 20
-5004.514126685441
 30
0.0
 11
-14239.110269906922
 21
-5004.01677168996
 31
0.0
  0
LINE
  5
F2
100
AcDbEntity
  8
Frei
  6
CONTINUOUS
 62
           7
100
AcDbLine
 10
-14239.212993000103
 20
-5005.011481680926
 30
0.0
 11
-14239.161631453513
 21
-5004.514126685441
 31
0.0
  0
LINE
  5
F3
100
AcDbEntity
  8
Frei
  6
CONTINUOUS
 62
           7
100
AcDbLine
 10
-14237.635067415958
 20
-5005.174433092174
 30
0.0
 11
-14239.212993000103
 21
-5005.011481680926
 31
0.0
  0
LINE
  5
F4
100
AcDbEntity
  8
Frei
  6
CONTINUOUS
 62
           7
100
AcDbLine
 10
-14380.87561877708
 20
-4995.408659557348
 30
0.0
 11
-14377.485756702144
 21
-4962.583229855471
 31
0.0
  0
LINE
  5
F5
100
AcDbEntity
  8
Frei
  6
CONTINUOUS
 62
           7
100
AcDbLine
 10
-14394.801558650604
 20
-4993.970536252829
 30
0.0
 11
-14380.87561877708
 21
-4995.408659557348
 31
0.0
  0
LINE
  5
F6
100
AcDbEntity
  8
Frei
  6
CONTINUOUS
 62
           7
100
AcDbLine
 10
-14387.432856611806
 20
-4961.555998923672
 30
0.0
 11
-14377.983111697627
 21
-4962.53186830888
 31
0.0
  0
LINE
  5
F7
100
AcDbEntity
  8
Frei
  6
CONTINUOUS
 62
           7
100
AcDbLine
 10
-14387.638302798165
 20
-4963.545418905604
 30
0.0
 11
-14387.432856611806
 21
-4961.555998923672
 31
0.0
  0
LINE
  5
F8
100
AcDbEntity
  8
Frei
  6
CONTINUOUS
 62
           7
100
AcDbLine
 10
-14388.357364450423
 20
-4970.508388842365
 30
0.0
 11
-14388.408725997013
 21
-4971.005743837848
 31
0.0
  0
LINE
  5
F9
100
AcDbEntity
  8
Frei
  6
CONTINUOUS
 62
           7
100
AcDbLine
 10
-14393.382275951844
 20
-4970.492128371949
 30
0.0
 11
-14392.509129659815
 21
-4962.037093448738
 31
0.0
  0
LINE
  5
FA
100
AcDbEntity
  8
Frei
  6
CONTINUOUS
 62
           7
100
AcDbLine
 10
-14388.408725997013
 20
-4971.005743837848
 30
0.0
 11
-14393.382275951844
 21
-4970.492128371949
 31
0.0
  0
LINE
  5
FB
100
AcDbEntity
  8
Frei
  6
CONTINUOUS
 62
           7
100
AcDbLine
 10
-14391.411696575669
 20
-4961.145106550952
 30
0.0
 11
-14387.432856611806
 21
-4961.555998923672
 31
0.0
  0
LINE
  5
FC
100
AcDbEntity
  8
Frei
  6
CONTINUOUS
 62
           7
100
AcDbLine
 10
-14391.841083897407
 20
-4969.701173708661
 30
0.0
 11
-14388.357364450423
 21
-4970.508388842365
 31
0.0
  0
LINE
  5
FD
100
AcDbEntity
  8
Frei
  6
CONTINUOUS
 62
           7
100
AcDbLine
 10
-14392.01408732635
 20
-4967.114806878401
 30
0.0
 11
-14392.225573778196
 21
-4969.162717237148
 31
0.0
  0
LINE
  5
FE
100
AcDbEntity
  8
Frei
  6
CONTINUOUS
 62
           7
100
AcDbLine
 10
-14387.638302798165
 20
-4963.545418905604
 30
0.0
 11
-14388.357364450423
 21
-4970.508388842365
 31
0.0
  0
LINE
  5
FF
100
AcDbEntity
  8
Frei
  6
CONTINUOUS
 62
           7
100
AcDbLine
 10
-14391.213463573486
 20
-4963.623667790444
 30
0.0
 11
-14387.638302798165
 21
-4963.545418905604
 31
0.0
  0
LINE
  5
100
100
AcDbEntity
  8
Frei
  6
CONTINUOUS
 62
           7
100
AcDbLine
 10
-14391.911364233169
 20
-4966.120096887435
 30
0.0
 11
-14391.699877781322
 21
-4964.072186528687
 31
0.0
  0
LINE
  5
101
100
AcDbEntity
  8
Frei
  6
CONTINUOUS
 62
           2
100
AcDbLine
 10
-14390.384800195616
 20
-4966.780403294168
 30
0.0
 11
-14393.146964937094
 21
-4966.495156228496
 31
0.0
  0
LINE
  5
102
100
AcDbEntity
  8
Frei
  6
CONTINUOUS
 62
           7
100
AcDbLine
 10
-14390.436161742206
 20
-4967.277758289649
 30
0.0
 11
-14392.01408732635
 21
-4967.114806878401
 31
0.0
  0
LINE
  5
103
100
AcDbEntity
  8
Frei
  6
CONTINUOUS
 62
           7
100
AcDbLine
 10
-14390.384800195616
 20
-4966.780403294168
 30
0.0
 11
-14390.436161742206
 21
-4967.277758289649
 31
0.0
  0
LINE
  5
104
100
AcDbEntity
  8
Frei
  6
CONTINUOUS
 62
           7
100
AcDbLine
 10
-14390.333438649026
 20
-4966.283048298683
 30
0.0
 11
-14390.384800195616
 21
-4966.780403294168
 31
0.0
  0
LINE
  5
105
100
AcDbEntity
  8
Frei
  6
CONTINUOUS
 62
           7
100
AcDbLine
 10
-14391.911364233169
 20
-4966.120096887435
 30
0.0
 11
-14390.333438649026
 21
-4966.283048298683
 31
0.0
  0
LINE
  5
106
100
AcDbEntity
  8
Frei
  6
CONTINUOUS
 62
           7
100
AcDbLine
 10
-14355.352145219458
 20
-5001.362002950212
 30
0.0
 11
-14355.403506766048
 21
-5001.859357945695
 31
0.0
  0
LINE
  5
107
100
AcDbEntity
  8
Frei
  6
CONTINUOUS
 62
           7
100
AcDbLine
 10
-14355.403506766048
 20
-5001.859357945695
 30
0.0
 11
-14278.810837461666
 21
-5009.769036120544
 31
0.0
  0
LINE
  5
108
100
AcDbEntity
  8
Frei
  6
CONTINUOUS
 62
           7
100
AcDbLine
 10
-14278.810837461666
 20
-5009.769036120544
 30
0.0
 11
-14273.982852082212
 21
-4963.017666545144
 31
0.0
  0
LINE
  5
109
100
AcDbEntity
  8
Frei
  6
CONTINUOUS
 62
           7
100
AcDbLine
 10
-14273.982852082212
 20
-4963.017666545144
 30
0.0
 11
-14350.575521386596
 21
-4955.107988370293
 31
0.0
  0
LINE
  5
10A
100
AcDbEntity
  8
Frei
  6
CONTINUOUS
 62
           7
100
AcDbLine
 10
-14377.983111697627
 20
-4962.53186830888
 30
0.0
 11
-14377.485756702144
 21
-4962.583229855471
 31
0.0
  0
LINE
  5
10B
100
AcDbEntity
  8
Frei
  6
CONTINUOUS
 62
           7
100
AcDbLine
 10
-14351.570231377562
 20
-4955.005265277114
 30
0.0
 11
-14376.935336147193
 21
-4952.385826401028
 31
0.0
  0
LINE
  5
10C
100
AcDbEntity
  8
Frei
  6
CONTINUOUS
 62
           7
100
AcDbLine
 10
-14381.265966531164
 20
-4999.188557523019
 30
0.0
 11
-14380.87561877708
 21
-4995.408659557348
 31
0.0
  0
LINE
  5
10D
100
AcDbEntity
  8
Frei
  6
CONTINUOUS
 62
           7
100
AcDbLine
 10
-14377.983111697627
 20
-4962.53186830888
 30
0.0
 11
-14376.935336147193
 21
-4952.385826401028
 31
0.0
  0
LINE
  5
10E
100
AcDbEntity
  8
Frei
  6
CONTINUOUS
 62
           7
100
AcDbLine
 10
-14355.352145219458
 20
-5001.362002950212
 30
0.0
 11
-14356.346855210424
 21
-5001.259279857031
 31
0.0
  0
LINE
  5
10F
100
AcDbEntity
  8
Frei
  6
CONTINUOUS
 62
           7
100
AcDbLine
 10
-14350.626882933186
 20
-4955.605343365776
 30
0.0
 11
-14355.352145219458
 21
-5001.362002950212
 31
0.0
  0
LINE
  5
110
100
AcDbEntity
  8
Frei
  6
CONTINUOUS
 62
           7
100
AcDbLine
 10
-14350.626882933186
 20
-4955.605343365776
 30
0.0
 11
-14351.621592924152
 21
-4955.502620272597
 31
0.0
  0
LINE
  5
111
100
AcDbEntity
  8
Frei
  6
CONTINUOUS
 62
           7
100
AcDbLine
 10
-14350.575521386596
 20
-4955.107988370293
 30
0.0
 11
-14350.626882933186
 21
-4955.605343365776
 31
0.0
  0
LINE
  5
112
100
AcDbEntity
  8
Frei
  6
CONTINUOUS
 62
           7
100
AcDbLine
 10
-14356.346855210424
 20
-5001.259279857031
 30
0.0
 11
-14351.570231377562
 21
-4955.005265277114
 31
0.0
  0
LINE
  5
113
100
AcDbEntity
  8
Frei
  6
CONTINUOUS
 62
           7
100
AcDbLine
 10
-14356.398216757014
 20
-5001.756634852514
 30
0.0
 11
-14356.346855210424
 21
-5001.259279857031
 31
0.0
  0
LINE
  5
114
100
AcDbEntity
  8
Frei
  6
CONTINUOUS
 62
           7
100
AcDbLine
 10
-14381.265966531164
 20
-4999.188557523019
 30
0.0
 11
-14356.398216757014
 21
-5001.756634852514
 31
0.0
  0
LINE
  5
115
100
AcDbEntity
  8
Frei
  6
CONTINUOUS
 62
           7
100
AcDbLine
 10
-14277.816127470698
 20
-5009.871759213724
 30
0.0
 11
-14252.94837769655
 21
-5012.43983654322
 31
0.0
  0
LINE
  5
116
100
AcDbEntity
  8
Frei
  6
CONTINUOUS
 62
           7
100
AcDbLine
 10
-14277.764765924108
 20
-5009.374404218241
 30
0.0
 11
-14277.816127470698
 21
-5009.871759213724
 31
0.0
  0
LINE
  5
117
100
AcDbEntity
  8
Frei
  6
CONTINUOUS
 62
           7
100
AcDbLine
 10
-14272.988142091246
 20
-4963.120389638323
 30
0.0
 11
-14277.764765924108
 21
-5009.374404218241
 31
0.0
  0
LINE
  5
118
100
AcDbEntity
  8
Frei
  6
CONTINUOUS
 62
           7
100
AcDbLine
 10
-14273.039503637836
 20
-4963.617744633804
 30
0.0
 11
-14274.034213628802
 21
-4963.515021540625
 31
0.0
  0
LINE
  5
119
100
AcDbEntity
  8
Frei
  6
CONTINUOUS
 62
           7
100
AcDbLine
 10
-14277.764765924108
 20
-5009.374404218241
 30
0.0
 11
-14278.759475915074
 21
-5009.271681125061
 31
0.0
  0
LINE
  5
11A
100
AcDbEntity
  8
Frei
  6
CONTINUOUS
 62
           7
100
AcDbLine
 10
-14247.623037321613
 20
-4965.739828514409
 30
0.0
 11
-14248.670812872047
 21
-4975.885870422261
 31
0.0
  0
LINE
  5
11B
100
AcDbEntity
  8
Frei
  6
CONTINUOUS
 62
           7
100
AcDbLine
 10
-14247.623037321613
 20
-4965.739828514409
 30
0.0
 11
-14272.988142091246
 21
-4963.120389638323
 31
0.0
  0
LINE
  5
11C
100
AcDbEntity
  8
Frei
  6
CONTINUOUS
 62
           7
100
AcDbLine
 10
-14249.16816786753
 20
-4975.834508875671
 30
0.0
 11
-14248.670812872047
 21
-4975.885870422261
 31
0.0
  0
LINE
  5
11D
100
AcDbEntity
  8
Frei
  6
CONTINUOUS
 62
           7
100
AcDbLine
 10
-14249.16816786753
 20
-4975.834508875671
 30
0.0
 11
-14252.94837769655
 21
-5012.43983654322
 31
0.0
  0
LINE
  5
11E
100
AcDbEntity
  8
Frei
  6
CONTINUOUS
 62
           7
100
AcDbLine
 10
-14424.407471387733
 20
-4964.272220963885
 30
0.0
 11
-14426.396891369664
 21
-4964.066774777526
 31
0.0
  0
LINE
  5
11F
100
AcDbEntity
  8
Frei
  6
CONTINUOUS
 62
           7
100
AcDbLine
 10
-14425.364500167185
 20
-4983.274433885419
 30
0.0
 11
-14423.515484489946
 21
-4965.369654048031
 31
0.0
  0
LINE
  5
120
100
AcDbEntity
  8
Frei
  6
CONTINUOUS
 62
           7
100
AcDbLine
 10
-14428.451353233262
 20
-4983.960974596846
 30
0.0
 11
-14426.46193325133
 21
-4984.166420783206
 31
0.0
  0
LINE
  5
121
100
AcDbEntity
  8
Frei
  6
CONTINUOUS
 62
           7
100
AcDbLine
 10
-14428.829724665149
 20
-4977.88999155787
 30
0.0
 11
-14429.343340131049
 21
-4982.863541512699
 31
0.0
  0
LINE
  5
122
100
AcDbEntity
  8
Frei
  6
CONTINUOUS
 62
           7
100
AcDbLine
 10
-14426.396891369664
 20
-4964.066774777526
 30
0.0
 11
-14427.49432445381
 21
-4964.958761675312
 31
0.0
  0
LINE
  5
123
100
AcDbEntity
  8
Frei
  6
CONTINUOUS
 62
           7
100
AcDbLine
 10
-14424.407471387733
 20
-4964.272220963885
 30
0.0
 11
-14423.515484489946
 21
-4965.369654048031
 31
0.0
  0
LINE
  5
124
100
AcDbEntity
  8
Frei
  6
CONTINUOUS
 62
           7
100
AcDbLine
 10
-14425.364500167185
 20
-4983.274433885419
 30
0.0
 11
-14426.46193325133
 21
-4984.166420783206
 31
0.0
  0
LINE
  5
125
100
AcDbEntity
  8
Frei
  6
CONTINUOUS
 62
           7
100
AcDbLine
 10
-14428.451353233262
 20
-4983.960974596846
 30
0.0
 11
-14429.343340131049
 21
-4982.863541512699
 31
0.0
  0
LINE
  5
126
100
AcDbEntity
  8
Frei
  6
CONTINUOUS
 62
           7
100
AcDbLine
 10
-14428.451353233262
 20
-4983.960974596846
 30
0.0
 11
-14426.396891369664
 21
-4964.066774777526
 31
0.0
  0
LINE
  5
127
100
AcDbEntity
  8
Frei
  6
CONTINUOUS
 62
           7
100
AcDbLine
 10
-14426.46193325133
 20
-4984.166420783206
 30
0.0
 11
-14424.407471387733
 21
-4964.272220963885
 31
0.0
  0
LINE
  5
128
100
AcDbEntity
  8
Frei
  6
CONTINUOUS
 62
           7
100
AcDbLine
 10
-14426.134923366033
 20
-4990.734758817664
 30
0.0
 11
-14425.364500167185
 21
-4983.274433885419
 31
0.0
  0
LINE
  5
129
100
AcDbEntity
  8
Frei
  6
CONTINUOUS
 62
           7
100
AcDbLine
 10
-14396.31246424281
 20
-4984.263983605702
 30
0.0
 11
-14397.288333628019
 21
-4993.713728519881
 31
0.0
  0
LINE
  5
12A
100
AcDbEntity
  8
Frei
  6
CONTINUOUS
 62
           7
100
AcDbLine
 10
-14429.105373003857
 20
-4970.824298527929
 30
0.0
 11
-14428.007939919709
 21
-4969.932311630142
 31
0.0
  0
LINE
  5
12B
100
AcDbEntity
  8
Frei
  6
CONTINUOUS
 62
           7
100
AcDbLine
 10
-14427.49432445381
 20
-4964.958761675312
 30
0.0
 11
-14428.007939919709
 21
-4969.932311630142
 31
0.0
  0
LINE
  5
12C
100
AcDbEntity
  8
Frei
  6
CONTINUOUS
 62
           7
100
AcDbLine
 10
-14429.156734550446
 20
-4971.321653523411
 30
0.0
 11
-14429.105373003857
 21
-4970.824298527929
 31
0.0
  0
LINE
  5
12D
100
AcDbEntity
  8
Frei
  6
CONTINUOUS
 62
           7
100
AcDbLine
 10
-14428.829724665149
 20
-4977.88999155787
 30
0.0
 11
-14429.721711562936
 21
-4976.792558473724
 31
0.0
  0
LINE
  5
12E
100
AcDbEntity
  8
Frei
  6
CONTINUOUS
 62
           7
100
AcDbLine
 10
-14428.72700157197
 20
-4976.895281566904
 30
0.0
 11
-14428.829724665149
 21
-4977.88999155787
 31
0.0
  0
LINE
  5
12F
100
AcDbEntity
  8
Frei
  6
CONTINUOUS
 62
           2
100
AcDbLine
 10
-14428.110663012891
 20
-4970.927021621108
 30
0.0
 11
-14429.105373003857
 21
-4970.824298527929
 31
0.0
  0
LINE
  5
130
100
AcDbEntity
  8
Frei
  6
CONTINUOUS
 62
           7
100
AcDbLine
 10
-14428.007939919709
 20
-4969.932311630142
 30
0.0
 11
-14428.110663012891
 21
-4970.927021621108
 31
0.0
  0
LINE
  5
131
100
AcDbEntity
  8
Frei
  6
CONTINUOUS
 62
           2
100
AcDbLine
 10
-14428.72700157197
 20
-4976.895281566904
 30
0.0
 11
-14429.721711562936
 21
-4976.792558473724
 31
0.0
  0
LINE
  5
132
100
AcDbEntity
  8
Frei
  6
CONTINUOUS
 62
           7
100
AcDbLine
 10
-14428.110663012891
 20
-4970.927021621108
 30
0.0
 11
-14428.72700157197
 21
-4976.895281566904
 31
0.0
  0
LINE
  5
133
100
AcDbEntity
  8
Frei
  6
CONTINUOUS
 62
           1
100
AcDbLine
 10
-14426.681547006499
 20
-4971.577264629184
 30
0.0
 11
-14429.156734550446
 21
-4971.321653523411
 31
0.0
  0
LINE
  5
134
100
AcDbEntity
  8
Frei
  6
CONTINUOUS
 62
           7
100
AcDbLine
 10
-14429.208096097036
 20
-4971.819008518894
 30
0.0
 11
-14429.156734550446
 21
-4971.321653523411
 31
0.0
  0
LINE
  5
135
100
AcDbEntity
  8
Frei
  6
CONTINUOUS
 62
           1
100
AcDbLine
 10
-14427.195162472399
 20
-4976.550814584014
 30
0.0
 11
-14429.670350016346
 21
-4976.295203478241
 31
0.0
  0
LINE
  5
136
100
AcDbEntity
  8
Frei
  6
CONTINUOUS
 62
           7
100
AcDbLine
 10
-14429.721711562936
 20
-4976.792558473724
 30
0.0
 11
-14429.670350016346
 21
-4976.295203478241
 31
0.0
  0
LINE
  5
137
100
AcDbEntity
  8
Frei
  6
CONTINUOUS
 62
           1
100
AcDbLine
 10
-14426.732908553089
 20
-4972.074619624667
 30
0.0
 11
-14429.208096097036
 21
-4971.819008518894
 31
0.0
  0
LINE
  5
138
100
AcDbEntity
  8
Frei
  6
CONTINUOUS
 62
           7
100
AcDbLine
 10
-14429.618988469754
 20
-4975.797848482758
 30
0.0
 11
-14429.208096097036
 21
-4971.819008518894
 31
0.0
  0
LINE
  5
139
100
AcDbEntity
  8
Frei
  6
CONTINUOUS
 62
           1
100
AcDbLine
 10
-14427.143800925809
 20
-4976.053459588531
 30
0.0
 11
-14429.618988469754
 21
-4975.797848482758
 31
0.0
  0
LINE
  5
13A
100
AcDbEntity
  8
Frei
  6
CONTINUOUS
 62
           7
100
AcDbLine
 10
-14429.670350016346
 20
-4976.295203478241
 30
0.0
 11
-14429.618988469754
 21
-4975.797848482758
 31
0.0
  0
LINE
  5
13B
100
AcDbEntity
  8
Frei
  6
CONTINUOUS
 62
           7
100
AcDbLine
 10
-14421.333067394178
 20
-4963.026742872269
 30
0.0
 11
-14394.309363925804
 21
-4964.867138781867
 31
0.0
  0
LINE
  5
13C
100
AcDbEntity
  8
Frei
  6
CONTINUOUS
 62
           7
100
AcDbLine
 10
-14423.458378654106
 20
-4964.816674735443
 30
0.0
 11
-14423.515484489946
 21
-4965.369654048031
 31
0.0
  0
LINE
  5
13D
100
AcDbEntity
  8
Frei
  6
CONTINUOUS
 62
           7
100
AcDbLine
 10
-14397.288333628019
 20
-4993.713728519881
 30
0.0
 11
-14426.134923366033
 21
-4990.734758817664
 31
0.0
  0
LINE
  5
13E
100
AcDbEntity
  8
Frei
  6
CONTINUOUS
 62
           7
100
AcDbLine
 10
-14426.237646459213
 20
-4991.72946880863
 30
0.0
 11
-14426.134923366033
 21
-4990.734758817664
 31
0.0
  0
LINE
  5
13F
100
AcDbEntity
  8
Frei
  6
CONTINUOUS
 62
           7
100
AcDbLine
 10
-14425.74029146373
 20
-4991.78083035522
 30
0.0
 11
-14426.237646459213
 21
-4991.72946880863
 31
0.0
  0
LINE
  5
140
100
AcDbEntity
  8
Frei
  6
CONTINUOUS
 62
           7
100
AcDbLine
 10
-14397.288333628019
 20
-4993.713728519881
 30
0.0
 11
-14397.391056721199
 21
-4994.708438510847
 31
0.0
  0
LINE
  5
141
100
AcDbEntity
  8
Frei
  6
CONTINUOUS
 62
           7
100
AcDbLine
 10
-14437.520146580211
 20
-5003.63346775939
 30
0.0
 11
-14427.075691675069
 21
-5004.712060237778
 31
0.0
  0
LINE
  5
142
100
AcDbEntity
  8
Frei
  6
CONTINUOUS
 62
           7
100
AcDbLine
 10
-14440.655781057538
 20
-5019.394742975075
 30
0.0
 11
-14440.707142604128
 21
-5019.892097970558
 31
0.0
  0
LINE
  5
143
100
AcDbEntity
  8
Frei
  6
CONTINUOUS
 62
           7
100
AcDbLine
 10
-14439.369162257448
 20
-5021.538247596778
 30
0.0
 11
-14428.924707352306
 21
-5022.616840075167
 31
0.0
  0
LINE
  5
144
100
AcDbEntity
  8
Frei
  6
CONTINUOUS
 62
           7
100
AcDbLine
 10
-14428.565176526175
 20
-5019.135355106785
 30
0.0
 11
-14425.74029146373
 21
-4991.78083035522
 31
0.0
  0
LINE
  5
145
100
AcDbEntity
  8
Frei
  6
CONTINUOUS
 62
           7
100
AcDbLine
 10
-14397.888411716682
 20
-4994.657076964257
 30
0.0
 11
-14425.74029146373
 21
-4991.78083035522
 31
0.0
  0
LINE
  5
146
100
AcDbEntity
  8
Frei
  6
CONTINUOUS
 62
           7
100
AcDbLine
 10
-14427.227196179496
 20
-5020.781504733004
 30
0.0
 11
-14421.294644715783
 21
-5021.39415569895
 31
0.0
  0
LINE
  5
147
100
AcDbEntity
  8
Frei
  6
CONTINUOUS
 62
           7
100
AcDbLine
 10
-14400.713296779128
 20
-5022.011601715822
 30
0.0
 11
-14397.888411716682
 21
-4994.657076964257
 31
0.0
  0
LINE
  5
148
100
AcDbEntity
  8
Frei
  6
CONTINUOUS
 62
           7
100
AcDbLine
 10
-14397.391056721199
 20
-4994.708438510847
 30
0.0
 11
-14397.888411716682
 21
-4994.657076964257
 31
0.0
  0
LINE
  5
149
100
AcDbEntity
  8
Frei
  6
CONTINUOUS
 62
           7
100
AcDbLine
 10
-14421.294644715783
 20
-5021.39415569895
 30
0.0
 11
-14428.924707352306
 21
-5022.616840075167
 31
0.0
  0
LINE
  5
14A
100
AcDbEntity
  8
Frei
  6
CONTINUOUS
 62
           7
100
AcDbLine
 10
-14402.359446405348
 20
-5023.349582062499
 30
0.0
 11
-14421.294644715783
 21
-5021.39415569895
 31
0.0
  0
LINE
  5
14B
100
AcDbEntity
  8
Frei
  6
CONTINUOUS
 62
           7
100
AcDbLine
 10
-14444.19120770785
 20
-5004.955187635653
 30
0.0
 11
-14439.217657753019
 21
-5005.468803101552
 31
0.0
  0
LINE
  5
14C
100
AcDbEntity
  8
Frei
  6
CONTINUOUS
 62
           7
100
AcDbLine
 10
-14439.166296206429
 20
-5004.971448106069
 30
0.0
 11
-14439.217657753019
 21
-5005.468803101552
 31
0.0
  0
LINE
  5
14D
100
AcDbEntity
  8
Frei
  6
CONTINUOUS
 62
           7
100
AcDbLine
 10
-14445.629331012367
 20
-5018.881127509176
 30
0.0
 11
-14440.655781057538
 21
-5019.394742975075
 31
0.0
  0
LINE
  5
14E
100
AcDbEntity
  8
Frei
  6
CONTINUOUS
 62
           7
100
AcDbLine
 10
-14440.553057964358
 20
-5018.400032984109
 30
0.0
 11
-14440.655781057538
 21
-5019.394742975075
 31
0.0
  0
LINE
  5
14F
100
AcDbEntity
  8
Frei
  6
CONTINUOUS
 62
           2
100
AcDbLine
 10
-14439.3203808462
 20
-5006.463513092518
 30
0.0
 11
-14444.29393080103
 21
-5005.949897626619
 31
0.0
  0
LINE
  5
150
100
AcDbEntity
  8
Frei
  6
CONTINUOUS
 62
           7
100
AcDbLine
 10
-14439.217657753019
 20
-5005.468803101552
 30
0.0
 11
-14439.3203808462
 21
-5006.463513092518
 31
0.0
  0
LINE
  5
151
100
AcDbEntity
  8
Frei
  6
CONTINUOUS
 62
           2
100
AcDbLine
 10
-14440.553057964358
 20
-5018.400032984109
 30
0.0
 11
-14445.526607919188
 21
-5017.88641751821
 31
0.0
  0
LINE
  5
152
100
AcDbEntity
  8
Frei
  6
CONTINUOUS
 62
           7
100
AcDbLine
 10
-14439.3203808462
 20
-5006.463513092518
 30
0.0
 11
-14440.553057964358
 21
-5018.400032984109
 31
0.0
  0
LINE
  5
153
100
AcDbEntity
  8
Frei
  6
CONTINUOUS
 62
           7
100
AcDbLine
 10
-14394.874340938293
 20
-4970.338043732179
 30
0.0
 11
-14394.12235146925
 21
-4970.415701225318
 31
0.0
  0
LINE
  5
154
100
AcDbEntity
  8
Frei
  6
CONTINUOUS
 62
           7
100
AcDbLine
 10
-14394.309363925804
 20
-4964.867138781867
 30
0.0
 11
-14394.874340938293
 21
-4970.338043732179
 31
0.0
  0
LINE
  5
155
100
AcDbEntity
  8
Frei
  6
CONTINUOUS
 62
           7
100
AcDbLine
 10
-14395.233871764422
 20
-4973.81952870056
 30
0.0
 11
-14394.48188229538
 21
-4973.897186193699
 31
0.0
  0
LINE
  5
156
100
AcDbEntity
  8
Frei
  6
CONTINUOUS
 62
           7
100
AcDbLine
 10
-14394.874340938293
 20
-4970.338043732179
 30
0.0
 11
-14395.233871764422
 21
-4973.81952870056
 31
0.0
  0
LINE
  5
157
100
AcDbEntity
  8
Frei
  6
CONTINUOUS
 62
           7
100
AcDbLine
 10
-14395.952933416682
 20
-4980.782498637322
 30
0.0
 11
-14395.200943947639
 21
-4980.86015613046
 31
0.0
  0
LINE
  5
158
100
AcDbEntity
  8
Frei
  6
CONTINUOUS
 62
           7
100
AcDbLine
 10
-14395.233871764422
 20
-4973.81952870056
 30
0.0
 11
-14395.952933416682
 21
-4980.782498637322
 31
0.0
  0
LINE
  5
159
100
AcDbEntity
  8
Frei
  6
CONTINUOUS
 62
           7
100
AcDbLine
 10
-14396.31246424281
 20
-4984.263983605702
 30
0.0
 11
-14395.560474773769
 21
-4984.341641098841
 31
0.0
  0
LINE
  5
15A
100
AcDbEntity
  8
Frei
  6
CONTINUOUS
 62
           7
100
AcDbLine
 10
-14395.952933416682
 20
-4980.782498637322
 30
0.0
 11
-14396.31246424281
 21
-4984.263983605702
 31
0.0
  0
LINE
  5
15B
100
AcDbEntity
  8
Frei
  6
CONTINUOUS
 62
           7
100
AcDbLine
 10
-14394.101337604103
 20
-4977.45509830871
 30
0.0
 11
-14393.562041364909
 21
-4972.23287085614
 31
0.0
  0
LINE
  5
15C
100
AcDbEntity
  8
Frei
  6
CONTINUOUS
 62
           7
100
AcDbLine
 10
-14444.095859800937
 20
-5004.03189460885
 30
0.0
 11
-14443.961354072118
 21
-5002.729420275618
 31
0.0
  0
LINE
  5
15D
100
AcDbEntity
  8
Frei
  6
CONTINUOUS
 62
           7
100
AcDbLine
 10
-14450.080750696023
 20
-5020.670936322053
 30
0.0
 11
-14445.859184648099
 21
-5021.106894869212
 31
0.0
  0
LINE
  5
15E
100
AcDbEntity
  8
Frei
  6
CONTINUOUS
 62
           7
100
AcDbLine
 10
-14449.069409755766
 20
-5003.518279142952
 30
0.0
 11
-14444.095859800937
 21
-5004.03189460885
 31
0.0
  0
LINE
  5
15F
100
AcDbEntity
  8
Frei
  6
CONTINUOUS
 62
           7
100
AcDbLine
 10
-14444.301305987296
 20
-5006.021314590782
 30
0.0
 11
-14444.095859800937
 21
-5004.03189460885
 31
0.0
  0
LINE
  5
160
100
AcDbEntity
  8
Frei
  6
CONTINUOUS
 62
           7
100
AcDbLine
 10
-14444.301305987296
 20
-5006.021314590782
 30
0.0
 11
-14449.274855942125
 21
-5005.507699124883
 31
0.0
  0
LINE
  5
161
100
AcDbEntity
  8
Frei
  6
CONTINUOUS
 62
           7
100
AcDbLine
 10
-14449.069409755766
 20
-5003.518279142952
 30
0.0
 11
-14449.274855942125
 21
-5005.507699124883
 31
0.0
  0
LINE
  5
162
100
AcDbEntity
  8
Frei
  6
CONTINUOUS
 62
           7
100
AcDbLine
 10
-14444.435811716114
 20
-5007.323788924015
 30
0.0
 11
-14444.301305987296
 21
-5006.021314590782
 31
0.0
  0
LINE
  5
163
100
AcDbEntity
  8
Frei
  6
CONTINUOUS
 62
           7
100
AcDbLine
 10
-14444.704823173748
 20
-5009.928737590482
 30
0.0
 11
-14444.435811716114
 21
-5007.323788924015
 31
0.0
  0
LINE
  5
164
100
AcDbEntity
  8
Frei
  6
CONTINUOUS
 62
           7
100
AcDbLine
 10
-14444.704823173748
 20
-5009.928737590482
 30
0.0
 11
-14449.67837312858
 21
-5009.415122124583
 31
0.0
  0
LINE
  5
165
100
AcDbEntity
  8
Frei
  6
CONTINUOUS
 62
           7
100
AcDbLine
 10
-14449.274855942125
 20
-5005.507699124883
 30
0.0
 11
-14449.67837312858
 21
-5009.415122124583
 31
0.0
  0
LINE
  5
166
100
AcDbEntity
  8
Frei
  6
CONTINUOUS
 62
           7
100
AcDbLine
 10
-14445.115715546468
 20
-5013.907577554346
 30
0.0
 11
-14444.704823173748
 21
-5009.928737590482
 31
0.0
  0
LINE
  5
167
100
AcDbEntity
  8
Frei
  6
CONTINUOUS
 62
           7
100
AcDbLine
 10
-14445.115715546468
 20
-5013.907577554346
 30
0.0
 11
-14450.089265501298
 21
-5013.393962088447
 31
0.0
  0
LINE
  5
168
100
AcDbEntity
  8
Frei
  6
CONTINUOUS
 62
           7
100
AcDbLine
 10
-14449.67837312858
 20
-5009.415122124583
 30
0.0
 11
-14450.089265501298
 21
-5013.393962088447
 31
0.0
  0
LINE
  5
169
100
AcDbEntity
  8
Frei
  6
CONTINUOUS
 62
           7
100
AcDbLine
 10
-14445.384727004104
 20
-5016.512526220813
 30
0.0
 11
-14445.115715546468
 21
-5013.907577554346
 31
0.0
  0
LINE
  5
16A
100
AcDbEntity
  8
Frei
  6
CONTINUOUS
 62
           7
100
AcDbLine
 10
-14445.51923273292
 20
-5017.815000554047
 30
0.0
 11
-14445.384727004104
 21
-5016.512526220813
 31
0.0
  0
LINE
  5
16B
100
AcDbEntity
  8
Frei
  6
CONTINUOUS
 62
           7
100
AcDbLine
 10
-14445.51923273292
 20
-5017.815000554047
 30
0.0
 11
-14450.492782687752
 21
-5017.301385088148
 31
0.0
  0
LINE
  5
16C
100
AcDbEntity
  8
Frei
  6
CONTINUOUS
 62
           7
100
AcDbLine
 10
-14450.089265501298
 20
-5013.393962088447
 30
0.0
 11
-14450.492782687752
 21
-5017.301385088148
 31
0.0
  0
LINE
  5
16D
100
AcDbEntity
  8
Frei
  6
CONTINUOUS
 62
           7
100
AcDbLine
 10
-14445.724678919281
 20
-5019.804420535978
 30
0.0
 11
-14445.51923273292
 21
-5017.815000554047
 31
0.0
  0
LINE
  5
16E
100
AcDbEntity
  8
Frei
  6
CONTINUOUS
 62
           7
100
AcDbLine
 10
-14445.724678919281
 20
-5019.804420535978
 30
0.0
 11
-14450.698228874111
 21
-5019.29080507008
 31
0.0
  0
LINE
  5
16F
100
AcDbEntity
  8
Frei
  6
CONTINUOUS
 62
           7
100
AcDbLine
 10
-14450.492782687752
 20
-5017.301385088148
 30
0.0
 11
-14450.698228874111
 21
-5019.29080507008
 31
0.0
  0
LINE
  5
170
100
AcDbEntity
  8
Frei
  6
CONTINUOUS
 62
           7
100
AcDbLine
 10
-14445.859184648099
 20
-5021.106894869212
 30
0.0
 11
-14445.724678919281
 21
-5019.804420535978
 31
0.0
  0
LINE
  5
171
100
AcDbEntity
  8
Frei
  6
CONTINUOUS
 62
           7
100
AcDbLine
 10
-14449.069409755766
 20
-5003.518279142952
 30
0.0
 11
-14448.182920120043
 21
-5002.293461728459
 31
0.0
  0
LINE
  5
172
100
AcDbEntity
  8
Frei
  6
CONTINUOUS
 62
           7
100
AcDbLine
 10
-14443.961354072118
 20
-5002.729420275618
 30
0.0
 11
-14448.182920120043
 21
-5002.293461728459
 31
0.0
  0
LINE
  5
173
100
AcDbEntity
  8
Frei
  6
CONTINUOUS
 62
           7
100
AcDbLine
 10
-14450.080750696023
 20
-5020.670936322053
 30
0.0
 11
-14450.698228874111
 21
-5019.29080507008
 31
0.0
  0
LINE
  5
174
100
AcDbEntity
  8
Frei
  6
CONTINUOUS
 62
           7
100
AcDbLine
 10
-14448.657377764039
 20
-5006.887830376856
 30
0.0
 11
-14449.274855942125
 21
-5005.507699124883
 31
0.0
  0
LINE
  5
175
100
AcDbEntity
  8
Frei
  6
CONTINUOUS
 62
           7
100
AcDbLine
 10
-14444.435811716114
 20
-5007.323788924015
 30
0.0
 11
-14448.657377764039
 21
-5006.887830376856
 31
0.0
  0
LINE
  5
176
100
AcDbEntity
  8
Frei
  6
CONTINUOUS
 62
           7
100
AcDbLine
 10
-14449.67837312858
 20
-5009.415122124583
 30
0.0
 11
-14448.657377764039
 21
-5006.887830376856
 31
0.0
  0
LINE
  5
177
100
AcDbEntity
  8
Frei
  6
CONTINUOUS
 62
           7
100
AcDbLine
 10
-14449.606293052029
 20
-5016.076567673654
 30
0.0
 11
-14450.089265501298
 21
-5013.393962088447
 31
0.0
  0
LINE
  5
178
100
AcDbEntity
  8
Frei
  6
CONTINUOUS
 62
           7
100
AcDbLine
 10
-14445.384727004104
 20
-5016.512526220813
 30
0.0
 11
-14449.606293052029
 21
-5016.076567673654
 31
0.0
  0
LINE
  5
179
100
AcDbEntity
  8
Frei
  6
CONTINUOUS
 62
           7
100
AcDbLine
 10
-14450.492782687752
 20
-5017.301385088148
 30
0.0
 11
-14449.606293052029
 21
-5016.076567673654
 31
0.0
  0
LINE
  5
17A
100
AcDbEntity
  8
Frei
  6
CONTINUOUS
 62
           3
100
AcDbLine
 10
-14405.111597412151
 20
-5015.927610300512
 30
0.0
 11
-14423.016377249538
 21
-5014.078594623275
 31
0.0
  0
LINE
  5
17B
100
AcDbEntity
  8
Frei
  6
CONTINUOUS
 62
           3
100
AcDbLine
 10
-14405.770057262636
 20
-5016.462802439184
 30
0.0
 11
-14405.111597412151
 21
-5015.927610300512
 31
0.0
  0
LINE
  5
17C
100
AcDbEntity
  8
Frei
  6
CONTINUOUS
 62
           3
100
AcDbLine
 10
-14405.234865123966
 20
-5017.121262289671
 30
0.0
 11
-14405.770057262636
 21
-5016.462802439184
 31
0.0
  0
LINE
  5
17D
100
AcDbEntity
  8
Frei
  6
CONTINUOUS
 62
           3
100
AcDbLine
 10
-14423.139644961355
 20
-5015.272246612434
 30
0.0
 11
-14405.234865123966
 21
-5017.121262289671
 31
0.0
  0
LINE
  5
17E
100
AcDbEntity
  8
Frei
  6
CONTINUOUS
 62
           3
100
AcDbLine
 10
-14422.481185110866
 20
-5014.737054473762
 30
0.0
 11
-14423.139644961355
 21
-5015.272246612434
 31
0.0
  0
LINE
  5
17F
100
AcDbEntity
  8
Frei
  6
CONTINUOUS
 62
           3
100
AcDbLine
 10
-14423.016377249538
 20
-5014.078594623275
 30
0.0
 11
-14422.481185110866
 21
-5014.737054473762
 31
0.0
  0
LINE
  5
180
100
AcDbEntity
  8
Frei
  6
CONTINUOUS
 62
           3
100
AcDbLine
 10
-14405.770057262636
 20
-5016.462802439184
 30
0.0
 11
-14422.481185110866
 21
-5014.737054473762
 31
0.0
  0
LINE
  5
181
100
AcDbEntity
  8
Frei
  6
CONTINUOUS
 62
           3
100
AcDbLine
 10
-14422.934198774996
 20
-5013.282826630502
 30
0.0
 11
-14422.275738924507
 21
-5012.747634491831
 31
0.0
  0
LINE
  5
182
100
AcDbEntity
  8
Frei
  6
CONTINUOUS
 62
           3
100
AcDbLine
 10
-14405.029418937607
 20
-5015.131842307739
 30
0.0
 11
-14422.934198774996
 21
-5013.282826630502
 31
0.0
  0
LINE
  5
183
100
AcDbEntity
  8
Frei
  6
CONTINUOUS
 62
           3
100
AcDbLine
 10
-14405.564611076277
 20
-5014.473382457252
 30
0.0
 11
-14405.029418937607
 21
-5015.131842307739
 31
0.0
  0
LINE
  5
184
100
AcDbEntity
  8
Frei
  6
CONTINUOUS
 62
           3
100
AcDbLine
 10
-14404.90615122579
 20
-5013.93819031858
 30
0.0
 11
-14405.564611076277
 21
-5014.473382457252
 31
0.0
  0
LINE
  5
185
100
AcDbEntity
  8
Frei
  6
CONTINUOUS
 62
           3
100
AcDbLine
 10
-14422.810931063179
 20
-5012.089174641344
 30
0.0
 11
-14404.90615122579
 21
-5013.93819031858
 31
0.0
  0
LINE
  5
186
100
AcDbEntity
  8
Frei
  6
CONTINUOUS
 62
           3
100
AcDbLine
 10
-14422.275738924507
 20
-5012.747634491831
 30
0.0
 11
-14422.810931063179
 21
-5012.089174641344
 31
0.0
  0
LINE
  5
187
100
AcDbEntity
  8
Frei
  6
CONTINUOUS
 62
           3
100
AcDbLine
 10
-14422.275738924507
 20
-5012.747634491831
 30
0.0
 11
-14405.564611076277
 21
-5014.473382457252
 31
0.0
  0
LINE
  5
188
100
AcDbEntity
  8
Frei
  6
CONTINUOUS
 62
           3
100
AcDbLine
 10
-14422.728752588635
 20
-5011.293406648571
 30
0.0
 11
-14422.070292738148
 21
-5010.758214509899
 31
0.0
  0
LINE
  5
189
100
AcDbEntity
  8
Frei
  6
CONTINUOUS
 62
           3
100
AcDbLine
 10
-14404.823972751246
 20
-5013.142422325807
 30
0.0
 11
-14422.728752588635
 21
-5011.293406648571
 31
0.0
  0
LINE
  5
18A
100
AcDbEntity
  8
Frei
  6
CONTINUOUS
 62
           3
100
AcDbLine
 10
-14405.359164889918
 20
-5012.48396247532
 30
0.0
 11
-14404.823972751246
 21
-5013.142422325807
 31
0.0
  0
LINE
  5
18B
100
AcDbEntity
  8
Frei
  6
CONTINUOUS
 62
           3
100
AcDbLine
 10
-14404.700705039431
 20
-5011.948770336649
 30
0.0
 11
-14405.359164889918
 21
-5012.48396247532
 31
0.0
  0
LINE
  5
18C
100
AcDbEntity
  8
Frei
  6
CONTINUOUS
 62
           3
100
AcDbLine
 10
-14422.60548487682
 20
-5010.099754659412
 30
0.0
 11
-14404.700705039431
 21
-5011.948770336649
 31
0.0
  0
LINE
  5
18D
100
AcDbEntity
  8
Frei
  6
CONTINUOUS
 62
           3
100
AcDbLine
 10
-14422.070292738148
 20
-5010.758214509899
 30
0.0
 11
-14422.60548487682
 21
-5010.099754659412
 31
0.0
  0
LINE
  5
18E
100
AcDbEntity
  8
Frei
  6
CONTINUOUS
 62
           3
100
AcDbLine
 10
-14422.523306402276
 20
-5009.303986666639
 30
0.0
 11
-14421.864846551787
 21
-5008.768794527967
 31
0.0
  0
LINE
  5
18F
100
AcDbEntity
  8
Frei
  6
CONTINUOUS
 62
           3
100
AcDbLine
 10
-14416.462618712345
 20
-5009.929870182397
 30
0.0
 11
-14422.523306402276
 21
-5009.303986666639
 31
0.0
  0
LINE
  5
190
100
AcDbEntity
  8
Frei
  6
CONTINUOUS
 62
           3
100
AcDbLine
 10
-14405.153718703557
 20
-5010.494542493389
 30
0.0
 11
-14404.618526564887
 21
-5011.153002343875
 31
0.0
  0
LINE
  5
191
100
AcDbEntity
  8
Frei
  6
CONTINUOUS
 62
           3
100
AcDbLine
 10
-14404.495258853072
 20
-5009.959350354717
 30
0.0
 11
-14405.153718703557
 21
-5010.494542493389
 31
0.0
  0
LINE
  5
192
100
AcDbEntity
  8
Frei
  6
CONTINUOUS
 62
           3
100
AcDbLine
 10
-14410.555946543001
 20
-5009.333466838958
 30
0.0
 11
-14404.495258853072
 21
-5009.959350354717
 31
0.0
  0
LINE
  5
193
100
AcDbEntity
  8
Frei
  6
CONTINUOUS
 62
           3
100
AcDbLine
 10
-14421.864846551787
 20
-5008.768794527967
 30
0.0
 11
-14422.400038690459
 21
-5008.11033467748
 31
0.0
  0
LINE
  5
194
100
AcDbEntity
  8
Frei
  6
CONTINUOUS
 62
           3
100
AcDbLine
 10
-14422.317860215915
 20
-5007.314566684707
 30
0.0
 11
-14421.659400365428
 21
-5006.779374546035
 31
0.0
  0
LINE
  5
195
100
AcDbEntity
  8
Frei
  6
CONTINUOUS
 62
           3
100
AcDbLine
 10
-14416.999441134369
 20
-5007.863796574669
 30
0.0
 11
-14422.317860215915
 21
-5007.314566684707
 31
0.0
  0
LINE
  5
196
100
AcDbEntity
  8
Frei
  6
CONTINUOUS
 62
           3
100
AcDbLine
 10
-14404.948272517198
 20
-5008.505122511457
 30
0.0
 11
-14404.413080378528
 21
-5009.163582361944
 31
0.0
  0
LINE
  5
197
100
AcDbEntity
  8
Frei
  6
CONTINUOUS
 62
           3
100
AcDbLine
 10
-14410.266691598747
 20
-5007.955892621492
 30
0.0
 11
-14404.948272517198
 21
-5008.505122511457
 31
0.0
  0
LINE
  5
198
100
AcDbEntity
  8
Frei
  6
CONTINUOUS
 62
           3
100
AcDbLine
 10
-14415.804158861858
 20
-5009.394678043725
 30
0.0
 11
-14421.864846551787
 21
-5008.768794527967
 31
0.0
  0
LINE
  5
199
100
AcDbEntity
  8
Frei
  6
CONTINUOUS
 62
           3
100
AcDbLine
 10
-14405.359164889918
 20
-5012.48396247532
 30
0.0
 11
-14422.070292738148
 21
-5010.758214509899
 31
0.0
  0
LINE
  5
19A
100
AcDbEntity
  8
Frei
  6
CONTINUOUS
 62
           3
100
AcDbLine
 10
-14415.804158861858
 20
-5009.394678043725
 30
0.0
 11
-14416.339351000528
 21
-5008.736218193239
 31
0.0
  0
LINE
  5
19B
100
AcDbEntity
  8
Frei
  6
CONTINUOUS
 62
           3
100
AcDbLine
 10
-14422.400038690459
 20
-5008.11033467748
 30
0.0
 11
-14416.339351000528
 21
-5008.736218193239
 31
0.0
  0
LINE
  5
19C
100
AcDbEntity
  8
Frei
  6
CONTINUOUS
 62
           3
100
AcDbLine
 10
-14416.462618712345
 20
-5009.929870182397
 30
0.0
 11
-14415.804158861858
 21
-5009.394678043725
 31
0.0
  0
LINE
  5
19D
100
AcDbEntity
  8
Frei
  6
CONTINUOUS
 62
           3
100
AcDbLine
 10
-14416.34098128388
 20
-5007.328604435998
 30
0.0
 11
-14416.999441134369
 21
-5007.863796574669
 31
0.0
  0
LINE
  5
19E
100
AcDbEntity
  8
Frei
  6
CONTINUOUS
 62
           3
100
AcDbLine
 10
-14421.659400365428
 20
-5006.779374546035
 30
0.0
 11
-14416.34098128388
 21
-5007.328604435998
 31
0.0
  0
LINE
  5
19F
100
AcDbEntity
  8
Frei
  6
CONTINUOUS
 62
           3
100
AcDbLine
 10
-14409.731499460073
 20
-5008.614352471981
 30
0.0
 11
-14410.266691598747
 21
-5007.955892621492
 31
0.0
  0
LINE
  5
1A0
100
AcDbEntity
  8
Frei
  6
CONTINUOUS
 62
           3
100
AcDbLine
 10
-14404.413080378528
 20
-5009.163582361944
 30
0.0
 11
-14409.731499460073
 21
-5008.614352471981
 31
0.0
  0
LINE
  5
1A1
100
AcDbEntity
  8
Frei
  6
CONTINUOUS
 62
           3
100
AcDbLine
 10
-14411.214406393488
 20
-5009.868658977628
 30
0.0
 11
-14410.555946543001
 21
-5009.333466838958
 31
0.0
  0
LINE
  5
1A2
100
AcDbEntity
  8
Frei
  6
CONTINUOUS
 62
           3
100
AcDbLine
 10
-14405.153718703557
 20
-5010.494542493389
 30
0.0
 11
-14411.214406393488
 21
-5009.868658977628
 31
0.0
  0
LINE
  5
1A3
100
AcDbEntity
  8
Frei
  6
CONTINUOUS
 62
           3
100
AcDbLine
 10
-14410.679214254817
 20
-5010.527118828117
 30
0.0
 11
-14411.214406393488
 21
-5009.868658977628
 31
0.0
  0
LINE
  5
1A4
100
AcDbEntity
  8
Frei
  6
CONTINUOUS
 62
           3
100
AcDbLine
 10
-14404.618526564887
 20
-5011.153002343875
 30
0.0
 11
-14410.679214254817
 21
-5010.527118828117
 31
0.0
  0
LINE
  5
1A5
100
AcDbEntity
  8
Frei
  6
CONTINUOUS
 62
           3
100
AcDbLine
 10
-14422.400038690459
 20
-5008.11033467748
 30
0.0
 11
-14422.523306402276
 21
-5009.303986666639
 31
0.0
  0
LINE
  5
1A6
100
AcDbEntity
  8
Frei
  6
CONTINUOUS
 62
           3
100
AcDbLine
 10
-14422.728752588635
 20
-5011.293406648571
 30
0.0
 11
-14422.60548487682
 21
-5010.099754659412
 31
0.0
  0
LINE
  5
1A7
100
AcDbEntity
  8
Frei
  6
CONTINUOUS
 62
           3
100
AcDbLine
 10
-14422.934198774996
 20
-5013.282826630502
 30
0.0
 11
-14422.810931063179
 21
-5012.089174641344
 31
0.0
  0
LINE
  5
1A8
100
AcDbEntity
  8
Frei
  6
CONTINUOUS
 62
           3
100
AcDbLine
 10
-14423.139644961355
 20
-5015.272246612434
 30
0.0
 11
-14423.016377249538
 21
-5014.078594623275
 31
0.0
  0
LINE
  5
1A9
100
AcDbEntity
  8
Frei
  6
CONTINUOUS
 62
           3
100
AcDbLine
 10
-14422.256226360008
 20
-5006.717740690126
 30
0.0
 11
-14422.317860215915
 21
-5007.314566684707
 31
0.0
  0
LINE
  5
1AA
100
AcDbEntity
  8
Frei
  6
CONTINUOUS
 62
           3
100
AcDbLine
 10
-14404.413080378528
 20
-5009.163582361944
 30
0.0
 11
-14404.35144652262
 21
-5008.566756367363
 31
0.0
  0
LINE
  5
1AB
100
AcDbEntity
  8
Frei
  6
CONTINUOUS
 62
           3
100
AcDbLine
 10
-14404.618526564887
 20
-5011.153002343875
 30
0.0
 11
-14404.495258853072
 21
-5009.959350354717
 31
0.0
  0
LINE
  5
1AC
100
AcDbEntity
  8
Frei
  6
CONTINUOUS
 62
           3
100
AcDbLine
 10
-14404.823972751246
 20
-5013.142422325807
 30
0.0
 11
-14404.700705039431
 21
-5011.948770336649
 31
0.0
  0
LINE
  5
1AD
100
AcDbEntity
  8
Frei
  6
CONTINUOUS
 62
           3
100
AcDbLine
 10
-14405.029418937607
 20
-5015.131842307739
 30
0.0
 11
-14404.90615122579
 21
-5013.93819031858
 31
0.0
  0
LINE
  5
1AE
100
AcDbEntity
  8
Frei
  6
CONTINUOUS
 62
           3
100
AcDbLine
 10
-14405.234865123966
 20
-5017.121262289671
 30
0.0
 11
-14405.111597412151
 21
-5015.927610300512
 31
0.0
  0
LINE
  5
1AF
100
AcDbEntity
  8
Frei
  6
CONTINUOUS
 62
           3
100
AcDbLine
 10
-14403.591295633089
 20
-5001.205902434216
 30
0.0
 11
-14403.468027921273
 21
-5000.012250445057
 31
0.0
  0
LINE
  5
1B0
100
AcDbEntity
  8
Frei
  6
CONTINUOUS
 62
           3
100
AcDbLine
 10
-14403.796741819449
 20
-5003.195322416148
 30
0.0
 11
-14403.673474107633
 21
-5002.001670426989
 31
0.0
  0
LINE
  5
1B1
100
AcDbEntity
  8
Frei
  6
CONTINUOUS
 62
           3
100
AcDbLine
 10
-14404.002188005808
 20
-5005.18474239808
 30
0.0
 11
-14403.878920293993
 21
-5003.991090408921
 31
0.0
  0
LINE
  5
1B2
100
AcDbEntity
  8
Frei
  6
CONTINUOUS
 62
           3
100
AcDbLine
 10
-14404.207634192167
 20
-5007.174162380012
 30
0.0
 11
-14404.084366480352
 21
-5005.980510390853
 31
0.0
  0
LINE
  5
1B3
100
AcDbEntity
  8
Frei
  6
CONTINUOUS
 62
           3
100
AcDbLine
 10
-14404.35144652262
 20
-5008.566756367363
 30
0.0
 11
-14404.289812666711
 21
-5007.969930372785
 31
0.0
  0
LINE
  5
1B4
100
AcDbEntity
  8
Frei
  6
CONTINUOUS
 62
           3
100
AcDbLine
 10
-14422.1945925041
 20
-5006.120914695548
 30
0.0
 11
-14422.256226360008
 21
-5006.717740690126
 31
0.0
  0
LINE
  5
1B5
100
AcDbEntity
  8
Frei
  6
CONTINUOUS
 62
           3
100
AcDbLine
 10
-14421.496075470477
 20
-4999.356886756978
 30
0.0
 11
-14421.372807758662
 21
-4998.163234767819
 31
0.0
  0
LINE
  5
1B6
100
AcDbEntity
  8
Frei
  6
CONTINUOUS
 62
           3
100
AcDbLine
 10
-14421.701521656836
 20
-5001.34630673891
 30
0.0
 11
-14421.578253945021
 21
-5000.152654749751
 31
0.0
  0
LINE
  5
1B7
100
AcDbEntity
  8
Frei
  6
CONTINUOUS
 62
           3
100
AcDbLine
 10
-14421.906967843197
 20
-5003.335726720843
 30
0.0
 11
-14421.78370013138
 21
-5002.142074731682
 31
0.0
  0
LINE
  5
1B8
100
AcDbEntity
  8
Frei
  6
CONTINUOUS
 62
           3
100
AcDbLine
 10
-14421.989146317741
 20
-5004.131494713615
 30
0.0
 11
-14422.112414029556
 21
-5005.325146702775
 31
0.0
  0
LINE
  5
1B9
100
AcDbEntity
  8
Frei
  6
CONTINUOUS
 62
           3
100
AcDbLine
 10
-14410.145054170282
 20
-5005.354626875093
 30
0.0
 11
-14404.084366480352
 21
-5005.980510390853
 31
0.0
  0
LINE
  5
1BA
100
AcDbEntity
  8
Frei
  6
CONTINUOUS
 62
           3
100
AcDbLine
 10
-14410.80351402077
 20
-5005.889819013764
 30
0.0
 11
-14410.145054170282
 21
-5005.354626875093
 31
0.0
  0
LINE
  5
1BB
100
AcDbEntity
  8
Frei
  6
CONTINUOUS
 62
           3
100
AcDbLine
 10
-14410.80351402077
 20
-5005.889819013764
 30
0.0
 11
-14404.742826330837
 21
-5006.515702529525
 31
0.0
  0
LINE
  5
1BC
100
AcDbEntity
  8
Frei
  6
CONTINUOUS
 62
           3
100
AcDbLine
 10
-14410.268321882098
 20
-5006.548278864253
 30
0.0
 11
-14410.80351402077
 21
-5005.889819013764
 31
0.0
  0
LINE
  5
1BD
100
AcDbEntity
  8
Frei
  6
CONTINUOUS
 62
           3
100
AcDbLine
 10
-14409.608231748258
 20
-5007.420700482822
 30
0.0
 11
-14404.289812666711
 21
-5007.969930372785
 31
0.0
  0
LINE
  5
1BE
100
AcDbEntity
  8
Frei
  6
CONTINUOUS
 62
           3
100
AcDbLine
 10
-14410.266691598747
 20
-5007.955892621492
 30
0.0
 11
-14409.608231748258
 21
-5007.420700482822
 31
0.0
  0
LINE
  5
1BF
100
AcDbEntity
  8
Frei
  6
CONTINUOUS
 62
           3
100
AcDbLine
 10
-14416.876173422552
 20
-5006.670144585511
 30
0.0
 11
-14416.34098128388
 21
-5007.328604435998
 31
0.0
  0
LINE
  5
1C0
100
AcDbEntity
  8
Frei
  6
CONTINUOUS
 62
           3
100
AcDbLine
 10
-14415.393266489138
 20
-5005.415838079862
 30
0.0
 11
-14415.928458627808
 21
-5004.757378229375
 31
0.0
  0
LINE
  5
1C1
100
AcDbEntity
  8
Frei
  6
CONTINUOUS
 62
           3
100
AcDbLine
 10
-14416.051726339625
 20
-5005.951030218534
 30
0.0
 11
-14422.112414029556
 21
-5005.325146702775
 31
0.0
  0
LINE
  5
1C2
100
AcDbEntity
  8
Frei
  6
CONTINUOUS
 62
           3
100
AcDbLine
 10
-14416.051726339625
 20
-5005.951030218534
 30
0.0
 11
-14415.393266489138
 21
-5005.415838079862
 31
0.0
  0
LINE
  5
1C3
100
AcDbEntity
  8
Frei
  6
CONTINUOUS
 62
           3
100
AcDbLine
 10
-14421.248507992708
 20
-5002.80053458217
 30
0.0
 11
-14404.537380144478
 21
-5004.526282547592
 31
0.0
  0
LINE
  5
1C4
100
AcDbEntity
  8
Frei
  6
CONTINUOUS
 62
           3
100
AcDbLine
 10
-14421.453954179067
 20
-5004.789954564103
 30
0.0
 11
-14415.393266489138
 21
-5005.415838079862
 31
0.0
  0
LINE
  5
1C5
100
AcDbEntity
  8
Frei
  6
CONTINUOUS
 62
           3
100
AcDbLine
 10
-14404.289812666711
 20
-5007.969930372785
 30
0.0
 11
-14404.948272517198
 21
-5008.505122511457
 31
0.0
  0
LINE
  5
1C6
100
AcDbEntity
  8
Frei
  6
CONTINUOUS
 62
           3
100
AcDbLine
 10
-14422.1945925041
 20
-5006.120914695548
 30
0.0
 11
-14416.876173422552
 21
-5006.670144585511
 31
0.0
  0
LINE
  5
1C7
100
AcDbEntity
  8
Frei
  6
CONTINUOUS
 62
           3
100
AcDbLine
 10
-14421.659400365428
 20
-5006.779374546035
 30
0.0
 11
-14422.1945925041
 21
-5006.120914695548
 31
0.0
  0
LINE
  5
1C8
100
AcDbEntity
  8
Frei
  6
CONTINUOUS
 62
           3
100
AcDbLine
 10
-14422.112414029556
 20
-5005.325146702775
 30
0.0
 11
-14421.453954179067
 21
-5004.789954564103
 31
0.0
  0
LINE
  5
1C9
100
AcDbEntity
  8
Frei
  6
CONTINUOUS
 62
           3
100
AcDbLine
 10
-14404.207634192167
 20
-5007.174162380012
 30
0.0
 11
-14410.268321882098
 21
-5006.548278864253
 31
0.0
  0
LINE
  5
1CA
100
AcDbEntity
  8
Frei
  6
CONTINUOUS
 62
           3
100
AcDbLine
 10
-14404.742826330837
 20
-5006.515702529525
 30
0.0
 11
-14404.207634192167
 21
-5007.174162380012
 31
0.0
  0
LINE
  5
1CB
100
AcDbEntity
  8
Frei
  6
CONTINUOUS
 62
           3
100
AcDbLine
 10
-14404.084366480352
 20
-5005.980510390853
 30
0.0
 11
-14404.742826330837
 21
-5006.515702529525
 31
0.0
  0
LINE
  5
1CC
100
AcDbEntity
  8
Frei
  6
CONTINUOUS
 62
           3
100
AcDbLine
 10
-14421.989146317741
 20
-5004.131494713615
 30
0.0
 11
-14415.928458627808
 21
-5004.757378229375
 31
0.0
  0
LINE
  5
1CD
100
AcDbEntity
  8
Frei
  6
CONTINUOUS
 62
           3
100
AcDbLine
 10
-14421.453954179067
 20
-5004.789954564103
 30
0.0
 11
-14421.989146317741
 21
-5004.131494713615
 31
0.0
  0
LINE
  5
1CE
100
AcDbEntity
  8
Frei
  6
CONTINUOUS
 62
           3
100
AcDbLine
 10
-14421.906967843197
 20
-5003.335726720843
 30
0.0
 11
-14421.248507992708
 21
-5002.80053458217
 31
0.0
  0
LINE
  5
1CF
100
AcDbEntity
  8
Frei
  6
CONTINUOUS
 62
           3
100
AcDbLine
 10
-14404.002188005808
 20
-5005.18474239808
 30
0.0
 11
-14421.906967843197
 21
-5003.335726720843
 31
0.0
  0
LINE
  5
1D0
100
AcDbEntity
  8
Frei
  6
CONTINUOUS
 62
           3
100
AcDbLine
 10
-14404.537380144478
 20
-5004.526282547592
 30
0.0
 11
-14404.002188005808
 21
-5005.18474239808
 31
0.0
  0
LINE
  5
1D1
100
AcDbEntity
  8
Frei
  6
CONTINUOUS
 62
           3
100
AcDbLine
 10
-14403.878920293993
 20
-5003.991090408921
 30
0.0
 11
-14404.537380144478
 21
-5004.526282547592
 31
0.0
  0
LINE
  5
1D2
100
AcDbEntity
  8
Frei
  6
CONTINUOUS
 62
           3
100
AcDbLine
 10
-14421.78370013138
 20
-5002.142074731682
 30
0.0
 11
-14403.878920293993
 21
-5003.991090408921
 31
0.0
  0
LINE
  5
1D3
100
AcDbEntity
  8
Frei
  6
CONTINUOUS
 62
           3
100
AcDbLine
 10
-14421.248507992708
 20
-5002.80053458217
 30
0.0
 11
-14421.78370013138
 21
-5002.142074731682
 31
0.0
  0
LINE
  5
1D4
100
AcDbEntity
  8
Frei
  6
CONTINUOUS
 62
           3
100
AcDbLine
 10
-14404.331933958119
 20
-5002.53686256566
 30
0.0
 11
-14421.043061806349
 21
-5000.811114600238
 31
0.0
  0
LINE
  5
1D5
100
AcDbEntity
  8
Frei
  6
CONTINUOUS
 62
           3
100
AcDbLine
 10
-14421.701521656836
 20
-5001.34630673891
 30
0.0
 11
-14421.043061806349
 21
-5000.811114600238
 31
0.0
  0
LINE
  5
1D6
100
AcDbEntity
  8
Frei
  6
CONTINUOUS
 62
           3
100
AcDbLine
 10
-14403.796741819449
 20
-5003.195322416148
 30
0.0
 11
-14421.701521656836
 21
-5001.34630673891
 31
0.0
  0
LINE
  5
1D7
100
AcDbEntity
  8
Frei
  6
CONTINUOUS
 62
           3
100
AcDbLine
 10
-14404.331933958119
 20
-5002.53686256566
 30
0.0
 11
-14403.796741819449
 21
-5003.195322416148
 31
0.0
  0
LINE
  5
1D8
100
AcDbEntity
  8
Frei
  6
CONTINUOUS
 62
           3
100
AcDbLine
 10
-14403.673474107633
 20
-5002.001670426989
 30
0.0
 11
-14404.331933958119
 21
-5002.53686256566
 31
0.0
  0
LINE
  5
1D9
100
AcDbEntity
  8
Frei
  6
CONTINUOUS
 62
           3
100
AcDbLine
 10
-14421.578253945021
 20
-5000.152654749751
 30
0.0
 11
-14403.673474107633
 21
-5002.001670426989
 31
0.0
  0
LINE
  5
1DA
100
AcDbEntity
  8
Frei
  6
CONTINUOUS
 62
           3
100
AcDbLine
 10
-14421.043061806349
 20
-5000.811114600238
 30
0.0
 11
-14421.578253945021
 21
-5000.152654749751
 31
0.0
  0
LINE
  5
1DB
100
AcDbEntity
  8
Frei
  6
CONTINUOUS
 62
           3
100
AcDbLine
 10
-14420.837615619988
 20
-4998.821694618306
 30
0.0
 11
-14404.126487771759
 21
-5000.547442583727
 31
0.0
  0
LINE
  5
1DC
100
AcDbEntity
  8
Frei
  6
CONTINUOUS
 62
           3
100
AcDbLine
 10
-14420.837615619988
 20
-4998.821694618306
 30
0.0
 11
-14421.496075470477
 21
-4999.356886756978
 31
0.0
  0
LINE
  5
1DD
100
AcDbEntity
  8
Frei
  6
CONTINUOUS
 62
           3
100
AcDbLine
 10
-14421.372807758662
 20
-4998.163234767819
 30
0.0
 11
-14420.837615619988
 21
-4998.821694618306
 31
0.0
  0
LINE
  5
1DE
100
AcDbEntity
  8
Frei
  6
CONTINUOUS
 62
           3
100
AcDbLine
 10
-14403.468027921273
 20
-5000.012250445057
 30
0.0
 11
-14421.372807758662
 21
-4998.163234767819
 31
0.0
  0
LINE
  5
1DF
100
AcDbEntity
  8
Frei
  6
CONTINUOUS
 62
           3
100
AcDbLine
 10
-14404.126487771759
 20
-5000.547442583727
 30
0.0
 11
-14403.468027921273
 21
-5000.012250445057
 31
0.0
  0
LINE
  5
1E0
100
AcDbEntity
  8
Frei
  6
CONTINUOUS
 62
           3
100
AcDbLine
 10
-14403.591295633089
 20
-5001.205902434216
 30
0.0
 11
-14404.126487771759
 21
-5000.547442583727
 31
0.0
  0
LINE
  5
1E1
100
AcDbEntity
  8
Frei
  6
CONTINUOUS
 62
           3
100
AcDbLine
 10
-14421.496075470477
 20
-4999.356886756978
 30
0.0
 11
-14403.591295633089
 21
-5001.205902434216
 31
0.0
  0
LINE
  5
1E2
100
AcDbEntity
  8
Frei
  6
CONTINUOUS
 62
           3
100
AcDbLine
 10
-14231.50646719597
 20
-5018.976997554331
 30
0.0
 11
-14213.601687358583
 21
-5020.826013231568
 31
0.0
  0
LINE
  5
1E3
100
AcDbEntity
  8
Frei
  6
CONTINUOUS
 62
           3
100
AcDbLine
 10
-14230.848007345485
 20
-5018.441805415658
 30
0.0
 11
-14231.50646719597
 21
-5018.976997554331
 31
0.0
  0
LINE
  5
1E4
100
AcDbEntity
  8
Frei
  6
CONTINUOUS
 62
           3
100
AcDbLine
 10
-14231.383199484155
 20
-5017.783345565171
 30
0.0
 11
-14230.848007345485
 21
-5018.441805415658
 31
0.0
  0
LINE
  5
1E5
100
AcDbEntity
  8
Frei
  6
CONTINUOUS
 62
           3
100
AcDbLine
 10
-14213.478419646766
 20
-5019.632361242409
 30
0.0
 11
-14231.383199484155
 21
-5017.783345565171
 31
0.0
  0
LINE
  5
1E6
100
AcDbEntity
  8
Frei
  6
CONTINUOUS
 62
           3
100
AcDbLine
 10
-14214.136879497255
 20
-5020.167553381079
 30
0.0
 11
-14213.478419646766
 21
-5019.632361242409
 31
0.0
  0
LINE
  5
1E7
100
AcDbEntity
  8
Frei
  6
CONTINUOUS
 62
           3
100
AcDbLine
 10
-14213.601687358583
 20
-5020.826013231568
 30
0.0
 11
-14214.136879497255
 21
-5020.167553381079
 31
0.0
  0
LINE
  5
1E8
100
AcDbEntity
  8
Frei
  6
CONTINUOUS
 62
           3
100
AcDbLine
 10
-14230.848007345485
 20
-5018.441805415658
 30
0.0
 11
-14214.136879497255
 21
-5020.167553381079
 31
0.0
  0
LINE
  5
1E9
100
AcDbEntity
  8
Frei
  6
CONTINUOUS
 62
           3
100
AcDbLine
 10
-14213.683865833127
 20
-5021.621781224341
 30
0.0
 11
-14214.342325683614
 21
-5022.156973363012
 31
0.0
  0
LINE
  5
1EA
100
AcDbEntity
  8
Frei
  6
CONTINUOUS
 62
           3
100
AcDbLine
 10
-14231.588645670514
 20
-5019.772765547104
 30
0.0
 11
-14213.683865833127
 21
-5021.621781224341
 31
0.0
  0
LINE
  5
1EB
100
AcDbEntity
  8
Frei
  6
CONTINUOUS
 62
           3
100
AcDbLine
 10
-14231.053453531844
 20
-5020.43122539759
 30
0.0
 11
-14231.588645670514
 21
-5019.772765547104
 31
0.0
  0
LINE
  5
1EC
100
AcDbEntity
  8
Frei
  6
CONTINUOUS
 62
           3
100
AcDbLine
 10
-14231.711913382331
 20
-5020.966417536263
 30
0.0
 11
-14231.053453531844
 21
-5020.43122539759
 31
0.0
  0
LINE
  5
1ED
100
AcDbEntity
  8
Frei
  6
CONTINUOUS
 62
           3
100
AcDbLine
 10
-14213.807133544942
 20
-5022.8154332135
 30
0.0
 11
-14231.711913382331
 21
-5020.966417536263
 31
0.0
  0
LINE
  5
1EE
100
AcDbEntity
  8
Frei
  6
CONTINUOUS
 62
           3
100
AcDbLine
 10
-14214.342325683614
 20
-5022.156973363012
 30
0.0
 11
-14213.807133544942
 21
-5022.8154332135
 31
0.0
  0
LINE
  5
1EF
100
AcDbEntity
  8
Frei
  6
CONTINUOUS
 62
           3
100
AcDbLine
 10
-14214.342325683614
 20
-5022.156973363012
 30
0.0
 11
-14231.053453531844
 21
-5020.43122539759
 31
0.0
  0
LINE
  5
1F0
100
AcDbEntity
  8
Frei
  6
CONTINUOUS
 62
           3
100
AcDbLine
 10
-14213.889312019486
 20
-5023.611201206273
 30
0.0
 11
-14214.547771869975
 21
-5024.146393344944
 31
0.0
  0
LINE
  5
1F1
100
AcDbEntity
  8
Frei
  6
CONTINUOUS
 62
           3
100
AcDbLine
 10
-14231.794091856875
 20
-5021.762185529035
 30
0.0
 11
-14213.889312019486
 21
-5023.611201206273
 31
0.0
  0
LINE
  5
1F2
100
AcDbEntity
  8
Frei
  6
CONTINUOUS
 62
           3
100
AcDbLine
 10
-14231.258899718205
 20
-5022.420645379522
 30
0.0
 11
-14231.794091856875
 21
-5021.762185529035
 31
0.0
  0
LINE
  5
1F3
100
AcDbEntity
  8
Frei
  6
CONTINUOUS
 62
           3
100
AcDbLine
 10
-14231.91735956869
 20
-5022.955837518195
 30
0.0
 11
-14231.258899718205
 21
-5022.420645379522
 31
0.0
  0
LINE
  5
1F4
100
AcDbEntity
  8
Frei
  6
CONTINUOUS
 62
           3
100
AcDbLine
 10
-14214.012579731303
 20
-5024.804853195432
 30
0.0
 11
-14231.91735956869
 21
-5022.955837518195
 31
0.0
  0
LINE
  5
1F5
100
AcDbEntity
  8
Frei
  6
CONTINUOUS
 62
           3
100
AcDbLine
 10
-14214.547771869975
 20
-5024.146393344944
 30
0.0
 11
-14214.012579731303
 21
-5024.804853195432
 31
0.0
  0
LINE
  5
1F6
100
AcDbEntity
  8
Frei
  6
CONTINUOUS
 62
           3
100
AcDbLine
 10
-14214.094758205847
 20
-5025.600621188205
 30
0.0
 11
-14214.753218056334
 21
-5026.135813326877
 31
0.0
  0
LINE
  5
1F7
100
AcDbEntity
  8
Frei
  6
CONTINUOUS
 62
           3
100
AcDbLine
 10
-14220.155445895778
 20
-5024.974737672445
 30
0.0
 11
-14214.094758205847
 21
-5025.600621188205
 31
0.0
  0
LINE
  5
1F8
100
AcDbEntity
  8
Frei
  6
CONTINUOUS
 62
           3
100
AcDbLine
 10
-14231.464345904564
 20
-5024.410065361455
 30
0.0
 11
-14231.999538043234
 21
-5023.751605510968
 31
0.0
  0
LINE
  5
1F9
100
AcDbEntity
  8
Frei
  6
CONTINUOUS
 62
           3
100
AcDbLine
 10
-14232.122805755051
 20
-5024.945257500127
 30
0.0
 11
-14231.464345904564
 21
-5024.410065361455
 31
0.0
  0
LINE
  5
1FA
100
AcDbEntity
  8
Frei
  6
CONTINUOUS
 62
           3
100
AcDbLine
 10
-14226.06211806512
 20
-5025.571141015886
 30
0.0
 11
-14232.122805755051
 21
-5024.945257500127
 31
0.0
  0
LINE
  5
1FB
100
AcDbEntity
  8
Frei
  6
CONTINUOUS
 62
           3
100
AcDbLine
 10
-14214.753218056334
 20
-5026.135813326877
 30
0.0
 11
-14214.218025917662
 21
-5026.794273177364
 31
0.0
  0
LINE
  5
1FC
100
AcDbEntity
  8
Frei
  6
CONTINUOUS
 62
           3
100
AcDbLine
 10
-14214.300204392206
 20
-5027.590041170137
 30
0.0
 11
-14214.958664242693
 21
-5028.125233308809
 31
0.0
  0
LINE
  5
1FD
100
AcDbEntity
  8
Frei
  6
CONTINUOUS
 62
           3
100
AcDbLine
 10
-14219.618623473754
 20
-5027.040811280174
 30
0.0
 11
-14214.300204392206
 21
-5027.590041170137
 31
0.0
  0
LINE
  5
1FE
100
AcDbEntity
  8
Frei
  6
CONTINUOUS
 62
           3
100
AcDbLine
 10
-14231.669792090923
 20
-5026.399485343387
 30
0.0
 11
-14232.204984229595
 21
-5025.7410254929
 31
0.0
  0
LINE
  5
1FF
100
AcDbEntity
  8
Frei
  6
CONTINUOUS
 62
           3
100
AcDbLine
 10
-14220.813905746263
 20
-5025.509929811116
 30
0.0
 11
-14214.753218056334
 21
-5026.135813326877
 31
0.0
  0
LINE
  5
200
100
AcDbEntity
  8
Frei
  6
CONTINUOUS
 62
           3
100
AcDbLine
 10
-14231.258899718205
 20
-5022.420645379522
 30
0.0
 11
-14214.547771869975
 21
-5024.146393344944
 31
0.0
  0
LINE
  5
201
100
AcDbEntity
  8
Frei
  6
CONTINUOUS
 62
           3
100
AcDbLine
 10
-14220.813905746263
 20
-5025.509929811116
 30
0.0
 11
-14220.278713607593
 21
-5026.168389661605
 31
0.0
  0
LINE
  5
202
100
AcDbEntity
  8
Frei
  6
CONTINUOUS
 62
           3
100
AcDbLine
 10
-14214.218025917662
 20
-5026.794273177364
 30
0.0
 11
-14220.278713607593
 21
-5026.168389661605
 31
0.0
  0
LINE
  5
203
100
AcDbEntity
  8
Frei
  6
CONTINUOUS
 62
           3
100
AcDbLine
 10
-14220.155445895778
 20
-5024.974737672445
 30
0.0
 11
-14220.813905746263
 21
-5025.509929811116
 31
0.0
  0
LINE
  5
204
100
AcDbEntity
  8
Frei
  6
CONTINUOUS
 62
           3
100
AcDbLine
 10
-14220.277083324241
 20
-5027.576003418844
 30
0.0
 11
-14219.618623473754
 21
-5027.040811280174
 31
0.0
  0
LINE
  5
205
100
AcDbEntity
  8
Frei
  6
CONTINUOUS
 62
           3
100
AcDbLine
 10
-14226.886565148048
 20
-5026.290255382863
 30
0.0
 11
-14226.351373009376
 21
-5026.94871523335
 31
0.0
  0
LINE
  5
206
100
AcDbEntity
  8
Frei
  6
CONTINUOUS
 62
           3
100
AcDbLine
 10
-14232.204984229595
 20
-5025.7410254929
 30
0.0
 11
-14226.886565148048
 21
-5026.290255382863
 31
0.0
  0
LINE
  5
207
100
AcDbEntity
  8
Frei
  6
CONTINUOUS
 62
           3
100
AcDbLine
 10
-14225.403658214633
 20
-5025.035948877214
 30
0.0
 11
-14226.06211806512
 21
-5025.571141015886
 31
0.0
  0
LINE
  5
208
100
AcDbEntity
  8
Frei
  6
CONTINUOUS
 62
           3
100
AcDbLine
 10
-14231.464345904564
 20
-5024.410065361455
 30
0.0
 11
-14225.403658214633
 21
-5025.035948877214
 31
0.0
  0
LINE
  5
209
100
AcDbEntity
  8
Frei
  6
CONTINUOUS
 62
           3
100
AcDbLine
 10
-14225.938850353305
 20
-5024.377489026727
 30
0.0
 11
-14225.403658214633
 21
-5025.035948877214
 31
0.0
  0
LINE
  5
20A
100
AcDbEntity
  8
Frei
  6
CONTINUOUS
 62
           3
100
AcDbLine
 10
-14231.999538043234
 20
-5023.751605510968
 30
0.0
 11
-14225.938850353305
 21
-5024.377489026727
 31
0.0
  0
LINE
  5
20B
100
AcDbEntity
  8
Frei
  6
CONTINUOUS
 62
           3
100
AcDbLine
 10
-14214.218025917662
 20
-5026.794273177364
 30
0.0
 11
-14214.094758205847
 21
-5025.600621188205
 31
0.0
  0
LINE
  5
20C
100
AcDbEntity
  8
Frei
  6
CONTINUOUS
 62
           3
100
AcDbLine
 10
-14213.889312019486
 20
-5023.611201206273
 30
0.0
 11
-14214.012579731303
 21
-5024.804853195432
 31
0.0
  0
LINE
  5
20D
100
AcDbEntity
  8
Frei
  6
CONTINUOUS
 62
           3
100
AcDbLine
 10
-14213.683865833127
 20
-5021.621781224341
 30
0.0
 11
-14213.807133544942
 21
-5022.8154332135
 31
0.0
  0
LINE
  5
20E
100
AcDbEntity
  8
Frei
  6
CONTINUOUS
 62
           3
100
AcDbLine
 10
-14213.478419646766
 20
-5019.632361242409
 30
0.0
 11
-14213.601687358583
 21
-5020.826013231568
 31
0.0
  0
LINE
  5
20F
100
AcDbEntity
  8
Frei
  6
CONTINUOUS
 62
           3
100
AcDbLine
 10
-14214.361838248115
 20
-5028.186867164715
 30
0.0
 11
-14214.300204392206
 21
-5027.590041170137
 31
0.0
  0
LINE
  5
210
100
AcDbEntity
  8
Frei
  6
CONTINUOUS
 62
           3
100
AcDbLine
 10
-14232.204984229595
 20
-5025.7410254929
 30
0.0
 11
-14232.266618085501
 21
-5026.337851487479
 31
0.0
  0
LINE
  5
211
100
AcDbEntity
  8
Frei
  6
CONTINUOUS
 62
           3
100
AcDbLine
 10
-14231.999538043234
 20
-5023.751605510968
 30
0.0
 11
-14232.122805755051
 21
-5024.945257500127
 31
0.0
  0
LINE
  5
212
100
AcDbEntity
  8
Frei
  6
CONTINUOUS
 62
           3
100
AcDbLine
 10
-14231.794091856875
 20
-5021.762185529035
 30
0.0
 11
-14231.91735956869
 21
-5022.955837518195
 31
0.0
  0
LINE
  5
213
100
AcDbEntity
  8
Frei
  6
CONTINUOUS
 62
           3
100
AcDbLine
 10
-14231.588645670514
 20
-5019.772765547104
 30
0.0
 11
-14231.711913382331
 21
-5020.966417536263
 31
0.0
  0
LINE
  5
214
100
AcDbEntity
  8
Frei
  6
CONTINUOUS
 62
           3
100
AcDbLine
 10
-14231.383199484155
 20
-5017.783345565171
 30
0.0
 11
-14231.50646719597
 21
-5018.976997554331
 31
0.0
  0
LINE
  5
215
100
AcDbEntity
  8
Frei
  6
CONTINUOUS
 62
           3
100
AcDbLine
 10
-14233.026768975033
 20
-5033.698705420627
 30
0.0
 11
-14233.150036686848
 21
-5034.892357409786
 31
0.0
  0
LINE
  5
216
100
AcDbEntity
  8
Frei
  6
CONTINUOUS
 62
           3
100
AcDbLine
 10
-14232.821322788674
 20
-5031.709285438696
 30
0.0
 11
-14232.944590500489
 21
-5032.902937427854
 31
0.0
  0
LINE
  5
217
100
AcDbEntity
  8
Frei
  6
CONTINUOUS
 62
           3
100
AcDbLine
 10
-14232.615876602313
 20
-5029.719865456764
 30
0.0
 11
-14232.73914431413
 21
-5030.913517445923
 31
0.0
  0
LINE
  5
218
100
AcDbEntity
  8
Frei
  6
CONTINUOUS
 62
           3
100
AcDbLine
 10
-14232.410430415954
 20
-5027.730445474832
 30
0.0
 11
-14232.533698127769
 21
-5028.924097463991
 31
0.0
  0
LINE
  5
219
100
AcDbEntity
  8
Frei
  6
CONTINUOUS
 62
           3
100
AcDbLine
 10
-14232.266618085501
 20
-5026.337851487479
 30
0.0
 11
-14232.32825194141
 21
-5026.934677482059
 31
0.0
  0
LINE
  5
21A
100
AcDbEntity
  8
Frei
  6
CONTINUOUS
 62
           3
100
AcDbLine
 10
-14214.423472104021
 20
-5028.783693159296
 30
0.0
 11
-14214.361838248115
 21
-5028.186867164715
 31
0.0
  0
LINE
  5
21B
100
AcDbEntity
  8
Frei
  6
CONTINUOUS
 62
           3
100
AcDbLine
 10
-14215.121989137644
 20
-5035.547721097864
 30
0.0
 11
-14215.245256849461
 21
-5036.741373087024
 31
0.0
  0
LINE
  5
21C
100
AcDbEntity
  8
Frei
  6
CONTINUOUS
 62
           3
100
AcDbLine
 10
-14214.916542951285
 20
-5033.558301115932
 30
0.0
 11
-14215.0398106631
 21
-5034.751953105091
 31
0.0
  0
LINE
  5
21D
100
AcDbEntity
  8
Frei
  6
CONTINUOUS
 62
           3
100
AcDbLine
 10
-14214.711096764926
 20
-5031.568881134001
 30
0.0
 11
-14214.834364476741
 21
-5032.762533123159
 31
0.0
  0
LINE
  5
21E
100
AcDbEntity
  8
Frei
  6
CONTINUOUS
 62
           3
100
AcDbLine
 10
-14214.628918290382
 20
-5030.773113141227
 30
0.0
 11
-14214.505650578565
 21
-5029.579461152069
 31
0.0
  0
LINE
  5
21F
100
AcDbEntity
  8
Frei
  6
CONTINUOUS
 62
           3
100
AcDbLine
 10
-14226.47301043784
 20
-5029.549980979749
 30
0.0
 11
-14232.533698127769
 21
-5028.924097463991
 31
0.0
  0
LINE
  5
220
100
AcDbEntity
  8
Frei
  6
CONTINUOUS
 62
           3
100
AcDbLine
 10
-14225.814550587353
 20
-5029.014788841078
 30
0.0
 11
-14226.47301043784
 21
-5029.549980979749
 31
0.0
  0
LINE
  5
221
100
AcDbEntity
  8
Frei
  6
CONTINUOUS
 62
           3
100
AcDbLine
 10
-14225.814550587353
 20
-5029.014788841078
 30
0.0
 11
-14231.875238277284
 21
-5028.388905325319
 31
0.0
  0
LINE
  5
222
100
AcDbEntity
  8
Frei
  6
CONTINUOUS
 62
           3
100
AcDbLine
 10
-14226.349742726024
 20
-5028.356328990591
 30
0.0
 11
-14225.814550587353
 21
-5029.014788841078
 31
0.0
  0
LINE
  5
223
100
AcDbEntity
  8
Frei
  6
CONTINUOUS
 62
           3
100
AcDbLine
 10
-14227.009832859863
 20
-5027.483907372021
 30
0.0
 11
-14232.32825194141
 21
-5026.934677482059
 31
0.0
  0
LINE
  5
224
100
AcDbEntity
  8
Frei
  6
CONTINUOUS
 62
           3
100
AcDbLine
 10
-14226.351373009376
 20
-5026.94871523335
 30
0.0
 11
-14227.009832859863
 21
-5027.483907372021
 31
0.0
  0
LINE
  5
225
100
AcDbEntity
  8
Frei
  6
CONTINUOUS
 62
           3
100
AcDbLine
 10
-14220.277083324241
 20
-5027.576003418844
 30
0.0
 11
-14214.958664242693
 21
-5028.125233308809
 31
0.0
  0
LINE
  5
226
100
AcDbEntity
  8
Frei
  6
CONTINUOUS
 62
           3
100
AcDbLine
 10
-14219.741891185569
 20
-5028.234463269333
 30
0.0
 11
-14220.277083324241
 21
-5027.576003418844
 31
0.0
  0
LINE
  5
227
100
AcDbEntity
  8
Frei
  6
CONTINUOUS
 62
           3
100
AcDbLine
 10
-14221.224798118983
 20
-5029.48876977498
 30
0.0
 11
-14220.689605980313
 21
-5030.147229625469
 31
0.0
  0
LINE
  5
228
100
AcDbEntity
  8
Frei
  6
CONTINUOUS
 62
           3
100
AcDbLine
 10
-14220.566338268498
 20
-5028.95357763631
 30
0.0
 11
-14214.505650578565
 21
-5029.579461152069
 31
0.0
  0
LINE
  5
229
100
AcDbEntity
  8
Frei
  6
CONTINUOUS
 62
           3
100
AcDbLine
 10
-14220.566338268498
 20
-5028.95357763631
 30
0.0
 11
-14221.224798118983
 21
-5029.48876977498
 31
0.0
  0
LINE
  5
22A
100
AcDbEntity
  8
Frei
  6
CONTINUOUS
 62
           3
100
AcDbLine
 10
-14215.369556615413
 20
-5032.104073272672
 30
0.0
 11
-14232.080684463643
 21
-5030.378325307251
 31
0.0
  0
LINE
  5
22B
100
AcDbEntity
  8
Frei
  6
CONTINUOUS
 62
           3
100
AcDbLine
 10
-14215.164110429054
 20
-5030.114653290741
 30
0.0
 11
-14221.224798118983
 21
-5029.48876977498
 31
0.0
  0
LINE
  5
22C
100
AcDbEntity
  8
Frei
  6
CONTINUOUS
 62
           3
100
AcDbLine
 10
-14231.669792090923
 20
-5026.399485343387
 30
0.0
 11
-14226.351373009376
 21
-5026.94871523335
 31
0.0
  0
LINE
  5
22D
100
AcDbEntity
  8
Frei
  6
CONTINUOUS
 62
           3
100
AcDbLine
 10
-14232.32825194141
 20
-5026.934677482059
 30
0.0
 11
-14231.669792090923
 21
-5026.399485343387
 31
0.0
  0
LINE
  5
22E
100
AcDbEntity
  8
Frei
  6
CONTINUOUS
 62
           3
100
AcDbLine
 10
-14214.423472104021
 20
-5028.783693159296
 30
0.0
 11
-14219.741891185569
 21
-5028.234463269333
 31
0.0
  0
LINE
  5
22F
100
AcDbEntity
  8
Frei
  6
CONTINUOUS
 62
           3
100
AcDbLine
 10
-14214.958664242693
 20
-5028.125233308809
 30
0.0
 11
-14214.423472104021
 21
-5028.783693159296
 31
0.0
  0
LINE
  5
230
100
AcDbEntity
  8
Frei
  6
CONTINUOUS
 62
           3
100
AcDbLine
 10
-14214.505650578565
 20
-5029.579461152069
 30
0.0
 11
-14215.164110429054
 21
-5030.114653290741
 31
0.0
  0
LINE
  5
231
100
AcDbEntity
  8
Frei
  6
CONTINUOUS
 62
           3
100
AcDbLine
 10
-14232.410430415954
 20
-5027.730445474832
 30
0.0
 11
-14226.349742726024
 21
-5028.356328990591
 31
0.0
  0
LINE
  5
232
100
AcDbEntity
  8
Frei
  6
CONTINUOUS
 62
           3
100
AcDbLine
 10
-14231.875238277284
 20
-5028.388905325319
 30
0.0
 11
-14232.410430415954
 21
-5027.730445474832
 31
0.0
  0
LINE
  5
233
100
AcDbEntity
  8
Frei
  6
CONTINUOUS
 62
           3
100
AcDbLine
 10
-14232.533698127769
 20
-5028.924097463991
 30
0.0
 11
-14231.875238277284
 21
-5028.388905325319
 31
0.0
  0
LINE
  5
234
100
AcDbEntity
  8
Frei
  6
CONTINUOUS
 62
           3
100
AcDbLine
 10
-14214.628918290382
 20
-5030.773113141227
 30
0.0
 11
-14220.689605980313
 21
-5030.147229625469
 31
0.0
  0
LINE
  5
235
100
AcDbEntity
  8
Frei
  6
CONTINUOUS
 62
           3
100
AcDbLine
 10
-14215.164110429054
 20
-5030.114653290741
 30
0.0
 11
-14214.628918290382
 21
-5030.773113141227
 31
0.0
  0
LINE
  5
236
100
AcDbEntity
  8
Frei
  6
CONTINUOUS
 62
           3
100
AcDbLine
 10
-14214.711096764926
 20
-5031.568881134001
 30
0.0
 11
-14215.369556615413
 21
-5032.104073272672
 31
0.0
  0
LINE
  5
237
100
AcDbEntity
  8
Frei
  6
CONTINUOUS
 62
           3
100
AcDbLine
 10
-14232.615876602313
 20
-5029.719865456764
 30
0.0
 11
-14214.711096764926
 21
-5031.568881134001
 31
0.0
  0
LINE
  5
238
100
AcDbEntity
  8
Frei
  6
CONTINUOUS
 62
           3
100
AcDbLine
 10
-14232.080684463643
 20
-5030.378325307251
 30
0.0
 11
-14232.615876602313
 21
-5029.719865456764
 31
0.0
  0
LINE
  5
239
100
AcDbEntity
  8
Frei
  6
CONTINUOUS
 62
           3
100
AcDbLine
 10
-14232.73914431413
 20
-5030.913517445923
 30
0.0
 11
-14232.080684463643
 21
-5030.378325307251
 31
0.0
  0
LINE
  5
23A
100
AcDbEntity
  8
Frei
  6
CONTINUOUS
 62
           3
100
AcDbLine
 10
-14214.834364476741
 20
-5032.762533123159
 30
0.0
 11
-14232.73914431413
 21
-5030.913517445923
 31
0.0
  0
LINE
  5
23B
100
AcDbEntity
  8
Frei
  6
CONTINUOUS
 62
           3
100
AcDbLine
 10
-14215.369556615413
 20
-5032.104073272672
 30
0.0
 11
-14214.834364476741
 21
-5032.762533123159
 31
0.0
  0
LINE
  5
23C
100
AcDbEntity
  8
Frei
  6
CONTINUOUS
 62
           3
100
AcDbLine
 10
-14232.286130650002
 20
-5032.367745289183
 30
0.0
 11
-14215.575002801774
 21
-5034.093493254604
 31
0.0
  0
LINE
  5
23D
100
AcDbEntity
  8
Frei
  6
CONTINUOUS
 62
           3
100
AcDbLine
 10
-14214.916542951285
 20
-5033.558301115932
 30
0.0
 11
-14215.575002801774
 21
-5034.093493254604
 31
0.0
  0
LINE
  5
23E
100
AcDbEntity
  8
Frei
  6
CONTINUOUS
 62
           3
100
AcDbLine
 10
-14232.821322788674
 20
-5031.709285438696
 30
0.0
 11
-14214.916542951285
 21
-5033.558301115932
 31
0.0
  0
LINE
  5
23F
100
AcDbEntity
  8
Frei
  6
CONTINUOUS
 62
           3
100
AcDbLine
 10
-14232.286130650002
 20
-5032.367745289183
 30
0.0
 11
-14232.821322788674
 21
-5031.709285438696
 31
0.0
  0
LINE
  5
240
100
AcDbEntity
  8
Frei
  6
CONTINUOUS
 62
           3
100
AcDbLine
 10
-14232.944590500489
 20
-5032.902937427854
 30
0.0
 11
-14232.286130650002
 21
-5032.367745289183
 31
0.0
  0
LINE
  5
241
100
AcDbEntity
  8
Frei
  6
CONTINUOUS
 62
           3
100
AcDbLine
 10
-14215.0398106631
 20
-5034.751953105091
 30
0.0
 11
-14232.944590500489
 21
-5032.902937427854
 31
0.0
  0
LINE
  5
242
100
AcDbEntity
  8
Frei
  6
CONTINUOUS
 62
           3
100
AcDbLine
 10
-14215.575002801774
 20
-5034.093493254604
 30
0.0
 11
-14215.0398106631
 21
-5034.751953105091
 31
0.0
  0
LINE
  5
243
100
AcDbEntity
  8
Frei
  6
CONTINUOUS
 62
           3
100
AcDbLine
 10
-14215.780448988133
 20
-5036.082913236536
 30
0.0
 11
-14232.491576836363
 21
-5034.357165271114
 31
0.0
  0
LINE
  5
244
100
AcDbEntity
  8
Frei
  6
CONTINUOUS
 62
           3
100
AcDbLine
 10
-14215.780448988133
 20
-5036.082913236536
 30
0.0
 11
-14215.121989137644
 21
-5035.547721097864
 31
0.0
  0
LINE
  5
245
100
AcDbEntity
  8
Frei
  6
CONTINUOUS
 62
           3
100
AcDbLine
 10
-14215.245256849461
 20
-5036.741373087024
 30
0.0
 11
-14215.780448988133
 21
-5036.082913236536
 31
0.0
  0
LINE
  5
246
100
AcDbEntity
  8
Frei
  6
CONTINUOUS
 62
           3
100
AcDbLine
 10
-14233.150036686848
 20
-5034.892357409786
 30
0.0
 11
-14215.245256849461
 21
-5036.741373087024
 31
0.0
  0
LINE
  5
247
100
AcDbEntity
  8
Frei
  6
CONTINUOUS
 62
           3
100
AcDbLine
 10
-14232.491576836363
 20
-5034.357165271114
 30
0.0
 11
-14233.150036686848
 21
-5034.892357409786
 31
0.0
  0
LINE
  5
248
100
AcDbEntity
  8
Frei
  6
CONTINUOUS
 62
           3
100
AcDbLine
 10
-14233.026768975033
 20
-5033.698705420627
 30
0.0
 11
-14232.491576836363
 21
-5034.357165271114
 31
0.0
  0
LINE
  5
249
100
AcDbEntity
  8
Frei
  6
CONTINUOUS
 62
           3
100
AcDbLine
 10
-14215.121989137644
 20
-5035.547721097864
 30
0.0
 11
-14233.026768975033
 21
-5033.698705420627
 31
0.0
  0
LINE
  5
24A
100
AcDbEntity
  8
Frei
  6
CONTINUOUS
 62
           7
100
AcDbLine
 10
-14189.501533241781
 20
-5042.937427342475
 30
0.0
 11
-14188.884055063694
 21
-5044.31755859445
 31
0.0
  0
LINE
  5
24B
100
AcDbEntity
  8
Frei
  6
CONTINUOUS
 62
           7
100
AcDbLine
 10
-14189.501533241781
 20
-5042.937427342475
 30
0.0
 11
-14193.723099289706
 21
-5042.501468795317
 31
0.0
  0
LINE
  5
24C
100
AcDbEntity
  8
Frei
  6
CONTINUOUS
 62
           7
100
AcDbLine
 10
-14188.48053787724
 20
-5040.41013559475
 30
0.0
 11
-14189.501533241781
 21
-5042.937427342475
 31
0.0
  0
LINE
  5
24D
100
AcDbEntity
  8
Frei
  6
CONTINUOUS
 62
           7
100
AcDbLine
 10
-14188.55261795379
 20
-5033.748690045677
 30
0.0
 11
-14188.069645504522
 21
-5036.431295630885
 31
0.0
  0
LINE
  5
24E
100
AcDbEntity
  8
Frei
  6
CONTINUOUS
 62
           7
100
AcDbLine
 10
-14188.55261795379
 20
-5033.748690045677
 30
0.0
 11
-14192.774184001715
 21
-5033.31273149852
 31
0.0
  0
LINE
  5
24F
100
AcDbEntity
  8
Frei
  6
CONTINUOUS
 62
           7
100
AcDbLine
 10
-14187.666128318067
 20
-5032.523872631185
 30
0.0
 11
-14188.55261795379
 21
-5033.748690045677
 31
0.0
  0
LINE
  5
250
100
AcDbEntity
  8
Frei
  6
CONTINUOUS
 62
           7
100
AcDbLine
 10
-14189.089501250053
 20
-5046.306978576382
 30
0.0
 11
-14189.975990885776
 21
-5047.531795990873
 31
0.0
  0
LINE
  5
251
100
AcDbEntity
  8
Frei
  6
CONTINUOUS
 62
           7
100
AcDbLine
 10
-14188.078160309797
 20
-5029.15432139728
 30
0.0
 11
-14192.299726357722
 21
-5028.718362850121
 31
0.0
  0
LINE
  5
252
100
AcDbEntity
  8
Frei
  6
CONTINUOUS
 62
           7
100
AcDbLine
 10
-14188.078160309797
 20
-5029.15432139728
 30
0.0
 11
-14187.460682131708
 21
-5030.534452649254
 31
0.0
  0
LINE
  5
253
100
AcDbEntity
  8
Frei
  6
CONTINUOUS
 62
           7
100
AcDbLine
 10
-14194.063051204883
 20
-5045.793363110483
 30
0.0
 11
-14194.197556933701
 21
-5047.095837443716
 31
0.0
  0
LINE
  5
254
100
AcDbEntity
  8
Frei
  6
CONTINUOUS
 62
           7
100
AcDbLine
 10
-14189.089501250053
 20
-5046.306978576382
 30
0.0
 11
-14188.884055063694
 21
-5044.31755859445
 31
0.0
  0
LINE
  5
255
100
AcDbEntity
  8
Frei
  6
CONTINUOUS
 62
           7
100
AcDbLine
 10
-14189.089501250053
 20
-5046.306978576382
 30
0.0
 11
-14194.063051204883
 21
-5045.793363110483
 31
0.0
  0
LINE
  5
256
100
AcDbEntity
  8
Frei
  6
CONTINUOUS
 62
           7
100
AcDbLine
 10
-14193.857605018524
 20
-5043.803943128551
 30
0.0
 11
-14194.063051204883
 21
-5045.793363110483
 31
0.0
  0
LINE
  5
257
100
AcDbEntity
  8
Frei
  6
CONTINUOUS
 62
           7
100
AcDbLine
 10
-14188.884055063694
 20
-5044.31755859445
 30
0.0
 11
-14188.48053787724
 21
-5040.41013559475
 31
0.0
  0
LINE
  5
258
100
AcDbEntity
  8
Frei
  6
CONTINUOUS
 62
           7
100
AcDbLine
 10
-14188.884055063694
 20
-5044.31755859445
 30
0.0
 11
-14193.857605018524
 21
-5043.803943128551
 31
0.0
  0
LINE
  5
259
100
AcDbEntity
  8
Frei
  6
CONTINUOUS
 62
           7
100
AcDbLine
 10
-14193.723099289706
 20
-5042.501468795317
 30
0.0
 11
-14193.857605018524
 21
-5043.803943128551
 31
0.0
  0
LINE
  5
25A
100
AcDbEntity
  8
Frei
  6
CONTINUOUS
 62
           7
100
AcDbLine
 10
-14193.454087832071
 20
-5039.89652012885
 30
0.0
 11
-14193.723099289706
 21
-5042.501468795317
 31
0.0
  0
LINE
  5
25B
100
AcDbEntity
  8
Frei
  6
CONTINUOUS
 62
           7
100
AcDbLine
 10
-14188.48053787724
 20
-5040.41013559475
 30
0.0
 11
-14188.069645504522
 21
-5036.431295630885
 31
0.0
  0
LINE
  5
25C
100
AcDbEntity
  8
Frei
  6
CONTINUOUS
 62
           7
100
AcDbLine
 10
-14188.48053787724
 20
-5040.41013559475
 30
0.0
 11
-14193.454087832071
 21
-5039.89652012885
 31
0.0
  0
LINE
  5
25D
100
AcDbEntity
  8
Frei
  6
CONTINUOUS
 62
           7
100
AcDbLine
 10
-14193.043195459351
 20
-5035.917680164987
 30
0.0
 11
-14193.454087832071
 21
-5039.89652012885
 31
0.0
  0
LINE
  5
25E
100
AcDbEntity
  8
Frei
  6
CONTINUOUS
 62
           7
100
AcDbLine
 10
-14188.069645504522
 20
-5036.431295630885
 30
0.0
 11
-14187.666128318067
 21
-5032.523872631185
 31
0.0
  0
LINE
  5
25F
100
AcDbEntity
  8
Frei
  6
CONTINUOUS
 62
           7
100
AcDbLine
 10
-14188.069645504522
 20
-5036.431295630885
 30
0.0
 11
-14193.043195459351
 21
-5035.917680164987
 31
0.0
  0
LINE
  5
260
100
AcDbEntity
  8
Frei
  6
CONTINUOUS
 62
           7
100
AcDbLine
 10
-14192.774184001715
 20
-5033.31273149852
 30
0.0
 11
-14193.043195459351
 21
-5035.917680164987
 31
0.0
  0
LINE
  5
261
100
AcDbEntity
  8
Frei
  6
CONTINUOUS
 62
           7
100
AcDbLine
 10
-14192.639678272899
 20
-5032.010257165286
 30
0.0
 11
-14192.774184001715
 21
-5033.31273149852
 31
0.0
  0
LINE
  5
262
100
AcDbEntity
  8
Frei
  6
CONTINUOUS
 62
           7
100
AcDbLine
 10
-14187.666128318067
 20
-5032.523872631185
 30
0.0
 11
-14187.460682131708
 21
-5030.534452649254
 31
0.0
  0
LINE
  5
263
100
AcDbEntity
  8
Frei
  6
CONTINUOUS
 62
           7
100
AcDbLine
 10
-14187.666128318067
 20
-5032.523872631185
 30
0.0
 11
-14192.639678272899
 21
-5032.010257165286
 31
0.0
  0
LINE
  5
264
100
AcDbEntity
  8
Frei
  6
CONTINUOUS
 62
           7
100
AcDbLine
 10
-14192.434232086538
 20
-5030.020837183354
 30
0.0
 11
-14192.639678272899
 21
-5032.010257165286
 31
0.0
  0
LINE
  5
265
100
AcDbEntity
  8
Frei
  6
CONTINUOUS
 62
           7
100
AcDbLine
 10
-14192.434232086538
 20
-5030.020837183354
 30
0.0
 11
-14187.460682131708
 21
-5030.534452649254
 31
0.0
  0
LINE
  5
266
100
AcDbEntity
  8
Frei
  6
CONTINUOUS
 62
           7
100
AcDbLine
 10
-14194.197556933701
 20
-5047.095837443716
 30
0.0
 11
-14189.975990885776
 21
-5047.531795990873
 31
0.0
  0
LINE
  5
267
100
AcDbEntity
  8
Frei
  6
CONTINUOUS
 62
           7
100
AcDbLine
 10
-14192.299726357722
 20
-5028.718362850121
 30
0.0
 11
-14192.434232086538
 21
-5030.020837183354
 31
0.0
  0
LINE
  5
268
100
AcDbEntity
  8
Frei
  6
CONTINUOUS
 62
           7
100
AcDbLine
 10
-14235.942449040509
 20
-4993.788070124308
 30
0.0
 11
-14236.481745279703
 21
-4999.010297576879
 31
0.0
  0
LINE
  5
269
100
AcDbEntity
  8
Frei
  6
CONTINUOUS
 62
           7
100
AcDbLine
 10
-14235.169445706319
 20
-5000.905124700839
 30
0.0
 11
-14234.809914880188
 21
-4997.423639732459
 31
0.0
  0
LINE
  5
26A
100
AcDbEntity
  8
Frei
  6
CONTINUOUS
 62
           7
100
AcDbLine
 10
-14235.921435175358
 20
-5000.827467207701
 30
0.0
 11
-14235.169445706319
 21
-5000.905124700839
 31
0.0
  0
LINE
  5
26B
100
AcDbEntity
  8
Frei
  6
CONTINUOUS
 62
           7
100
AcDbLine
 10
-14234.809914880188
 20
-4997.423639732459
 30
0.0
 11
-14234.09085322793
 21
-4990.460669795697
 31
0.0
  0
LINE
  5
26C
100
AcDbEntity
  8
Frei
  6
CONTINUOUS
 62
           7
100
AcDbLine
 10
-14235.56190434923
 20
-4997.34598223932
 30
0.0
 11
-14234.809914880188
 21
-4997.423639732459
 31
0.0
  0
LINE
  5
26D
100
AcDbEntity
  8
Frei
  6
CONTINUOUS
 62
           7
100
AcDbLine
 10
-14234.09085322793
 20
-4990.460669795697
 30
0.0
 11
-14233.7313224018
 21
-4986.979184827316
 31
0.0
  0
LINE
  5
26E
100
AcDbEntity
  8
Frei
  6
CONTINUOUS
 62
           7
100
AcDbLine
 10
-14234.842842696969
 20
-4990.383012302558
 30
0.0
 11
-14234.09085322793
 21
-4990.460669795697
 31
0.0
  0
LINE
  5
26F
100
AcDbEntity
  8
Frei
  6
CONTINUOUS
 62
           7
100
AcDbLine
 10
-14233.7313224018
 20
-4986.979184827316
 30
0.0
 11
-14233.166345389311
 21
-4981.508279877003
 31
0.0
  0
LINE
  5
270
100
AcDbEntity
  8
Frei
  6
CONTINUOUS
 62
           7
100
AcDbLine
 10
-14234.483311870841
 20
-4986.901527334177
 30
0.0
 11
-14233.7313224018
 21
-4986.979184827316
 31
0.0
  0
LINE
  5
271
100
AcDbEntity
  8
Frei
  6
CONTINUOUS
 62
           7
100
AcDbLine
 10
-14198.838530159619
 20
-5043.361744626815
 30
0.0
 11
-14197.605853041461
 21
-5031.425224735223
 31
0.0
  0
LINE
  5
272
100
AcDbEntity
  8
Frei
  6
CONTINUOUS
 62
           2
100
AcDbLine
 10
-14193.864980204789
 20
-5043.875360092714
 30
0.0
 11
-14198.838530159619
 21
-5043.361744626815
 31
0.0
  0
LINE
  5
273
100
AcDbEntity
  8
Frei
  6
CONTINUOUS
 62
           7
100
AcDbLine
 10
-14197.605853041461
 20
-5031.425224735223
 30
0.0
 11
-14197.503129948282
 21
-5030.430514744257
 31
0.0
  0
LINE
  5
274
100
AcDbEntity
  8
Frei
  6
CONTINUOUS
 62
           2
100
AcDbLine
 10
-14192.632303086632
 20
-5031.938840201122
 30
0.0
 11
-14197.605853041461
 21
-5031.425224735223
 31
0.0
  0
LINE
  5
275
100
AcDbEntity
  8
Frei
  6
CONTINUOUS
 62
           7
100
AcDbLine
 10
-14198.9412532528
 20
-5044.35645461778
 30
0.0
 11
-14198.838530159619
 21
-5043.361744626815
 31
0.0
  0
LINE
  5
276
100
AcDbEntity
  8
Frei
  6
CONTINUOUS
 62
           7
100
AcDbLine
 10
-14198.9412532528
 20
-5044.35645461778
 30
0.0
 11
-14193.967703297971
 21
-5044.87007008368
 31
0.0
  0
LINE
  5
277
100
AcDbEntity
  8
Frei
  6
CONTINUOUS
 62
           7
100
AcDbLine
 10
-14197.503129948282
 20
-5030.430514744257
 30
0.0
 11
-14197.451768401692
 21
-5029.933159748774
 31
0.0
  0
LINE
  5
278
100
AcDbEntity
  8
Frei
  6
CONTINUOUS
 62
           7
100
AcDbLine
 10
-14197.503129948282
 20
-5030.430514744257
 30
0.0
 11
-14192.529579993452
 21
-5030.944130210155
 31
0.0
  0
LINE
  5
279
100
AcDbEntity
  8
Frei
  6
CONTINUOUS
 62
           7
100
AcDbLine
 10
-14218.302389594555
 20
-5042.357041893907
 30
0.0
 11
-14237.237587904991
 21
-5040.401615530356
 31
0.0
  0
LINE
  5
27A
100
AcDbEntity
  8
Frei
  6
CONTINUOUS
 62
           7
100
AcDbLine
 10
-14211.083219330751
 20
-5045.113197481554
 30
0.0
 11
-14218.302389594555
 21
-5042.357041893907
 31
0.0
  0
LINE
  5
27B
100
AcDbEntity
  8
Frei
  6
CONTINUOUS
 62
           7
100
AcDbLine
 10
-14235.750683189224
 20
-5011.400941152573
 30
0.0
 11
-14236.248038184707
 21
-5011.349579605982
 31
0.0
  0
LINE
  5
27C
100
AcDbEntity
  8
Frei
  6
CONTINUOUS
 62
           7
100
AcDbLine
 10
-14235.750683189224
 20
-5011.400941152573
 30
0.0
 11
-14238.57556825167
 21
-5038.755465904138
 31
0.0
  0
LINE
  5
27D
100
AcDbEntity
  8
Frei
  6
CONTINUOUS
 62
           7
100
AcDbLine
 10
-14218.302389594555
 20
-5042.357041893907
 30
0.0
 11
-14212.36983813084
 21
-5042.969692859852
 31
0.0
  0
LINE
  5
27E
100
AcDbEntity
  8
Frei
  6
CONTINUOUS
 62
           7
100
AcDbLine
 10
-14207.898803442176
 20
-5014.277187761609
 30
0.0
 11
-14235.750683189224
 21
-5011.400941152573
 31
0.0
  0
LINE
  5
27F
100
AcDbEntity
  8
Frei
  6
CONTINUOUS
 62
           7
100
AcDbLine
 10
-14207.898803442176
 20
-5014.277187761609
 30
0.0
 11
-14210.723688504622
 21
-5041.631712513174
 31
0.0
  0
LINE
  5
280
100
AcDbEntity
  8
Frei
  6
CONTINUOUS
 62
           7
100
AcDbLine
 10
-14211.083219330751
 20
-5045.113197481554
 30
0.0
 11
-14200.638764425608
 21
-5046.191789959943
 31
0.0
  0
LINE
  5
281
100
AcDbEntity
  8
Frei
  6
CONTINUOUS
 62
           7
100
AcDbLine
 10
-14198.99261479939
 20
-5044.853809613263
 30
0.0
 11
-14198.9412532528
 21
-5044.35645461778
 31
0.0
  0
LINE
  5
282
100
AcDbEntity
  8
Frei
  6
CONTINUOUS
 62
           7
100
AcDbLine
 10
-14209.234203653514
 20
-5027.208417644166
 30
0.0
 11
-14198.789748748371
 21
-5028.287010122554
 31
0.0
  0
LINE
  5
283
100
AcDbEntity
  8
Frei
  6
CONTINUOUS
 62
           7
100
AcDbLine
 10
-14236.248038184707
 20
-5011.349579605982
 30
0.0
 11
-14236.145315091528
 21
-5010.354869615017
 31
0.0
  0
LINE
  5
284
100
AcDbEntity
  8
Frei
  6
CONTINUOUS
 62
           7
100
AcDbLine
 10
-14207.401448446693
 20
-5014.328549308199
 30
0.0
 11
-14207.898803442176
 21
-5014.277187761609
 31
0.0
  0
LINE
  5
285
100
AcDbEntity
  8
Frei
  6
CONTINUOUS
 62
           7
100
AcDbLine
 10
-14207.298725353514
 20
-5013.333839317233
 30
0.0
 11
-14207.401448446693
 21
-5014.328549308199
 31
0.0
  0
LINE
  5
286
100
AcDbEntity
  8
Frei
  6
CONTINUOUS
 62
           7
100
AcDbLine
 10
-14207.298725353514
 20
-5013.333839317233
 30
0.0
 11
-14236.145315091528
 21
-5010.354869615017
 31
0.0
  0
LINE
  5
287
100
AcDbEntity
  8
Frei
  6
CONTINUOUS
 62
           7
100
AcDbLine
 10
-14204.679286477427
 20
-4987.9687345476
 30
0.0
 11
-14204.622180641585
 21
-4987.415755235012
 31
0.0
  0
LINE
  5
288
100
AcDbEntity
  8
Frei
  6
CONTINUOUS
 62
           7
100
AcDbLine
 10
-14233.166345389311
 20
-4981.508279877003
 30
0.0
 11
-14206.336849833324
 21
-4985.229270936125
 31
0.0
  0
LINE
  5
289
100
AcDbEntity
  8
Frei
  6
CONTINUOUS
 62
           7
100
AcDbLine
 10
-14200.835690547576
 20
-4999.424159914124
 30
0.0
 11
-14200.887052094165
 21
-4999.921514909607
 31
0.0
  0
LINE
  5
28A
100
AcDbEntity
  8
Frei
  6
CONTINUOUS
 62
           1
100
AcDbLine
 10
-14200.835690547576
 20
-4999.424159914124
 30
0.0
 11
-14203.310878091523
 21
-4999.168548808351
 31
0.0
  0
LINE
  5
28B
100
AcDbEntity
  8
Frei
  6
CONTINUOUS
 62
           7
100
AcDbLine
 10
-14200.424798174856
 20
-4995.445319950261
 30
0.0
 11
-14200.835690547576
 21
-4999.424159914124
 31
0.0
  0
LINE
  5
28C
100
AcDbEntity
  8
Frei
  6
CONTINUOUS
 62
           1
100
AcDbLine
 10
-14200.424798174856
 20
-4995.445319950261
 30
0.0
 11
-14202.899985718803
 21
-4995.189708844488
 31
0.0
  0
LINE
  5
28D
100
AcDbEntity
  8
Frei
  6
CONTINUOUS
 62
           7
100
AcDbLine
 10
-14200.887052094165
 20
-4999.921514909607
 30
0.0
 11
-14200.938413640755
 21
-5000.41886990509
 31
0.0
  0
LINE
  5
28E
100
AcDbEntity
  8
Frei
  6
CONTINUOUS
 62
           1
100
AcDbLine
 10
-14200.887052094165
 20
-4999.921514909607
 30
0.0
 11
-14203.362239638112
 21
-4999.665903803834
 31
0.0
  0
LINE
  5
28F
100
AcDbEntity
  8
Frei
  6
CONTINUOUS
 62
           7
100
AcDbLine
 10
-14200.373436628266
 20
-4994.947964954778
 30
0.0
 11
-14200.424798174856
 21
-4995.445319950261
 31
0.0
  0
LINE
  5
290
100
AcDbEntity
  8
Frei
  6
CONTINUOUS
 62
           1
100
AcDbLine
 10
-14200.373436628266
 20
-4994.947964954778
 30
0.0
 11
-14202.848624172213
 21
-4994.692353849005
 31
0.0
  0
LINE
  5
291
100
AcDbEntity
  8
Frei
  6
CONTINUOUS
 62
           7
100
AcDbLine
 10
-14201.933123631721
 20
-5000.316146811911
 30
0.0
 11
-14201.316785072642
 21
-4994.347886866115
 31
0.0
  0
LINE
  5
292
100
AcDbEntity
  8
Frei
  6
CONTINUOUS
 62
           2
100
AcDbLine
 10
-14200.938413640755
 20
-5000.41886990509
 30
0.0
 11
-14201.933123631721
 21
-5000.316146811911
 31
0.0
  0
LINE
  5
293
100
AcDbEntity
  8
Frei
  6
CONTINUOUS
 62
           7
100
AcDbLine
 10
-14201.316785072642
 20
-4994.347886866115
 30
0.0
 11
-14201.214061979463
 21
-4993.353176875149
 31
0.0
  0
LINE
  5
294
100
AcDbEntity
  8
Frei
  6
CONTINUOUS
 62
           2
100
AcDbLine
 10
-14200.322075081676
 20
-4994.450609959295
 30
0.0
 11
-14201.316785072642
 21
-4994.347886866115
 31
0.0
  0
LINE
  5
295
100
AcDbEntity
  8
Frei
  6
CONTINUOUS
 62
           7
100
AcDbLine
 10
-14202.035846724901
 20
-5001.310856802877
 30
0.0
 11
-14201.933123631721
 21
-5000.316146811911
 31
0.0
  0
LINE
  5
296
100
AcDbEntity
  8
Frei
  6
CONTINUOUS
 62
           7
100
AcDbLine
 10
-14200.938413640755
 20
-5000.41886990509
 30
0.0
 11
-14202.035846724901
 21
-5001.310856802877
 31
0.0
  0
LINE
  5
297
100
AcDbEntity
  8
Frei
  6
CONTINUOUS
 62
           7
100
AcDbLine
 10
-14200.322075081676
 20
-4994.450609959295
 30
0.0
 11
-14200.373436628266
 21
-4994.947964954778
 31
0.0
  0
LINE
  5
298
100
AcDbEntity
  8
Frei
  6
CONTINUOUS
 62
           7
100
AcDbLine
 10
-14201.214061979463
 20
-4993.353176875149
 30
0.0
 11
-14200.700446513563
 21
-4988.379626920319
 31
0.0
  0
LINE
  5
299
100
AcDbEntity
  8
Frei
  6
CONTINUOUS
 62
           7
100
AcDbLine
 10
-14201.214061979463
 20
-4993.353176875149
 30
0.0
 11
-14200.322075081676
 21
-4994.450609959295
 31
0.0
  0
LINE
  5
29A
100
AcDbEntity
  8
Frei
  6
CONTINUOUS
 62
           7
100
AcDbLine
 10
-14236.145315091528
 20
-5010.354869615017
 30
0.0
 11
-14235.169445706319
 21
-5000.905124700839
 31
0.0
  0
LINE
  5
29B
100
AcDbEntity
  8
Frei
  6
CONTINUOUS
 62
           7
100
AcDbLine
 10
-14206.528302154664
 20
-5005.873514384988
 30
0.0
 11
-14207.298725353514
 21
-5013.333839317233
 31
0.0
  0
LINE
  5
29C
100
AcDbEntity
  8
Frei
  6
CONTINUOUS
 62
           7
100
AcDbLine
 10
-14203.581853393282
 20
-4987.076747649813
 30
0.0
 11
-14205.636315256877
 21
-5006.970947469134
 31
0.0
  0
LINE
  5
29D
100
AcDbEntity
  8
Frei
  6
CONTINUOUS
 62
           7
100
AcDbLine
 10
-14201.59243341135
 20
-4987.282193836173
 30
0.0
 11
-14203.646895274946
 21
-5007.176393655493
 31
0.0
  0
LINE
  5
29E
100
AcDbEntity
  8
Frei
  6
CONTINUOUS
 62
           7
100
AcDbLine
 10
-14202.5494621908
 20
-5006.284406757706
 30
0.0
 11
-14203.646895274946
 21
-5007.176393655493
 31
0.0
  0
LINE
  5
29F
100
AcDbEntity
  8
Frei
  6
CONTINUOUS
 62
           7
100
AcDbLine
 10
-14205.636315256877
 20
-5006.970947469134
 30
0.0
 11
-14206.528302154664
 21
-5005.873514384988
 31
0.0
  0
LINE
  5
2A0
100
AcDbEntity
  8
Frei
  6
CONTINUOUS
 62
           7
100
AcDbLine
 10
-14204.679286477427
 20
-4987.9687345476
 30
0.0
 11
-14203.581853393282
 21
-4987.076747649813
 31
0.0
  0
LINE
  5
2A1
100
AcDbEntity
  8
Frei
  6
CONTINUOUS
 62
           7
100
AcDbLine
 10
-14200.700446513563
 20
-4988.379626920319
 30
0.0
 11
-14201.59243341135
 21
-4987.282193836173
 31
0.0
  0
LINE
  5
2A2
100
AcDbEntity
  8
Frei
  6
CONTINUOUS
 62
           7
100
AcDbLine
 10
-14202.5494621908
 20
-5006.284406757706
 30
0.0
 11
-14202.035846724901
 21
-5001.310856802877
 31
0.0
  0
LINE
  5
2A3
100
AcDbEntity
  8
Frei
  6
CONTINUOUS
 62
           7
100
AcDbLine
 10
-14205.636315256877
 20
-5006.970947469134
 30
0.0
 11
-14203.646895274946
 21
-5007.176393655493
 31
0.0
  0
LINE
  5
2A4
100
AcDbEntity
  8
Frei
  6
CONTINUOUS
 62
           7
100
AcDbLine
 10
-14204.679286477427
 20
-4987.9687345476
 30
0.0
 11
-14206.528302154664
 21
-5005.873514384988
 31
0.0
  0
LINE
  5
2A5
100
AcDbEntity
  8
Frei
  6
CONTINUOUS
 62
           7
100
AcDbLine
 10
-14201.59243341135
 20
-4987.282193836173
 30
0.0
 11
-14203.581853393282
 21
-4987.076747649813
 31
0.0
  0
LINE
  5
2A6
100
AcDbEntity
  8
Frei
  6
CONTINUOUS
 62
           7
100
AcDbLine
 10
-14252.558029942466
 20
-5008.659938577549
 30
0.0
 11
-14242.113575037323
 21
-5009.738531055937
 31
0.0
  0
LINE
  5
2A7
100
AcDbEntity
  8
Frei
  6
CONTINUOUS
 62
           7
100
AcDbLine
 10
-14235.242227994007
 20
-4977.272632180189
 30
0.0
 11
-14249.16816786753
 21
-4975.834508875671
 31
0.0
  0
LINE
  5
2A8
100
AcDbEntity
  8
Frei
  6
CONTINUOUS
 62
           7
100
AcDbLine
 10
-14234.350241096221
 20
-4978.370065264335
 30
0.0
 11
-14236.661510692767
 21
-5000.75104006107
 31
0.0
  0
LINE
  5
2A9
100
AcDbEntity
  8
Frei
  6
CONTINUOUS
 62
           7
100
AcDbLine
 10
-14395.693545548391
 20
-4992.873103168684
 30
0.0
 11
-14393.382275951844
 21
-4970.492128371949
 31
0.0
  0
LINE
  5
2AA
100
AcDbEntity
  8
Frei
  6
CONTINUOUS
 62
           7
100
AcDbLine
 10
-14394.640633843297
 20
-4982.677325761282
 30
0.0
 11
-14394.101337604103
 21
-4977.45509830871
 31
0.0
  0
LINE
  5
2AB
100
AcDbEntity
  8
Frei
  6
CONTINUOUS
 62
           7
100
AcDbLine
 10
-14235.403152801315
 20
-4988.565842671736
 30
0.0
 11
-14235.942449040509
 21
-4993.788070124308
 31
0.0
  0
ARC
  5
2AC
100
AcDbEntity
  8
Frei
  6
CONTINUOUS
 62
           7
100
AcDbCircle
 10
-14402.660227243423
 20
-4976.571227003586
 30
0.0
 40
8.604407030244
100
AcDbArc
 50
330.102014671726
 51
354.103999999999
  0
ARC
  5
2AD
100
AcDbEntity
  8
Frei
  6
CONTINUOUS
 62
           7
100
AcDbCircle
 10
-14395.979292093765
 20
-4971.983242849872
 30
0.0
 40
2.430106011614
100
AcDbArc
 50
308.038521857266
 51
354.103999999999
  0
ARC
  5
2AE
100
AcDbEntity
  8
Frei
  6
CONTINUOUS
 62
           7
100
AcDbCircle
 10
-14397.057884572154
 20
-4982.427697755014
 30
0.0
 40
2.430106011614
100
AcDbArc
 50
308.038521857266
 51
354.103999999999
  0
ARC
  5
2AF
100
AcDbEntity
  8
Frei
  6
CONTINUOUS
 62
           7
100
AcDbCircle
 10
-14395.979292093765
 20
-4971.983242849872
 30
0.0
 40
2.430106011614
100
AcDbArc
 50
354.103999999999
 51
40.169478142733
  0
ARC
  5
2B0
100
AcDbEntity
  8
Frei
  6
CONTINUOUS
 62
           7
100
AcDbCircle
 10
-14397.057884572154
 20
-4982.427697755014
 30
0.0
 40
2.430106011614
100
AcDbArc
 50
354.103999999999
 51
40.169478142733
  0
ARC
  5
2B1
100
AcDbEntity
  8
Frei
  6
CONTINUOUS
 62
           7
100
AcDbCircle
 10
-14234.064494550843
 20
-4999.259925583147
 30
0.0
 40
2.430106011614
100
AcDbArc
 50
128.038521857263
 51
174.104
  0
ARC
  5
2B2
100
AcDbEntity
  8
Frei
  6
CONTINUOUS
 62
           7
100
AcDbCircle
 10
-14232.985902072454
 20
-4988.815470678004
 30
0.0
 40
2.430106011614
100
AcDbArc
 50
128.038521857263
 51
174.104
  0
ARC
  5
2B3
100
AcDbEntity
  8
Frei
  6
CONTINUOUS
 62
           7
100
AcDbCircle
 10
-14234.064494550843
 20
-4999.259925583147
 30
0.0
 40
2.430106011614
100
AcDbArc
 50
174.104
 51
220.169478142737
  0
ARC
  5
2B4
100
AcDbEntity
  8
Frei
  6
CONTINUOUS
 62
           7
100
AcDbCircle
 10
-14232.985902072454
 20
-4988.815470678004
 30
0.0
 40
2.430106011614
100
AcDbArc
 50
174.104
 51
220.169478142737
  0
ARC
  5
2B5
100
AcDbEntity
  8
Frei
  6
CONTINUOUS
 62
           7
100
AcDbCircle
 10
-14227.383559401187
 20
-4994.671941429433
 30
0.0
 40
8.604407030244
100
AcDbArc
 50
150.102014671724
 51
174.104
  0
ARC
  5
2B6
100
AcDbEntity
  8
Frei
  6
CONTINUOUS
 62
           7
100
AcDbCircle
 10
-14371.674160569912
 20
-4987.575339730078
 30
0.0
 40
4.481959213903
100
AcDbArc
 50
182.482955885586
 51
345.725044114414
  0
ARC
  5
2B7
100
AcDbEntity
  8
Frei
  6
CONTINUOUS
 62
           7
100
AcDbCircle
 10
-14402.660227243423
 20
-4976.571227003586
 30
0.0
 40
8.604407030244
100
AcDbArc
 50
354.103999999999
 51
18.105985328274
  0
ARC
  5
2B8
100
AcDbEntity
  8
Frei
  6
CONTINUOUS
 62
           7
100
AcDbCircle
 10
-14227.383559401187
 20
-4994.671941429433
 30
0.0
 40
8.604407030244
100
AcDbArc
 50
174.104
 51
198.105985328276
  0
POLYLINE
  5
2B9
100
AcDbEntity
  8
Frei
  6
CONTINUOUS
 62
           7
100
AcDb2dPolyline
 66
           1
 10
0.0
 20
0.0
 30
0.0
  0
VERTEX
  5
2BA
100
AcDbEntity
  8
Frei
  6
CONTINUOUS
 62
           7
100
AcDbVertex
100
AcDb2dVertex
 10
-14375.833057556101
 20
-4987.447777211939
 30
0.0
 42
0.046286845788
  0
VERTEX
  5
2BB
100
AcDbEntity
  8
Frei
  6
CONTINUOUS
 62
           7
100
AcDbVertex
100
AcDb2dVertex
 10
-14375.839905282126
 20
-4988.127851422398
 30
0.0
  0
VERTEX
  5
2BC
100
AcDbEntity
  8
Frei
  6
CONTINUOUS
 62
           7
100
AcDbVertex
100
AcDb2dVertex
 10
-14375.795979093033
 20
-4988.466764224916
 30
0.0
  0
VERTEX
  5
2BD
100
AcDbEntity
  8
Frei
  6
CONTINUOUS
 62
           7
100
AcDbVertex
100
AcDb2dVertex
 10
-14375.72111634059
 20
-4988.800214857312
 30
0.0
 42
0.045273723548
  0
VERTEX
  5
2BE
100
AcDbEntity
  8
Frei
  6
CONTINUOUS
 62
           7
100
AcDbVertex
100
AcDb2dVertex
 10
-14375.480300073368
 20
-4989.444438093942
 30
0.0
  0
VERTEX
  5
2BF
100
AcDbEntity
  8
Frei
  6
CONTINUOUS
 62
           7
100
AcDbVertex
100
AcDb2dVertex
 10
-14375.315807842217
 20
-4989.750598784294
 30
0.0
  0
VERTEX
  5
2C0
100
AcDbEntity
  8
Frei
  6
CONTINUOUS
 62
           7
100
AcDbVertex
100
AcDb2dVertex
 10
-14375.124773560885
 20
-4990.040946735235
 30
0.0
 42
0.04348253534
  0
VERTEX
  5
2C1
100
AcDbEntity
  8
Frei
  6
CONTINUOUS
 62
           7
100
AcDbVertex
100
AcDb2dVertex
 10
-14374.665339296318
 20
-4990.571616167976
 30
0.0
  0
VERTEX
  5
2C2
100
AcDbEntity
  8
Frei
  6
CONTINUOUS
 62
           7
100
AcDbVertex
100
AcDb2dVertex
 10
-14374.400218523166
 20
-4990.807683056173
 30
0.0
  0
VERTEX
  5
2C3
100
AcDbEntity
  8
Frei
  6
CONTINUOUS
 62
           7
100
AcDbVertex
100
AcDb2dVertex
 10
-14374.11595695731
 20
-4991.020322269978
 30
0.0
 42
0.041825507476
  0
VERTEX
  5
2C4
100
AcDbEntity
  8
Frei
  6
CONTINUOUS
 62
           7
100
AcDbVertex
100
AcDb2dVertex
 10
-14373.493319248228
 20
-4991.373431333394
 30
0.0
  0
VERTEX
  5
2C5
100
AcDbEntity
  8
Frei
  6
CONTINUOUS
 62
           7
100
AcDbVertex
100
AcDb2dVertex
 10
-14373.159933748482
 20
-4991.510814592506
 30
0.0
  0
VERTEX
  5
2C6
100
AcDbEntity
  8
Frei
  6
CONTINUOUS
 62
           7
100
AcDbVertex
100
AcDb2dVertex
 10
-14372.816344700796
 20
-4991.620214318009
 30
0.0
 42
0.040993490696
  0
VERTEX
  5
2C7
100
AcDbEntity
  8
Frei
  6
CONTINUOUS
 62
           7
100
AcDbVertex
100
AcDb2dVertex
 10
-14372.105602844073
 20
-4991.753172847717
 30
0.0
  0
VERTEX
  5
2C8
100
AcDbEntity
  8
Frei
  6
CONTINUOUS
 62
           7
100
AcDbVertex
100
AcDb2dVertex
 10
-14371.744455446851
 20
-4991.775558107354
 30
0.0
  0
VERTEX
  5
2C9
100
AcDbEntity
  8
Frei
  6
CONTINUOUS
 62
           7
100
AcDbVertex
100
AcDb2dVertex
 10
-14371.382689209719
 20
-4991.768267044869
 30
0.0
 42
0.041278481646
  0
VERTEX
  5
2CA
100
AcDbEntity
  8
Frei
  6
CONTINUOUS
 62
           7
100
AcDbVertex
100
AcDb2dVertex
 10
-14370.669569162705
 20
-4991.665038279927
 30
0.0
  0
VERTEX
  5
2CB
100
AcDbEntity
  8
Frei
  6
CONTINUOUS
 62
           7
100
AcDbVertex
100
AcDb2dVertex
 10
-14370.324163733905
 20
-4991.570106232834
 30
0.0
  0
VERTEX
  5
2CC
100
AcDbEntity
  8
Frei
  6
CONTINUOUS
 62
           7
100
AcDbVertex
100
AcDb2dVertex
 10
-14369.9879104948
 20
-4991.446623106675
 30
0.0
 42
0.042584509173
  0
VERTEX
  5
2CD
100
AcDbEntity
  8
Frei
  6
CONTINUOUS
 62
           7
100
AcDbVertex
100
AcDb2dVertex
 10
-14369.358425059696
 20
-4991.119657959629
 30
0.0
  0
VERTEX
  5
2CE
100
AcDbEntity
  8
Frei
  6
CONTINUOUS
 62
           7
100
AcDbVertex
100
AcDb2dVertex
 10
-14369.070062826417
 20
-4990.919020761477
 30
0.0
  0
VERTEX
  5
2CF
100
AcDbEntity
  8
Frei
  6
CONTINUOUS
 62
           7
100
AcDbVertex
100
AcDb2dVertex
 10
-14368.800239453802
 20
-4990.694077509332
 30
0.0
 42
0.044417198743
  0
VERTEX
  5
2D0
100
AcDbEntity
  8
Frei
  6
CONTINUOUS
 62
           7
100
AcDbVertex
100
AcDb2dVertex
 10
-14368.330313864297
 20
-4990.18281280241
 30
0.0
  0
VERTEX
  5
2D1
100
AcDbEntity
  8
Frei
  6
CONTINUOUS
 62
           7
100
AcDbVertex
100
AcDb2dVertex
 10
-14368.133435127169
 20
-4989.900434136038
 30
0.0
  0
VERTEX
  5
2D2
100
AcDbEntity
  8
Frei
  6
CONTINUOUS
 62
           7
100
AcDbVertex
100
AcDb2dVertex
 10
-14367.962926742428
 20
-4989.601398358269
 30
0.0
 42
0.045929593742
  0
VERTEX
  5
2D3
100
AcDbEntity
  8
Frei
  6
CONTINUOUS
 62
           7
100
AcDbVertex
100
AcDb2dVertex
 10
-14367.709240959979
 20
-4988.967500160587
 30
0.0
  0
VERTEX
  5
2D4
100
AcDbEntity
  8
Frei
  6
CONTINUOUS
 62
           7
100
AcDbVertex
100
AcDb2dVertex
 10
-14367.627635596431
 20
-4988.637005717936
 30
0.0
  0
VERTEX
  5
2D5
100
AcDbEntity
  8
Frei
  6
CONTINUOUS
 62
           7
100
AcDbVertex
100
AcDb2dVertex
 10
-14367.576964631086
 20
-4988.300378885331
 30
0.0
 42
0.046286845788
  0
VERTEX
  5
2D6
100
AcDbEntity
  8
Frei
  6
CONTINUOUS
 62
           7
100
AcDbVertex
100
AcDb2dVertex
 10
-14367.570116905061
 20
-4987.620304674872
 30
0.0
  0
VERTEX
  5
2D7
100
AcDbEntity
  8
Frei
  6
CONTINUOUS
 62
           7
100
AcDbVertex
100
AcDb2dVertex
 10
-14367.614043094156
 20
-4987.281391872355
 30
0.0
  0
VERTEX
  5
2D8
100
AcDbEntity
  8
Frei
  6
CONTINUOUS
 62
           7
100
AcDbVertex
100
AcDb2dVertex
 10
-14367.6889058466
 20
-4986.947941239958
 30
0.0
 42
0.045273723548
  0
VERTEX
  5
2D9
100
AcDbEntity
  8
Frei
  6
CONTINUOUS
 62
           7
100
AcDbVertex
100
AcDb2dVertex
 10
-14367.929722113819
 20
-4986.303718003328
 30
0.0
  0
VERTEX
  5
2DA
100
AcDbEntity
  8
Frei
  6
CONTINUOUS
 62
           7
100
AcDbVertex
100
AcDb2dVertex
 10
-14368.094214344972
 20
-4985.997557312976
 30
0.0
  0
VERTEX
  5
2DB
100
AcDbEntity
  8
Frei
  6
CONTINUOUS
 62
           7
100
AcDbVertex
100
AcDb2dVertex
 10
-14368.285248626302
 20
-4985.707209362034
 30
0.0
 42
0.04348253534
  0
VERTEX
  5
2DC
100
AcDbEntity
  8
Frei
  6
CONTINUOUS
 62
           7
100
AcDbVertex
100
AcDb2dVertex
 10
-14368.744682890871
 20
-4985.176539929295
 30
0.0
  0
VERTEX
  5
2DD
100
AcDbEntity
  8
Frei
  6
CONTINUOUS
 62
           7
100
AcDbVertex
100
AcDb2dVertex
 10
-14369.009803664023
 20
-4984.940473041097
 30
0.0
  0
VERTEX
  5
2DE
100
AcDbEntity
  8
Frei
  6
CONTINUOUS
 62
           7
100
AcDbVertex
100
AcDb2dVertex
 10
-14369.294065229878
 20
-4984.727833827292
 30
0.0
 42
0.041825507476
  0
VERTEX
  5
2DF
100
AcDbEntity
  8
Frei
  6
CONTINUOUS
 62
           7
100
AcDbVertex
100
AcDb2dVertex
 10
-14369.916702938959
 20
-4984.374724763875
 30
0.0
  0
VERTEX
  5
2E0
100
AcDbEntity
  8
Frei
  6
CONTINUOUS
 62
           7
100
AcDbVertex
100
AcDb2dVertex
 10
-14370.250088438705
 20
-4984.237341504762
 30
0.0
  0
VERTEX
  5
2E1
100
AcDbEntity
  8
Frei
  6
CONTINUOUS
 62
           7
100
AcDbVertex
100
AcDb2dVertex
 10
-14370.593677486391
 20
-4984.127941779261
 30
0.0
 42
0.040993490695
  0
VERTEX
  5
2E2
100
AcDbEntity
  8
Frei
  6
CONTINUOUS
 62
           7
100
AcDbVertex
100
AcDb2dVertex
 10
-14371.304419343116
 20
-4983.994983249555
 30
0.0
  0
VERTEX
  5
2E3
100
AcDbEntity
  8
Frei
  6
CONTINUOUS
 62
           7
100
AcDbVertex
100
AcDb2dVertex
 10
-14371.665566740337
 20
-4983.972597989916
 30
0.0
  0
VERTEX
  5
2E4
100
AcDbEntity
  8
Frei
  6
CONTINUOUS
 62
           7
100
AcDbVertex
100
AcDb2dVertex
 10
-14372.027332977468
 20
-4983.979889052401
 30
0.0
 42
0.041278481646
  0
VERTEX
  5
2E5
100
AcDbEntity
  8
Frei
  6
CONTINUOUS
 62
           7
100
AcDbVertex
100
AcDb2dVertex
 10
-14372.740453024482
 20
-4984.083117817343
 30
0.0
  0
VERTEX
  5
2E6
100
AcDbEntity
  8
Frei
  6
CONTINUOUS
 62
           7
100
AcDbVertex
100
AcDb2dVertex
 10
-14373.085858453282
 20
-4984.178049864437
 30
0.0
  0
VERTEX
  5
2E7
100
AcDbEntity
  8
Frei
  6
CONTINUOUS
 62
           7
100
AcDbVertex
100
AcDb2dVertex
 10
-14373.422111692387
 20
-4984.301532990594
 30
0.0
 42
0.042584509172
  0
VERTEX
  5
2E8
100
AcDbEntity
  8
Frei
  6
CONTINUOUS
 62
           7
100
AcDbVertex
100
AcDb2dVertex
 10
-14374.051597127491
 20
-4984.628498137641
 30
0.0
  0
VERTEX
  5
2E9
100
AcDbEntity
  8
Frei
  6
CONTINUOUS
 62
           7
100
AcDbVertex
100
AcDb2dVertex
 10
-14374.33995936077
 20
-4984.829135335793
 30
0.0
  0
VERTEX
  5
2EA
100
AcDbEntity
  8
Frei
  6
CONTINUOUS
 62
           7
100
AcDbVertex
100
AcDb2dVertex
 10
-14374.609782733385
 20
-4985.054078587938
 30
0.0
 42
0.044417198743
  0
VERTEX
  5
2EB
100
AcDbEntity
  8
Frei
  6
CONTINUOUS
 62
           7
100
AcDbVertex
100
AcDb2dVertex
 10
-14375.07970832289
 20
-4985.56534329486
 30
0.0
  0
VERTEX
  5
2EC
100
AcDbEntity
  8
Frei
  6
CONTINUOUS
 62
           7
100
AcDbVertex
100
AcDb2dVertex
 10
-14375.276587060018
 20
-4985.847721961232
 30
0.0
  0
VERTEX
  5
2ED
100
AcDbEntity
  8
Frei
  6
CONTINUOUS
 62
           7
100
AcDbVertex
100
AcDb2dVertex
 10
-14375.447095444762
 20
-4986.146757739001
 30
0.0
 42
0.045929593741
  0
VERTEX
  5
2EE
100
AcDbEntity
  8
Frei
  6
CONTINUOUS
 62
           7
100
AcDbVertex
100
AcDb2dVertex
 10
-14375.700781227208
 20
-4986.780655936684
 30
0.0
  0
VERTEX
  5
2EF
100
AcDbEntity
  8
Frei
  6
CONTINUOUS
 62
           7
100
AcDbVertex
100
AcDb2dVertex
 10
-14375.782386590756
 20
-4987.111150379335
 30
0.0
  0
VERTEX
  5
2F0
100
AcDbEntity
  8
Frei
  6
CONTINUOUS
 62
           7
100
AcDbVertex
100
AcDb2dVertex
 10
-14375.833057556101
 20
-4987.447777211939
 30
0.0
  0
SEQEND
  5
2F1
100
AcDbEntity
  8
Frei
  6
CONTINUOUS
 62
           7
  0
POLYLINE
  5
2F2
100
AcDbEntity
  8
Frei
  6
CONTINUOUS
 62
           7
100
AcDb2dPolyline
 66
           1
 10
0.0
 20
0.0
 30
0.0
  0
VERTEX
  5
2F3
100
AcDbEntity
  8
Frei
  6
CONTINUOUS
 62
           7
100
AcDbVertex
100
AcDb2dVertex
 10
-14371.295849936563
 20
-4983.912002158842
 30
0.0
 42
0.046286845788
  0
VERTEX
  5
2F4
100
AcDbEntity
  8
Frei
  6
CONTINUOUS
 62
           7
100
AcDbVertex
100
AcDb2dVertex
 10
-14372.071886893167
 20
-4983.904188175631
 30
0.0
  0
VERTEX
  5
2F5
100
AcDbEntity
  8
Frei
  6
CONTINUOUS
 62
           7
100
AcDbVertex
100
AcDb2dVertex
 10
-14372.458622422575
 20
-4983.954312626133
 30
0.0
  0
VERTEX
  5
2F6
100
AcDbEntity
  8
Frei
  6
CONTINUOUS
 62
           7
100
AcDbVertex
100
AcDb2dVertex
 10
-14372.839125035323
 20
-4984.039738983545
 30
0.0
 42
0.045273723548
  0
VERTEX
  5
2F7
100
AcDbEntity
  8
Frei
  6
CONTINUOUS
 62
           7
100
AcDbVertex
100
AcDb2dVertex
 10
-14373.574252220325
 20
-4984.314535939877
 30
0.0
  0
VERTEX
  5
2F8
100
AcDbEntity
  8
Frei
  6
CONTINUOUS
 62
           7
100
AcDbVertex
100
AcDb2dVertex
 10
-14373.923614108659
 20
-4984.502239058866
 30
0.0
  0
VERTEX
  5
2F9
100
AcDbEntity
  8
Frei
  6
CONTINUOUS
 62
           7
100
AcDbVertex
100
AcDb2dVertex
 10
-14374.254931980648
 20
-4984.720229478162
 30
0.0
 42
0.04348253534
  0
VERTEX
  5
2FA
100
AcDbEntity
  8
Frei
  6
CONTINUOUS
 62
           7
100
AcDbVertex
100
AcDb2dVertex
 10
-14374.860482206215
 20
-4985.244492805534
 30
0.0
  0
VERTEX
  5
2FB
100
AcDbEntity
  8
Frei
  6
CONTINUOUS
 62
           7
100
AcDbVertex
100
AcDb2dVertex
 10
-14375.129859616287
 20
-4985.547023786368
 30
0.0
  0
VERTEX
  5
2FC
100
AcDbEntity
  8
Frei
  6
CONTINUOUS
 62
           7
100
AcDbVertex
100
AcDb2dVertex
 10
-14375.372503559844
 20
-4985.871396446077
 30
0.0
 42
0.041825507476
  0
VERTEX
  5
2FD
100
AcDbEntity
  8
Frei
  6
CONTINUOUS
 62
           7
100
AcDbVertex
100
AcDb2dVertex
 10
-14375.775438531802
 20
-4986.5818922499
 30
0.0
  0
VERTEX
  5
2FE
100
AcDbEntity
  8
Frei
  6
CONTINUOUS
 62
           7
100
AcDbVertex
100
AcDb2dVertex
 10
-14375.93220743239
 20
-4986.962320539371
 30
0.0
  0
VERTEX
  5
2FF
100
AcDbEntity
  8
Frei
  6
CONTINUOUS
 62
           7
100
AcDbVertex
100
AcDb2dVertex
 10
-14376.057044146861
 20
-4987.354392161537
 30
0.0
 42
0.040993490695
  0
VERTEX
  5
300
100
AcDbEntity
  8
Frei
  6
CONTINUOUS
 62
           7
100
AcDbVertex
100
AcDb2dVertex
 10
-14376.208763960907
 20
-4988.165424162076
 30
0.0
  0
VERTEX
  5
301
100
AcDbEntity
  8
Frei
  6
CONTINUOUS
 62
           7
100
AcDbVertex
100
AcDb2dVertex
 10
-14376.234307921397
 20
-4988.577531727272
 30
0.0
  0
VERTEX
  5
302
100
AcDbEntity
  8
Frei
  6
CONTINUOUS
 62
           7
100
AcDbVertex
100
AcDb2dVertex
 10
-14376.225988044163
 20
-4988.990345454578
 30
0.0
 42
0.041278481646
  0
VERTEX
  5
303
100
AcDbEntity
  8
Frei
  6
CONTINUOUS
 62
           7
100
AcDbVertex
100
AcDb2dVertex
 10
-14376.108193051576
 20
-4989.804091223006
 30
0.0
  0
VERTEX
  5
304
100
AcDbEntity
  8
Frei
  6
CONTINUOUS
 62
           7
100
AcDbVertex
100
AcDb2dVertex
 10
-14375.999865495882
 20
-4990.198235529078
 30
0.0
  0
VERTEX
  5
305
100
AcDbEntity
  8
Frei
  6
CONTINUOUS
 62
           7
100
AcDbVertex
100
AcDb2dVertex
 10
-14375.858958124389
 20
-4990.581936213959
 30
0.0
 42
0.042584509173
  0
VERTEX
  5
306
100
AcDbEntity
  8
Frei
  6
CONTINUOUS
 62
           7
100
AcDbVertex
100
AcDb2dVertex
 10
-14375.485856139745
 20
-4991.300246000996
 30
0.0
  0
VERTEX
  5
307
100
AcDbEntity
  8
Frei
  6
CONTINUOUS
 62
           7
100
AcDbVertex
100
AcDb2dVertex
 10
-14375.256907771696
 20
-4991.629297958078
 30
0.0
  0
VERTEX
  5
308
100
AcDbEntity
  8
Frei
  6
CONTINUOUS
 62
           7
100
AcDbVertex
100
AcDb2dVertex
 10
-14375.000223612647
 20
-4991.937195104719
 30
0.0
 42
0.044417198743
  0
VERTEX
  5
309
100
AcDbEntity
  8
Frei
  6
CONTINUOUS
 62
           7
100
AcDbVertex
100
AcDb2dVertex
 10
-14374.41681624169
 20
-4992.473430148924
 30
0.0
  0
VERTEX
  5
30A
100
AcDbEntity
  8
Frei
  6
CONTINUOUS
 62
           7
100
AcDbVertex
100
AcDb2dVertex
 10
-14374.094592170419
 20
-4992.698089713471
 30
0.0
  0
VERTEX
  5
30B
100
AcDbEntity
  8
Frei
  6
CONTINUOUS
 62
           7
100
AcDbVertex
100
AcDb2dVertex
 10
-14373.753360564624
 20
-4992.892657903142
 30
0.0
 42
0.045929593742
  0
VERTEX
  5
30C
100
AcDbEntity
  8
Frei
  6
CONTINUOUS
 62
           7
100
AcDbVertex
100
AcDb2dVertex
 10
-14373.03001534647
 20
-4993.182140344199
 30
0.0
  0
VERTEX
  5
30D
100
AcDbEntity
  8
Frei
  6
CONTINUOUS
 62
           7
100
AcDbVertex
100
AcDb2dVertex
 10
-14372.652886060425
 20
-4993.275260737526
 30
0.0
  0
VERTEX
  5
30E
100
AcDbEntity
  8
Frei
  6
CONTINUOUS
 62
           7
100
AcDbVertex
100
AcDb2dVertex
 10
-14372.268759065653
 20
-4993.333081694609
 30
0.0
 42
0.046286845788
  0
VERTEX
  5
30F
100
AcDbEntity
  8
Frei
  6
CONTINUOUS
 62
           7
100
AcDbVertex
100
AcDb2dVertex
 10
-14371.492722109051
 20
-4993.34089567782
 30
0.0
  0
VERTEX
  5
310
100
AcDbEntity
  8
Frei
  6
CONTINUOUS
 62
           7
100
AcDbVertex
100
AcDb2dVertex
 10
-14371.105986579641
 20
-4993.290771227319
 30
0.0
  0
VERTEX
  5
311
100
AcDbEntity
  8
Frei
  6
CONTINUOUS
 62
           7
100
AcDbVertex
100
AcDb2dVertex
 10
-14370.725483966895
 20
-4993.205344869907
 30
0.0
 42
0.045273723548
  0
VERTEX
  5
312
100
AcDbEntity
  8
Frei
  6
CONTINUOUS
 62
           7
100
AcDbVertex
100
AcDb2dVertex
 10
-14369.990356781891
 20
-4992.930547913575
 30
0.0
  0
VERTEX
  5
313
100
AcDbEntity
  8
Frei
  6
CONTINUOUS
 62
           7
100
AcDbVertex
100
AcDb2dVertex
 10
-14369.640994893558
 20
-4992.742844794584
 30
0.0
  0
VERTEX
  5
314
100
AcDbEntity
  8
Frei
  6
CONTINUOUS
 62
           7
100
AcDbVertex
100
AcDb2dVertex
 10
-14369.309677021571
 20
-4992.524854375288
 30
0.0
 42
0.04348253534
  0
VERTEX
  5
315
100
AcDbEntity
  8
Frei
  6
CONTINUOUS
 62
           7
100
AcDbVertex
100
AcDb2dVertex
 10
-14368.704126796003
 20
-4992.000591047918
 30
0.0
  0
VERTEX
  5
316
100
AcDbEntity
  8
Frei
  6
CONTINUOUS
 62
           7
100
AcDbVertex
100
AcDb2dVertex
 10
-14368.43474938593
 20
-4991.698060067085
 30
0.0
  0
VERTEX
  5
317
100
AcDbEntity
  8
Frei
  6
CONTINUOUS
 62
           7
100
AcDbVertex
100
AcDb2dVertex
 10
-14368.192105442373
 20
-4991.373687407377
 30
0.0
 42
0.041825507476
  0
VERTEX
  5
318
100
AcDbEntity
  8
Frei
  6
CONTINUOUS
 62
           7
100
AcDbVertex
100
AcDb2dVertex
 10
-14367.789170470414
 20
-4990.663191603551
 30
0.0
  0
VERTEX
  5
319
100
AcDbEntity
  8
Frei
  6
CONTINUOUS
 62
           7
100
AcDbVertex
100
AcDb2dVertex
 10
-14367.63240156983
 20
-4990.282763314081
 30
0.0
  0
VERTEX
  5
31A
100
AcDbEntity
  8
Frei
  6
CONTINUOUS
 62
           7
100
AcDbVertex
100
AcDb2dVertex
 10
-14367.507564855356
 20
-4989.890691691913
 30
0.0
 42
0.040993490695
  0
VERTEX
  5
31B
100
AcDbEntity
  8
Frei
  6
CONTINUOUS
 62
           7
100
AcDbVertex
100
AcDb2dVertex
 10
-14367.355845041309
 20
-4989.079659691377
 30
0.0
  0
VERTEX
  5
31C
100
AcDbEntity
  8
Frei
  6
CONTINUOUS
 62
           7
100
AcDbVertex
100
AcDb2dVertex
 10
-14367.330301080819
 20
-4988.667552126179
 30
0.0
  0
VERTEX
  5
31D
100
AcDbEntity
  8
Frei
  6
CONTINUOUS
 62
           7
100
AcDbVertex
100
AcDb2dVertex
 10
-14367.338620958053
 20
-4988.254738398871
 30
0.0
 42
0.041278481646
  0
VERTEX
  5
31E
100
AcDbEntity
  8
Frei
  6
CONTINUOUS
 62
           7
100
AcDbVertex
100
AcDb2dVertex
 10
-14367.456415950641
 20
-4987.440992630445
 30
0.0
  0
VERTEX
  5
31F
100
AcDbEntity
  8
Frei
  6
CONTINUOUS
 62
           7
100
AcDbVertex
100
AcDb2dVertex
 10
-14367.564743506337
 20
-4987.046848324373
 30
0.0
  0
VERTEX
  5
320
100
AcDbEntity
  8
Frei
  6
CONTINUOUS
 62
           7
100
AcDbVertex
100
AcDb2dVertex
 10
-14367.70565087783
 20
-4986.663147639492
 30
0.0
 42
0.042584509173
  0
VERTEX
  5
321
100
AcDbEntity
  8
Frei
  6
CONTINUOUS
 62
           7
100
AcDbVertex
100
AcDb2dVertex
 10
-14368.078752862473
 20
-4985.944837852456
 30
0.0
  0
VERTEX
  5
322
100
AcDbEntity
  8
Frei
  6
CONTINUOUS
 62
           7
100
AcDbVertex
100
AcDb2dVertex
 10
-14368.30770123052
 20
-4985.615785895372
 30
0.0
  0
VERTEX
  5
323
100
AcDbEntity
  8
Frei
  6
CONTINUOUS
 62
           7
100
AcDbVertex
100
AcDb2dVertex
 10
-14368.564385389573
 20
-4985.307888748732
 30
0.0
 42
0.044417198743
  0
VERTEX
  5
324
100
AcDbEntity
  8
Frei
  6
CONTINUOUS
 62
           7
100
AcDbVertex
100
AcDb2dVertex
 10
-14369.147792760526
 20
-4984.771653704527
 30
0.0
  0
VERTEX
  5
325
100
AcDbEntity
  8
Frei
  6
CONTINUOUS
 62
           7
100
AcDbVertex
100
AcDb2dVertex
 10
-14369.470016831798
 20
-4984.546994139981
 30
0.0
  0
VERTEX
  5
326
100
AcDbEntity
  8
Frei
  6
CONTINUOUS
 62
           7
100
AcDbVertex
100
AcDb2dVertex
 10
-14369.811248437594
 20
-4984.35242595031
 30
0.0
 42
0.045929593742
  0
VERTEX
  5
327
100
AcDbEntity
  8
Frei
  6
CONTINUOUS
 62
           7
100
AcDbVertex
100
AcDb2dVertex
 10
-14370.534593655746
 20
-4984.062943509252
 30
0.0
  0
VERTEX
  5
328
100
AcDbEntity
  8
Frei
  6
CONTINUOUS
 62
           7
100
AcDbVertex
100
AcDb2dVertex
 10
-14370.911722941792
 20
-4983.969823115926
 30
0.0
  0
VERTEX
  5
329
100
AcDbEntity
  8
Frei
  6
CONTINUOUS
 62
           7
100
AcDbVertex
100
AcDb2dVertex
 10
-14371.295849936563
 20
-4983.912002158842
 30
0.0
  0
SEQEND
  5
32A
100
AcDbEntity
  8
Frei
  6
CONTINUOUS
 62
           7
  0
ARC
  5
32B
100
AcDbEntity
  8
Frei
  6
CONTINUOUS
 62
           7
100
AcDbCircle
 10
-14238.343908863288
 20
-5007.170981904332
 30
0.0
 40
0.5
100
AcDbArc
 50
271.253821982568
 51
354.103999999999
  0
ARC
  5
32C
100
AcDbEntity
  8
Frei
  6
CONTINUOUS
 62
           7
100
AcDbCircle
 10
-14237.818212866416
 20
-5002.08045119587
 30
0.0
 40
0.5
100
AcDbArc
 50
354.103999999999
 51
76.954178017423
  0
ARC
  5
32D
100
AcDbEntity
  8
Frei
  6
CONTINUOUS
 62
           7
100
AcDbCircle
 10
-14391.202522785839
 20
-4964.123548075278
 30
0.0
 40
0.5
100
AcDbArc
 50
91.253821982565
 51
174.104
  0
ARC
  5
32E
100
AcDbEntity
  8
Frei
  6
CONTINUOUS
 62
           7
100
AcDbCircle
 10
-14391.728218782713
 20
-4969.214078783738
 30
0.0
 40
0.5
100
AcDbArc
 50
174.104
 51
256.954178017419
  0
ARC
  5
32F
100
AcDbEntity
  8
Frei
  6
CONTINUOUS
 62
           7
100
AcDbCircle
 10
-14421.468958672174
 20
-4965.022120921803
 30
0.0
 40
2.0
100
AcDbArc
 50
86.104
 51
174.104
  0
ARC
  5
330
100
AcDbEntity
  8
Frei
  6
CONTINUOUS
 62
           7
100
AcDbCircle
 10
-14439.215077617679
 20
-5020.046182610328
 30
0.0
 40
1.5
100
AcDbArc
 50
174.104
 51
264.104
  0
ARC
  5
331
100
AcDbEntity
  8
Frei
  6
CONTINUOUS
 62
           7
100
AcDbCircle
 10
-14437.67423121998
 20
-5005.125532745838
 30
0.0
 40
1.5
100
AcDbArc
 50
84.104
 51
174.104
  0
ARC
  5
332
100
AcDbEntity
  8
Frei
  6
CONTINUOUS
 62
           7
100
AcDbCircle
 10
-14427.073111539727
 20
-5019.289439746555
 30
0.0
 40
1.5
100
AcDbArc
 50
174.104
 51
264.104
  0
ARC
  5
333
100
AcDbEntity
  8
Frei
  6
CONTINUOUS
 62
           7
100
AcDbCircle
 10
-14402.205361765577
 20
-5021.857517076051
 30
0.0
 40
1.5
100
AcDbArc
 50
264.104
 51
354.103999999999
  0
ARC
  5
334
100
AcDbEntity
  8
Frei
  6
CONTINUOUS
 62
           7
100
AcDbCircle
 10
-14237.083503265221
 20
-5038.909550543907
 30
0.0
 40
1.5
100
AcDbArc
 50
174.104
 51
264.104000000001
  0
ARC
  5
335
100
AcDbEntity
  8
Frei
  6
CONTINUOUS
 62
           7
100
AcDbCircle
 10
-14212.215753491071
 20
-5041.477627873403
 30
0.0
 40
1.5
100
AcDbArc
 50
264.104000000001
 51
354.103999999999
  0
ARC
  5
336
100
AcDbEntity
  8
Frei
  6
CONTINUOUS
 62
           7
100
AcDbCircle
 10
-14198.943833388141
 20
-5029.779075109003
 30
0.0
 40
1.5
100
AcDbArc
 50
354.103999999999
 51
84.104
  0
ARC
  5
337
100
AcDbEntity
  8
Frei
  6
CONTINUOUS
 62
           7
100
AcDbCircle
 10
-14200.484679785839
 20
-5044.699724973494
 30
0.0
 40
1.5
100
AcDbArc
 50
264.104000000001
 51
354.103999999999
  0
ARC
  5
338
100
AcDbEntity
  8
Frei
  6
CONTINUOUS
 62
           7
100
AcDbCircle
 10
-14206.611600623517
 20
-4987.210309048652
 30
0.0
 40
2.0
100
AcDbArc
 50
354.103999999999
 51
82.104
  0
ARC
  5
339
100
AcDbEntity
  8
Frei
  6
CONTINUOUS
 62
           7
100
AcDbCircle
 10
-14235.344951087187
 20
-4978.267342171155
 30
0.0
 40
1.0
100
AcDbArc
 50
354.103999999999
 51
84.104
  0
ARC
  5
33A
100
AcDbEntity
  8
Frei
  6
CONTINUOUS
 62
           7
100
AcDbCircle
 10
-14238.529366975761
 20
-5009.103351891101
 30
0.0
 40
1.0
100
AcDbArc
 50
264.103999999999
 51
354.103999999999
  0
ARC
  5
33B
100
AcDbEntity
  8
Frei
  6
CONTINUOUS
 62
           7
100
AcDbCircle
 10
-14394.698835557425
 20
-4992.975826261863
 30
0.0
 40
1.0
100
AcDbArc
 50
174.104
 51
264.104
  0
ARC
  5
33C
100
AcDbEntity
  8
Frei
  6
CONTINUOUS
 62
           7
100
AcDbCircle
 10
-14391.514419668849
 20
-4962.139816541918
 30
0.0
 40
1.0
100
AcDbArc
 50
84.104
 51
174.104
  0
LINE
  5
33D
100
AcDbEntity
  8
Frei
  6
CONTINUOUS
 62
           7
100
AcDbLine
 10
-14677.243393986837
 20
-4954.306496583234
 30
0.0
 11
-14677.243393986837
 21
-5034.306496583234
 31
0.0
  0
LINE
  5
33E
100
AcDbEntity
  8
Frei
  6
CONTINUOUS
 62
           7
100
AcDbLine
 10
-14131.354508986837
 20
-5034.306496583234
 30
0.0
 11
-14131.354508986837
 21
-4954.306496583234
 31
0.0
  0
LINE
  5
33F
100
AcDbEntity
  8
Frei
  6
CONTINUOUS
 62
          15
100
AcDbLine
 10
-14602.149377846225
 20
-4954.306496583234
 30
0.0
 11
-14677.243393986837
 21
-4954.306496583234
 31
0.0
  0
LINE
  5
340
100
AcDbEntity
  8
Frei
  6
GESTRICHELT
 62
          15
100
AcDbLine
 10
-14495.185979708016
 20
-4954.306496583234
 30
0.0
 11
-14602.149377846225
 21
-4954.306496583234
 31
0.0
  0
LINE
  5
341
100
AcDbEntity
  8
Frei
  6
CONTINUOUS
 62
          15
100
AcDbLine
 10
-14477.844279495197
 20
-4954.306496583234
 30
0.0
 11
-14495.185979708016
 21
-4954.306496583234
 31
0.0
  0
LINE
  5
342
100
AcDbEntity
  8
Frei
  6
GESTRICHELT
 62
          15
100
AcDbLine
 10
-14280.457159989021
 20
-4954.306496583234
 30
0.0
 11
-14477.844279495197
 21
-4954.306496583234
 31
0.0
  0
LINE
  5
343
100
AcDbEntity
  8
Frei
  6
CONTINUOUS
 62
          15
100
AcDbLine
 10
-14131.354508986837
 20
-4954.306496583234
 30
0.0
 11
-14280.457159989021
 21
-4954.306496583234
 31
0.0
  0
LINE
  5
344
100
AcDbEntity
  8
Frei
  6
CONTINUOUS
 62
          15
100
AcDbLine
 10
-14238.116125907412
 20
-5034.306496583234
 30
0.0
 11
-14677.243393986837
 21
-5034.306496583234
 31
0.0
  0
LINE
  5
345
100
AcDbEntity
  8
Frei
  6
GESTRICHELT
 62
          15
100
AcDbLine
 10
-14187.850218804737
 20
-5034.306496583234
 30
0.0
 11
-14238.116125907412
 21
-5034.306496583234
 31
0.0
  0
LINE
  5
346
100
AcDbEntity
  8
Frei
  6
CONTINUOUS
 62
          15
100
AcDbLine
 10
-14131.354508986837
 20
-5034.306496583234
 30
0.0
 11
-14187.850218804737
 21
-5034.306496583234
 31
0.0
  0
TEXT
  5
347
100
AcDbEntity
  8
FREI
  6
CONTINUOUS
 62
          15
100
AcDbText
 10
-14905.119660849368
 20
-5098.238805783684
 30
0.0
 40
3.527777671814
  1
315-700
 41
0.899999979725
  7
GOTHICG
100
AcDbText
  0
ENDSEC
  0
SECTION
  2
OBJECTS
  0
DICTIONARY
  5
19
100
AcDbDictionary
  3
ACAD_GROUP
350
1A
  3
ACAD_MLINESTYLE
350
1B
  0
DICTIONARY
  5
1A
102
{ACAD_REACTORS
330
19
102
}
100
AcDbDictionary
  0
DICTIONARY
  5
1B
102
{ACAD_REACTORS
330
19
102
}
100
AcDbDictionary
  3
STANDARD
350
1C
  0
MLINESTYLE
  5
1C
102
{ACAD_REACTORS
330
1B
102
}
100
AcDbMlineStyle
  2
STANDARD
 70
           0
  3

 62
           0
 51
90.0
 52
90.0
 71
           2
 49
0.5
 62
         256
  6
BYLAYER
 49
-0.5
 62
         256
  6
BYLAYER
  0
ENDSEC
  0
EOF
