  0
SECTION
  2
HEADER
  9
$ACADVER
  1
AC1012
  9
$DWGCODEPAGE
  3
dos850
  9
$INSBASE
 10
0.0
 20
0.0
 30
0.0
  9
$EXTMIN
 10
-869.121959736513
 20
2968.464183660384
 30
0.0
  9
$EXTMAX
 10
-612.621959736513
 20
3110.964183660384
 30
0.0
  9
$LIMMIN
 10
-869.121959736513
 20
2968.464183660384
  9
$LIMMAX
 10
-612.621959736513
 20
3110.964183660384
  9
$ORTHOMODE
 70
           0
  9
$REGENMODE
 70
           1
  9
$FILLMODE
 70
           1
  9
$QTEXTMODE
 70
           0
  9
$MIRRTEXT
 70
           1
  9
$DRAGMODE
 70
           2
  9
$LTSCALE
 40
5.0
  9
$OSMODE
 70
           0
  9
$ATTMODE
 70
           1
  9
$TEXTSIZE
 40
0.2
  9
$TRACEWID
 40
0.05
  9
$TEXTSTYLE
  7
TXT
  9
$CLAYER
  8
0
  9
$CELTYPE
  6
CONTINUOUS
  9
$CECOLOR
 62
         256
  9
$CELTSCALE
 40
1.0
  9
$DELOBJ
 70
           1
  9
$DISPSILH
 70
           0
  9
$DIMSCALE
 40
1.0
  9
$DIMASZ
 40
3.5
  9
$DIMEXO
 40
0.0625
  9
$DIMDLI
 40
0.38
  9
$DIMRND
 40
0.0
  9
$DIMDLE
 40
0.0
  9
$DIMEXE
 40
0.18
  9
$DIMTP
 40
0.0
  9
$DIMTM
 40
0.0
  9
$DIMTXT
 40
3.5
  9
$DIMCEN
 40
0.09
  9
$DIMTSZ
 40
0.0
  9
$DIMTOL
 70
           0
  9
$DIMLIM
 70
           0
  9
$DIMTIH
 70
           1
  9
$DIMTOH
 70
           1
  9
$DIMSE1
 70
           0
  9
$DIMSE2
 70
           0
  9
$DIMTAD
 70
           0
  9
$DIMZIN
 70
           0
  9
$DIMBLK
  1

  9
$DIMASO
 70
           1
  9
$DIMSHO
 70
           1
  9
$DIMPOST
  1

  9
$DIMAPOST
  1

  9
$DIMALT
 70
           0
  9
$DIMALTD
 70
           2
  9
$DIMALTF
 40
25.4
  9
$DIMLFAC
 40
1.0
  9
$DIMTOFL
 70
           0
  9
$DIMTVP
 40
0.0
  9
$DIMTIX
 70
           0
  9
$DIMSOXD
 70
           0
  9
$DIMSAH
 70
           0
  9
$DIMBLK1
  1

  9
$DIMBLK2
  1

  9
$DIMSTYLE
  2
STANDARD
  9
$DIMCLRD
 70
           0
  9
$DIMCLRE
 70
           0
  9
$DIMCLRT
 70
           0
  9
$DIMTFAC
 40
1.0
  9
$DIMGAP
 40
0.09
  9
$DIMJUST
 70
           0
  9
$DIMSD1
 70
           0
  9
$DIMSD2
 70
           0
  9
$DIMTOLJ
 70
           1
  9
$DIMTZIN
 70
           0
  9
$DIMALTZ
 70
           0
  9
$DIMALTTZ
 70
           0
  9
$DIMFIT
 70
           3
  9
$DIMUPT
 70
           0
  9
$DIMUNIT
 70
           2
  9
$DIMDEC
 70
           4
  9
$DIMTDEC
 70
           4
  9
$DIMALTU
 70
           2
  9
$DIMALTTD
 70
           2
  9
$DIMTXSTY
  7
TXT
  9
$DIMAUNIT
 70
           0
  9
$LUNITS
 70
           2
  9
$LUPREC
 70
           2
  9
$SKETCHINC
 40
0.1
  9
$FILLETRAD
 40
0.0
  9
$AUNITS
 70
           0
  9
$AUPREC
 70
           2
  9
$MENU
  1
acad
  9
$ELEVATION
 40
0.0
  9
$PELEVATION
 40
0.0
  9
$THICKNESS
 40
0.0
  9
$LIMCHECK
 70
           0
  9
$BLIPMODE
 70
           1
  9
$CHAMFERA
 40
0.0
  9
$CHAMFERB
 40
0.0
  9
$CHAMFERC
 40
0.0
  9
$CHAMFERD
 40
0.0
  9
$SKPOLY
 70
           0
  9
$TDCREATE
 40
0.000000000
  9
$TDUPDATE
 40
0.000000000
  9
$TDINDWG
 40
0.0000000000
  9
$TDUSRTIMER
 40
0.0000000000
  9
$USRTIMER
 70
           1
  9
$ANGBASE
 50
0.0
  9
$ANGDIR
 70
           0
  9
$PDMODE
 70
           2
  9
$PDSIZE
 40
0.5
  9
$PLINEWID
 40
0.0
  9
$COORDS
 70
           0
  9
$SPLFRAME
 70
           0
  9
$SPLINETYPE
 70
           6
  9
$SPLINESEGS
 70
           8
  9
$ATTDIA
 70
           0
  9
$ATTREQ
 70
           1
  9
$HANDLING
 70
           1
  9
$HANDSEED
  5
A3
  9
$SURFTAB1
 70
           6
  9
$SURFTAB2
 70
           6
  9
$SURFTYPE
 70
           6
  9
$SURFU
 70
           6
  9
$SURFV
 70
           6
  9
$UCSNAME
  2

  9
$UCSORG
 10
0.0
 20
0.0
 30
0.0
  9
$UCSXDIR
 10
1.0
 20
0.0
 30
0.0
  9
$UCSYDIR
 10
0.0
 20
1.0
 30
0.0
  9
$PUCSNAME
  2

  9
$PUCSORG
 10
0.0
 20
0.0
 30
0.0
  9
$PUCSXDIR
 10
1.0
 20
0.0
 30
0.0
  9
$PUCSYDIR
 10
0.0
 20
1.0
 30
0.0
  9
$USERI1
 70
           0
  9
$USERI2
 70
           0
  9
$USERI3
 70
           0
  9
$USERI4
 70
           0
  9
$USERI5
 70
           0
  9
$USERR1
 40
0.0
  9
$USERR2
 40
0.0
  9
$USERR3
 40
0.0
  9
$USERR4
 40
0.0
  9
$USERR5
 40
0.0
  9
$WORLDVIEW
 70
           1
  9
$SHADEDGE
 70
           3
  9
$SHADEDIF
 70
          70
  9
$TILEMODE
 70
           1
  9
$MAXACTVP
 70
          16
  9
$PINSBASE
 10
0.0
 20
0.0
 30
0.0
  9
$PLIMCHECK
 70
           0
  9
$PEXTMIN
 10
1.000000000000E+20
 20
1.000000000000E+20
 30
1.000000000000E+20
  9
$PEXTMAX
 10
-1.000000000000E+20
 20
-1.000000000000E+20
 30
-1.000000000000E+20
  9
$PLIMMIN
 10
0.0
 20
0.0
  9
$PLIMMAX
 10
12.0
 20
9.0
  9
$UNITMODE
 70
           0
  9
$VISRETAIN
 70
           0
  9
$PLINEGEN
 70
           1
  9
$PSLTSCALE
 70
           0
  9
$TREEDEPTH
 70
        3020
  9
$PICKSTYLE
 70
           1
  9
$CMLSTYLE
  2
STANDARD
  9
$CMLJUST
 70
           0
  9
$CMLSCALE
 40
1.0
  9
$SAVEIMAGES
 70
           0
  0
ENDSEC
  0
SECTION
  2
CLASSES
  0
CLASS
  1
LWPOLYLINE
  2
AcDbPolyline
  3
"AutoCAD"
 90
        0
280
           0
281
           1
  0
CLASS
  1
IMAGE
  2
AcDbRasterImage
  3
ISM
 90
      127
280
           0
281
           1
  0
CLASS
  1
OLE2FRAME
  2
AcDbOle2Frame
  3
""
 90
        0
280
           0
281
           1
  0
CLASS
  1
HATCH
  2
AcDbHatch
  3
"ACAD_SEDONA"
 90
        0
280
           0
281
           1
  0
CLASS
  1
DICTIONARYVAR
  2
AcDbDictionaryVar
  3
"AutoCAD"
 90
        0
280
           0
281
           0
  0
CLASS
  1
RASTERVARIABLES
  2
AcDbRasterVariables
  3
ISM
 90
        0
280
           0
281
           0
  0
CLASS
  1
IMAGEDEF
  2
AcDbRasterImageDef
  3
ISM
 90
        0
280
           0
281
           0
  0
CLASS
  1
IMAGEDEF_REACTOR
  2
AcDbRasterImageDefReactor
  3
ISM
 90
        1
280
           0
281
           0
  0
CLASS
  1
IDBUFFER
  2
AcDbIdBuffer
  3
"Acad"
 90
        0
280
           0
281
           0
  0
CLASS
  1
SPATIAL_FILTER
  2
AcDbSpatialFilter
  3
"Acad"
 90
        0
280
           0
281
           0
  0
CLASS
  1
XRECORD
  2
AcDbXrecord
  3
"<Built In>"
 90
        0
280
           0
281
           0
  0
ENDSEC
  0
SECTION
  2
TABLES
  0
TABLE
  2
VPORT
  5
7
100
AcDbSymbolTable
 70
           1
  0
VPORT
  5
15
100
AcDbSymbolTableRecord
100
AcDbViewportTableRecord
  2
*ACTIVE
 70
           0
 10
0.0
 20
0.0
 11
1.0
 21
1.0
 12
6.591288
 22
4.579184
 13
0.0
 23
0.0
 14
1.0
 24
1.0
 15
0.0
 25
0.0
 16
0.0
 26
0.0
 36
1.0
 17
0.0
 27
0.0
 37
0.0
 40
9.158369
 41
0.688564
 42
50.0
 43
0.0
 44
0.0
 50
0.0
 51
0.0
 71
           0
 72
         100
 73
           1
 74
           1
 75
           0
 76
           0
 77
           0
 78
           0
  0
ENDTAB
  0
TABLE
  2
LTYPE
  5
4
100
AcDbSymbolTable
 70
           5
  0
LTYPE
  5
11
100
AcDbSymbolTableRecord
100
AcDbLinetypeTableRecord
  2
BYBLOCK
 70
           0
  3

 72
          65
 73
           0
 40
0.0
  0
LTYPE
  5
12
100
AcDbSymbolTableRecord
100
AcDbLinetypeTableRecord
  2
BYLAYER
 70
           0
  3

 72
          65
 73
           0
 40
0.0
  0
LTYPE
  5
13
100
AcDbSymbolTableRecord
100
AcDbLinetypeTableRecord
  2
CONTINUOUS
 70
           0
  3
Solid line
 72
          65
 73
           0
 40
0.0
  0
LTYPE
  5
1D
100
AcDbSymbolTableRecord
100
AcDbLinetypeTableRecord
  2
GESTRICHELT
 70
           0
  3

 72
          65
 73
           2
 40
0.75
 49
0.5
 74
           0
 49
-0.25
 74
           0
  0
LTYPE
  5
1E
100
AcDbSymbolTableRecord
100
AcDbLinetypeTableRecord
  2
STRICHPUNKT
 70
           0
  3

 72
          65
 73
           4
 40
1.0
 49
0.5
 74
           0
 49
-0.25
 74
           0
 49
0.0
 74
           0
 49
-0.25
 74
           0
  0
ENDTAB
  0
TABLE
  2
LAYER
  5
2
100
AcDbSymbolTable
 70
           3
  0
LAYER
  5
14
100
AcDbSymbolTableRecord
100
AcDbLayerTableRecord
  2
0
 70
           0
 62
           7
  6
CONTINUOUS
  0
LAYER
  5
20
100
AcDbSymbolTableRecord
100
AcDbLayerTableRecord
  2
WHITE
 70
           0
 62
           7
  6
CONTINUOUS
  0
LAYER
  5
21
100
AcDbSymbolTableRecord
100
AcDbLayerTableRecord
  2
YELLOW
 70
           0
 62
           7
  6
CONTINUOUS
  0
ENDTAB
  0
TABLE
  2
STYLE
  5
3
100
AcDbSymbolTable
 70
           2
  0
STYLE
  5
17
100
AcDbSymbolTableRecord
100
AcDbTextStyleTableRecord
  2
TXT
 70
           0
 40
3.5
 41
1.0
 50
0.0
 71
           0
 42
3.5
  3
TXT
  4

  0
STYLE
  5
1F
100
AcDbSymbolTableRecord
100
AcDbTextStyleTableRecord
  2
GOTHICG
 70
           0
 40
3.5
 41
1.0
 50
0.0
 71
           0
 42
3.5
  3
GOTHICG
  4

  0
ENDTAB
  0
TABLE
  2
VIEW
  5
5
100
AcDbSymbolTable
 70
           0
  0
ENDTAB
  0
TABLE
  2
UCS
  5
6
100
AcDbSymbolTable
 70
           0
  0
ENDTAB
  0
TABLE
  2
APPID
  5
8
100
AcDbSymbolTable
 70
           2
  0
APPID
  5
16
100
AcDbSymbolTableRecord
100
AcDbRegAppTableRecord
  2
ACAD
 70
           0
  0
APPID
  5
22
100
AcDbSymbolTableRecord
100
AcDbRegAppTableRecord
  2
MegaCADPntStyle
 70
           0
  0
ENDTAB
  0
TABLE
  2
DIMSTYLE
  5
9
100
AcDbSymbolTable
 70
           1
  0
DIMSTYLE
105
18
100
AcDbSymbolTableRecord
100
AcDbDimStyleTableRecord
  2
STANDARD
 70
           0
  3

  4

  5

  6

  7

 40
1.0
 41
0.18
 42
0.0625
 43
0.38
 44
0.18
 45
0.0
 46
0.0
 47
0.0
 48
0.0
140
0.18
141
0.09
142
0.0
143
25.4
144
1.0
145
0.0
146
1.0
147
0.09
 71
           0
 72
           0
 73
           1
 74
           1
 75
           0
 76
           0
 77
           0
 78
           0
170
           0
171
           2
172
           0
173
           0
174
           0
175
           0
176
           0
177
           0
178
           0
270
           2
271
           4
272
           4
273
           2
274
           2
340
17
275
           0
280
           0
281
           0
282
           0
283
           1
284
           0
285
           0
286
           0
287
           0
288
           0
  0
ENDTAB
  0
TABLE
  2
BLOCK_RECORD
  5
1
100
AcDbSymbolTable
 70
           1
  0
BLOCK_RECORD
  5
A
100
AcDbSymbolTableRecord
100
AcDbBlockTableRecord
  2
*MODEL_SPACE
  0
BLOCK_RECORD
  5
B
100
AcDbSymbolTableRecord
100
AcDbBlockTableRecord
  2
*PAPER_SPACE
  0
BLOCK_RECORD
  5
23
100
AcDbSymbolTableRecord
100
AcDbBlockTableRecord
  2
ELIPPSE
  0
ENDTAB
  0
ENDSEC
  0
SECTION
  2
BLOCKS
  0
BLOCK
  5
D
100
AcDbEntity
  8
0
100
AcDbBlockBegin
  2
*MODEL_SPACE
 70
           0
 10
0.0
 20
0.0
 30
0.0
  3
*MODEL_SPACE
  1

  0
ENDBLK
  5
E
100
AcDbEntity
  8
0
100
AcDbBlockEnd
  0
BLOCK
  5
F
100
AcDbEntity
 67
           1
  8
0
100
AcDbBlockBegin
  2
*PAPER_SPACE
 70
           0
 10
0.0
 20
0.0
 30
0.0
  3
*PAPER_SPACE
  1

  0
ENDBLK
  5
10
100
AcDbEntity
 67
           1
  8
0
100
AcDbBlockEnd
  0
BLOCK
  5
9E
100
AcDbEntity
  8
0
100
AcDbBlockBegin
  2
ELIPPSE
 70
          64
 10
0.0
 20
0.0
 30
0.0
  3
ELIPPSE
  1

  0
CIRCLE
  5
9F
100
AcDbEntity
  8
0
  6
BYBLOCK
 62
           0
100
AcDbCircle
 10
0.0
 20
0.0
 30
0.0
 40
1.0
  0
ENDBLK
  5
A0
100
AcDbEntity
  8
0
  6
BYBLOCK
 62
           0
100
AcDbBlockEnd
  0
ENDSEC
  0
SECTION
  2
ENTITIES
  0
LINE
  5
24
100
AcDbEntity
  8
0
  6
GESTRICHELT
 62
          15
100
AcDbLine
 10
-836.621959736513
 20
3093.464183660384
 30
0.0
 11
-783.121959736513
 21
3093.464183660384
 31
0.0
  0
LINE
  5
25
100
AcDbEntity
  8
0
  6
CONTINUOUS
 62
          15
100
AcDbLine
 10
-862.121959736513
 20
3093.464183660384
 30
0.0
 11
-836.621959736513
 21
3093.464183660384
 31
0.0
  0
LINE
  5
26
100
AcDbEntity
  8
0
  6
CONTINUOUS
 62
          15
100
AcDbLine
 10
-783.121959736513
 20
3005.964183660384
 30
0.0
 11
-783.121959736513
 21
2968.464183660384
 31
0.0
  0
LINE
  5
27
100
AcDbEntity
  8
0
  6
GESTRICHELT
 62
          15
100
AcDbLine
 10
-783.121959736513
 20
3016.945305559422
 30
0.0
 11
-783.121959736513
 21
3005.964183660384
 31
0.0
  0
LINE
  5
28
100
AcDbEntity
  8
0
  6
GESTRICHELT
 62
          15
100
AcDbLine
 10
-783.121959736513
 20
3064.009606944101
 30
0.0
 11
-783.121959736513
 21
3016.945305559422
 31
0.0
  0
LINE
  5
29
100
AcDbEntity
  8
0
  6
CONTINUOUS
 62
          15
100
AcDbLine
 10
-783.121959736513
 20
3074.115081681167
 30
0.0
 11
-783.121959736513
 21
3064.009606944101
 31
0.0
  0
LINE
  5
2A
100
AcDbEntity
  8
0
  6
GESTRICHELT
 62
          15
100
AcDbLine
 10
-783.121959736513
 20
3093.464183660384
 30
0.0
 11
-783.121959736513
 21
3074.115081681167
 31
0.0
  0
LINE
  5
2B
100
AcDbEntity
  8
0
  6
CONTINUOUS
 62
          15
100
AcDbLine
 10
-783.121959736513
 20
2968.464183660384
 30
0.0
 11
-862.121959736513
 21
2968.464183660384
 31
0.0
  0
LINE
  5
2C
100
AcDbEntity
  8
0
  6
CONTINUOUS
 62
          15
100
AcDbLine
 10
-862.121959736513
 20
3055.964183660384
 30
0.0
 11
-862.121959736513
 21
3093.464183660384
 31
0.0
  0
LINE
  5
2D
100
AcDbEntity
  8
0
  6
GESTRICHELT
 62
          15
100
AcDbLine
 10
-862.121959736513
 20
3005.964183660384
 30
0.0
 11
-862.121959736513
 21
3055.964183660384
 31
0.0
  0
LINE
  5
2E
100
AcDbEntity
  8
0
  6
CONTINUOUS
 62
          15
100
AcDbLine
 10
-862.121959736513
 20
2968.464183660384
 30
0.0
 11
-862.121959736513
 21
3005.964183660384
 31
0.0
  0
LINE
  5
2F
100
AcDbEntity
  8
0
  6
STRICHPUNKT
 62
          15
100
AcDbLine
 10
-822.621959736513
 20
3093.464183660384
 30
0.0
 11
-822.621959736513
 21
2968.464183660384
 31
0.0
  0
LINE
  5
30
100
AcDbEntity
  8
0
  6
GESTRICHELT
 62
          15
100
AcDbLine
 10
-862.121959736513
 20
3030.964183660384
 30
0.0
 11
-783.121959736513
 21
3030.964183660384
 31
0.0
  0
ARC
  5
31
100
AcDbEntity
  8
WHITE
  6
CONTINUOUS
 62
          15
100
AcDbCircle
 10
-822.621959736513
 20
3030.964183660384
 30
0.0
 40
80.0
100
AcDbArc
 50
77.453443
 51
87.655957
  0
LINE
  5
32
100
AcDbEntity
  8
WHITE
  6
CONTINUOUS
 62
          15
100
AcDbLine
 10
-819.349971736513
 20
3110.897243660384
 30
0.0
 11
-822.621959736513
 21
3105.964183660384
 31
0.0
  0
LINE
  5
33
100
AcDbEntity
  8
WHITE
  6
CONTINUOUS
 62
          15
100
AcDbLine
 10
-822.621959736513
 20
3105.964183660384
 30
0.0
 11
-826.046550736513
 21
3110.890849660384
 31
0.0
  0
LINE
  5
34
100
AcDbEntity
  8
WHITE
  6
CONTINUOUS
 62
          15
100
AcDbLine
 10
-826.046550736513
 20
3110.890849660384
 30
0.0
 11
-831.621928736513
 21
3110.964183660384
 31
0.0
  0
ARC
  5
35
100
AcDbEntity
  8
WHITE
  6
CONTINUOUS
 62
          15
100
AcDbCircle
 10
-831.621959736513
 20
3105.964183660384
 30
0.0
 40
5.0
100
AcDbArc
 50
89.999645
 51
180.0
  0
LINE
  5
36
100
AcDbEntity
  8
WHITE
  6
CONTINUOUS
 62
          15
100
AcDbLine
 10
-836.621959736513
 20
3105.964183660384
 30
0.0
 11
-836.621959736513
 21
3045.595058548784
 31
0.0
  0
LINE
  5
37
100
AcDbEntity
  8
WHITE
  6
CONTINUOUS
 62
          15
100
AcDbLine
 10
-765.176403970733
 20
3016.945283866148
 30
0.0
 11
-747.634135736513
 21
3016.945262660384
 31
0.0
  0
LINE
  5
38
100
AcDbEntity
  8
WHITE
  6
GESTRICHELT
 62
          15
100
AcDbLine
 10
-770.067516756818
 20
3016.945289778712
 30
0.0
 11
-765.176403970733
 21
3016.945283866148
 31
0.0
  0
LINE
  5
39
100
AcDbEntity
  8
WHITE
  6
CONTINUOUS
 62
          15
100
AcDbLine
 10
-808.009143433913
 20
3016.945335644001
 30
0.0
 11
-770.067516756818
 21
3016.945289778712
 31
0.0
  0
ARC
  5
3A
100
AcDbEntity
  8
WHITE
  6
GESTRICHELT
 62
          15
100
AcDbCircle
 10
-747.634135736513
 20
3021.945262660384
 30
0.0
 40
5.0
100
AcDbArc
 50
307.229757705782
 51
359.922714999999
  0
ARC
  5
3B
100
AcDbEntity
  8
WHITE
  6
CONTINUOUS
 62
          15
100
AcDbCircle
 10
-747.634135736513
 20
3021.945262660384
 30
0.0
 40
5.0
100
AcDbArc
 50
269.999999999999
 51
307.229757705782
  0
LINE
  5
3C
100
AcDbEntity
  8
WHITE
  6
CONTINUOUS
 62
          15
100
AcDbLine
 10
-742.628166214223
 20
3026.365876484338
 30
0.0
 11
-742.626445736513
 21
3027.640818660384
 31
0.0
  0
LINE
  5
3D
100
AcDbEntity
  8
WHITE
  6
GESTRICHELT
 62
          15
100
AcDbLine
 10
-742.634140736513
 20
3021.938518660384
 30
0.0
 11
-742.628166214223
 21
3026.365876484338
 31
0.0
  0
LINE
  5
3E
100
AcDbEntity
  8
WHITE
  6
CONTINUOUS
 62
          15
100
AcDbLine
 10
-742.626445736513
 20
3027.640818660384
 30
0.0
 11
-747.621959736513
 21
3030.964183660384
 31
0.0
  0
LINE
  5
3F
100
AcDbEntity
  8
WHITE
  6
CONTINUOUS
 62
          15
100
AcDbLine
 10
-747.621959736513
 20
3030.964183660384
 30
0.0
 11
-742.695323736513
 21
3034.388772660384
 31
0.0
  0
ARC
  5
40
100
AcDbEntity
  8
WHITE
  6
CONTINUOUS
 62
          15
100
AcDbCircle
 10
-822.621959736513
 20
3030.964183660384
 30
0.0
 40
79.999969
100
AcDbArc
 50
9.352038714008
 51
12.546536
  0
ARC
  5
41
100
AcDbEntity
  8
WHITE
  6
GESTRICHELT
 62
          15
100
AcDbCircle
 10
-822.621959736513
 20
3030.964183660384
 30
0.0
 40
79.999969
100
AcDbArc
 50
3.319882520451
 51
9.352038714008
  0
ARC
  5
42
100
AcDbEntity
  8
WHITE
  6
CONTINUOUS
 62
          15
100
AcDbCircle
 10
-822.621959736513
 20
3030.964183660384
 30
0.0
 40
79.999969
100
AcDbArc
 50
2.453432
 51
3.319882520451
  0
LINE
  5
43
100
AcDbEntity
  8
WHITE
  6
CONTINUOUS
 62
          15
100
AcDbLine
 10
-744.532398736513
 20
3048.342776660384
 30
0.0
 11
-750.177531736513
 21
3050.375590660384
 31
0.0
  0
LINE
  5
44
100
AcDbEntity
  8
WHITE
  6
CONTINUOUS
 62
          15
100
AcDbLine
 10
-750.177531736513
 20
3050.375590660384
 30
0.0
 11
-746.305067736513
 21
3054.958598660384
 31
0.0
  0
ARC
  5
45
100
AcDbEntity
  8
WHITE
  6
CONTINUOUS
 62
          15
100
AcDbCircle
 10
-822.621959736513
 20
3030.964183660384
 30
0.0
 40
80.0
100
AcDbArc
 50
17.45341
 51
27.547062
  0
LINE
  5
46
100
AcDbEntity
  8
WHITE
  6
CONTINUOUS
 62
          15
100
AcDbLine
 10
-751.691458736513
 20
3067.962346660384
 30
0.0
 11
-757.670055736513
 21
3068.464183660384
 31
0.0
  0
LINE
  5
47
100
AcDbEntity
  8
WHITE
  6
CONTINUOUS
 62
          15
100
AcDbLine
 10
-757.670055736513
 20
3068.464183660384
 30
0.0
 11
-755.115350736513
 21
3073.892702660384
 31
0.0
  0
ARC
  5
48
100
AcDbEntity
  8
WHITE
  6
CONTINUOUS
 62
          15
100
AcDbCircle
 10
-822.621959736513
 20
3030.964183660384
 30
0.0
 40
80.0
100
AcDbArc
 50
32.452925
 51
42.546549
  0
LINE
  5
49
100
AcDbEntity
  8
WHITE
  6
CONTINUOUS
 62
          15
100
AcDbLine
 10
-763.683701736513
 20
3085.059301660384
 30
0.0
 11
-769.588939736513
 21
3083.997172660384
 31
0.0
  0
LINE
  5
4A
100
AcDbEntity
  8
WHITE
  6
CONTINUOUS
 62
          15
100
AcDbLine
 10
-769.588939736513
 20
3083.997172660384
 30
0.0
 11
-768.526809736513
 21
3089.902412660384
 31
0.0
  0
ARC
  5
4B
100
AcDbEntity
  8
WHITE
  6
CONTINUOUS
 62
          15
100
AcDbCircle
 10
-822.621959736513
 20
3030.964183660384
 30
0.0
 40
80.0
100
AcDbArc
 50
47.45342
 51
57.547075
  0
LINE
  5
4C
100
AcDbEntity
  8
WHITE
  6
CONTINUOUS
 62
          15
100
AcDbLine
 10
-779.693440736513
 20
3098.470792660384
 30
0.0
 11
-785.121959736513
 21
3095.916087660384
 31
0.0
  0
LINE
  5
4D
100
AcDbEntity
  8
WHITE
  6
CONTINUOUS
 62
          15
100
AcDbLine
 10
-785.121959736513
 20
3095.916087660384
 30
0.0
 11
-785.623796736513
 21
3101.894684660384
 31
0.0
  0
ARC
  5
4E
100
AcDbEntity
  8
WHITE
  6
CONTINUOUS
 62
          15
100
AcDbCircle
 10
-822.621959736513
 20
3030.964183660384
 30
0.0
 40
80.0
100
AcDbArc
 50
62.452938
 51
72.546569
  0
LINE
  5
4F
100
AcDbEntity
  8
WHITE
  6
CONTINUOUS
 62
          15
100
AcDbLine
 10
-798.627516736513
 20
3107.281067660384
 30
0.0
 11
-803.210521736513
 21
3103.408610660384
 31
0.0
  0
LINE
  5
50
100
AcDbEntity
  8
WHITE
  6
CONTINUOUS
 62
          15
100
AcDbLine
 10
-803.210521736513
 20
3103.408610660384
 30
0.0
 11
-805.243331736513
 21
3109.053768660384
 31
0.0
  0
LINE
  5
51
100
AcDbEntity
  8
WHITE
  6
GESTRICHELT
 62
          15
100
AcDbLine
 10
-764.121959736513
 20
3030.964183660384
 30
0.0
 11
-764.121959736513
 21
3027.464183660384
 31
0.0
  0
LINE
  5
52
100
AcDbEntity
  8
WHITE
  6
GESTRICHELT
 62
          15
100
AcDbLine
 10
-764.121959736513
 20
3027.464183660384
 30
0.0
 11
-771.121959736513
 21
3027.464183660384
 31
0.0
  0
LINE
  5
53
100
AcDbEntity
  8
WHITE
  6
CONTINUOUS
 62
          15
100
AcDbLine
 10
-771.121959736513
 20
3027.464183660384
 30
0.0
 11
-771.121959736513
 21
3030.964183660384
 31
0.0
  0
ARC
  5
54
100
AcDbEntity
  8
WHITE
  6
CONTINUOUS
 62
          15
100
AcDbCircle
 10
-822.621959736513
 20
3030.964183660384
 30
0.0
 40
51.5
100
AcDbArc
 50
14.621187068285
 51
90.0
  0
ARC
  5
55
100
AcDbEntity
  8
WHITE
  6
GESTRICHELT
 62
          15
100
AcDbCircle
 10
-822.621959736513
 20
3030.964183660384
 30
0.0
 40
51.5
100
AcDbArc
 50
0.0
 51
14.621187068285
  0
LINE
  5
56
100
AcDbEntity
  8
WHITE
  6
CONTINUOUS
 62
          15
100
AcDbLine
 10
-822.621959736513
 20
3082.464183660384
 30
0.0
 11
-826.121959736513
 21
3082.464183660384
 31
0.0
  0
LINE
  5
57
100
AcDbEntity
  8
WHITE
  6
CONTINUOUS
 62
          15
100
AcDbLine
 10
-826.121959736513
 20
3082.464183660384
 30
0.0
 11
-826.121959736513
 21
3089.464183660384
 31
0.0
  0
LINE
  5
58
100
AcDbEntity
  8
WHITE
  6
CONTINUOUS
 62
          15
100
AcDbLine
 10
-826.121959736513
 20
3089.464183660384
 30
0.0
 11
-822.621959736513
 21
3089.464183660384
 31
0.0
  0
ARC
  5
59
100
AcDbEntity
  8
WHITE
  6
CONTINUOUS
 62
          15
100
AcDbCircle
 10
-822.621959736513
 20
3030.964183660384
 30
0.0
 40
58.5
100
AcDbArc
 50
15.445489994148
 51
90.0
  0
ARC
  5
5A
100
AcDbEntity
  8
WHITE
  6
GESTRICHELT
 62
          15
100
AcDbCircle
 10
-822.621959736513
 20
3030.964183660384
 30
0.0
 40
58.5
100
AcDbArc
 50
0.0
 51
15.445489994148
  0
LINE
  5
5B
100
AcDbEntity
  8
WHITE
  6
CONTINUOUS
 62
          15
100
AcDbLine
 10
-823.361539736513
 20
3076.291139660384
 30
0.0
 11
-815.861539736513
 21
3061.291139660384
 31
0.0
  0
LINE
  5
5C
100
AcDbEntity
  8
WHITE
  6
CONTINUOUS
 62
          15
100
AcDbLine
 10
-815.861539736513
 20
3061.291139660384
 30
0.0
 11
-819.215641736513
 21
3061.291139660384
 31
0.0
  0
LINE
  5
5D
100
AcDbEntity
  8
WHITE
  6
CONTINUOUS
 62
          15
100
AcDbLine
 10
-819.215641736513
 20
3061.291139660384
 30
0.0
 11
-820.753508736513
 21
3064.366874660384
 31
0.0
  0
LINE
  5
5E
100
AcDbEntity
  8
WHITE
  6
CONTINUOUS
 62
          15
100
AcDbLine
 10
-820.753508736513
 20
3064.366874660384
 30
0.0
 11
-825.969570736513
 21
3064.366874660384
 31
0.0
  0
LINE
  5
5F
100
AcDbEntity
  8
WHITE
  6
CONTINUOUS
 62
          15
100
AcDbLine
 10
-825.969570736513
 20
3064.366874660384
 30
0.0
 11
-827.507437736513
 21
3061.291139660384
 31
0.0
  0
LINE
  5
60
100
AcDbEntity
  8
WHITE
  6
CONTINUOUS
 62
          15
100
AcDbLine
 10
-827.507437736513
 20
3061.291139660384
 30
0.0
 11
-830.861539736513
 21
3061.291139660384
 31
0.0
  0
LINE
  5
61
100
AcDbEntity
  8
WHITE
  6
CONTINUOUS
 62
          15
100
AcDbLine
 10
-830.861539736513
 20
3061.291139660384
 30
0.0
 11
-823.361539736513
 21
3076.291139660384
 31
0.0
  0
LINE
  5
62
100
AcDbEntity
  8
WHITE
  6
GESTRICHELT
 62
          15
100
AcDbLine
 10
-788.154196330487
 20
3021.518367670167
 30
0.0
 11
-778.154196330487
 21
3021.518367670167
 31
0.0
  0
LINE
  5
63
100
AcDbEntity
  8
WHITE
  6
GESTRICHELT
 62
          15
100
AcDbLine
 10
-778.154196330487
 20
3021.518367670167
 30
0.0
 11
-778.154196330487
 21
3024.518367670167
 31
0.0
  0
LINE
  5
64
100
AcDbEntity
  8
WHITE
  6
GESTRICHELT
 62
          15
100
AcDbLine
 10
-778.154196330487
 20
3024.518367670167
 30
0.0
 11
-782.852977361908
 21
3024.518367670167
 31
0.0
  0
LINE
  5
65
100
AcDbEntity
  8
WHITE
  6
GESTRICHELT
 62
          15
100
AcDbLine
 10
-778.154196330487
 20
3032.018367670167
 30
0.0
 11
-778.154196330487
 21
3036.518367670167
 31
0.0
  0
LINE
  5
66
100
AcDbEntity
  8
WHITE
  6
GESTRICHELT
 62
          15
100
AcDbLine
 10
-778.154196330487
 20
3036.518367670167
 30
0.0
 11
-788.154196330487
 21
3036.518367670167
 31
0.0
  0
LINE
  5
67
100
AcDbEntity
  8
WHITE
  6
GESTRICHELT
 62
          15
100
AcDbLine
 10
-788.154196330487
 20
3033.518367670167
 30
0.0
 11
-783.159072204803
 21
3033.518367670167
 31
0.0
  0
LINE
  5
68
100
AcDbEntity
  8
0
  6
GESTRICHELT
 62
          15
100
AcDbLine
 10
-788.154196330487
 20
3036.518367670167
 30
0.0
 11
-788.154196330487
 21
3033.518367670167
 31
0.0
  0
LINE
  5
69
100
AcDbEntity
  8
0
  6
GESTRICHELT
 62
          15
100
AcDbLine
 10
-788.154196330487
 20
3025.306694031408
 30
0.0
 11
-788.154196330487
 21
3021.518367670167
 31
0.0
  0
LINE
  5
6A
100
AcDbEntity
  8
0
  6
GESTRICHELT
 62
          15
100
AcDbLine
 10
-783.584032630151
 20
3026.200685920527
 30
0.0
 11
-778.154196330487
 21
3032.018367670167
 31
0.0
  0
LINE
  5
6B
100
AcDbEntity
  8
0
  6
GESTRICHELT
 62
          15
100
AcDbLine
 10
-787.88525159873
 20
3025.989012281768
 30
0.0
 11
-782.42801693656
 21
3031.836049419807
 31
0.0
  0
ARC
  5
6C
100
AcDbEntity
  8
0
  6
GESTRICHELT
 62
          15
100
AcDbCircle
 10
-783.159072204803
 20
3032.518367670167
 30
0.0
 40
1.0
100
AcDbArc
 50
316.974934010881
 51
90.0
  0
ARC
  5
6D
100
AcDbEntity
  8
0
  6
GESTRICHELT
 62
          15
100
AcDbCircle
 10
-782.852977361908
 20
3025.518367670167
 30
0.0
 40
1.0
100
AcDbArc
 50
136.974934010881
 51
269.999999999999
  0
ARC
  5
6E
100
AcDbEntity
  8
0
  6
GESTRICHELT
 62
          15
100
AcDbCircle
 10
-787.154196330487
 20
3025.306694031408
 30
0.0
 40
1.0
100
AcDbArc
 50
136.974934010883
 51
180.0
  0
ARC
  5
6F
100
AcDbEntity
  8
0
  6
CONTINUOUS
 62
          15
100
AcDbCircle
 10
-822.621959736513
 20
3030.964183660384
 30
0.0
 40
15.25
100
AcDbArc
 50
58.480141420116
 51
301.519858579883
  0
ARC
  5
70
100
AcDbEntity
  8
0
  6
GESTRICHELT
 62
          15
100
AcDbCircle
 10
-822.621959736513
 20
3030.964183660384
 30
0.0
 40
15.25
100
AcDbArc
 50
301.519858579883
 51
58.480141420116
  0
ARC
  5
71
100
AcDbEntity
  8
0
  6
CONTINUOUS
 62
          15
100
AcDbCircle
 10
-822.621959736513
 20
3030.964183660384
 30
0.0
 40
20.25
100
AcDbArc
 50
133.73770465381
 51
316.188439304256
  0
LINE
  5
72
100
AcDbEntity
  8
WHITE
  6
CONTINUOUS
 62
          15
100
AcDbLine
 10
-612.621959736513
 20
3033.964183660384
 30
0.0
 11
-612.621959736513
 21
3027.964183660384
 31
0.0
  0
ARC
  5
73
100
AcDbEntity
  8
WHITE
  6
CONTINUOUS
 62
          15
100
AcDbCircle
 10
-622.621959736513
 20
3027.964183660384
 30
0.0
 40
10.0
100
AcDbArc
 50
270.0
 51
0.0
  0
LINE
  5
74
100
AcDbEntity
  8
WHITE
  6
CONTINUOUS
 62
          15
100
AcDbLine
 10
-770.255682557839
 20
3017.964183660384
 30
0.0
 11
-822.621959736513
 21
3017.964183660384
 31
0.0
  0
LINE
  5
75
100
AcDbEntity
  8
WHITE
  6
GESTRICHELT
 62
          15
100
AcDbLine
 10
-764.988236915187
 20
3017.964183660384
 30
0.0
 11
-770.255682557839
 21
3017.964183660384
 31
0.0
  0
LINE
  5
76
100
AcDbEntity
  8
WHITE
  6
CONTINUOUS
 62
          15
100
AcDbLine
 10
-622.621959736513
 20
3017.964183660384
 30
0.0
 11
-764.988236915187
 21
3017.964183660384
 31
0.0
  0
ARC
  5
77
100
AcDbEntity
  8
WHITE
  6
CONTINUOUS
 62
          15
100
AcDbCircle
 10
-822.621959736513
 20
3030.964183660384
 30
0.0
 40
13.0
100
AcDbArc
 50
90.0
 51
270.0
  0
LINE
  5
78
100
AcDbEntity
  8
WHITE
  6
CONTINUOUS
 62
          15
100
AcDbLine
 10
-764.988236915187
 20
3043.964183660384
 30
0.0
 11
-622.621959736513
 21
3043.964183660384
 31
0.0
  0
LINE
  5
79
100
AcDbEntity
  8
WHITE
  6
GESTRICHELT
 62
          15
100
AcDbLine
 10
-770.255682557839
 20
3043.964183660384
 30
0.0
 11
-764.988236915187
 21
3043.964183660384
 31
0.0
  0
LINE
  5
7A
100
AcDbEntity
  8
WHITE
  6
CONTINUOUS
 62
          15
100
AcDbLine
 10
-822.621959736513
 20
3043.964183660384
 30
0.0
 11
-770.255682557839
 21
3043.964183660384
 31
0.0
  0
ARC
  5
7B
100
AcDbEntity
  8
WHITE
  6
CONTINUOUS
 62
          15
100
AcDbCircle
 10
-622.621959736513
 20
3033.964183660384
 30
0.0
 40
10.0
100
AcDbArc
 50
0.0
 51
90.0
  0
CIRCLE
  5
7C
100
AcDbEntity
  8
WHITE
  6
GESTRICHELT
 62
          15
100
AcDbCircle
 10
-767.621959736513
 20
3030.964183660384
 30
0.0
 40
4.5
  0
LINE
  5
7D
100
AcDbEntity
  8
YELLOW
  6
CONTINUOUS
 62
           2
100
AcDbLine
 10
-707.621959736513
 20
3017.964183660384
 30
0.0
 11
-707.621959736513
 21
3043.964183660384
 31
0.0
  0
LINE
  5
7E
100
AcDbEntity
  8
YELLOW
  6
CONTINUOUS
 62
           2
100
AcDbLine
 10
-737.621959736513
 20
3017.964183660384
 30
0.0
 11
-737.621959736513
 21
3043.964183660384
 31
0.0
  0
LINE
  5
7F
100
AcDbEntity
  8
0
  6
CONTINUOUS
 62
          15
100
AcDbLine
 10
-741.959277278374
 20
3026.014841183446
 30
0.0
 11
-751.487062093434
 21
3031.015056660384
 31
0.0
  0
LINE
  5
80
100
AcDbEntity
  8
0
  6
CONTINUOUS
 62
          15
100
AcDbLine
 10
-751.487062093434
 20
3031.015056660384
 30
0.0
 11
-741.959277278374
 21
3036.015272137322
 31
0.0
  0
LINE
  5
81
100
AcDbEntity
  8
0
  6
CONTINUOUS
 62
          15
100
AcDbLine
 10
-740.494579736513
 20
3035.129802660384
 30
0.0
 11
-740.494579736513
 21
3026.900310660384
 31
0.0
  0
ARC
  5
82
100
AcDbEntity
  8
0
  6
CONTINUOUS
 62
          15
100
AcDbCircle
 10
-741.494579736513
 20
3026.900310660384
 30
0.0
 40
1.0
100
AcDbArc
 50
242.309350764009
 51
0.0
  0
ARC
  5
83
100
AcDbEntity
  8
0
  6
CONTINUOUS
 62
          15
100
AcDbCircle
 10
-741.494579736513
 20
3035.129802660384
 30
0.0
 40
1.0
100
AcDbArc
 50
0.0
 51
117.69064923599
  0
CIRCLE
  5
84
100
AcDbEntity
  8
0
  6
CONTINUOUS
 62
          15
100
AcDbCircle
 10
-822.621959736513
 20
3030.964183660384
 30
0.0
 40
7.25
  0
ARC
  5
85
100
AcDbEntity
  8
WHITE
  6
CONTINUOUS
 62
          15
100
AcDbCircle
 10
-754.121959736513
 20
3030.964183660384
 30
0.0
 40
2.5
100
AcDbArc
 50
0.0
 51
90.0
  0
ARC
  5
86
100
AcDbEntity
  8
WHITE
  6
CONTINUOUS
 62
          15
100
AcDbCircle
 10
-750.147949736513
 20
3049.324933660384
 30
0.0
 40
16.351029
100
AcDbArc
 50
227.197686
 51
255.933766
  0
ARC
  5
87
100
AcDbEntity
  8
WHITE
  6
CONTINUOUS
 62
          15
100
AcDbCircle
 10
-767.621959736513
 20
3044.464183660384
 30
0.0
 40
2.5
100
AcDbArc
 50
0.0
 51
90.0
  0
ARC
  5
88
100
AcDbEntity
  8
WHITE
  6
CONTINUOUS
 62
          15
100
AcDbCircle
 10
-749.261209736513
 20
3048.438193660384
 30
0.0
 40
16.351029
100
AcDbArc
 50
194.066234
 51
222.802314
  0
ARC
  5
89
100
AcDbEntity
  8
WHITE
  6
CONTINUOUS
 62
          15
100
AcDbCircle
 10
-785.982709736513
 20
3048.438193660384
 30
0.0
 40
16.351029
100
AcDbArc
 50
317.197686
 51
345.933766
  0
ARC
  5
8A
100
AcDbEntity
  8
WHITE
  6
CONTINUOUS
 62
          15
100
AcDbCircle
 10
-767.621959736513
 20
3044.464183660384
 30
0.0
 40
2.5
100
AcDbArc
 50
90.0
 51
180.0
  0
ARC
  5
8B
100
AcDbEntity
  8
WHITE
  6
CONTINUOUS
 62
          15
100
AcDbCircle
 10
-785.095969736513
 20
3049.324933660384
 30
0.0
 40
16.351029
100
AcDbArc
 50
284.066234
 51
312.802314
  0
ARC
  5
8C
100
AcDbEntity
  8
WHITE
  6
CONTINUOUS
 62
          15
100
AcDbCircle
 10
-781.121959736513
 20
3030.964183660384
 30
0.0
 40
2.5
100
AcDbArc
 50
90.0
 51
180.0
  0
ARC
  5
8D
100
AcDbEntity
  8
WHITE
  6
CONTINUOUS
 62
          15
100
AcDbCircle
 10
-785.095969736513
 20
3012.603433660384
 30
0.0
 40
16.351029
100
AcDbArc
 50
47.197686
 51
75.933766
  0
ARC
  5
8E
100
AcDbEntity
  8
WHITE
  6
CONTINUOUS
 62
          15
100
AcDbCircle
 10
-781.121959736513
 20
3030.964183660384
 30
0.0
 40
2.5
100
AcDbArc
 50
180.0
 51
270.0
  0
ARC
  5
8F
100
AcDbEntity
  8
WHITE
  6
CONTINUOUS
 62
          15
100
AcDbCircle
 10
-785.982709736513
 20
3013.490173660384
 30
0.0
 40
16.351029
100
AcDbArc
 50
14.066234
 51
42.802314
  0
ARC
  5
90
100
AcDbEntity
  8
WHITE
  6
CONTINUOUS
 62
          15
100
AcDbCircle
 10
-767.621959736513
 20
3017.464183660384
 30
0.0
 40
2.5
100
AcDbArc
 50
180.0
 51
270.0
  0
ARC
  5
91
100
AcDbEntity
  8
WHITE
  6
CONTINUOUS
 62
          15
100
AcDbCircle
 10
-749.261209736513
 20
3013.490173660384
 30
0.0
 40
16.351029
100
AcDbArc
 50
137.197686
 51
165.933766
  0
ARC
  5
92
100
AcDbEntity
  8
WHITE
  6
CONTINUOUS
 62
          15
100
AcDbCircle
 10
-767.621959736513
 20
3017.464183660384
 30
0.0
 40
2.5
100
AcDbArc
 50
270.0
 51
0.0
  0
ARC
  5
93
100
AcDbEntity
  8
WHITE
  6
CONTINUOUS
 62
          15
100
AcDbCircle
 10
-750.147949736513
 20
3012.603433660384
 30
0.0
 40
16.351029
100
AcDbArc
 50
104.066234
 51
132.802314
  0
ARC
  5
94
100
AcDbEntity
  8
WHITE
  6
CONTINUOUS
 62
          15
100
AcDbCircle
 10
-754.121959736513
 20
3030.964183660384
 30
0.0
 40
2.5
100
AcDbArc
 50
270.0
 51
0.0
  0
LINE
  5
95
100
AcDbEntity
  8
0
  6
CONTINUOUS
 62
          15
100
AcDbLine
 10
-869.121959736513
 20
3005.964183660384
 30
0.0
 11
-869.121959736513
 21
3055.964183660384
 31
0.0
  0
LINE
  5
96
100
AcDbEntity
  8
0
  6
GESTRICHELT
 62
          15
100
AcDbLine
 10
-776.121959736513
 20
3053.100127281563
 30
0.0
 11
-776.121959736513
 21
3016.945305559422
 31
0.0
  0
LINE
  5
97
100
AcDbEntity
  8
0
  6
CONTINUOUS
 62
          15
100
AcDbLine
 10
-776.121959736513
 20
3055.964183660384
 30
0.0
 11
-776.121959736513
 21
3053.100127281563
 31
0.0
  0
LINE
  5
98
100
AcDbEntity
  8
0
  6
CONTINUOUS
 62
          15
100
AcDbLine
 10
-776.121959736513
 20
3016.945305559422
 30
0.0
 11
-776.121959736513
 21
3005.964183660384
 31
0.0
  0
LINE
  5
99
100
AcDbEntity
  8
0
  6
CONTINUOUS
 62
          15
100
AcDbLine
 10
-777.596966677102
 20
3055.964183660384
 30
0.0
 11
-776.121959736513
 21
3055.964183660384
 31
0.0
  0
LINE
  5
9A
100
AcDbEntity
  8
0
  6
GESTRICHELT
 62
          15
100
AcDbLine
 10
-836.621959736513
 20
3055.964183660384
 30
0.0
 11
-777.596966677102
 21
3055.964183660384
 31
0.0
  0
LINE
  5
9B
100
AcDbEntity
  8
0
  6
CONTINUOUS
 62
          15
100
AcDbLine
 10
-869.121959736513
 20
3055.964183660384
 30
0.0
 11
-836.621959736513
 21
3055.964183660384
 31
0.0
  0
LINE
  5
9C
100
AcDbEntity
  8
0
  6
CONTINUOUS
 62
          15
100
AcDbLine
 10
-869.121959736513
 20
3005.964183660384
 30
0.0
 11
-776.121959736513
 21
3005.964183660384
 31
0.0
  0
TEXT
  5
9D
100
AcDbEntity
  8
0
  6
CONTINUOUS
 62
          15
100
AcDbText
 10
-855.291333495255
 20
2980.628644513608
 30
0.0
 40
3.5
  1
80-290
 41
0.900000010218
  7
GOTHICG
100
AcDbText
  0
ENDSEC
  0
SECTION
  2
OBJECTS
  0
DICTIONARY
  5
19
100
AcDbDictionary
  3
ACAD_GROUP
350
1A
  3
ACAD_MLINESTYLE
350
1B
  0
DICTIONARY
  5
1A
102
{ACAD_REACTORS
330
19
102
}
100
AcDbDictionary
  0
DICTIONARY
  5
1B
102
{ACAD_REACTORS
330
19
102
}
100
AcDbDictionary
  3
STANDARD
350
1C
  0
MLINESTYLE
  5
1C
102
{ACAD_REACTORS
330
1B
102
}
100
AcDbMlineStyle
  2
STANDARD
 70
           0
  3

 62
           0
 51
90.0
 52
90.0
 71
           2
 49
0.5
 62
         256
  6
BYLAYER
 49
-0.5
 62
         256
  6
BYLAYER
  0
ENDSEC
  0
EOF
