  0
SECTION
  2
HEADER
  9
$ACADVER
  1
AC1012
  9
$DWGCODEPAGE
  3
dos850
  9
$INSBASE
 10
0.0
 20
0.0
 30
0.0
  9
$EXTMIN
 10
-1974.266731884081
 20
566.426092132515
 30
0.0
  9
$EXTMAX
 10
-1607.766731884081
 20
816.426092132515
 30
0.0
  9
$LIMMIN
 10
-1974.266731884081
 20
566.426092132515
  9
$LIMMAX
 10
-1607.766731884081
 20
816.426092132515
  9
$ORTHOMODE
 70
           0
  9
$REGENMODE
 70
           1
  9
$FILLMODE
 70
           1
  9
$QTEXTMODE
 70
           0
  9
$MIRRTEXT
 70
           1
  9
$DRAGMODE
 70
           2
  9
$LTSCALE
 40
5.0
  9
$OSMODE
 70
           0
  9
$ATTMODE
 70
           1
  9
$TEXTSIZE
 40
0.2
  9
$TRACEWID
 40
0.05
  9
$TEXTSTYLE
  7
TXT
  9
$CLAYER
  8
0
  9
$CELTYPE
  6
CONTINUOUS
  9
$CECOLOR
 62
         256
  9
$CELTSCALE
 40
1.0
  9
$DELOBJ
 70
           1
  9
$DISPSILH
 70
           0
  9
$DIMSCALE
 40
1.0
  9
$DIMASZ
 40
3.5
  9
$DIMEXO
 40
0.0625
  9
$DIMDLI
 40
0.38
  9
$DIMRND
 40
0.0
  9
$DIMDLE
 40
0.0
  9
$DIMEXE
 40
0.18
  9
$DIMTP
 40
0.0
  9
$DIMTM
 40
0.0
  9
$DIMTXT
 40
3.5
  9
$DIMCEN
 40
0.09
  9
$DIMTSZ
 40
0.0
  9
$DIMTOL
 70
           0
  9
$DIMLIM
 70
           0
  9
$DIMTIH
 70
           1
  9
$DIMTOH
 70
           1
  9
$DIMSE1
 70
           0
  9
$DIMSE2
 70
           0
  9
$DIMTAD
 70
           0
  9
$DIMZIN
 70
           0
  9
$DIMBLK
  1

  9
$DIMASO
 70
           1
  9
$DIMSHO
 70
           1
  9
$DIMPOST
  1

  9
$DIMAPOST
  1

  9
$DIMALT
 70
           0
  9
$DIMALTD
 70
           2
  9
$DIMALTF
 40
25.4
  9
$DIMLFAC
 40
1.0
  9
$DIMTOFL
 70
           0
  9
$DIMTVP
 40
0.0
  9
$DIMTIX
 70
           0
  9
$DIMSOXD
 70
           0
  9
$DIMSAH
 70
           0
  9
$DIMBLK1
  1

  9
$DIMBLK2
  1

  9
$DIMSTYLE
  2
STANDARD
  9
$DIMCLRD
 70
           0
  9
$DIMCLRE
 70
           0
  9
$DIMCLRT
 70
           0
  9
$DIMTFAC
 40
1.0
  9
$DIMGAP
 40
0.09
  9
$DIMJUST
 70
           0
  9
$DIMSD1
 70
           0
  9
$DIMSD2
 70
           0
  9
$DIMTOLJ
 70
           1
  9
$DIMTZIN
 70
           0
  9
$DIMALTZ
 70
           0
  9
$DIMALTTZ
 70
           0
  9
$DIMFIT
 70
           3
  9
$DIMUPT
 70
           0
  9
$DIMUNIT
 70
           2
  9
$DIMDEC
 70
           4
  9
$DIMTDEC
 70
           4
  9
$DIMALTU
 70
           2
  9
$DIMALTTD
 70
           2
  9
$DIMTXSTY
  7
TXT
  9
$DIMAUNIT
 70
           0
  9
$LUNITS
 70
           2
  9
$LUPREC
 70
           2
  9
$SKETCHINC
 40
0.1
  9
$FILLETRAD
 40
0.0
  9
$AUNITS
 70
           0
  9
$AUPREC
 70
           2
  9
$MENU
  1
acad
  9
$ELEVATION
 40
0.0
  9
$PELEVATION
 40
0.0
  9
$THICKNESS
 40
0.0
  9
$LIMCHECK
 70
           0
  9
$BLIPMODE
 70
           1
  9
$CHAMFERA
 40
0.0
  9
$CHAMFERB
 40
0.0
  9
$CHAMFERC
 40
0.0
  9
$CHAMFERD
 40
0.0
  9
$SKPOLY
 70
           0
  9
$TDCREATE
 40
0.000000000
  9
$TDUPDATE
 40
0.000000000
  9
$TDINDWG
 40
0.0000000000
  9
$TDUSRTIMER
 40
0.0000000000
  9
$USRTIMER
 70
           1
  9
$ANGBASE
 50
0.0
  9
$ANGDIR
 70
           0
  9
$PDMODE
 70
           2
  9
$PDSIZE
 40
0.5
  9
$PLINEWID
 40
0.0
  9
$COORDS
 70
           0
  9
$SPLFRAME
 70
           0
  9
$SPLINETYPE
 70
           6
  9
$SPLINESEGS
 70
           8
  9
$ATTDIA
 70
           0
  9
$ATTREQ
 70
           1
  9
$HANDLING
 70
           1
  9
$HANDSEED
  5
93
  9
$SURFTAB1
 70
           6
  9
$SURFTAB2
 70
           6
  9
$SURFTYPE
 70
           6
  9
$SURFU
 70
           6
  9
$SURFV
 70
           6
  9
$UCSNAME
  2

  9
$UCSORG
 10
0.0
 20
0.0
 30
0.0
  9
$UCSXDIR
 10
1.0
 20
0.0
 30
0.0
  9
$UCSYDIR
 10
0.0
 20
1.0
 30
0.0
  9
$PUCSNAME
  2

  9
$PUCSORG
 10
0.0
 20
0.0
 30
0.0
  9
$PUCSXDIR
 10
1.0
 20
0.0
 30
0.0
  9
$PUCSYDIR
 10
0.0
 20
1.0
 30
0.0
  9
$USERI1
 70
           0
  9
$USERI2
 70
           0
  9
$USERI3
 70
           0
  9
$USERI4
 70
           0
  9
$USERI5
 70
           0
  9
$USERR1
 40
0.0
  9
$USERR2
 40
0.0
  9
$USERR3
 40
0.0
  9
$USERR4
 40
0.0
  9
$USERR5
 40
0.0
  9
$WORLDVIEW
 70
           1
  9
$SHADEDGE
 70
           3
  9
$SHADEDIF
 70
          70
  9
$TILEMODE
 70
           1
  9
$MAXACTVP
 70
          16
  9
$PINSBASE
 10
0.0
 20
0.0
 30
0.0
  9
$PLIMCHECK
 70
           0
  9
$PEXTMIN
 10
1.000000000000E+20
 20
1.000000000000E+20
 30
1.000000000000E+20
  9
$PEXTMAX
 10
-1.000000000000E+20
 20
-1.000000000000E+20
 30
-1.000000000000E+20
  9
$PLIMMIN
 10
0.0
 20
0.0
  9
$PLIMMAX
 10
12.0
 20
9.0
  9
$UNITMODE
 70
           0
  9
$VISRETAIN
 70
           0
  9
$PLINEGEN
 70
           1
  9
$PSLTSCALE
 70
           0
  9
$TREEDEPTH
 70
        3020
  9
$PICKSTYLE
 70
           1
  9
$CMLSTYLE
  2
STANDARD
  9
$CMLJUST
 70
           0
  9
$CMLSCALE
 40
1.0
  9
$SAVEIMAGES
 70
           0
  0
ENDSEC
  0
SECTION
  2
CLASSES
  0
CLASS
  1
LWPOLYLINE
  2
AcDbPolyline
  3
"AutoCAD"
 90
        0
280
           0
281
           1
  0
CLASS
  1
IMAGE
  2
AcDbRasterImage
  3
ISM
 90
      127
280
           0
281
           1
  0
CLASS
  1
OLE2FRAME
  2
AcDbOle2Frame
  3
""
 90
        0
280
           0
281
           1
  0
CLASS
  1
HATCH
  2
AcDbHatch
  3
"ACAD_SEDONA"
 90
        0
280
           0
281
           1
  0
CLASS
  1
DICTIONARYVAR
  2
AcDbDictionaryVar
  3
"AutoCAD"
 90
        0
280
           0
281
           0
  0
CLASS
  1
RASTERVARIABLES
  2
AcDbRasterVariables
  3
ISM
 90
        0
280
           0
281
           0
  0
CLASS
  1
IMAGEDEF
  2
AcDbRasterImageDef
  3
ISM
 90
        0
280
           0
281
           0
  0
CLASS
  1
IMAGEDEF_REACTOR
  2
AcDbRasterImageDefReactor
  3
ISM
 90
        1
280
           0
281
           0
  0
CLASS
  1
IDBUFFER
  2
AcDbIdBuffer
  3
"Acad"
 90
        0
280
           0
281
           0
  0
CLASS
  1
SPATIAL_FILTER
  2
AcDbSpatialFilter
  3
"Acad"
 90
        0
280
           0
281
           0
  0
CLASS
  1
XRECORD
  2
AcDbXrecord
  3
"<Built In>"
 90
        0
280
           0
281
           0
  0
ENDSEC
  0
SECTION
  2
TABLES
  0
TABLE
  2
VPORT
  5
7
100
AcDbSymbolTable
 70
           1
  0
VPORT
  5
15
100
AcDbSymbolTableRecord
100
AcDbViewportTableRecord
  2
*ACTIVE
 70
           0
 10
0.0
 20
0.0
 11
1.0
 21
1.0
 12
6.591288
 22
4.579184
 13
0.0
 23
0.0
 14
1.0
 24
1.0
 15
0.0
 25
0.0
 16
0.0
 26
0.0
 36
1.0
 17
0.0
 27
0.0
 37
0.0
 40
9.158369
 41
0.688564
 42
50.0
 43
0.0
 44
0.0
 50
0.0
 51
0.0
 71
           0
 72
         100
 73
           1
 74
           1
 75
           0
 76
           0
 77
           0
 78
           0
  0
ENDTAB
  0
TABLE
  2
LTYPE
  5
4
100
AcDbSymbolTable
 70
           5
  0
LTYPE
  5
11
100
AcDbSymbolTableRecord
100
AcDbLinetypeTableRecord
  2
BYBLOCK
 70
           0
  3

 72
          65
 73
           0
 40
0.0
  0
LTYPE
  5
12
100
AcDbSymbolTableRecord
100
AcDbLinetypeTableRecord
  2
BYLAYER
 70
           0
  3

 72
          65
 73
           0
 40
0.0
  0
LTYPE
  5
13
100
AcDbSymbolTableRecord
100
AcDbLinetypeTableRecord
  2
CONTINUOUS
 70
           0
  3
Solid line
 72
          65
 73
           0
 40
0.0
  0
LTYPE
  5
1D
100
AcDbSymbolTableRecord
100
AcDbLinetypeTableRecord
  2
GESTRICHELT
 70
           0
  3

 72
          65
 73
           2
 40
0.75
 49
0.5
 74
           0
 49
-0.25
 74
           0
  0
LTYPE
  5
1E
100
AcDbSymbolTableRecord
100
AcDbLinetypeTableRecord
  2
STRICHPUNKT
 70
           0
  3

 72
          65
 73
           4
 40
1.0
 49
0.5
 74
           0
 49
-0.25
 74
           0
 49
0.0
 74
           0
 49
-0.25
 74
           0
  0
ENDTAB
  0
TABLE
  2
LAYER
  5
2
100
AcDbSymbolTable
 70
           4
  0
LAYER
  5
14
100
AcDbSymbolTableRecord
100
AcDbLayerTableRecord
  2
0
 70
           0
 62
           7
  6
CONTINUOUS
  0
LAYER
  5
20
100
AcDbSymbolTableRecord
100
AcDbLayerTableRecord
  2
BLACK
 70
           0
 62
           7
  6
CONTINUOUS
  0
LAYER
  5
21
100
AcDbSymbolTableRecord
100
AcDbLayerTableRecord
  2
WHITE
 70
           0
 62
           7
  6
CONTINUOUS
  0
LAYER
  5
22
100
AcDbSymbolTableRecord
100
AcDbLayerTableRecord
  2
YELLOW
 70
           0
 62
           7
  6
CONTINUOUS
  0
ENDTAB
  0
TABLE
  2
STYLE
  5
3
100
AcDbSymbolTable
 70
           2
  0
STYLE
  5
17
100
AcDbSymbolTableRecord
100
AcDbTextStyleTableRecord
  2
TXT
 70
           0
 40
3.5
 41
1.0
 50
0.0
 71
           0
 42
3.5
  3
TXT
  4

  0
STYLE
  5
1F
100
AcDbSymbolTableRecord
100
AcDbTextStyleTableRecord
  2
GOTHICG
 70
           0
 40
3.5
 41
1.0
 50
0.0
 71
           0
 42
3.5
  3
GOTHICG
  4

  0
ENDTAB
  0
TABLE
  2
VIEW
  5
5
100
AcDbSymbolTable
 70
           0
  0
ENDTAB
  0
TABLE
  2
UCS
  5
6
100
AcDbSymbolTable
 70
           0
  0
ENDTAB
  0
TABLE
  2
APPID
  5
8
100
AcDbSymbolTable
 70
           2
  0
APPID
  5
16
100
AcDbSymbolTableRecord
100
AcDbRegAppTableRecord
  2
ACAD
 70
           0
  0
APPID
  5
23
100
AcDbSymbolTableRecord
100
AcDbRegAppTableRecord
  2
MegaCADPntStyle
 70
           0
  0
ENDTAB
  0
TABLE
  2
DIMSTYLE
  5
9
100
AcDbSymbolTable
 70
           1
  0
DIMSTYLE
105
18
100
AcDbSymbolTableRecord
100
AcDbDimStyleTableRecord
  2
STANDARD
 70
           0
  3

  4

  5

  6

  7

 40
1.0
 41
0.18
 42
0.0625
 43
0.38
 44
0.18
 45
0.0
 46
0.0
 47
0.0
 48
0.0
140
0.18
141
0.09
142
0.0
143
25.4
144
1.0
145
0.0
146
1.0
147
0.09
 71
           0
 72
           0
 73
           1
 74
           1
 75
           0
 76
           0
 77
           0
 78
           0
170
           0
171
           2
172
           0
173
           0
174
           0
175
           0
176
           0
177
           0
178
           0
270
           2
271
           4
272
           4
273
           2
274
           2
340
17
275
           0
280
           0
281
           0
282
           0
283
           1
284
           0
285
           0
286
           0
287
           0
288
           0
  0
ENDTAB
  0
TABLE
  2
BLOCK_RECORD
  5
1
100
AcDbSymbolTable
 70
           1
  0
BLOCK_RECORD
  5
A
100
AcDbSymbolTableRecord
100
AcDbBlockTableRecord
  2
*MODEL_SPACE
  0
BLOCK_RECORD
  5
B
100
AcDbSymbolTableRecord
100
AcDbBlockTableRecord
  2
*PAPER_SPACE
  0
BLOCK_RECORD
  5
24
100
AcDbSymbolTableRecord
100
AcDbBlockTableRecord
  2
ELIPPSE
  0
ENDTAB
  0
ENDSEC
  0
SECTION
  2
BLOCKS
  0
BLOCK
  5
D
100
AcDbEntity
  8
0
100
AcDbBlockBegin
  2
*MODEL_SPACE
 70
           0
 10
0.0
 20
0.0
 30
0.0
  3
*MODEL_SPACE
  1

  0
ENDBLK
  5
E
100
AcDbEntity
  8
0
100
AcDbBlockEnd
  0
BLOCK
  5
F
100
AcDbEntity
 67
           1
  8
0
100
AcDbBlockBegin
  2
*PAPER_SPACE
 70
           0
 10
0.0
 20
0.0
 30
0.0
  3
*PAPER_SPACE
  1

  0
ENDBLK
  5
10
100
AcDbEntity
 67
           1
  8
0
100
AcDbBlockEnd
  0
BLOCK
  5
8E
100
AcDbEntity
  8
0
100
AcDbBlockBegin
  2
ELIPPSE
 70
          64
 10
0.0
 20
0.0
 30
0.0
  3
ELIPPSE
  1

  0
CIRCLE
  5
8F
100
AcDbEntity
  8
0
  6
BYBLOCK
 62
           0
100
AcDbCircle
 10
0.0
 20
0.0
 30
0.0
 40
1.0
  0
ENDBLK
  5
90
100
AcDbEntity
  8
0
  6
BYBLOCK
 62
           0
100
AcDbBlockEnd
  0
ENDSEC
  0
SECTION
  2
ENTITIES
  0
LINE
  5
25
100
AcDbEntity
  8
0
  6
CONTINUOUS
 62
          15
100
AcDbLine
 10
-1974.266731884081
 20
816.426092132515
 30
0.0
 11
-1773.266731884081
 21
816.426092132515
 31
0.0
  0
LINE
  5
26
100
AcDbEntity
  8
0
  6
CONTINUOUS
 62
          15
100
AcDbLine
 10
-1773.266731884081
 20
675.393557542402
 30
0.0
 11
-1773.266731884081
 21
566.426092132515
 31
0.0
  0
LINE
  5
27
100
AcDbEntity
  8
0
  6
GESTRICHELT
 62
          15
100
AcDbLine
 10
-1773.266731884081
 20
748.672387221515
 30
0.0
 11
-1773.266731884081
 21
675.393557542402
 31
0.0
  0
LINE
  5
28
100
AcDbEntity
  8
0
  6
CONTINUOUS
 62
          15
100
AcDbLine
 10
-1773.266731884081
 20
752.465640718054
 30
0.0
 11
-1773.266731884081
 21
748.672387221515
 31
0.0
  0
LINE
  5
29
100
AcDbEntity
  8
0
  6
GESTRICHELT
 62
          15
100
AcDbLine
 10
-1773.266731884081
 20
756.998461313471
 30
0.0
 11
-1773.266731884081
 21
752.465640718054
 31
0.0
  0
LINE
  5
2A
100
AcDbEntity
  8
0
  6
CONTINUOUS
 62
          15
100
AcDbLine
 10
-1773.266731884081
 20
816.426092132515
 30
0.0
 11
-1773.266731884081
 21
756.998461313471
 31
0.0
  0
LINE
  5
2B
100
AcDbEntity
  8
0
  6
CONTINUOUS
 62
          15
100
AcDbLine
 10
-1773.266731884081
 20
566.426092132515
 30
0.0
 11
-1974.266731884081
 21
566.426092132515
 31
0.0
  0
LINE
  5
2C
100
AcDbEntity
  8
0
  6
CONTINUOUS
 62
          15
100
AcDbLine
 10
-1974.266731884081
 20
566.426092132515
 30
0.0
 11
-1974.266731884081
 21
816.426092132515
 31
0.0
  0
LINE
  5
2D
100
AcDbEntity
  8
0
  6
STRICHPUNKT
 62
          15
100
AcDbLine
 10
-1873.766731884081
 20
816.426092132515
 30
0.0
 11
-1873.766731884081
 21
566.426092132515
 31
0.0
  0
LINE
  5
2E
100
AcDbEntity
  8
0
  6
GESTRICHELT
 62
          15
100
AcDbLine
 10
-1974.266731884081
 20
691.426092132515
 30
0.0
 11
-1773.266731884081
 21
691.426092132515
 31
0.0
  0
ARC
  5
2F
100
AcDbEntity
  8
WHITE
  6
CONTINUOUS
 62
          15
100
AcDbCircle
 10
-1873.766731884081
 20
691.426092132515
 30
0.0
 40
119.999969
100
AcDbArc
 50
77.389461
 51
87.610176
  0
LINE
  5
30
100
AcDbEntity
  8
WHITE
  6
CONTINUOUS
 62
          15
100
AcDbLine
 10
-1868.762948884081
 20
811.321691132515
 30
0.0
 11
-1873.766731884081
 21
806.426092132515
 31
0.0
  0
LINE
  5
31
100
AcDbEntity
  8
WHITE
  6
CONTINUOUS
 62
          15
100
AcDbLine
 10
-1873.766731884081
 20
806.426092132515
 30
0.0
 11
-1878.665688884081
 21
811.426092132515
 31
0.0
  0
LINE
  5
32
100
AcDbEntity
  8
WHITE
  6
CONTINUOUS
 62
          15
100
AcDbLine
 10
-1878.665688884081
 20
811.426092132515
 30
0.0
 11
-1883.766731884081
 21
811.426092132515
 31
0.0
  0
ARC
  5
33
100
AcDbEntity
  8
WHITE
  6
CONTINUOUS
 62
          15
100
AcDbCircle
 10
-1883.766731884081
 20
806.426092132515
 30
0.0
 40
5.0
100
AcDbArc
 50
90.0
 51
180.0
  0
LINE
  5
34
100
AcDbEntity
  8
WHITE
  6
CONTINUOUS
 62
          15
100
AcDbLine
 10
-1888.766731884081
 20
806.426092132515
 30
0.0
 11
-1888.766745350926
 21
708.53053880566
 31
0.0
  0
LINE
  5
35
100
AcDbEntity
  8
WHITE
  6
CONTINUOUS
 62
          15
100
AcDbLine
 10
-1772.995200780294
 20
676.426012994855
 30
0.0
 11
-1617.766740924162
 21
676.425872670159
 31
0.0
  0
LINE
  5
36
100
AcDbEntity
  8
WHITE
  6
GESTRICHELT
 62
          15
100
AcDbLine
 10
-1794.538247946878
 20
676.426032469515
 30
0.0
 11
-1772.995220730779
 21
676.426012994873
 31
0.0
  0
LINE
  5
37
100
AcDbEntity
  8
WHITE
  6
CONTINUOUS
 62
          15
100
AcDbLine
 10
-1873.766745443893
 20
676.426104091142
 30
0.0
 11
-1794.538262987994
 21
676.426032469529
 31
0.0
  0
ARC
  5
38
100
AcDbEntity
  8
WHITE
  6
GESTRICHELT
 62
          15
100
AcDbCircle
 10
-1758.766762884081
 20
681.426000132515
 30
0.0
 40
5.0
100
AcDbArc
 50
269.999999999999
 51
0.0
  0
LINE
  5
39
100
AcDbEntity
  8
WHITE
  6
CONTINUOUS
 62
          15
100
AcDbLine
 10
-1753.766744658724
 20
684.425032595811
 30
0.0
 11
-1753.766731884081
 21
686.527135132515
 31
0.0
  0
LINE
  5
3A
100
AcDbEntity
  8
WHITE
  6
GESTRICHELT
 62
          15
100
AcDbLine
 10
-1753.766762884081
 20
681.426000132515
 30
0.0
 11
-1753.766744658724
 21
684.425032595811
 31
0.0
  0
LINE
  5
3B
100
AcDbEntity
  8
WHITE
  6
CONTINUOUS
 62
          15
100
AcDbLine
 10
-1753.766731884081
 20
686.527135132515
 30
0.0
 11
-1758.766731884081
 21
691.426092132515
 31
0.0
  0
LINE
  5
3C
100
AcDbEntity
  8
WHITE
  6
CONTINUOUS
 62
          15
100
AcDbLine
 10
-1758.766731884081
 20
691.426092132515
 30
0.0
 11
-1753.871132884081
 21
696.429875132515
 31
0.0
  0
ARC
  5
3D
100
AcDbEntity
  8
WHITE
  6
CONTINUOUS
 62
          15
100
AcDbCircle
 10
-1873.766731884081
 20
691.426092132515
 30
0.0
 40
119.999969
100
AcDbArc
 50
7.180757646261
 51
12.610154
  0
ARC
  5
3E
100
AcDbEntity
  8
WHITE
  6
GESTRICHELT
 62
          15
100
AcDbCircle
 10
-1873.766731884081
 20
691.426092132515
 30
0.0
 40
119.999969
100
AcDbArc
 50
3.291131162357
 51
7.180757646261
  0
ARC
  5
3F
100
AcDbEntity
  8
WHITE
  6
CONTINUOUS
 62
          15
100
AcDbCircle
 10
-1873.766731884081
 20
691.426092132515
 30
0.0
 40
119.999969
100
AcDbArc
 50
2.389824
 51
3.291131162357
  0
LINE
  5
40
100
AcDbEntity
  8
WHITE
  6
CONTINUOUS
 62
          15
100
AcDbLine
 10
-1756.661391884081
 20
717.624028132515
 30
0.0
 11
-1762.685280884081
 21
721.190252132515
 31
0.0
  0
LINE
  5
41
100
AcDbEntity
  8
WHITE
  6
CONTINUOUS
 62
          15
100
AcDbLine
 10
-1762.685280884081
 20
721.190252132515
 30
0.0
 11
-1759.251544884081
 21
727.290622132515
 31
0.0
  0
ARC
  5
42
100
AcDbEntity
  8
WHITE
  6
CONTINUOUS
 62
          15
100
AcDbCircle
 10
-1873.766731884081
 20
691.426092132515
 30
0.0
 40
119.999969
100
AcDbArc
 50
17.389815
 51
27.61018
  0
LINE
  5
43
100
AcDbEntity
  8
WHITE
  6
CONTINUOUS
 62
          15
100
AcDbLine
 10
-1767.432209884081
 20
747.040495132515
 30
0.0
 11
-1774.173805884081
 21
748.926092132515
 31
0.0
  0
LINE
  5
44
100
AcDbEntity
  8
WHITE
  6
CONTINUOUS
 62
          15
100
AcDbLine
 10
-1774.173805884081
 20
748.926092132515
 30
0.0
 11
-1772.436005884081
 21
755.707267132515
 31
0.0
  0
ARC
  5
45
100
AcDbEntity
  8
WHITE
  6
CONTINUOUS
 62
          15
100
AcDbCircle
 10
-1873.766731884081
 20
691.426092132515
 30
0.0
 40
119.99994
100
AcDbArc
 50
32.389817
 51
42.610518
  0
LINE
  5
46
100
AcDbEntity
  8
WHITE
  6
CONTINUOUS
 62
          15
100
AcDbLine
 10
-1785.450038884081
 20
772.667381132515
 30
0.0
 11
-1792.449440884081
 21
772.743352132515
 31
0.0
  0
LINE
  5
47
100
AcDbEntity
  8
WHITE
  6
CONTINUOUS
 62
          15
100
AcDbLine
 10
-1792.449440884081
 20
772.743352132515
 30
0.0
 11
-1792.525370884081
 21
779.742802132515
 31
0.0
  0
ARC
  5
48
100
AcDbEntity
  8
WHITE
  6
CONTINUOUS
 62
          15
100
AcDbCircle
 10
-1873.766694884081
 20
691.426057132515
 30
0.0
 40
120.0
100
AcDbArc
 50
47.389486
 51
57.610542
  0
LINE
  5
49
100
AcDbEntity
  8
WHITE
  6
CONTINUOUS
 62
          15
100
AcDbLine
 10
-1809.486122884081
 20
792.757238132515
 30
0.0
 11
-1816.266701884081
 21
791.019018132515
 31
0.0
  0
LINE
  5
4A
100
AcDbEntity
  8
WHITE
  6
CONTINUOUS
 62
          15
100
AcDbLine
 10
-1816.266701884081
 20
791.019018132515
 30
0.0
 11
-1818.151661884081
 21
797.760266132515
 31
0.0
  0
ARC
  5
4B
100
AcDbEntity
  8
WHITE
  6
CONTINUOUS
 62
          15
100
AcDbCircle
 10
-1873.766731884081
 20
691.426092132515
 30
0.0
 40
119.999969
100
AcDbArc
 50
62.389461
 51
72.610508
  0
LINE
  5
4C
100
AcDbEntity
  8
WHITE
  6
CONTINUOUS
 62
          15
100
AcDbLine
 10
-1837.902847884081
 20
805.941481132515
 30
0.0
 11
-1844.002510884081
 21
802.507543132515
 31
0.0
  0
LINE
  5
4D
100
AcDbEntity
  8
WHITE
  6
CONTINUOUS
 62
          15
100
AcDbLine
 10
-1844.002510884081
 20
802.507543132515
 30
0.0
 11
-1847.568008884081
 21
808.531256132515
 31
0.0
  0
ARC
  5
4E
100
AcDbEntity
  8
WHITE
  6
CONTINUOUS
 62
          15
100
AcDbCircle
 10
-1873.766731884081
 20
691.426092132515
 30
0.0
 40
94.5
100
AcDbArc
 50
11.54895455509
 51
90.0
  0
ARC
  5
4F
100
AcDbEntity
  8
WHITE
  6
GESTRICHELT
 62
          15
100
AcDbCircle
 10
-1873.766731884081
 20
691.426092132515
 30
0.0
 40
94.5
100
AcDbArc
 50
0.0
 51
11.54895455509
  0
LINE
  5
50
100
AcDbEntity
  8
WHITE
  6
CONTINUOUS
 62
          15
100
AcDbLine
 10
-1873.766731884081
 20
785.926092132515
 30
0.0
 11
-1878.266731884081
 21
785.926092132515
 31
0.0
  0
LINE
  5
51
100
AcDbEntity
  8
WHITE
  6
CONTINUOUS
 62
          15
100
AcDbLine
 10
-1878.266731884081
 20
785.926092132515
 30
0.0
 11
-1878.266731884081
 21
776.926092132515
 31
0.0
  0
LINE
  5
52
100
AcDbEntity
  8
WHITE
  6
CONTINUOUS
 62
          15
100
AcDbLine
 10
-1878.266731884081
 20
776.926092132515
 30
0.0
 11
-1873.766731884081
 21
776.926092132515
 31
0.0
  0
ARC
  5
53
100
AcDbEntity
  8
WHITE
  6
CONTINUOUS
 62
          15
100
AcDbCircle
 10
-1873.766731884081
 20
691.426092132515
 30
0.0
 40
85.5
100
AcDbArc
 50
10.615198858936
 51
90.0
  0
ARC
  5
54
100
AcDbEntity
  8
WHITE
  6
GESTRICHELT
 62
          15
100
AcDbCircle
 10
-1873.766731884081
 20
691.426092132515
 30
0.0
 40
85.5
100
AcDbArc
 50
0.0
 51
10.615198858936
  0
LINE
  5
55
100
AcDbEntity
  8
WHITE
  6
GESTRICHELT
 62
          15
100
AcDbLine
 10
-1788.266731884081
 20
691.426092132515
 30
0.0
 11
-1788.266731884081
 21
686.926092132515
 31
0.0
  0
LINE
  5
56
100
AcDbEntity
  8
WHITE
  6
GESTRICHELT
 62
          15
100
AcDbLine
 10
-1788.266731884081
 20
686.926092132515
 30
0.0
 11
-1779.266731884081
 21
686.926092132515
 31
0.0
  0
LINE
  5
57
100
AcDbEntity
  8
WHITE
  6
GESTRICHELT
 62
          15
100
AcDbLine
 10
-1779.266731884081
 20
686.926092132515
 30
0.0
 11
-1779.266731884081
 21
691.426092132515
 31
0.0
  0
LINE
  5
58
100
AcDbEntity
  8
WHITE
  6
GESTRICHELT
 62
          15
100
AcDbLine
 10
-1812.095118884081
 20
687.095171132515
 30
0.0
 11
-1802.095118884081
 21
687.095171132515
 31
0.0
  0
LINE
  5
59
100
AcDbEntity
  8
WHITE
  6
GESTRICHELT
 62
          15
100
AcDbLine
 10
-1802.095118884081
 20
687.095171132515
 30
0.0
 11
-1802.095118884081
 21
690.095171132515
 31
0.0
  0
LINE
  5
5A
100
AcDbEntity
  8
WHITE
  6
GESTRICHELT
 62
          15
100
AcDbLine
 10
-1802.095118884081
 20
690.095171132515
 30
0.0
 11
-1806.793899915502
 21
690.095171132515
 31
0.0
  0
LINE
  5
5B
100
AcDbEntity
  8
WHITE
  6
GESTRICHELT
 62
          15
100
AcDbLine
 10
-1802.095118884081
 20
697.595171132515
 30
0.0
 11
-1802.095118884081
 21
702.095171132515
 31
0.0
  0
LINE
  5
5C
100
AcDbEntity
  8
WHITE
  6
GESTRICHELT
 62
          15
100
AcDbLine
 10
-1802.095118884081
 20
702.095171132515
 30
0.0
 11
-1812.095118884081
 21
702.095171132515
 31
0.0
  0
LINE
  5
5D
100
AcDbEntity
  8
WHITE
  6
GESTRICHELT
 62
          15
100
AcDbLine
 10
-1812.095118884081
 20
699.095171132515
 30
0.0
 11
-1807.099994758397
 21
699.095171132515
 31
0.0
  0
LINE
  5
5E
100
AcDbEntity
  8
WHITE
  6
CONTINUOUS
 62
          15
100
AcDbLine
 10
-1870.381621884081
 20
764.198723132515
 30
0.0
 11
-1862.881621884081
 21
749.198723132515
 31
0.0
  0
LINE
  5
5F
100
AcDbEntity
  8
WHITE
  6
CONTINUOUS
 62
          15
100
AcDbLine
 10
-1862.881621884081
 20
749.198723132515
 30
0.0
 11
-1866.235723884081
 21
749.198723132515
 31
0.0
  0
LINE
  5
60
100
AcDbEntity
  8
WHITE
  6
CONTINUOUS
 62
          15
100
AcDbLine
 10
-1866.235723884081
 20
749.198723132515
 30
0.0
 11
-1867.773590884081
 21
752.274458132515
 31
0.0
  0
LINE
  5
61
100
AcDbEntity
  8
WHITE
  6
CONTINUOUS
 62
          15
100
AcDbLine
 10
-1867.773590884081
 20
752.274458132515
 30
0.0
 11
-1872.989652884081
 21
752.274458132515
 31
0.0
  0
LINE
  5
62
100
AcDbEntity
  8
WHITE
  6
CONTINUOUS
 62
          15
100
AcDbLine
 10
-1872.989652884081
 20
752.274458132515
 30
0.0
 11
-1874.527519884081
 21
749.198723132515
 31
0.0
  0
LINE
  5
63
100
AcDbEntity
  8
WHITE
  6
CONTINUOUS
 62
          15
100
AcDbLine
 10
-1874.527519884081
 20
749.198723132515
 30
0.0
 11
-1877.881621884081
 21
749.198723132515
 31
0.0
  0
LINE
  5
64
100
AcDbEntity
  8
WHITE
  6
CONTINUOUS
 62
          15
100
AcDbLine
 10
-1877.881621884081
 20
749.198723132515
 30
0.0
 11
-1870.381621884081
 21
764.198723132515
 31
0.0
  0
LINE
  5
65
100
AcDbEntity
  8
0
  6
GESTRICHELT
 62
          15
100
AcDbLine
 10
-1812.095118884081
 20
702.095171132515
 30
0.0
 11
-1812.095118884081
 21
699.095171132515
 31
0.0
  0
LINE
  5
66
100
AcDbEntity
  8
0
  6
GESTRICHELT
 62
          15
100
AcDbLine
 10
-1812.095118884081
 20
690.883497493755
 30
0.0
 11
-1812.095118884081
 21
687.095171132515
 31
0.0
  0
LINE
  5
67
100
AcDbEntity
  8
0
  6
GESTRICHELT
 62
          15
100
AcDbLine
 10
-1807.524955183745
 20
691.777489382875
 30
0.0
 11
-1802.095118884081
 21
697.595171132515
 31
0.0
  0
LINE
  5
68
100
AcDbEntity
  8
0
  6
GESTRICHELT
 62
          15
100
AcDbLine
 10
-1811.826174152324
 20
691.565815744115
 30
0.0
 11
-1806.368939490154
 21
697.412852882155
 31
0.0
  0
ARC
  5
69
100
AcDbEntity
  8
0
  6
GESTRICHELT
 62
          15
100
AcDbCircle
 10
-1807.099994758397
 20
698.095171132515
 30
0.0
 40
1.0
100
AcDbArc
 50
316.974934010881
 51
90.0
  0
ARC
  5
6A
100
AcDbEntity
  8
0
  6
GESTRICHELT
 62
          15
100
AcDbCircle
 10
-1806.793899915502
 20
691.095171132515
 30
0.0
 40
1.0
100
AcDbArc
 50
136.974934010881
 51
269.999999999999
  0
ARC
  5
6B
100
AcDbEntity
  8
0
  6
GESTRICHELT
 62
          15
100
AcDbCircle
 10
-1811.095118884081
 20
690.883497493755
 30
0.0
 40
1.0
100
AcDbArc
 50
136.974934010883
 51
180.0
  0
ARC
  5
6C
100
AcDbEntity
  8
0
  6
CONTINUOUS
 62
          15
100
AcDbCircle
 10
-1873.766731884081
 20
691.426092132515
 30
0.0
 40
17.75
100
AcDbArc
 50
57.679481854315
 51
302.320518145685
  0
ARC
  5
6D
100
AcDbEntity
  8
0
  6
GESTRICHELT
 62
          15
100
AcDbCircle
 10
-1873.766731884081
 20
691.426092132515
 30
0.0
 40
17.75
100
AcDbArc
 50
302.320518145685
 51
57.679481854315
  0
ARC
  5
6E
100
AcDbEntity
  8
0
  6
CONTINUOUS
 62
          15
100
AcDbCircle
 10
-1873.766731884081
 20
691.426092132515
 30
0.0
 40
22.75
100
AcDbArc
 50
131.24965220468
 51
318.750381169746
  0
ARC
  5
6F
100
AcDbEntity
  8
WHITE
  6
CONTINUOUS
 62
          15
100
AcDbCircle
 10
-1873.766731884081
 20
691.426092132515
 30
0.0
 40
15.0
100
AcDbArc
 50
90.0
 51
270.0
  0
ARC
  5
70
100
AcDbEntity
  8
WHITE
  6
CONTINUOUS
 62
          15
100
AcDbCircle
 10
-1617.766731884081
 20
686.426092132515
 30
0.0
 40
10.0
100
AcDbArc
 50
270.0
 51
0.0
  0
LINE
  5
71
100
AcDbEntity
  8
WHITE
  6
CONTINUOUS
 62
          15
100
AcDbLine
 10
-1607.766731884081
 20
686.426092132515
 30
0.0
 11
-1607.766731884081
 21
696.426092132515
 31
0.0
  0
ARC
  5
72
100
AcDbEntity
  8
WHITE
  6
CONTINUOUS
 62
          15
100
AcDbCircle
 10
-1617.766731884081
 20
696.426092132515
 30
0.0
 40
10.0
100
AcDbArc
 50
0.0
 51
90.0
  0
LINE
  5
73
100
AcDbEntity
  8
WHITE
  6
CONTINUOUS
 62
          15
100
AcDbLine
 10
-1791.084594891209
 20
706.426092132515
 30
0.0
 11
-1873.766731884081
 21
706.426092132515
 31
0.0
  0
LINE
  5
74
100
AcDbEntity
  8
WHITE
  6
GESTRICHELT
 62
          15
100
AcDbLine
 10
-1776.448868876954
 20
706.426092132515
 30
0.0
 11
-1791.084594891209
 21
706.426092132515
 31
0.0
  0
LINE
  5
75
100
AcDbEntity
  8
WHITE
  6
CONTINUOUS
 62
          15
100
AcDbLine
 10
-1617.766731884081
 20
706.426092132515
 30
0.0
 11
-1776.448868876954
 21
706.426092132515
 31
0.0
  0
CIRCLE
  5
76
100
AcDbEntity
  8
WHITE
  6
GESTRICHELT
 62
          15
100
AcDbCircle
 10
-1783.766731884081
 20
691.426092132515
 30
0.0
 40
6.0
  0
LINE
  5
77
100
AcDbEntity
  8
YELLOW
  6
CONTINUOUS
 62
           2
100
AcDbLine
 10
-1707.766731884081
 20
676.426092132515
 30
0.0
 11
-1707.766731884081
 21
706.426092132515
 31
0.0
  0
LINE
  5
78
100
AcDbEntity
  8
YELLOW
  6
CONTINUOUS
 62
           2
100
AcDbLine
 10
-1743.766731884081
 20
706.426092132515
 30
0.0
 11
-1743.766731884081
 21
676.426092132515
 31
0.0
  0
LINE
  5
79
100
AcDbEntity
  8
0
  6
CONTINUOUS
 62
          15
100
AcDbLine
 10
-1761.593986645018
 20
691.4559659375
 30
0.0
 11
-1755.300680828028
 21
685.023628740008
 31
0.0
  0
LINE
  5
7A
100
AcDbEntity
  8
0
  6
CONTINUOUS
 62
          15
100
AcDbLine
 10
-1755.166437030739
 20
697.753623772644
 30
0.0
 11
-1761.593986645018
 21
691.4559659375
 31
0.0
  0
LINE
  5
7B
100
AcDbEntity
  8
0
  6
CONTINUOUS
 62
          15
100
AcDbLine
 10
-1751.871212956019
 20
686.401230290792
 30
0.0
 11
-1751.766842956019
 21
696.303971290792
 31
0.0
  0
ARC
  5
7C
100
AcDbEntity
  8
0
  6
CONTINUOUS
 62
          15
100
AcDbCircle
 10
-1753.871101884081
 20
686.422308132515
 30
0.0
 40
2.0
100
AcDbArc
 50
224.374051716375
 51
359.396153135564
  0
ARC
  5
7D
100
AcDbEntity
  8
0
  6
CONTINUOUS
 62
          15
100
AcDbCircle
 10
-1753.766731884081
 20
696.325049132515
 30
0.0
 40
2.0
100
AcDbArc
 50
359.396153135564
 51
134.415177134853
  0
CIRCLE
  5
7E
100
AcDbEntity
  8
0
  6
CONTINUOUS
 62
          15
100
AcDbCircle
 10
-1873.766731884081
 20
691.426092132515
 30
0.0
 40
10.25
  0
ARC
  5
7F
100
AcDbEntity
  8
BLACK
  6
CONTINUOUS
 62
          15
100
AcDbCircle
 10
-1776.666815884081
 20
676.682965132515
 30
0.0
 40
3.636364
100
AcDbArc
 50
243.219638
 51
348.208933
  0
ARC
  5
80
100
AcDbEntity
  8
BLACK
  6
CONTINUOUS
 62
          15
100
AcDbCircle
 10
-1783.766731884081
 20
662.615542132515
 30
0.0
 40
12.121212
100
AcDbArc
 50
63.219638
 51
116.780362
  0
ARC
  5
81
100
AcDbEntity
  8
BLACK
  6
CONTINUOUS
 62
          15
100
AcDbCircle
 10
-1767.813365884081
 20
687.784840132515
 30
0.0
 40
3.636364
100
AcDbArc
 50
294.64821
 51
39.637504
  0
ARC
  5
82
100
AcDbEntity
  8
BLACK
  6
CONTINUOUS
 62
          15
100
AcDbCircle
 10
-1761.241736884081
 20
673.463008132515
 30
0.0
 40
12.121212
100
AcDbArc
 50
114.64821
 51
168.208933
  0
ARC
  5
83
100
AcDbEntity
  8
BLACK
  6
CONTINUOUS
 62
          15
100
AcDbCircle
 10
-1770.973125884081
 20
701.628652132515
 30
0.0
 40
3.636364
100
AcDbArc
 50
346.076783
 51
91.066076
  0
ARC
  5
84
100
AcDbEntity
  8
BLACK
  6
CONTINUOUS
 62
          15
100
AcDbCircle
 10
-1755.678522884081
 20
697.837042132515
 30
0.0
 40
12.121212
100
AcDbArc
 50
166.076781
 51
219.637504
  0
ARC
  5
85
100
AcDbEntity
  8
BLACK
  6
CONTINUOUS
 62
          15
100
AcDbCircle
 10
-1783.766731884081
 20
707.789728132515
 30
0.0
 40
3.636364
100
AcDbArc
 50
37.505352
 51
142.494648
  0
ARC
  5
86
100
AcDbEntity
  8
BLACK
  6
CONTINUOUS
 62
          15
100
AcDbCircle
 10
-1771.266302884081
 20
717.383500132515
 30
0.0
 40
12.121212
100
AcDbArc
 50
217.505353
 51
271.066076
  0
ARC
  5
87
100
AcDbEntity
  8
BLACK
  6
CONTINUOUS
 62
          15
100
AcDbCircle
 10
-1796.560337884081
 20
701.628652132515
 30
0.0
 40
3.636364
100
AcDbArc
 50
88.933924
 51
193.923217
  0
ARC
  5
88
100
AcDbEntity
  8
BLACK
  6
CONTINUOUS
 62
          15
100
AcDbCircle
 10
-1796.267160884082
 20
717.383500132515
 30
0.0
 40
12.121212
100
AcDbArc
 50
268.933924
 51
322.494647
  0
ARC
  5
89
100
AcDbEntity
  8
BLACK
  6
CONTINUOUS
 62
          15
100
AcDbCircle
 10
-1799.720097884081
 20
687.784840132515
 30
0.0
 40
3.636364
100
AcDbArc
 50
140.362496
 51
245.35179
  0
ARC
  5
8A
100
AcDbEntity
  8
BLACK
  6
CONTINUOUS
 62
          15
100
AcDbCircle
 10
-1811.854940884081
 20
697.837042132515
 30
0.0
 40
12.121212
100
AcDbArc
 50
320.362496
 51
13.923219
  0
ARC
  5
8B
100
AcDbEntity
  8
BLACK
  6
CONTINUOUS
 62
          15
100
AcDbCircle
 10
-1790.866647884081
 20
676.682965132515
 30
0.0
 40
3.636364
100
AcDbArc
 50
191.791067
 51
296.780361
  0
ARC
  5
8C
100
AcDbEntity
  8
BLACK
  6
CONTINUOUS
 62
          15
100
AcDbCircle
 10
-1806.291726884081
 20
673.463008132515
 30
0.0
 40
12.121212
100
AcDbArc
 50
11.791067
 51
65.35179
  0
TEXT
  5
8D
100
AcDbEntity
  8
0
  6
CONTINUOUS
 62
          15
100
AcDbText
 10
-1948.377473476168
 20
595.784847261308
 30
0.0
 40
3.5
  1
200-270
 41
0.900000010218
  7
GOTHICG
100
AcDbText
  0
ENDSEC
  0
SECTION
  2
OBJECTS
  0
DICTIONARY
  5
19
100
AcDbDictionary
  3
ACAD_GROUP
350
1A
  3
ACAD_MLINESTYLE
350
1B
  0
DICTIONARY
  5
1A
102
{ACAD_REACTORS
330
19
102
}
100
AcDbDictionary
  0
DICTIONARY
  5
1B
102
{ACAD_REACTORS
330
19
102
}
100
AcDbDictionary
  3
STANDARD
350
1C
  0
MLINESTYLE
  5
1C
102
{ACAD_REACTORS
330
1B
102
}
100
AcDbMlineStyle
  2
STANDARD
 70
           0
  3

 62
           0
 51
90.0
 52
90.0
 71
           2
 49
0.5
 62
         256
  6
BYLAYER
 49
-0.5
 62
         256
  6
BYLAYER
  0
ENDSEC
  0
EOF
