  0
SECTION
  2
HEADER
  9
$ACADVER
  1
AC1012
  9
$DWGCODEPAGE
  3
dos850
  9
$INSBASE
 10
0.0
 20
0.0
 30
0.0
  9
$EXTMIN
 10
-1932.703221739154
 20
-3173.670881780577
 30
0.0
  9
$EXTMAX
 10
-1382.542714699815
 20
-2651.158182815767
 30
0.0
  9
$LIMMIN
 10
-1932.703221739154
 20
-3173.670881780577
  9
$LIMMAX
 10
-1382.542714699815
 20
-2651.158182815767
  9
$ORTHOMODE
 70
           0
  9
$REGENMODE
 70
           1
  9
$FILLMODE
 70
           1
  9
$QTEXTMODE
 70
           0
  9
$MIRRTEXT
 70
           1
  9
$DRAGMODE
 70
           2
  9
$LTSCALE
 40
5.0
  9
$OSMODE
 70
           0
  9
$ATTMODE
 70
           1
  9
$TEXTSIZE
 40
0.2
  9
$TRACEWID
 40
0.05
  9
$TEXTSTYLE
  7
TXT
  9
$CLAYER
  8
0
  9
$CELTYPE
  6
CONTINUOUS
  9
$CECOLOR
 62
         256
  9
$CELTSCALE
 40
1.0
  9
$DELOBJ
 70
           1
  9
$DISPSILH
 70
           0
  9
$DIMSCALE
 40
1.0
  9
$DIMASZ
 40
3.5
  9
$DIMEXO
 40
0.0625
  9
$DIMDLI
 40
0.38
  9
$DIMRND
 40
0.0
  9
$DIMDLE
 40
0.0
  9
$DIMEXE
 40
0.18
  9
$DIMTP
 40
0.0
  9
$DIMTM
 40
0.0
  9
$DIMTXT
 40
3.5
  9
$DIMCEN
 40
0.09
  9
$DIMTSZ
 40
0.0
  9
$DIMTOL
 70
           0
  9
$DIMLIM
 70
           0
  9
$DIMTIH
 70
           1
  9
$DIMTOH
 70
           1
  9
$DIMSE1
 70
           0
  9
$DIMSE2
 70
           0
  9
$DIMTAD
 70
           0
  9
$DIMZIN
 70
           0
  9
$DIMBLK
  1

  9
$DIMASO
 70
           1
  9
$DIMSHO
 70
           1
  9
$DIMPOST
  1

  9
$DIMAPOST
  1

  9
$DIMALT
 70
           0
  9
$DIMALTD
 70
           2
  9
$DIMALTF
 40
25.4
  9
$DIMLFAC
 40
1.0
  9
$DIMTOFL
 70
           0
  9
$DIMTVP
 40
0.0
  9
$DIMTIX
 70
           0
  9
$DIMSOXD
 70
           0
  9
$DIMSAH
 70
           0
  9
$DIMBLK1
  1

  9
$DIMBLK2
  1

  9
$DIMSTYLE
  2
STANDARD
  9
$DIMCLRD
 70
           0
  9
$DIMCLRE
 70
           0
  9
$DIMCLRT
 70
           0
  9
$DIMTFAC
 40
1.0
  9
$DIMGAP
 40
0.09
  9
$DIMJUST
 70
           0
  9
$DIMSD1
 70
           0
  9
$DIMSD2
 70
           0
  9
$DIMTOLJ
 70
           1
  9
$DIMTZIN
 70
           0
  9
$DIMALTZ
 70
           0
  9
$DIMALTTZ
 70
           0
  9
$DIMFIT
 70
           3
  9
$DIMUPT
 70
           0
  9
$DIMUNIT
 70
           2
  9
$DIMDEC
 70
           4
  9
$DIMTDEC
 70
           4
  9
$DIMALTU
 70
           2
  9
$DIMALTTD
 70
           2
  9
$DIMTXSTY
  7
TXT
  9
$DIMAUNIT
 70
           0
  9
$LUNITS
 70
           2
  9
$LUPREC
 70
           2
  9
$SKETCHINC
 40
0.1
  9
$FILLETRAD
 40
0.0
  9
$AUNITS
 70
           0
  9
$AUPREC
 70
           2
  9
$MENU
  1
acad
  9
$ELEVATION
 40
0.0
  9
$PELEVATION
 40
0.0
  9
$THICKNESS
 40
0.0
  9
$LIMCHECK
 70
           0
  9
$BLIPMODE
 70
           1
  9
$CHAMFERA
 40
0.0
  9
$CHAMFERB
 40
0.0
  9
$CHAMFERC
 40
0.0
  9
$CHAMFERD
 40
0.0
  9
$SKPOLY
 70
           0
  9
$TDCREATE
 40
0.000000000
  9
$TDUPDATE
 40
0.000000000
  9
$TDINDWG
 40
0.0000000000
  9
$TDUSRTIMER
 40
0.0000000000
  9
$USRTIMER
 70
           1
  9
$ANGBASE
 50
0.0
  9
$ANGDIR
 70
           0
  9
$PDMODE
 70
           2
  9
$PDSIZE
 40
0.5
  9
$PLINEWID
 40
0.0
  9
$COORDS
 70
           0
  9
$SPLFRAME
 70
           0
  9
$SPLINETYPE
 70
           6
  9
$SPLINESEGS
 70
           8
  9
$ATTDIA
 70
           0
  9
$ATTREQ
 70
           1
  9
$HANDLING
 70
           1
  9
$HANDSEED
  5
98
  9
$SURFTAB1
 70
           6
  9
$SURFTAB2
 70
           6
  9
$SURFTYPE
 70
           6
  9
$SURFU
 70
           6
  9
$SURFV
 70
           6
  9
$UCSNAME
  2

  9
$UCSORG
 10
0.0
 20
0.0
 30
0.0
  9
$UCSXDIR
 10
1.0
 20
0.0
 30
0.0
  9
$UCSYDIR
 10
0.0
 20
1.0
 30
0.0
  9
$PUCSNAME
  2

  9
$PUCSORG
 10
0.0
 20
0.0
 30
0.0
  9
$PUCSXDIR
 10
1.0
 20
0.0
 30
0.0
  9
$PUCSYDIR
 10
0.0
 20
1.0
 30
0.0
  9
$USERI1
 70
           0
  9
$USERI2
 70
           0
  9
$USERI3
 70
           0
  9
$USERI4
 70
           0
  9
$USERI5
 70
           0
  9
$USERR1
 40
0.0
  9
$USERR2
 40
0.0
  9
$USERR3
 40
0.0
  9
$USERR4
 40
0.0
  9
$USERR5
 40
0.0
  9
$WORLDVIEW
 70
           1
  9
$SHADEDGE
 70
           3
  9
$SHADEDIF
 70
          70
  9
$TILEMODE
 70
           1
  9
$MAXACTVP
 70
          16
  9
$PINSBASE
 10
0.0
 20
0.0
 30
0.0
  9
$PLIMCHECK
 70
           0
  9
$PEXTMIN
 10
1.000000000000E+20
 20
1.000000000000E+20
 30
1.000000000000E+20
  9
$PEXTMAX
 10
-1.000000000000E+20
 20
-1.000000000000E+20
 30
-1.000000000000E+20
  9
$PLIMMIN
 10
0.0
 20
0.0
  9
$PLIMMAX
 10
12.0
 20
9.0
  9
$UNITMODE
 70
           0
  9
$VISRETAIN
 70
           0
  9
$PLINEGEN
 70
           1
  9
$PSLTSCALE
 70
           0
  9
$TREEDEPTH
 70
        3020
  9
$PICKSTYLE
 70
           1
  9
$CMLSTYLE
  2
STANDARD
  9
$CMLJUST
 70
           0
  9
$CMLSCALE
 40
1.0
  9
$SAVEIMAGES
 70
           0
  0
ENDSEC
  0
SECTION
  2
CLASSES
  0
CLASS
  1
LWPOLYLINE
  2
AcDbPolyline
  3
"AutoCAD"
 90
        0
280
           0
281
           1
  0
CLASS
  1
IMAGE
  2
AcDbRasterImage
  3
ISM
 90
      127
280
           0
281
           1
  0
CLASS
  1
OLE2FRAME
  2
AcDbOle2Frame
  3
""
 90
        0
280
           0
281
           1
  0
CLASS
  1
HATCH
  2
AcDbHatch
  3
"ACAD_SEDONA"
 90
        0
280
           0
281
           1
  0
CLASS
  1
DICTIONARYVAR
  2
AcDbDictionaryVar
  3
"AutoCAD"
 90
        0
280
           0
281
           0
  0
CLASS
  1
RASTERVARIABLES
  2
AcDbRasterVariables
  3
ISM
 90
        0
280
           0
281
           0
  0
CLASS
  1
IMAGEDEF
  2
AcDbRasterImageDef
  3
ISM
 90
        0
280
           0
281
           0
  0
CLASS
  1
IMAGEDEF_REACTOR
  2
AcDbRasterImageDefReactor
  3
ISM
 90
        1
280
           0
281
           0
  0
CLASS
  1
IDBUFFER
  2
AcDbIdBuffer
  3
"Acad"
 90
        0
280
           0
281
           0
  0
CLASS
  1
SPATIAL_FILTER
  2
AcDbSpatialFilter
  3
"Acad"
 90
        0
280
           0
281
           0
  0
CLASS
  1
XRECORD
  2
AcDbXrecord
  3
"<Built In>"
 90
        0
280
           0
281
           0
  0
ENDSEC
  0
SECTION
  2
TABLES
  0
TABLE
  2
VPORT
  5
7
100
AcDbSymbolTable
 70
           1
  0
VPORT
  5
15
100
AcDbSymbolTableRecord
100
AcDbViewportTableRecord
  2
*ACTIVE
 70
           0
 10
0.0
 20
0.0
 11
1.0
 21
1.0
 12
6.591288
 22
4.579184
 13
0.0
 23
0.0
 14
1.0
 24
1.0
 15
0.0
 25
0.0
 16
0.0
 26
0.0
 36
1.0
 17
0.0
 27
0.0
 37
0.0
 40
9.158369
 41
0.688564
 42
50.0
 43
0.0
 44
0.0
 50
0.0
 51
0.0
 71
           0
 72
         100
 73
           1
 74
           1
 75
           0
 76
           0
 77
           0
 78
           0
  0
ENDTAB
  0
TABLE
  2
LTYPE
  5
4
100
AcDbSymbolTable
 70
           5
  0
LTYPE
  5
11
100
AcDbSymbolTableRecord
100
AcDbLinetypeTableRecord
  2
BYBLOCK
 70
           0
  3

 72
          65
 73
           0
 40
0.0
  0
LTYPE
  5
12
100
AcDbSymbolTableRecord
100
AcDbLinetypeTableRecord
  2
BYLAYER
 70
           0
  3

 72
          65
 73
           0
 40
0.0
  0
LTYPE
  5
13
100
AcDbSymbolTableRecord
100
AcDbLinetypeTableRecord
  2
CONTINUOUS
 70
           0
  3
Solid line
 72
          65
 73
           0
 40
0.0
  0
LTYPE
  5
1D
100
AcDbSymbolTableRecord
100
AcDbLinetypeTableRecord
  2
GESTRICHELT
 70
           0
  3

 72
          65
 73
           2
 40
0.75
 49
0.5
 74
           0
 49
-0.25
 74
           0
  0
LTYPE
  5
1E
100
AcDbSymbolTableRecord
100
AcDbLinetypeTableRecord
  2
STRICHPUNKT
 70
           0
  3

 72
          65
 73
           4
 40
1.0
 49
0.5
 74
           0
 49
-0.25
 74
           0
 49
0.0
 74
           0
 49
-0.25
 74
           0
  0
ENDTAB
  0
TABLE
  2
LAYER
  5
2
100
AcDbSymbolTable
 70
           4
  0
LAYER
  5
14
100
AcDbSymbolTableRecord
100
AcDbLayerTableRecord
  2
0
 70
           0
 62
           7
  6
CONTINUOUS
  0
LAYER
  5
20
100
AcDbSymbolTableRecord
100
AcDbLayerTableRecord
  2
BLACK
 70
           0
 62
           7
  6
CONTINUOUS
  0
LAYER
  5
21
100
AcDbSymbolTableRecord
100
AcDbLayerTableRecord
  2
WHITE
 70
           0
 62
           7
  6
CONTINUOUS
  0
LAYER
  5
22
100
AcDbSymbolTableRecord
100
AcDbLayerTableRecord
  2
YELLOW
 70
           0
 62
           7
  6
CONTINUOUS
  0
ENDTAB
  0
TABLE
  2
STYLE
  5
3
100
AcDbSymbolTable
 70
           2
  0
STYLE
  5
17
100
AcDbSymbolTableRecord
100
AcDbTextStyleTableRecord
  2
TXT
 70
           0
 40
3.5
 41
1.0
 50
0.0
 71
           0
 42
3.5
  3
TXT
  4

  0
STYLE
  5
1F
100
AcDbSymbolTableRecord
100
AcDbTextStyleTableRecord
  2
GOTHICG
 70
           0
 40
3.5
 41
1.0
 50
0.0
 71
           0
 42
3.5
  3
GOTHICG
  4

  0
ENDTAB
  0
TABLE
  2
VIEW
  5
5
100
AcDbSymbolTable
 70
           0
  0
ENDTAB
  0
TABLE
  2
UCS
  5
6
100
AcDbSymbolTable
 70
           0
  0
ENDTAB
  0
TABLE
  2
APPID
  5
8
100
AcDbSymbolTable
 70
           2
  0
APPID
  5
16
100
AcDbSymbolTableRecord
100
AcDbRegAppTableRecord
  2
ACAD
 70
           0
  0
APPID
  5
23
100
AcDbSymbolTableRecord
100
AcDbRegAppTableRecord
  2
MegaCADPntStyle
 70
           0
  0
ENDTAB
  0
TABLE
  2
DIMSTYLE
  5
9
100
AcDbSymbolTable
 70
           1
  0
DIMSTYLE
105
18
100
AcDbSymbolTableRecord
100
AcDbDimStyleTableRecord
  2
STANDARD
 70
           0
  3

  4

  5

  6

  7

 40
1.0
 41
0.18
 42
0.0625
 43
0.38
 44
0.18
 45
0.0
 46
0.0
 47
0.0
 48
0.0
140
0.18
141
0.09
142
0.0
143
25.4
144
1.0
145
0.0
146
1.0
147
0.09
 71
           0
 72
           0
 73
           1
 74
           1
 75
           0
 76
           0
 77
           0
 78
           0
170
           0
171
           2
172
           0
173
           0
174
           0
175
           0
176
           0
177
           0
178
           0
270
           2
271
           4
272
           4
273
           2
274
           2
340
17
275
           0
280
           0
281
           0
282
           0
283
           1
284
           0
285
           0
286
           0
287
           0
288
           0
  0
ENDTAB
  0
TABLE
  2
BLOCK_RECORD
  5
1
100
AcDbSymbolTable
 70
           1
  0
BLOCK_RECORD
  5
A
100
AcDbSymbolTableRecord
100
AcDbBlockTableRecord
  2
*MODEL_SPACE
  0
BLOCK_RECORD
  5
B
100
AcDbSymbolTableRecord
100
AcDbBlockTableRecord
  2
*PAPER_SPACE
  0
BLOCK_RECORD
  5
24
100
AcDbSymbolTableRecord
100
AcDbBlockTableRecord
  2
ELIPPSE
  0
ENDTAB
  0
ENDSEC
  0
SECTION
  2
BLOCKS
  0
BLOCK
  5
D
100
AcDbEntity
  8
0
100
AcDbBlockBegin
  2
*MODEL_SPACE
 70
           0
 10
0.0
 20
0.0
 30
0.0
  3
*MODEL_SPACE
  1

  0
ENDBLK
  5
E
100
AcDbEntity
  8
0
100
AcDbBlockEnd
  0
BLOCK
  5
F
100
AcDbEntity
 67
           1
  8
0
100
AcDbBlockBegin
  2
*PAPER_SPACE
 70
           0
 10
0.0
 20
0.0
 30
0.0
  3
*PAPER_SPACE
  1

  0
ENDBLK
  5
10
100
AcDbEntity
 67
           1
  8
0
100
AcDbBlockEnd
  0
BLOCK
  5
93
100
AcDbEntity
  8
0
100
AcDbBlockBegin
  2
ELIPPSE
 70
          64
 10
0.0
 20
0.0
 30
0.0
  3
ELIPPSE
  1

  0
CIRCLE
  5
94
100
AcDbEntity
  8
0
  6
BYBLOCK
 62
           0
100
AcDbCircle
 10
0.0
 20
0.0
 30
0.0
 40
1.0
  0
ENDBLK
  5
95
100
AcDbEntity
  8
0
  6
BYBLOCK
 62
           0
100
AcDbBlockEnd
  0
ENDSEC
  0
SECTION
  2
ENTITIES
  0
LINE
  5
25
100
AcDbEntity
  8
0
  6
CONTINUOUS
 62
          15
100
AcDbLine
 10
-1932.703221739154
 20
-2651.158182815767
 30
0.0
 11
-1582.382207660475
 21
-2651.158182815767
 31
0.0
  0
LINE
  5
26
100
AcDbEntity
  8
0
  6
CONTINUOUS
 62
          15
100
AcDbLine
 10
-1582.382207660475
 20
-2935.980112669456
 30
0.0
 11
-1582.382207660475
 21
-3173.670881780577
 31
0.0
  0
LINE
  5
27
100
AcDbEntity
  8
0
  6
GESTRICHELT
 62
          15
100
AcDbLine
 10
-1582.382207660475
 20
-2870.956188702203
 30
0.0
 11
-1582.382207660475
 21
-2935.980112669456
 31
0.0
  0
LINE
  5
28
100
AcDbEntity
  8
0
  6
CONTINUOUS
 62
          15
100
AcDbLine
 10
-1582.382207660475
 20
-2651.158182815767
 30
0.0
 11
-1582.382207660475
 21
-2870.956188702203
 31
0.0
  0
LINE
  5
29
100
AcDbEntity
  8
0
  6
CONTINUOUS
 62
          15
100
AcDbLine
 10
-1582.382207660475
 20
-3173.670881780577
 30
0.0
 11
-1932.703221739154
 21
-3173.670881780577
 31
0.0
  0
LINE
  5
2A
100
AcDbEntity
  8
0
  6
CONTINUOUS
 62
          15
100
AcDbLine
 10
-1932.703221739154
 20
-3173.670881780577
 30
0.0
 11
-1932.703221739154
 21
-2651.158182815767
 31
0.0
  0
LINE
  5
2B
100
AcDbEntity
  8
0
  6
STRICHPUNKT
 62
          15
100
AcDbLine
 10
-1757.542714699815
 20
-2651.158182815767
 30
0.0
 11
-1757.542714699815
 21
-3173.670881780577
 31
0.0
  0
LINE
  5
2C
100
AcDbEntity
  8
0
  6
GESTRICHELT
 62
          15
100
AcDbLine
 10
-1932.703221739154
 20
-2912.414532298172
 30
0.0
 11
-1582.382207660475
 21
-2912.414532298172
 31
0.0
  0
LINE
  5
2D
100
AcDbEntity
  8
WHITE
  6
CONTINUOUS
 62
          15
100
AcDbLine
 10
-1782.542708024436
 20
-2891.258851411732
 30
0.0
 11
-1782.542806699815
 21
-2742.414654298172
 31
0.0
  0
ARC
  5
2E
100
AcDbEntity
  8
WHITE
  6
CONTINUOUS
 62
          15
100
AcDbCircle
 10
-1772.542806699815
 20
-2742.414654298172
 30
0.0
 40
10.0
100
AcDbArc
 50
90.0
 51
180.0
  0
LINE
  5
2F
100
AcDbEntity
  8
WHITE
  6
CONTINUOUS
 62
          15
100
AcDbLine
 10
-1772.542806699815
 20
-2732.414654298172
 30
0.0
 11
-1761.696004699815
 21
-2732.414532298172
 31
0.0
  0
LINE
  5
30
100
AcDbEntity
  8
WHITE
  6
CONTINUOUS
 62
          15
100
AcDbLine
 10
-1761.696004699815
 20
-2732.414532298172
 30
0.0
 11
-1757.542714699815
 21
-2737.414532298172
 31
0.0
  0
LINE
  5
31
100
AcDbEntity
  8
WHITE
  6
CONTINUOUS
 62
          15
100
AcDbLine
 10
-1757.542714699815
 20
-2737.414532298172
 30
0.0
 11
-1753.330770699814
 21
-2732.463849298171
 31
0.0
  0
ARC
  5
32
100
AcDbEntity
  8
WHITE
  6
CONTINUOUS
 62
          15
100
AcDbCircle
 10
-1757.542714699815
 20
-2912.414532298172
 30
0.0
 40
179.999969
100
AcDbArc
 50
76.340812
 51
88.659174
  0
LINE
  5
33
100
AcDbEntity
  8
WHITE
  6
CONTINUOUS
 62
          15
100
AcDbLine
 10
-1715.036433699815
 20
-2737.505399298172
 30
0.0
 11
-1712.249349699815
 21
-2743.377545298172
 31
0.0
  0
LINE
  5
34
100
AcDbEntity
  8
WHITE
  6
CONTINUOUS
 62
          15
100
AcDbLine
 10
-1712.249349699815
 20
-2743.377545298172
 30
0.0
 11
-1706.899587699814
 21
-2739.685650298172
 31
0.0
  0
ARC
  5
35
100
AcDbEntity
  8
WHITE
  6
CONTINUOUS
 62
          15
100
AcDbCircle
 10
-1757.542714699815
 20
-2912.414532298172
 30
0.0
 40
179.999981
100
AcDbArc
 50
61.340809
 51
73.659163
  0
LINE
  5
36
100
AcDbEntity
  8
WHITE
  6
CONTINUOUS
 62
          15
100
AcDbLine
 10
-1671.214961699815
 20
-2754.466695298172
 30
0.0
 11
-1670.042653699814
 21
-2760.860089298171
 31
0.0
  0
LINE
  5
37
100
AcDbEntity
  8
WHITE
  6
CONTINUOUS
 62
          15
100
AcDbLine
 10
-1670.042653699814
 20
-2760.860089298171
 30
0.0
 11
-1663.919687699814
 21
-2758.678662298172
 31
0.0
  0
ARC
  5
38
100
AcDbEntity
  8
WHITE
  6
CONTINUOUS
 62
          15
100
AcDbCircle
 10
-1757.542714699815
 20
-2912.414532298172
 30
0.0
 40
179.999969
100
AcDbArc
 50
46.340822
 51
58.659161
  0
LINE
  5
39
100
AcDbEntity
  8
WHITE
  6
CONTINUOUS
 62
          15
100
AcDbLine
 10
-1633.276651699815
 20
-2782.191898298172
 30
0.0
 11
-1633.799001699814
 21
-2788.670849298172
 31
0.0
  0
LINE
  5
3A
100
AcDbEntity
  8
WHITE
  6
CONTINUOUS
 62
          15
100
AcDbLine
 10
-1633.799001699814
 20
-2788.670849298172
 30
0.0
 11
-1627.320028699814
 21
-2788.148480298171
 31
0.0
  0
ARC
  5
3B
100
AcDbEntity
  8
WHITE
  6
CONTINUOUS
 62
          15
100
AcDbCircle
 10
-1757.542714699815
 20
-2912.414532298172
 30
0.0
 40
179.999999
100
AcDbArc
 50
31.340818
 51
43.659164
  0
LINE
  5
3C
100
AcDbEntity
  8
WHITE
  6
CONTINUOUS
 62
          15
100
AcDbLine
 10
-1603.806783699815
 20
-2818.791546298172
 30
0.0
 11
-1605.988241699814
 21
-2824.914532298172
 31
0.0
  0
LINE
  5
3D
100
AcDbEntity
  8
WHITE
  6
CONTINUOUS
 62
          15
100
AcDbLine
 10
-1605.988241699814
 20
-2824.914532298172
 30
0.0
 11
-1599.594873699814
 21
-2826.086852298172
 31
0.0
  0
ARC
  5
3E
100
AcDbEntity
  8
WHITE
  6
CONTINUOUS
 62
          15
100
AcDbCircle
 10
-1757.542714699815
 20
-2912.414532298172
 30
0.0
 40
179.999969
100
AcDbArc
 50
16.340816
 51
28.65917
  0
LINE
  5
3F
100
AcDbEntity
  8
WHITE
  6
CONTINUOUS
 62
          15
100
AcDbLine
 10
-1584.813824699814
 20
-2861.771473298172
 30
0.0
 11
-1588.505697699814
 21
-2867.121228298171
 31
0.0
  0
LINE
  5
40
100
AcDbEntity
  8
WHITE
  6
CONTINUOUS
 62
          15
100
AcDbLine
 10
-1588.505697699814
 20
-2867.121228298171
 30
0.0
 11
-1582.633535699815
 21
-2869.908337298171
 31
0.0
  0
ARC
  5
41
100
AcDbEntity
  8
WHITE
  6
CONTINUOUS
 62
          15
100
AcDbCircle
 10
-1757.542714699815
 20
-2912.414532298172
 30
0.0
 40
179.999993
100
AcDbArc
 50
6.37937045756
 51
13.659158
  0
ARC
  5
42
100
AcDbEntity
  8
WHITE
  6
GESTRICHELT
 62
          15
100
AcDbCircle
 10
-1757.542714699815
 20
-2912.414532298172
 30
0.0
 40
179.999993
100
AcDbArc
 50
1.958154042582
 51
6.37937045756
  0
ARC
  5
43
100
AcDbEntity
  8
WHITE
  6
CONTINUOUS
 62
          15
100
AcDbCircle
 10
-1757.542714699815
 20
-2912.414532298172
 30
0.0
 40
179.999993
100
AcDbArc
 50
1.309594
 51
1.958154042582
  0
LINE
  5
44
100
AcDbEntity
  8
WHITE
  6
CONTINUOUS
 62
          15
100
AcDbLine
 10
-1577.589334699815
 20
-2908.300670298172
 30
0.0
 11
-1582.542714699815
 21
-2912.414532298172
 31
0.0
  0
LINE
  5
45
100
AcDbEntity
  8
WHITE
  6
CONTINUOUS
 62
          15
100
AcDbLine
 10
-1582.542714699815
 20
-2912.414532298172
 30
0.0
 11
-1577.542714699815
 21
-2916.567822298171
 31
0.0
  0
LINE
  5
46
100
AcDbEntity
  8
WHITE
  6
GESTRICHELT
 62
          15
100
AcDbLine
 10
-1577.542714699815
 20
-2918.625869928498
 30
0.0
 11
-1577.542714699815
 21
-2927.414532298172
 31
0.0
  0
LINE
  5
47
100
AcDbEntity
  8
WHITE
  6
CONTINUOUS
 62
          15
100
AcDbLine
 10
-1577.542714699815
 20
-2916.567822298171
 30
0.0
 11
-1577.542714699815
 21
-2918.625869928498
 31
0.0
  0
ARC
  5
48
100
AcDbEntity
  8
WHITE
  6
GESTRICHELT
 62
          15
100
AcDbCircle
 10
-1587.542714699815
 20
-2927.414532298172
 30
0.0
 40
10.0
100
AcDbArc
 50
329.999999999998
 51
0.0
  0
ARC
  5
49
100
AcDbEntity
  8
WHITE
  6
CONTINUOUS
 62
          15
100
AcDbCircle
 10
-1587.542714699815
 20
-2927.414532298172
 30
0.0
 40
10.0
100
AcDbArc
 50
269.999999999999
 51
329.999999999998
  0
LINE
  5
4A
100
AcDbEntity
  8
WHITE
  6
GESTRICHELT
 62
          15
100
AcDbLine
 10
-1730.959140449719
 20
-2937.414518863381
 30
0.0
 11
-1736.387025224814
 21
-2937.414518354914
 31
0.0
  0
LINE
  5
4B
100
AcDbEntity
  8
WHITE
  6
CONTINUOUS
 62
          15
100
AcDbLine
 10
-1587.542714699815
 20
-2937.414532298172
 30
0.0
 11
-1730.959140449719
 21
-2937.414518863381
 31
0.0
  0
ARC
  5
4C
100
AcDbEntity
  8
WHITE
  6
CONTINUOUS
 62
          15
100
AcDbCircle
 10
-1757.542714699815
 20
-2912.414532298172
 30
0.0
 40
144.0
100
AcDbArc
 50
7.983556145555
 51
90.0
  0
ARC
  5
4D
100
AcDbEntity
  8
WHITE
  6
GESTRICHELT
 62
          15
100
AcDbCircle
 10
-1757.542714699815
 20
-2912.414532298172
 30
0.0
 40
144.0
100
AcDbArc
 50
0.0
 51
7.983556145555
  0
LINE
  5
4E
100
AcDbEntity
  8
WHITE
  6
CONTINUOUS
 62
          15
100
AcDbLine
 10
-1757.542714699815
 20
-2768.414532298172
 30
0.0
 11
-1763.042714699815
 21
-2768.414532298172
 31
0.0
  0
LINE
  5
4F
100
AcDbEntity
  8
WHITE
  6
CONTINUOUS
 62
          15
100
AcDbLine
 10
-1763.042714699815
 20
-2768.414532298172
 30
0.0
 11
-1763.042714699815
 21
-2756.414532298172
 31
0.0
  0
LINE
  5
50
100
AcDbEntity
  8
WHITE
  6
CONTINUOUS
 62
          15
100
AcDbLine
 10
-1763.042714699815
 20
-2756.414532298172
 30
0.0
 11
-1757.542714699815
 21
-2756.414532298172
 31
0.0
  0
ARC
  5
51
100
AcDbEntity
  8
WHITE
  6
CONTINUOUS
 62
          15
100
AcDbCircle
 10
-1757.542714699815
 20
-2912.414532298172
 30
0.0
 40
156.0
100
AcDbArc
 50
8.206528905083
 51
90.0
  0
ARC
  5
52
100
AcDbEntity
  8
WHITE
  6
GESTRICHELT
 62
          15
100
AcDbCircle
 10
-1757.542714699815
 20
-2912.414532298172
 30
0.0
 40
156.0
100
AcDbArc
 50
0.0
 51
8.206528905083
  0
LINE
  5
53
100
AcDbEntity
  8
WHITE
  6
GESTRICHELT
 62
          15
100
AcDbLine
 10
-1601.542714699815
 20
-2912.414532298172
 30
0.0
 11
-1601.542714699815
 21
-2917.914532298172
 31
0.0
  0
LINE
  5
54
100
AcDbEntity
  8
WHITE
  6
GESTRICHELT
 62
          15
100
AcDbLine
 10
-1601.542714699815
 20
-2917.914532298172
 30
0.0
 11
-1613.542714699815
 21
-2917.914532298172
 31
0.0
  0
LINE
  5
55
100
AcDbEntity
  8
WHITE
  6
GESTRICHELT
 62
          15
100
AcDbLine
 10
-1613.542714699815
 20
-2917.914532298172
 30
0.0
 11
-1613.542714699815
 21
-2912.414532298172
 31
0.0
  0
CIRCLE
  5
56
100
AcDbEntity
  8
0
  6
GESTRICHELT
 62
          15
100
AcDbCircle
 10
-1757.542714699815
 20
-2912.414532298172
 30
0.0
 40
22.75
  0
ARC
  5
57
100
AcDbEntity
  8
0
  6
GESTRICHELT
 62
          15
100
AcDbCircle
 10
-1757.542714699815
 20
-2912.414532298172
 30
0.0
 40
32.75
100
AcDbArc
 50
305.700699324332
 51
310.238835888346
  0
ARC
  5
58
100
AcDbEntity
  8
0
  6
CONTINUOUS
 62
          15
100
AcDbCircle
 10
-1757.542714699815
 20
-2912.414532298172
 30
0.0
 40
32.75
100
AcDbArc
 50
139.761183795191
 51
305.700699324332
  0
LINE
  5
59
100
AcDbEntity
  8
WHITE
  6
CONTINUOUS
 62
          15
100
AcDbLine
 10
-1752.111458115087
 20
-2784.099716999863
 30
0.0
 11
-1740.861458115087
 21
-2806.599716999863
 31
0.0
  0
LINE
  5
5A
100
AcDbEntity
  8
WHITE
  6
CONTINUOUS
 62
          15
100
AcDbLine
 10
-1740.861458115087
 20
-2806.599716999863
 30
0.0
 11
-1745.892611115087
 21
-2806.599716999863
 31
0.0
  0
LINE
  5
5B
100
AcDbEntity
  8
WHITE
  6
CONTINUOUS
 62
          15
100
AcDbLine
 10
-1745.892611115087
 20
-2806.599716999863
 30
0.0
 11
-1748.199411615087
 21
-2801.986114499862
 31
0.0
  0
LINE
  5
5C
100
AcDbEntity
  8
WHITE
  6
CONTINUOUS
 62
          15
100
AcDbLine
 10
-1748.199411615087
 20
-2801.986114499862
 30
0.0
 11
-1756.023504615087
 21
-2801.986114499862
 31
0.0
  0
LINE
  5
5D
100
AcDbEntity
  8
WHITE
  6
CONTINUOUS
 62
          15
100
AcDbLine
 10
-1756.023504615087
 20
-2801.986114499862
 30
0.0
 11
-1758.330305115087
 21
-2806.599716999863
 31
0.0
  0
LINE
  5
5E
100
AcDbEntity
  8
WHITE
  6
CONTINUOUS
 62
          15
100
AcDbLine
 10
-1758.330305115087
 20
-2806.599716999863
 30
0.0
 11
-1763.361458115087
 21
-2806.599716999863
 31
0.0
  0
LINE
  5
5F
100
AcDbEntity
  8
WHITE
  6
CONTINUOUS
 62
          15
100
AcDbLine
 10
-1763.361458115087
 20
-2806.599716999863
 30
0.0
 11
-1752.111458115087
 21
-2784.099716999863
 31
0.0
  0
LINE
  5
60
100
AcDbEntity
  8
WHITE
  6
GESTRICHELT
 62
          15
100
AcDbLine
 10
-1648.16144314836
 20
-2917.712009535533
 30
0.0
 11
-1633.16144314836
 21
-2917.712009535533
 31
0.0
  0
LINE
  5
61
100
AcDbEntity
  8
WHITE
  6
GESTRICHELT
 62
          15
100
AcDbLine
 10
-1633.16144314836
 20
-2917.712009535533
 30
0.0
 11
-1633.16144314836
 21
-2913.212009535533
 31
0.0
  0
LINE
  5
62
100
AcDbEntity
  8
WHITE
  6
GESTRICHELT
 62
          15
100
AcDbLine
 10
-1633.16144314836
 20
-2913.212009535533
 30
0.0
 11
-1640.209614695492
 21
-2913.212009535533
 31
0.0
  0
LINE
  5
63
100
AcDbEntity
  8
WHITE
  6
GESTRICHELT
 62
          15
100
AcDbLine
 10
-1633.16144314836
 20
-2901.962009535533
 30
0.0
 11
-1633.16144314836
 21
-2895.212009535533
 31
0.0
  0
LINE
  5
64
100
AcDbEntity
  8
WHITE
  6
GESTRICHELT
 62
          15
100
AcDbLine
 10
-1633.16144314836
 20
-2895.212009535533
 30
0.0
 11
-1648.16144314836
 21
-2895.212009535533
 31
0.0
  0
LINE
  5
65
100
AcDbEntity
  8
WHITE
  6
GESTRICHELT
 62
          15
100
AcDbLine
 10
-1648.16144314836
 20
-2899.712009535533
 30
0.0
 11
-1640.668756959833
 21
-2899.712009535533
 31
0.0
  0
LINE
  5
66
100
AcDbEntity
  8
0
  6
GESTRICHELT
 62
          15
100
AcDbLine
 10
-1648.16144314836
 20
-2895.212009535533
 30
0.0
 11
-1648.16144314836
 21
-2899.712009535533
 31
0.0
  0
LINE
  5
67
100
AcDbEntity
  8
0
  6
GESTRICHELT
 62
          15
100
AcDbLine
 10
-1648.16144314836
 20
-2912.029519993673
 30
0.0
 11
-1648.16144314836
 21
-2917.712009535533
 31
0.0
  0
LINE
  5
68
100
AcDbEntity
  8
0
  6
GESTRICHELT
 62
          15
100
AcDbLine
 10
-1641.306197597856
 20
-2910.688532159993
 30
0.0
 11
-1633.16144314836
 21
-2901.962009535533
 31
0.0
  0
LINE
  5
69
100
AcDbEntity
  8
0
  6
GESTRICHELT
 62
          15
100
AcDbLine
 10
-1647.758026050724
 20
-2911.006042618133
 30
0.0
 11
-1639.572174057468
 21
-2902.235486911073
 31
0.0
  0
ARC
  5
6A
100
AcDbEntity
  8
0
  6
GESTRICHELT
 62
          15
100
AcDbCircle
 10
-1640.668756959833
 20
-2901.212009535533
 30
0.0
 40
1.5
100
AcDbArc
 50
316.974934010881
 51
90.0
  0
ARC
  5
6B
100
AcDbEntity
  8
0
  6
GESTRICHELT
 62
          15
100
AcDbCircle
 10
-1640.209614695492
 20
-2911.712009535533
 30
0.0
 40
1.5
100
AcDbArc
 50
136.974934010881
 51
269.999999999999
  0
ARC
  5
6C
100
AcDbEntity
  8
0
  6
GESTRICHELT
 62
          15
100
AcDbCircle
 10
-1646.66144314836
 20
-2912.029519993673
 30
0.0
 40
1.5
100
AcDbArc
 50
136.974934010883
 51
180.0
  0
LINE
  5
6D
100
AcDbEntity
  8
WHITE
  6
CONTINUOUS
 62
          15
100
AcDbLine
 10
-1382.542714699815
 20
-2917.414532298172
 30
0.0
 11
-1382.542714699815
 21
-2907.414532298172
 31
0.0
  0
ARC
  5
6E
100
AcDbEntity
  8
WHITE
  6
CONTINUOUS
 62
          15
100
AcDbCircle
 10
-1397.542714699815
 20
-2907.414532298172
 30
0.0
 40
15.0
100
AcDbArc
 50
0.0
 51
90.0
  0
LINE
  5
6F
100
AcDbEntity
  8
WHITE
  6
CONTINUOUS
 62
          15
100
AcDbLine
 10
-1614.528427356476
 20
-2892.414532298172
 30
0.0
 11
-1707.542714699815
 21
-2892.414532298172
 31
0.0
  0
LINE
  5
70
100
AcDbEntity
  8
WHITE
  6
GESTRICHELT
 62
          15
100
AcDbLine
 10
-1600.557002043153
 20
-2892.414532298172
 30
0.0
 11
-1614.528427356476
 21
-2892.414532298172
 31
0.0
  0
LINE
  5
71
100
AcDbEntity
  8
WHITE
  6
CONTINUOUS
 62
          15
100
AcDbLine
 10
-1397.542714699815
 20
-2892.414532298172
 30
0.0
 11
-1600.557002043153
 21
-2892.414532298172
 31
0.0
  0
LINE
  5
72
100
AcDbEntity
  8
WHITE
  6
CONTINUOUS
 62
          15
100
AcDbLine
 10
-1707.542714699815
 20
-2892.414532298172
 30
0.0
 11
-1751.278188699815
 21
-2883.075909298172
 31
0.0
  0
ARC
  5
73
100
AcDbEntity
  8
WHITE
  6
CONTINUOUS
 62
          15
100
AcDbCircle
 10
-1757.542714699815
 20
-2912.414532298172
 30
0.0
 40
29.999985
100
AcDbArc
 50
77.946928
 51
282.053073
  0
LINE
  5
74
100
AcDbEntity
  8
WHITE
  6
CONTINUOUS
 62
          15
100
AcDbLine
 10
-1751.278191699814
 20
-2941.753139298172
 30
0.0
 11
-1707.542714699815
 21
-2932.414532298172
 31
0.0
  0
LINE
  5
75
100
AcDbEntity
  8
WHITE
  6
CONTINUOUS
 62
          15
100
AcDbLine
 10
-1594.402513822536
 20
-2932.414532298172
 30
0.0
 11
-1397.542714699815
 21
-2932.414532298172
 31
0.0
  0
LINE
  5
76
100
AcDbEntity
  8
WHITE
  6
GESTRICHELT
 62
          15
100
AcDbLine
 10
-1620.682915577093
 20
-2932.414532298172
 30
0.0
 11
-1594.402513822536
 21
-2932.414532298172
 31
0.0
  0
LINE
  5
77
100
AcDbEntity
  8
WHITE
  6
CONTINUOUS
 62
          15
100
AcDbLine
 10
-1707.542714699815
 20
-2932.414532298172
 30
0.0
 11
-1620.682915577093
 21
-2932.414532298172
 31
0.0
  0
ARC
  5
78
100
AcDbEntity
  8
WHITE
  6
CONTINUOUS
 62
          15
100
AcDbCircle
 10
-1397.542714699815
 20
-2917.414532298172
 30
0.0
 40
15.0
100
AcDbArc
 50
270.0
 51
0.0
  0
CIRCLE
  5
79
100
AcDbEntity
  8
WHITE
  6
GESTRICHELT
 62
          15
100
AcDbCircle
 10
-1607.542714699815
 20
-2912.414532298172
 30
0.0
 40
7.0
  0
LINE
  5
7A
100
AcDbEntity
  8
YELLOW
  6
CONTINUOUS
 62
           2
100
AcDbLine
 10
-1502.542714699815
 20
-2932.414532298172
 30
0.0
 11
-1502.542714699815
 21
-2892.414532298172
 31
0.0
  0
LINE
  5
7B
100
AcDbEntity
  8
YELLOW
  6
CONTINUOUS
 62
           2
100
AcDbLine
 10
-1567.542714699815
 20
-2892.414532298172
 30
0.0
 11
-1567.542714699815
 21
-2932.414532298172
 31
0.0
  0
LINE
  5
7C
100
AcDbEntity
  8
0
  6
CONTINUOUS
 62
          15
100
AcDbLine
 10
-1584.858890310994
 20
-2913.069872795685
 30
0.0
 11
-1578.887983013062
 21
-2918.149773015934
 31
0.0
  0
LINE
  5
7D
100
AcDbEntity
  8
0
  6
GESTRICHELT
 62
          15
100
AcDbLine
 10
-1585.650706131124
 20
-2912.396215483928
 30
0.0
 11
-1584.858890310994
 21
-2913.069872795685
 31
0.0
  0
LINE
  5
7E
100
AcDbEntity
  8
0
  6
GESTRICHELT
 62
          15
100
AcDbLine
 10
-1585.419839953503
 20
-2912.204444692731
 30
0.0
 11
-1585.650706131124
 21
-2912.396215483928
 31
0.0
  0
LINE
  5
7F
100
AcDbEntity
  8
0
  6
CONTINUOUS
 62
          15
100
AcDbLine
 10
-1578.820652657508
 20
-2906.722778291652
 30
0.0
 11
-1585.419839953503
 21
-2912.204444692731
 31
0.0
  0
LINE
  5
80
100
AcDbEntity
  8
0
  6
CONTINUOUS
 62
          15
100
AcDbLine
 10
-1575.592035411816
 20
-2916.638260625355
 30
0.0
 11
-1575.542749411816
 21
-2908.273026625355
 31
0.0
  0
ARC
  5
81
100
AcDbEntity
  8
0
  6
CONTINUOUS
 62
          15
100
AcDbCircle
 10
-1577.592000699814
 20
-2916.626477298172
 30
0.0
 40
2.0
100
AcDbArc
 50
229.609685635494
 51
359.662430588941
  0
ARC
  5
82
100
AcDbEntity
  8
0
  6
CONTINUOUS
 62
          15
100
AcDbCircle
 10
-1577.542714699815
 20
-2908.261243298172
 30
0.0
 40
2.0
100
AcDbArc
 50
359.662430588941
 51
129.714981743212
  0
CIRCLE
  5
83
100
AcDbEntity
  8
0
  6
CONTINUOUS
 62
          15
100
AcDbCircle
 10
-1757.542714699815
 20
-2912.414532298172
 30
0.0
 40
15.25
  0
ARC
  5
84
100
AcDbEntity
  8
BLACK
  6
CONTINUOUS
 62
          15
100
AcDbCircle
 10
-1598.667819699815
 20
-2930.843441298172
 30
0.0
 40
4.545455
100
AcDbArc
 50
243.219638
 51
348.208933
  0
ARC
  5
85
100
AcDbEntity
  8
BLACK
  6
CONTINUOUS
 62
          15
100
AcDbCircle
 10
-1607.542714699815
 20
-2948.427719298172
 30
0.0
 40
15.151515
100
AcDbArc
 50
63.219638
 51
116.780361
  0
ARC
  5
86
100
AcDbEntity
  8
BLACK
  6
CONTINUOUS
 62
          15
100
AcDbCircle
 10
-1587.601007699815
 20
-2916.966097298172
 30
0.0
 40
4.545455
100
AcDbArc
 50
294.64821
 51
39.637504
  0
ARC
  5
87
100
AcDbEntity
  8
BLACK
  6
CONTINUOUS
 62
          15
100
AcDbCircle
 10
-1579.386470699815
 20
-2934.868387298172
 30
0.0
 40
15.151515
100
AcDbArc
 50
114.64821
 51
168.208933
  0
ARC
  5
88
100
AcDbEntity
  8
BLACK
  6
CONTINUOUS
 62
          15
100
AcDbCircle
 10
-1591.550707699814
 20
-2899.661332298172
 30
0.0
 40
4.545455
100
AcDbArc
 50
346.076782
 51
91.066075
  0
ARC
  5
89
100
AcDbEntity
  8
BLACK
  6
CONTINUOUS
 62
          15
100
AcDbCircle
 10
-1572.432452699814
 20
-2904.400844298172
 30
0.0
 40
15.151515
100
AcDbArc
 50
166.076782
 51
219.637504
  0
ARC
  5
8A
100
AcDbEntity
  8
BLACK
  6
CONTINUOUS
 62
          15
100
AcDbCircle
 10
-1607.542714699815
 20
-2891.959987298172
 30
0.0
 40
4.545455
100
AcDbArc
 50
37.505353
 51
142.494647
  0
ARC
  5
8B
100
AcDbEntity
  8
BLACK
  6
CONTINUOUS
 62
          15
100
AcDbCircle
 10
-1591.917178699815
 20
-2879.967771298172
 30
0.0
 40
15.151515
100
AcDbArc
 50
217.505353
 51
271.066076
  0
ARC
  5
8C
100
AcDbEntity
  8
BLACK
  6
CONTINUOUS
 62
          15
100
AcDbCircle
 10
-1623.534721699814
 20
-2899.661332298172
 30
0.0
 40
4.545455
100
AcDbArc
 50
88.933925
 51
193.923218
  0
ARC
  5
8D
100
AcDbEntity
  8
BLACK
  6
CONTINUOUS
 62
          15
100
AcDbCircle
 10
-1623.168250699815
 20
-2879.967771298172
 30
0.0
 40
15.151515
100
AcDbArc
 50
268.933924
 51
322.494647
  0
ARC
  5
8E
100
AcDbEntity
  8
BLACK
  6
CONTINUOUS
 62
          15
100
AcDbCircle
 10
-1627.484421699814
 20
-2916.966097298172
 30
0.0
 40
4.545455
100
AcDbArc
 50
140.362496
 51
245.35179
  0
ARC
  5
8F
100
AcDbEntity
  8
BLACK
  6
CONTINUOUS
 62
          15
100
AcDbCircle
 10
-1642.652976699814
 20
-2904.400844298172
 30
0.0
 40
15.151515
100
AcDbArc
 50
320.362496
 51
13.923218
  0
ARC
  5
90
100
AcDbEntity
  8
BLACK
  6
CONTINUOUS
 62
          15
100
AcDbCircle
 10
-1616.417609699814
 20
-2930.843441298172
 30
0.0
 40
4.545455
100
AcDbArc
 50
191.791067
 51
296.780361
  0
ARC
  5
91
100
AcDbEntity
  8
BLACK
  6
CONTINUOUS
 62
          15
100
AcDbCircle
 10
-1635.698958699814
 20
-2934.868387298172
 30
0.0
 40
15.151515
100
AcDbArc
 50
11.791067
 51
65.35179
  0
TEXT
  5
92
100
AcDbEntity
  8
0
  6
CONTINUOUS
 62
          15
100
AcDbText
 10
-1883.934281870039
 20
-3092.195931001878
 30
0.0
 40
3.5
  1
400-270
 41
0.900000010218
  7
GOTHICG
100
AcDbText
  0
ENDSEC
  0
SECTION
  2
OBJECTS
  0
DICTIONARY
  5
19
100
AcDbDictionary
  3
ACAD_GROUP
350
1A
  3
ACAD_MLINESTYLE
350
1B
  0
DICTIONARY
  5
1A
102
{ACAD_REACTORS
330
19
102
}
100
AcDbDictionary
  0
DICTIONARY
  5
1B
102
{ACAD_REACTORS
330
19
102
}
100
AcDbDictionary
  3
STANDARD
350
1C
  0
MLINESTYLE
  5
1C
102
{ACAD_REACTORS
330
1B
102
}
100
AcDbMlineStyle
  2
STANDARD
 70
           0
  3

 62
           0
 51
90.0
 52
90.0
 71
           2
 49
0.5
 62
         256
  6
BYLAYER
 49
-0.5
 62
         256
  6
BYLAYER
  0
ENDSEC
  0
EOF
