  0
SECTION
  2
HEADER
  9
$ACADVER
  1
AC1012
  9
$DWGCODEPAGE
  3
dos850
  9
$INSBASE
 10
0.0
 20
0.0
 30
0.0
  9
$EXTMIN
 10
-1985.699108710761
 20
3666.181845042515
 30
0.0
  9
$EXTMAX
 10
-1751.199108710761
 20
3821.181845042515
 30
0.0
  9
$LIMMIN
 10
-1985.699108710761
 20
3666.181845042515
  9
$LIMMAX
 10
-1751.199108710761
 20
3821.181845042515
  9
$ORTHOMODE
 70
           0
  9
$REGENMODE
 70
           1
  9
$FILLMODE
 70
           1
  9
$QTEXTMODE
 70
           0
  9
$MIRRTEXT
 70
           1
  9
$DRAGMODE
 70
           2
  9
$LTSCALE
 40
5.0
  9
$OSMODE
 70
           0
  9
$ATTMODE
 70
           1
  9
$TEXTSIZE
 40
0.2
  9
$TRACEWID
 40
0.05
  9
$TEXTSTYLE
  7
TXT
  9
$CLAYER
  8
0
  9
$CELTYPE
  6
CONTINUOUS
  9
$CECOLOR
 62
         256
  9
$CELTSCALE
 40
1.0
  9
$DELOBJ
 70
           1
  9
$DISPSILH
 70
           0
  9
$DIMSCALE
 40
1.0
  9
$DIMASZ
 40
3.5
  9
$DIMEXO
 40
0.0625
  9
$DIMDLI
 40
0.38
  9
$DIMRND
 40
0.0
  9
$DIMDLE
 40
0.0
  9
$DIMEXE
 40
0.18
  9
$DIMTP
 40
0.0
  9
$DIMTM
 40
0.0
  9
$DIMTXT
 40
3.5
  9
$DIMCEN
 40
0.09
  9
$DIMTSZ
 40
0.0
  9
$DIMTOL
 70
           0
  9
$DIMLIM
 70
           0
  9
$DIMTIH
 70
           1
  9
$DIMTOH
 70
           1
  9
$DIMSE1
 70
           0
  9
$DIMSE2
 70
           0
  9
$DIMTAD
 70
           0
  9
$DIMZIN
 70
           0
  9
$DIMBLK
  1

  9
$DIMASO
 70
           1
  9
$DIMSHO
 70
           1
  9
$DIMPOST
  1

  9
$DIMAPOST
  1

  9
$DIMALT
 70
           0
  9
$DIMALTD
 70
           2
  9
$DIMALTF
 40
25.4
  9
$DIMLFAC
 40
1.0
  9
$DIMTOFL
 70
           0
  9
$DIMTVP
 40
0.0
  9
$DIMTIX
 70
           0
  9
$DIMSOXD
 70
           0
  9
$DIMSAH
 70
           0
  9
$DIMBLK1
  1

  9
$DIMBLK2
  1

  9
$DIMSTYLE
  2
STANDARD
  9
$DIMCLRD
 70
           0
  9
$DIMCLRE
 70
           0
  9
$DIMCLRT
 70
           0
  9
$DIMTFAC
 40
1.0
  9
$DIMGAP
 40
0.09
  9
$DIMJUST
 70
           0
  9
$DIMSD1
 70
           0
  9
$DIMSD2
 70
           0
  9
$DIMTOLJ
 70
           1
  9
$DIMTZIN
 70
           0
  9
$DIMALTZ
 70
           0
  9
$DIMALTTZ
 70
           0
  9
$DIMFIT
 70
           3
  9
$DIMUPT
 70
           0
  9
$DIMUNIT
 70
           2
  9
$DIMDEC
 70
           4
  9
$DIMTDEC
 70
           4
  9
$DIMALTU
 70
           2
  9
$DIMALTTD
 70
           2
  9
$DIMTXSTY
  7
TXT
  9
$DIMAUNIT
 70
           0
  9
$LUNITS
 70
           2
  9
$LUPREC
 70
           2
  9
$SKETCHINC
 40
0.1
  9
$FILLETRAD
 40
0.0
  9
$AUNITS
 70
           0
  9
$AUPREC
 70
           2
  9
$MENU
  1
acad
  9
$ELEVATION
 40
0.0
  9
$PELEVATION
 40
0.0
  9
$THICKNESS
 40
0.0
  9
$LIMCHECK
 70
           0
  9
$BLIPMODE
 70
           1
  9
$CHAMFERA
 40
0.0
  9
$CHAMFERB
 40
0.0
  9
$CHAMFERC
 40
0.0
  9
$CHAMFERD
 40
0.0
  9
$SKPOLY
 70
           0
  9
$TDCREATE
 40
0.000000000
  9
$TDUPDATE
 40
0.000000000
  9
$TDINDWG
 40
0.0000000000
  9
$TDUSRTIMER
 40
0.0000000000
  9
$USRTIMER
 70
           1
  9
$ANGBASE
 50
0.0
  9
$ANGDIR
 70
           0
  9
$PDMODE
 70
           2
  9
$PDSIZE
 40
0.5
  9
$PLINEWID
 40
0.0
  9
$COORDS
 70
           0
  9
$SPLFRAME
 70
           0
  9
$SPLINETYPE
 70
           6
  9
$SPLINESEGS
 70
           8
  9
$ATTDIA
 70
           0
  9
$ATTREQ
 70
           1
  9
$HANDLING
 70
           1
  9
$HANDSEED
  5
9A
  9
$SURFTAB1
 70
           6
  9
$SURFTAB2
 70
           6
  9
$SURFTYPE
 70
           6
  9
$SURFU
 70
           6
  9
$SURFV
 70
           6
  9
$UCSNAME
  2

  9
$UCSORG
 10
0.0
 20
0.0
 30
0.0
  9
$UCSXDIR
 10
1.0
 20
0.0
 30
0.0
  9
$UCSYDIR
 10
0.0
 20
1.0
 30
0.0
  9
$PUCSNAME
  2

  9
$PUCSORG
 10
0.0
 20
0.0
 30
0.0
  9
$PUCSXDIR
 10
1.0
 20
0.0
 30
0.0
  9
$PUCSYDIR
 10
0.0
 20
1.0
 30
0.0
  9
$USERI1
 70
           0
  9
$USERI2
 70
           0
  9
$USERI3
 70
           0
  9
$USERI4
 70
           0
  9
$USERI5
 70
           0
  9
$USERR1
 40
0.0
  9
$USERR2
 40
0.0
  9
$USERR3
 40
0.0
  9
$USERR4
 40
0.0
  9
$USERR5
 40
0.0
  9
$WORLDVIEW
 70
           1
  9
$SHADEDGE
 70
           3
  9
$SHADEDIF
 70
          70
  9
$TILEMODE
 70
           1
  9
$MAXACTVP
 70
          16
  9
$PINSBASE
 10
0.0
 20
0.0
 30
0.0
  9
$PLIMCHECK
 70
           0
  9
$PEXTMIN
 10
1.000000000000E+20
 20
1.000000000000E+20
 30
1.000000000000E+20
  9
$PEXTMAX
 10
-1.000000000000E+20
 20
-1.000000000000E+20
 30
-1.000000000000E+20
  9
$PLIMMIN
 10
0.0
 20
0.0
  9
$PLIMMAX
 10
12.0
 20
9.0
  9
$UNITMODE
 70
           0
  9
$VISRETAIN
 70
           0
  9
$PLINEGEN
 70
           1
  9
$PSLTSCALE
 70
           0
  9
$TREEDEPTH
 70
        3020
  9
$PICKSTYLE
 70
           1
  9
$CMLSTYLE
  2
STANDARD
  9
$CMLJUST
 70
           0
  9
$CMLSCALE
 40
1.0
  9
$SAVEIMAGES
 70
           0
  0
ENDSEC
  0
SECTION
  2
CLASSES
  0
CLASS
  1
LWPOLYLINE
  2
AcDbPolyline
  3
"AutoCAD"
 90
        0
280
           0
281
           1
  0
CLASS
  1
IMAGE
  2
AcDbRasterImage
  3
ISM
 90
      127
280
           0
281
           1
  0
CLASS
  1
OLE2FRAME
  2
AcDbOle2Frame
  3
""
 90
        0
280
           0
281
           1
  0
CLASS
  1
HATCH
  2
AcDbHatch
  3
"ACAD_SEDONA"
 90
        0
280
           0
281
           1
  0
CLASS
  1
DICTIONARYVAR
  2
AcDbDictionaryVar
  3
"AutoCAD"
 90
        0
280
           0
281
           0
  0
CLASS
  1
RASTERVARIABLES
  2
AcDbRasterVariables
  3
ISM
 90
        0
280
           0
281
           0
  0
CLASS
  1
IMAGEDEF
  2
AcDbRasterImageDef
  3
ISM
 90
        0
280
           0
281
           0
  0
CLASS
  1
IMAGEDEF_REACTOR
  2
AcDbRasterImageDefReactor
  3
ISM
 90
        1
280
           0
281
           0
  0
CLASS
  1
IDBUFFER
  2
AcDbIdBuffer
  3
"Acad"
 90
        0
280
           0
281
           0
  0
CLASS
  1
SPATIAL_FILTER
  2
AcDbSpatialFilter
  3
"Acad"
 90
        0
280
           0
281
           0
  0
CLASS
  1
XRECORD
  2
AcDbXrecord
  3
"<Built In>"
 90
        0
280
           0
281
           0
  0
ENDSEC
  0
SECTION
  2
TABLES
  0
TABLE
  2
VPORT
  5
7
100
AcDbSymbolTable
 70
           1
  0
VPORT
  5
15
100
AcDbSymbolTableRecord
100
AcDbViewportTableRecord
  2
*ACTIVE
 70
           0
 10
0.0
 20
0.0
 11
1.0
 21
1.0
 12
6.591288
 22
4.579184
 13
0.0
 23
0.0
 14
1.0
 24
1.0
 15
0.0
 25
0.0
 16
0.0
 26
0.0
 36
1.0
 17
0.0
 27
0.0
 37
0.0
 40
9.158369
 41
0.688564
 42
50.0
 43
0.0
 44
0.0
 50
0.0
 51
0.0
 71
           0
 72
         100
 73
           1
 74
           1
 75
           0
 76
           0
 77
           0
 78
           0
  0
ENDTAB
  0
TABLE
  2
LTYPE
  5
4
100
AcDbSymbolTable
 70
           5
  0
LTYPE
  5
11
100
AcDbSymbolTableRecord
100
AcDbLinetypeTableRecord
  2
BYBLOCK
 70
           0
  3

 72
          65
 73
           0
 40
0.0
  0
LTYPE
  5
12
100
AcDbSymbolTableRecord
100
AcDbLinetypeTableRecord
  2
BYLAYER
 70
           0
  3

 72
          65
 73
           0
 40
0.0
  0
LTYPE
  5
13
100
AcDbSymbolTableRecord
100
AcDbLinetypeTableRecord
  2
CONTINUOUS
 70
           0
  3
Solid line
 72
          65
 73
           0
 40
0.0
  0
LTYPE
  5
1D
100
AcDbSymbolTableRecord
100
AcDbLinetypeTableRecord
  2
GESTRICHELT
 70
           0
  3

 72
          65
 73
           2
 40
0.75
 49
0.5
 74
           0
 49
-0.25
 74
           0
  0
LTYPE
  5
1E
100
AcDbSymbolTableRecord
100
AcDbLinetypeTableRecord
  2
STRICHPUNKT
 70
           0
  3

 72
          65
 73
           4
 40
1.0
 49
0.5
 74
           0
 49
-0.25
 74
           0
 49
0.0
 74
           0
 49
-0.25
 74
           0
  0
ENDTAB
  0
TABLE
  2
LAYER
  5
2
100
AcDbSymbolTable
 70
           3
  0
LAYER
  5
14
100
AcDbSymbolTableRecord
100
AcDbLayerTableRecord
  2
0
 70
           0
 62
           7
  6
CONTINUOUS
  0
LAYER
  5
20
100
AcDbSymbolTableRecord
100
AcDbLayerTableRecord
  2
WHITE
 70
           0
 62
           7
  6
CONTINUOUS
  0
LAYER
  5
21
100
AcDbSymbolTableRecord
100
AcDbLayerTableRecord
  2
YELLOW
 70
           0
 62
           7
  6
CONTINUOUS
  0
ENDTAB
  0
TABLE
  2
STYLE
  5
3
100
AcDbSymbolTable
 70
           2
  0
STYLE
  5
17
100
AcDbSymbolTableRecord
100
AcDbTextStyleTableRecord
  2
TXT
 70
           0
 40
3.5
 41
1.0
 50
0.0
 71
           0
 42
3.5
  3
TXT
  4

  0
STYLE
  5
1F
100
AcDbSymbolTableRecord
100
AcDbTextStyleTableRecord
  2
GOTHICG
 70
           0
 40
3.5
 41
1.0
 50
0.0
 71
           0
 42
3.5
  3
GOTHICG
  4

  0
ENDTAB
  0
TABLE
  2
VIEW
  5
5
100
AcDbSymbolTable
 70
           0
  0
ENDTAB
  0
TABLE
  2
UCS
  5
6
100
AcDbSymbolTable
 70
           0
  0
ENDTAB
  0
TABLE
  2
APPID
  5
8
100
AcDbSymbolTable
 70
           2
  0
APPID
  5
16
100
AcDbSymbolTableRecord
100
AcDbRegAppTableRecord
  2
ACAD
 70
           0
  0
APPID
  5
22
100
AcDbSymbolTableRecord
100
AcDbRegAppTableRecord
  2
MegaCADPntStyle
 70
           0
  0
ENDTAB
  0
TABLE
  2
DIMSTYLE
  5
9
100
AcDbSymbolTable
 70
           1
  0
DIMSTYLE
105
18
100
AcDbSymbolTableRecord
100
AcDbDimStyleTableRecord
  2
STANDARD
 70
           0
  3

  4

  5

  6

  7

 40
1.0
 41
0.18
 42
0.0625
 43
0.38
 44
0.18
 45
0.0
 46
0.0
 47
0.0
 48
0.0
140
0.18
141
0.09
142
0.0
143
25.4
144
1.0
145
0.0
146
1.0
147
0.09
 71
           0
 72
           0
 73
           1
 74
           1
 75
           0
 76
           0
 77
           0
 78
           0
170
           0
171
           2
172
           0
173
           0
174
           0
175
           0
176
           0
177
           0
178
           0
270
           2
271
           4
272
           4
273
           2
274
           2
340
17
275
           0
280
           0
281
           0
282
           0
283
           1
284
           0
285
           0
286
           0
287
           0
288
           0
  0
ENDTAB
  0
TABLE
  2
BLOCK_RECORD
  5
1
100
AcDbSymbolTable
 70
           1
  0
BLOCK_RECORD
  5
A
100
AcDbSymbolTableRecord
100
AcDbBlockTableRecord
  2
*MODEL_SPACE
  0
BLOCK_RECORD
  5
B
100
AcDbSymbolTableRecord
100
AcDbBlockTableRecord
  2
*PAPER_SPACE
  0
BLOCK_RECORD
  5
23
100
AcDbSymbolTableRecord
100
AcDbBlockTableRecord
  2
ELIPPSE
  0
ENDTAB
  0
ENDSEC
  0
SECTION
  2
BLOCKS
  0
BLOCK
  5
D
100
AcDbEntity
  8
0
100
AcDbBlockBegin
  2
*MODEL_SPACE
 70
           0
 10
0.0
 20
0.0
 30
0.0
  3
*MODEL_SPACE
  1

  0
ENDBLK
  5
E
100
AcDbEntity
  8
0
100
AcDbBlockEnd
  0
BLOCK
  5
F
100
AcDbEntity
 67
           1
  8
0
100
AcDbBlockBegin
  2
*PAPER_SPACE
 70
           0
 10
0.0
 20
0.0
 30
0.0
  3
*PAPER_SPACE
  1

  0
ENDBLK
  5
10
100
AcDbEntity
 67
           1
  8
0
100
AcDbBlockEnd
  0
BLOCK
  5
95
100
AcDbEntity
  8
0
100
AcDbBlockBegin
  2
ELIPPSE
 70
          64
 10
0.0
 20
0.0
 30
0.0
  3
ELIPPSE
  1

  0
CIRCLE
  5
96
100
AcDbEntity
  8
0
  6
BYBLOCK
 62
           0
100
AcDbCircle
 10
0.0
 20
0.0
 30
0.0
 40
1.0
  0
ENDBLK
  5
97
100
AcDbEntity
  8
0
  6
BYBLOCK
 62
           0
100
AcDbBlockEnd
  0
ENDSEC
  0
SECTION
  2
ENTITIES
  0
LINE
  5
24
100
AcDbEntity
  8
0
  6
GESTRICHELT
 62
          15
100
AcDbLine
 10
-1938.763181649458
 20
3816.181845042515
 30
0.0
 11
-1936.699108710761
 21
3816.181845042515
 31
0.0
  0
LINE
  5
25
100
AcDbEntity
  8
0
  6
CONTINUOUS
 62
          15
100
AcDbLine
 10
-1942.707927389163
 20
3816.181845042515
 30
0.0
 11
-1938.763181649458
 21
3816.181845042515
 31
0.0
  0
LINE
  5
26
100
AcDbEntity
  8
0
  6
GESTRICHELT
 62
          15
100
AcDbLine
 10
-1975.199108710761
 20
3816.181845042515
 30
0.0
 11
-1942.707927389163
 21
3816.181845042515
 31
0.0
  0
LINE
  5
27
100
AcDbEntity
  8
0
  6
CONTINUOUS
 62
          15
100
AcDbLine
 10
-1985.699108710761
 20
3816.181845042515
 30
0.0
 11
-1975.199108710761
 21
3816.181845042515
 31
0.0
  0
LINE
  5
28
100
AcDbEntity
  8
0
  6
CONTINUOUS
 62
          15
100
AcDbLine
 10
-1936.699108710761
 20
3727.162985074126
 30
0.0
 11
-1936.699108710761
 21
3666.181845042515
 31
0.0
  0
LINE
  5
29
100
AcDbEntity
  8
0
  6
GESTRICHELT
 62
          15
100
AcDbLine
 10
-1936.699108710761
 20
3786.480851654139
 30
0.0
 11
-1936.699108710761
 21
3727.162985074126
 31
0.0
  0
LINE
  5
2A
100
AcDbEntity
  8
0
  6
CONTINUOUS
 62
          15
100
AcDbLine
 10
-1936.699108710761
 20
3794.304344983689
 30
0.0
 11
-1936.699108710761
 21
3786.480851654139
 31
0.0
  0
LINE
  5
2B
100
AcDbEntity
  8
0
  6
GESTRICHELT
 62
          15
100
AcDbLine
 10
-1936.699108710761
 20
3816.181845042515
 30
0.0
 11
-1936.699108710761
 21
3794.304344983689
 31
0.0
  0
LINE
  5
2C
100
AcDbEntity
  8
0
  6
CONTINUOUS
 62
          15
100
AcDbLine
 10
-1936.699108710761
 20
3666.181845042515
 30
0.0
 11
-1985.699108710761
 21
3666.181845042515
 31
0.0
  0
LINE
  5
2D
100
AcDbEntity
  8
0
  6
CONTINUOUS
 62
          15
100
AcDbLine
 10
-1985.699108710761
 20
3666.181845042515
 30
0.0
 11
-1985.699108710761
 21
3816.181845042515
 31
0.0
  0
LINE
  5
2E
100
AcDbEntity
  8
0
  6
STRICHPUNKT
 62
          15
100
AcDbLine
 10
-1961.199108710761
 20
3816.181845042515
 30
0.0
 11
-1961.199108710761
 21
3666.181845042515
 31
0.0
  0
LINE
  5
2F
100
AcDbEntity
  8
0
  6
GESTRICHELT
 62
          15
100
AcDbLine
 10
-1985.699108710761
 20
3741.181845042515
 30
0.0
 11
-1936.699108710761
 21
3741.181845042515
 31
0.0
  0
ARC
  5
30
100
AcDbEntity
  8
WHITE
  6
CONTINUOUS
 62
          15
100
AcDbCircle
 10
-1961.199108710761
 20
3741.181845042515
 30
0.0
 40
80.0
100
AcDbArc
 50
77.453443
 51
87.655957
  0
LINE
  5
31
100
AcDbEntity
  8
WHITE
  6
CONTINUOUS
 62
          15
100
AcDbLine
 10
-1957.927120710761
 20
3821.114905042515
 30
0.0
 11
-1961.199108710761
 21
3816.181845042515
 31
0.0
  0
LINE
  5
32
100
AcDbEntity
  8
WHITE
  6
CONTINUOUS
 62
          15
100
AcDbLine
 10
-1961.199108710761
 20
3816.181845042515
 30
0.0
 11
-1964.623699710761
 21
3821.108511042515
 31
0.0
  0
LINE
  5
33
100
AcDbEntity
  8
WHITE
  6
CONTINUOUS
 62
          15
100
AcDbLine
 10
-1964.623699710761
 20
3821.108511042515
 30
0.0
 11
-1970.199077710761
 21
3821.181845042515
 31
0.0
  0
ARC
  5
34
100
AcDbEntity
  8
WHITE
  6
CONTINUOUS
 62
          15
100
AcDbCircle
 10
-1970.199108710761
 20
3816.181845042515
 30
0.0
 40
5.0
100
AcDbArc
 50
89.999645
 51
180.0
  0
LINE
  5
35
100
AcDbEntity
  8
WHITE
  6
CONTINUOUS
 62
          15
100
AcDbLine
 10
-1975.199108710761
 20
3816.181845042515
 30
0.0
 11
-1975.199108710761
 21
3755.812719930914
 31
0.0
  0
LINE
  5
36
100
AcDbEntity
  8
WHITE
  6
CONTINUOUS
 62
          15
100
AcDbLine
 10
-1903.753552944981
 20
3727.162945248279
 30
0.0
 11
-1886.211284710761
 21
3727.162924042515
 31
0.0
  0
LINE
  5
37
100
AcDbEntity
  8
WHITE
  6
GESTRICHELT
 62
          15
100
AcDbLine
 10
-1908.644665731066
 20
3727.162951160843
 30
0.0
 11
-1903.753552944981
 21
3727.162945248279
 31
0.0
  0
LINE
  5
38
100
AcDbEntity
  8
WHITE
  6
CONTINUOUS
 62
          15
100
AcDbLine
 10
-1946.586292408161
 20
3727.162997026132
 30
0.0
 11
-1908.644665731066
 21
3727.162951160843
 31
0.0
  0
ARC
  5
39
100
AcDbEntity
  8
WHITE
  6
GESTRICHELT
 62
          15
100
AcDbCircle
 10
-1886.211284710761
 20
3732.162924042515
 30
0.0
 40
5.0
100
AcDbArc
 50
307.229757705782
 51
359.922714999999
  0
ARC
  5
3A
100
AcDbEntity
  8
WHITE
  6
CONTINUOUS
 62
          15
100
AcDbCircle
 10
-1886.211284710761
 20
3732.162924042515
 30
0.0
 40
5.0
100
AcDbArc
 50
269.999999999999
 51
307.229757705782
  0
LINE
  5
3B
100
AcDbEntity
  8
WHITE
  6
CONTINUOUS
 62
          15
100
AcDbLine
 10
-1881.205315188471
 20
3736.583537866468
 30
0.0
 11
-1881.203594710761
 21
3737.858480042515
 31
0.0
  0
LINE
  5
3C
100
AcDbEntity
  8
WHITE
  6
GESTRICHELT
 62
          15
100
AcDbLine
 10
-1881.211289710761
 20
3732.156180042515
 30
0.0
 11
-1881.205315188471
 21
3736.583537866468
 31
0.0
  0
LINE
  5
3D
100
AcDbEntity
  8
WHITE
  6
CONTINUOUS
 62
          15
100
AcDbLine
 10
-1881.203594710761
 20
3737.858480042515
 30
0.0
 11
-1886.199108710761
 21
3741.181845042515
 31
0.0
  0
LINE
  5
3E
100
AcDbEntity
  8
WHITE
  6
CONTINUOUS
 62
          15
100
AcDbLine
 10
-1886.199108710761
 20
3741.181845042515
 30
0.0
 11
-1881.272472710761
 21
3744.606434042515
 31
0.0
  0
ARC
  5
3F
100
AcDbEntity
  8
WHITE
  6
CONTINUOUS
 62
          15
100
AcDbCircle
 10
-1961.199108710761
 20
3741.181845042515
 30
0.0
 40
79.999969
100
AcDbArc
 50
9.352038714008
 51
12.546536
  0
ARC
  5
40
100
AcDbEntity
  8
WHITE
  6
GESTRICHELT
 62
          15
100
AcDbCircle
 10
-1961.199108710761
 20
3741.181845042515
 30
0.0
 40
79.999969
100
AcDbArc
 50
3.319882520451
 51
9.352038714008
  0
ARC
  5
41
100
AcDbEntity
  8
WHITE
  6
CONTINUOUS
 62
          15
100
AcDbCircle
 10
-1961.199108710761
 20
3741.181845042515
 30
0.0
 40
79.999969
100
AcDbArc
 50
2.453432
 51
3.319882520451
  0
LINE
  5
42
100
AcDbEntity
  8
WHITE
  6
CONTINUOUS
 62
          15
100
AcDbLine
 10
-1883.109547710761
 20
3758.560438042515
 30
0.0
 11
-1888.754680710761
 21
3760.593252042515
 31
0.0
  0
LINE
  5
43
100
AcDbEntity
  8
WHITE
  6
CONTINUOUS
 62
          15
100
AcDbLine
 10
-1888.754680710761
 20
3760.593252042515
 30
0.0
 11
-1884.882216710761
 21
3765.176260042515
 31
0.0
  0
ARC
  5
44
100
AcDbEntity
  8
WHITE
  6
CONTINUOUS
 62
          15
100
AcDbCircle
 10
-1961.199108710761
 20
3741.181845042515
 30
0.0
 40
80.0
100
AcDbArc
 50
17.45341
 51
27.547062
  0
LINE
  5
45
100
AcDbEntity
  8
WHITE
  6
CONTINUOUS
 62
          15
100
AcDbLine
 10
-1890.268607710761
 20
3778.180008042515
 30
0.0
 11
-1896.247204710761
 21
3778.681845042515
 31
0.0
  0
LINE
  5
46
100
AcDbEntity
  8
WHITE
  6
CONTINUOUS
 62
          15
100
AcDbLine
 10
-1896.247204710761
 20
3778.681845042515
 30
0.0
 11
-1893.692499710761
 21
3784.110364042515
 31
0.0
  0
ARC
  5
47
100
AcDbEntity
  8
WHITE
  6
CONTINUOUS
 62
          15
100
AcDbCircle
 10
-1961.199108710761
 20
3741.181845042515
 30
0.0
 40
80.0
100
AcDbArc
 50
32.452925
 51
42.546549
  0
LINE
  5
48
100
AcDbEntity
  8
WHITE
  6
CONTINUOUS
 62
          15
100
AcDbLine
 10
-1902.260850710761
 20
3795.276963042515
 30
0.0
 11
-1908.166088710761
 21
3794.214834042515
 31
0.0
  0
LINE
  5
49
100
AcDbEntity
  8
WHITE
  6
CONTINUOUS
 62
          15
100
AcDbLine
 10
-1908.166088710761
 20
3794.214834042515
 30
0.0
 11
-1907.103958710761
 21
3800.120074042515
 31
0.0
  0
ARC
  5
4A
100
AcDbEntity
  8
WHITE
  6
CONTINUOUS
 62
          15
100
AcDbCircle
 10
-1961.199108710761
 20
3741.181845042515
 30
0.0
 40
80.0
100
AcDbArc
 50
47.45342
 51
57.547075
  0
LINE
  5
4B
100
AcDbEntity
  8
WHITE
  6
CONTINUOUS
 62
          15
100
AcDbLine
 10
-1918.270589710761
 20
3808.688454042515
 30
0.0
 11
-1923.699108710761
 21
3806.133749042515
 31
0.0
  0
LINE
  5
4C
100
AcDbEntity
  8
WHITE
  6
CONTINUOUS
 62
          15
100
AcDbLine
 10
-1923.699108710761
 20
3806.133749042515
 30
0.0
 11
-1924.200945710761
 21
3812.112346042515
 31
0.0
  0
ARC
  5
4D
100
AcDbEntity
  8
WHITE
  6
CONTINUOUS
 62
          15
100
AcDbCircle
 10
-1961.199108710761
 20
3741.181845042515
 30
0.0
 40
80.0
100
AcDbArc
 50
62.452938
 51
72.546569
  0
LINE
  5
4E
100
AcDbEntity
  8
WHITE
  6
CONTINUOUS
 62
          15
100
AcDbLine
 10
-1937.204665710761
 20
3817.498729042515
 30
0.0
 11
-1941.787670710761
 21
3813.626272042515
 31
0.0
  0
LINE
  5
4F
100
AcDbEntity
  8
WHITE
  6
CONTINUOUS
 62
          15
100
AcDbLine
 10
-1941.787670710761
 20
3813.626272042515
 30
0.0
 11
-1943.820480710761
 21
3819.271430042515
 31
0.0
  0
LINE
  5
50
100
AcDbEntity
  8
WHITE
  6
GESTRICHELT
 62
          15
100
AcDbLine
 10
-1902.699108710761
 20
3741.181845042515
 30
0.0
 11
-1902.699108710761
 21
3737.681845042515
 31
0.0
  0
LINE
  5
51
100
AcDbEntity
  8
WHITE
  6
GESTRICHELT
 62
          15
100
AcDbLine
 10
-1902.699108710761
 20
3737.681845042515
 30
0.0
 11
-1909.699108710761
 21
3737.681845042515
 31
0.0
  0
LINE
  5
52
100
AcDbEntity
  8
WHITE
  6
CONTINUOUS
 62
          15
100
AcDbLine
 10
-1909.699108710761
 20
3737.681845042515
 30
0.0
 11
-1909.699108710761
 21
3741.181845042515
 31
0.0
  0
ARC
  5
53
100
AcDbEntity
  8
WHITE
  6
CONTINUOUS
 62
          15
100
AcDbCircle
 10
-1961.199108710761
 20
3741.181845042515
 30
0.0
 40
51.5
100
AcDbArc
 50
14.621187068285
 51
90.0
  0
ARC
  5
54
100
AcDbEntity
  8
WHITE
  6
GESTRICHELT
 62
          15
100
AcDbCircle
 10
-1961.199108710761
 20
3741.181845042515
 30
0.0
 40
51.5
100
AcDbArc
 50
0.0
 51
14.621187068285
  0
LINE
  5
55
100
AcDbEntity
  8
WHITE
  6
CONTINUOUS
 62
          15
100
AcDbLine
 10
-1961.199108710761
 20
3792.681845042515
 30
0.0
 11
-1964.699108710761
 21
3792.681845042515
 31
0.0
  0
LINE
  5
56
100
AcDbEntity
  8
WHITE
  6
CONTINUOUS
 62
          15
100
AcDbLine
 10
-1964.699108710761
 20
3792.681845042515
 30
0.0
 11
-1964.699108710761
 21
3799.681845042515
 31
0.0
  0
LINE
  5
57
100
AcDbEntity
  8
WHITE
  6
CONTINUOUS
 62
          15
100
AcDbLine
 10
-1964.699108710761
 20
3799.681845042515
 30
0.0
 11
-1961.199108710761
 21
3799.681845042515
 31
0.0
  0
ARC
  5
58
100
AcDbEntity
  8
WHITE
  6
CONTINUOUS
 62
          15
100
AcDbCircle
 10
-1961.199108710761
 20
3741.181845042515
 30
0.0
 40
58.5
100
AcDbArc
 50
15.445489994148
 51
90.0
  0
ARC
  5
59
100
AcDbEntity
  8
WHITE
  6
GESTRICHELT
 62
          15
100
AcDbCircle
 10
-1961.199108710761
 20
3741.181845042515
 30
0.0
 40
58.5
100
AcDbArc
 50
0.0
 51
15.445489994148
  0
LINE
  5
5A
100
AcDbEntity
  8
WHITE
  6
CONTINUOUS
 62
          15
100
AcDbLine
 10
-1961.938688710761
 20
3786.508801042515
 30
0.0
 11
-1954.438688710761
 21
3771.508801042515
 31
0.0
  0
LINE
  5
5B
100
AcDbEntity
  8
WHITE
  6
CONTINUOUS
 62
          15
100
AcDbLine
 10
-1954.438688710761
 20
3771.508801042515
 30
0.0
 11
-1957.792790710761
 21
3771.508801042515
 31
0.0
  0
LINE
  5
5C
100
AcDbEntity
  8
WHITE
  6
CONTINUOUS
 62
          15
100
AcDbLine
 10
-1957.792790710761
 20
3771.508801042515
 30
0.0
 11
-1959.330657710761
 21
3774.584536042515
 31
0.0
  0
LINE
  5
5D
100
AcDbEntity
  8
WHITE
  6
CONTINUOUS
 62
          15
100
AcDbLine
 10
-1959.330657710761
 20
3774.584536042515
 30
0.0
 11
-1964.546719710761
 21
3774.584536042515
 31
0.0
  0
LINE
  5
5E
100
AcDbEntity
  8
WHITE
  6
CONTINUOUS
 62
          15
100
AcDbLine
 10
-1964.546719710761
 20
3774.584536042515
 30
0.0
 11
-1966.084586710761
 21
3771.508801042515
 31
0.0
  0
LINE
  5
5F
100
AcDbEntity
  8
WHITE
  6
CONTINUOUS
 62
          15
100
AcDbLine
 10
-1966.084586710761
 20
3771.508801042515
 30
0.0
 11
-1969.438688710761
 21
3771.508801042515
 31
0.0
  0
LINE
  5
60
100
AcDbEntity
  8
WHITE
  6
CONTINUOUS
 62
          15
100
AcDbLine
 10
-1969.438688710761
 20
3771.508801042515
 30
0.0
 11
-1961.938688710761
 21
3786.508801042515
 31
0.0
  0
LINE
  5
61
100
AcDbEntity
  8
WHITE
  6
GESTRICHELT
 62
          15
100
AcDbLine
 10
-1926.731345304735
 20
3731.736029052298
 30
0.0
 11
-1916.731345304735
 21
3731.736029052298
 31
0.0
  0
LINE
  5
62
100
AcDbEntity
  8
WHITE
  6
GESTRICHELT
 62
          15
100
AcDbLine
 10
-1916.731345304735
 20
3731.736029052298
 30
0.0
 11
-1916.731345304735
 21
3734.736029052298
 31
0.0
  0
LINE
  5
63
100
AcDbEntity
  8
WHITE
  6
GESTRICHELT
 62
          15
100
AcDbLine
 10
-1916.731345304735
 20
3734.736029052298
 30
0.0
 11
-1921.430126336157
 21
3734.736029052298
 31
0.0
  0
LINE
  5
64
100
AcDbEntity
  8
WHITE
  6
GESTRICHELT
 62
          15
100
AcDbLine
 10
-1916.731345304735
 20
3742.236029052298
 30
0.0
 11
-1916.731345304735
 21
3746.736029052298
 31
0.0
  0
LINE
  5
65
100
AcDbEntity
  8
WHITE
  6
GESTRICHELT
 62
          15
100
AcDbLine
 10
-1916.731345304735
 20
3746.736029052298
 30
0.0
 11
-1926.731345304735
 21
3746.736029052298
 31
0.0
  0
LINE
  5
66
100
AcDbEntity
  8
WHITE
  6
GESTRICHELT
 62
          15
100
AcDbLine
 10
-1926.731345304735
 20
3743.736029052298
 30
0.0
 11
-1921.736221179051
 21
3743.736029052298
 31
0.0
  0
LINE
  5
67
100
AcDbEntity
  8
0
  6
GESTRICHELT
 62
          15
100
AcDbLine
 10
-1926.731345304735
 20
3746.736029052298
 30
0.0
 11
-1926.731345304735
 21
3743.736029052298
 31
0.0
  0
LINE
  5
68
100
AcDbEntity
  8
0
  6
GESTRICHELT
 62
          15
100
AcDbLine
 10
-1926.731345304735
 20
3735.524355413538
 30
0.0
 11
-1926.731345304735
 21
3731.736029052298
 31
0.0
  0
LINE
  5
69
100
AcDbEntity
  8
0
  6
GESTRICHELT
 62
          15
100
AcDbLine
 10
-1922.161181604399
 20
3736.418347302658
 30
0.0
 11
-1916.731345304735
 21
3742.236029052298
 31
0.0
  0
LINE
  5
6A
100
AcDbEntity
  8
0
  6
GESTRICHELT
 62
          15
100
AcDbLine
 10
-1926.462400572978
 20
3736.206673663899
 30
0.0
 11
-1921.005165910808
 21
3742.053710801938
 31
0.0
  0
ARC
  5
6B
100
AcDbEntity
  8
0
  6
GESTRICHELT
 62
          15
100
AcDbCircle
 10
-1921.736221179051
 20
3742.736029052298
 30
0.0
 40
1.0
100
AcDbArc
 50
316.974934010881
 51
90.0
  0
ARC
  5
6C
100
AcDbEntity
  8
0
  6
GESTRICHELT
 62
          15
100
AcDbCircle
 10
-1921.430126336157
 20
3735.736029052298
 30
0.0
 40
1.0
100
AcDbArc
 50
136.974934010881
 51
269.999999999999
  0
ARC
  5
6D
100
AcDbEntity
  8
0
  6
GESTRICHELT
 62
          15
100
AcDbCircle
 10
-1925.731345304735
 20
3735.524355413538
 30
0.0
 40
1.0
100
AcDbArc
 50
136.974934010883
 51
180.0
  0
ARC
  5
6E
100
AcDbEntity
  8
0
  6
CONTINUOUS
 62
          15
100
AcDbCircle
 10
-1961.199108710761
 20
3741.181845042515
 30
0.0
 40
15.25
100
AcDbArc
 50
58.480141420116
 51
301.519858579883
  0
ARC
  5
6F
100
AcDbEntity
  8
0
  6
GESTRICHELT
 62
          15
100
AcDbCircle
 10
-1961.199108710761
 20
3741.181845042515
 30
0.0
 40
15.25
100
AcDbArc
 50
301.519858579883
 51
58.480141420116
  0
ARC
  5
70
100
AcDbEntity
  8
0
  6
CONTINUOUS
 62
          15
100
AcDbCircle
 10
-1961.199108710761
 20
3741.181845042515
 30
0.0
 40
20.25
100
AcDbArc
 50
133.73770465381
 51
316.188439304256
  0
LINE
  5
71
100
AcDbEntity
  8
WHITE
  6
CONTINUOUS
 62
          15
100
AcDbLine
 10
-1751.199108710761
 20
3744.181845042515
 30
0.0
 11
-1751.199108710761
 21
3738.181845042515
 31
0.0
  0
ARC
  5
72
100
AcDbEntity
  8
WHITE
  6
CONTINUOUS
 62
          15
100
AcDbCircle
 10
-1761.199108710761
 20
3738.181845042515
 30
0.0
 40
10.0
100
AcDbArc
 50
270.0
 51
0.0
  0
LINE
  5
73
100
AcDbEntity
  8
WHITE
  6
CONTINUOUS
 62
          15
100
AcDbLine
 10
-1908.832831532088
 20
3728.181845042515
 30
0.0
 11
-1961.199108710761
 21
3728.181845042515
 31
0.0
  0
LINE
  5
74
100
AcDbEntity
  8
WHITE
  6
GESTRICHELT
 62
          15
100
AcDbLine
 10
-1903.565385889435
 20
3728.181845042515
 30
0.0
 11
-1908.832831532088
 21
3728.181845042515
 31
0.0
  0
LINE
  5
75
100
AcDbEntity
  8
WHITE
  6
CONTINUOUS
 62
          15
100
AcDbLine
 10
-1761.199108710761
 20
3728.181845042515
 30
0.0
 11
-1903.565385889435
 21
3728.181845042515
 31
0.0
  0
ARC
  5
76
100
AcDbEntity
  8
WHITE
  6
CONTINUOUS
 62
          15
100
AcDbCircle
 10
-1961.199108710761
 20
3741.181845042515
 30
0.0
 40
13.0
100
AcDbArc
 50
90.0
 51
270.0
  0
LINE
  5
77
100
AcDbEntity
  8
WHITE
  6
CONTINUOUS
 62
          15
100
AcDbLine
 10
-1903.565385889435
 20
3754.181845042515
 30
0.0
 11
-1761.199108710761
 21
3754.181845042515
 31
0.0
  0
LINE
  5
78
100
AcDbEntity
  8
WHITE
  6
GESTRICHELT
 62
          15
100
AcDbLine
 10
-1908.832831532088
 20
3754.181845042515
 30
0.0
 11
-1903.565385889435
 21
3754.181845042515
 31
0.0
  0
LINE
  5
79
100
AcDbEntity
  8
WHITE
  6
CONTINUOUS
 62
          15
100
AcDbLine
 10
-1961.199108710761
 20
3754.181845042515
 30
0.0
 11
-1908.832831532088
 21
3754.181845042515
 31
0.0
  0
ARC
  5
7A
100
AcDbEntity
  8
WHITE
  6
CONTINUOUS
 62
          15
100
AcDbCircle
 10
-1761.199108710761
 20
3744.181845042515
 30
0.0
 40
10.0
100
AcDbArc
 50
0.0
 51
90.0
  0
CIRCLE
  5
7B
100
AcDbEntity
  8
WHITE
  6
GESTRICHELT
 62
          15
100
AcDbCircle
 10
-1906.199108710761
 20
3741.181845042515
 30
0.0
 40
4.5
  0
LINE
  5
7C
100
AcDbEntity
  8
YELLOW
  6
CONTINUOUS
 62
           2
100
AcDbLine
 10
-1846.199108710761
 20
3728.181845042515
 30
0.0
 11
-1846.199108710761
 21
3754.181845042515
 31
0.0
  0
LINE
  5
7D
100
AcDbEntity
  8
YELLOW
  6
CONTINUOUS
 62
           2
100
AcDbLine
 10
-1876.199108710761
 20
3728.181845042515
 30
0.0
 11
-1876.199108710761
 21
3754.181845042515
 31
0.0
  0
LINE
  5
7E
100
AcDbEntity
  8
0
  6
CONTINUOUS
 62
          15
100
AcDbLine
 10
-1880.536426252623
 20
3736.232502565577
 30
0.0
 11
-1890.064211067682
 21
3741.232718042515
 31
0.0
  0
LINE
  5
7F
100
AcDbEntity
  8
0
  6
CONTINUOUS
 62
          15
100
AcDbLine
 10
-1890.064211067682
 20
3741.232718042515
 30
0.0
 11
-1880.536426252623
 21
3746.232933519452
 31
0.0
  0
LINE
  5
80
100
AcDbEntity
  8
0
  6
CONTINUOUS
 62
          15
100
AcDbLine
 10
-1879.071728710761
 20
3745.347464042515
 30
0.0
 11
-1879.071728710761
 21
3737.117972042515
 31
0.0
  0
ARC
  5
81
100
AcDbEntity
  8
0
  6
CONTINUOUS
 62
          15
100
AcDbCircle
 10
-1880.071728710761
 20
3737.117972042515
 30
0.0
 40
1.0
100
AcDbArc
 50
242.309350764009
 51
0.0
  0
ARC
  5
82
100
AcDbEntity
  8
0
  6
CONTINUOUS
 62
          15
100
AcDbCircle
 10
-1880.071728710761
 20
3745.347464042515
 30
0.0
 40
1.0
100
AcDbArc
 50
0.0
 51
117.69064923599
  0
CIRCLE
  5
83
100
AcDbEntity
  8
0
  6
CONTINUOUS
 62
          15
100
AcDbCircle
 10
-1961.199108710761
 20
3741.181845042515
 30
0.0
 40
7.25
  0
ARC
  5
84
100
AcDbEntity
  8
WHITE
  6
CONTINUOUS
 62
          15
100
AcDbCircle
 10
-1892.699108710761
 20
3741.181845042515
 30
0.0
 40
2.5
100
AcDbArc
 50
0.0
 51
90.0
  0
ARC
  5
85
100
AcDbEntity
  8
WHITE
  6
CONTINUOUS
 62
          15
100
AcDbCircle
 10
-1888.725098710761
 20
3759.542595042515
 30
0.0
 40
16.351029
100
AcDbArc
 50
227.197686
 51
255.933766
  0
ARC
  5
86
100
AcDbEntity
  8
WHITE
  6
CONTINUOUS
 62
          15
100
AcDbCircle
 10
-1906.199108710761
 20
3754.681845042515
 30
0.0
 40
2.5
100
AcDbArc
 50
0.0
 51
90.0
  0
ARC
  5
87
100
AcDbEntity
  8
WHITE
  6
CONTINUOUS
 62
          15
100
AcDbCircle
 10
-1887.838358710761
 20
3758.655855042515
 30
0.0
 40
16.351029
100
AcDbArc
 50
194.066234
 51
222.802314
  0
ARC
  5
88
100
AcDbEntity
  8
WHITE
  6
CONTINUOUS
 62
          15
100
AcDbCircle
 10
-1924.559858710761
 20
3758.655855042515
 30
0.0
 40
16.351029
100
AcDbArc
 50
317.197686
 51
345.933766
  0
ARC
  5
89
100
AcDbEntity
  8
WHITE
  6
CONTINUOUS
 62
          15
100
AcDbCircle
 10
-1906.199108710761
 20
3754.681845042515
 30
0.0
 40
2.5
100
AcDbArc
 50
90.0
 51
180.0
  0
ARC
  5
8A
100
AcDbEntity
  8
WHITE
  6
CONTINUOUS
 62
          15
100
AcDbCircle
 10
-1923.673118710761
 20
3759.542595042515
 30
0.0
 40
16.351029
100
AcDbArc
 50
284.066234
 51
312.802314
  0
ARC
  5
8B
100
AcDbEntity
  8
WHITE
  6
CONTINUOUS
 62
          15
100
AcDbCircle
 10
-1919.699108710761
 20
3741.181845042515
 30
0.0
 40
2.5
100
AcDbArc
 50
90.0
 51
180.0
  0
ARC
  5
8C
100
AcDbEntity
  8
WHITE
  6
CONTINUOUS
 62
          15
100
AcDbCircle
 10
-1923.673118710761
 20
3722.821095042515
 30
0.0
 40
16.351029
100
AcDbArc
 50
47.197686
 51
75.933766
  0
ARC
  5
8D
100
AcDbEntity
  8
WHITE
  6
CONTINUOUS
 62
          15
100
AcDbCircle
 10
-1919.699108710761
 20
3741.181845042515
 30
0.0
 40
2.5
100
AcDbArc
 50
180.0
 51
270.0
  0
ARC
  5
8E
100
AcDbEntity
  8
WHITE
  6
CONTINUOUS
 62
          15
100
AcDbCircle
 10
-1924.559858710761
 20
3723.707835042515
 30
0.0
 40
16.351029
100
AcDbArc
 50
14.066234
 51
42.802314
  0
ARC
  5
8F
100
AcDbEntity
  8
WHITE
  6
CONTINUOUS
 62
          15
100
AcDbCircle
 10
-1906.199108710761
 20
3727.681845042515
 30
0.0
 40
2.5
100
AcDbArc
 50
180.0
 51
270.0
  0
ARC
  5
90
100
AcDbEntity
  8
WHITE
  6
CONTINUOUS
 62
          15
100
AcDbCircle
 10
-1887.838358710761
 20
3723.707835042515
 30
0.0
 40
16.351029
100
AcDbArc
 50
137.197686
 51
165.933766
  0
ARC
  5
91
100
AcDbEntity
  8
WHITE
  6
CONTINUOUS
 62
          15
100
AcDbCircle
 10
-1906.199108710761
 20
3727.681845042515
 30
0.0
 40
2.5
100
AcDbArc
 50
270.0
 51
0.0
  0
ARC
  5
92
100
AcDbEntity
  8
WHITE
  6
CONTINUOUS
 62
          15
100
AcDbCircle
 10
-1888.725098710761
 20
3722.821095042515
 30
0.0
 40
16.351029
100
AcDbArc
 50
104.066234
 51
132.802314
  0
ARC
  5
93
100
AcDbEntity
  8
WHITE
  6
CONTINUOUS
 62
          15
100
AcDbCircle
 10
-1892.699108710761
 20
3741.181845042515
 30
0.0
 40
2.5
100
AcDbArc
 50
270.0
 51
0.0
  0
TEXT
  5
94
100
AcDbEntity
  8
0
  6
CONTINUOUS
 62
          15
100
AcDbText
 10
-1982.468671946665
 20
3674.249298976967
 30
0.0
 40
3.5
  1
50-270
 41
0.900000010218
  7
GOTHICG
100
AcDbText
  0
ENDSEC
  0
SECTION
  2
OBJECTS
  0
DICTIONARY
  5
19
100
AcDbDictionary
  3
ACAD_GROUP
350
1A
  3
ACAD_MLINESTYLE
350
1B
  0
DICTIONARY
  5
1A
102
{ACAD_REACTORS
330
19
102
}
100
AcDbDictionary
  0
DICTIONARY
  5
1B
102
{ACAD_REACTORS
330
19
102
}
100
AcDbDictionary
  3
STANDARD
350
1C
  0
MLINESTYLE
  5
1C
102
{ACAD_REACTORS
330
1B
102
}
100
AcDbMlineStyle
  2
STANDARD
 70
           0
  3

 62
           0
 51
90.0
 52
90.0
 71
           2
 49
0.5
 62
         256
  6
BYLAYER
 49
-0.5
 62
         256
  6
BYLAYER
  0
ENDSEC
  0
EOF
