  0
SECTION
  2
HEADER
  9
$ACADVER
  1
AC1012
  9
$DWGCODEPAGE
  3
dos850
  9
$INSBASE
 10
0.0
 20
0.0
 30
0.0
  9
$EXTMIN
 10
-1879.264422981389
 20
-6310.294423395514
 30
0.0
  9
$EXTMAX
 10
-1187.264422981389
 20
-5685.294423395514
 30
0.0
  9
$LIMMIN
 10
-1879.264422981389
 20
-6310.294423395514
  9
$LIMMAX
 10
-1187.264422981389
 20
-5685.294423395514
  9
$ORTHOMODE
 70
           0
  9
$REGENMODE
 70
           1
  9
$FILLMODE
 70
           1
  9
$QTEXTMODE
 70
           0
  9
$MIRRTEXT
 70
           1
  9
$DRAGMODE
 70
           2
  9
$LTSCALE
 40
5.0
  9
$OSMODE
 70
           0
  9
$ATTMODE
 70
           1
  9
$TEXTSIZE
 40
0.2
  9
$TRACEWID
 40
0.05
  9
$TEXTSTYLE
  7
TXT
  9
$CLAYER
  8
0
  9
$CELTYPE
  6
CONTINUOUS
  9
$CECOLOR
 62
         256
  9
$CELTSCALE
 40
1.0
  9
$DELOBJ
 70
           1
  9
$DISPSILH
 70
           0
  9
$DIMSCALE
 40
1.0
  9
$DIMASZ
 40
3.5
  9
$DIMEXO
 40
0.0625
  9
$DIMDLI
 40
0.38
  9
$DIMRND
 40
0.0
  9
$DIMDLE
 40
0.0
  9
$DIMEXE
 40
0.18
  9
$DIMTP
 40
0.0
  9
$DIMTM
 40
0.0
  9
$DIMTXT
 40
3.5
  9
$DIMCEN
 40
0.09
  9
$DIMTSZ
 40
0.0
  9
$DIMTOL
 70
           0
  9
$DIMLIM
 70
           0
  9
$DIMTIH
 70
           1
  9
$DIMTOH
 70
           1
  9
$DIMSE1
 70
           0
  9
$DIMSE2
 70
           0
  9
$DIMTAD
 70
           0
  9
$DIMZIN
 70
           0
  9
$DIMBLK
  1

  9
$DIMASO
 70
           1
  9
$DIMSHO
 70
           1
  9
$DIMPOST
  1

  9
$DIMAPOST
  1

  9
$DIMALT
 70
           0
  9
$DIMALTD
 70
           2
  9
$DIMALTF
 40
25.4
  9
$DIMLFAC
 40
1.0
  9
$DIMTOFL
 70
           0
  9
$DIMTVP
 40
0.0
  9
$DIMTIX
 70
           0
  9
$DIMSOXD
 70
           0
  9
$DIMSAH
 70
           0
  9
$DIMBLK1
  1

  9
$DIMBLK2
  1

  9
$DIMSTYLE
  2
STANDARD
  9
$DIMCLRD
 70
           0
  9
$DIMCLRE
 70
           0
  9
$DIMCLRT
 70
           0
  9
$DIMTFAC
 40
1.0
  9
$DIMGAP
 40
0.09
  9
$DIMJUST
 70
           0
  9
$DIMSD1
 70
           0
  9
$DIMSD2
 70
           0
  9
$DIMTOLJ
 70
           1
  9
$DIMTZIN
 70
           0
  9
$DIMALTZ
 70
           0
  9
$DIMALTTZ
 70
           0
  9
$DIMFIT
 70
           3
  9
$DIMUPT
 70
           0
  9
$DIMUNIT
 70
           2
  9
$DIMDEC
 70
           4
  9
$DIMTDEC
 70
           4
  9
$DIMALTU
 70
           2
  9
$DIMALTTD
 70
           2
  9
$DIMTXSTY
  7
TXT
  9
$DIMAUNIT
 70
           0
  9
$LUNITS
 70
           2
  9
$LUPREC
 70
           2
  9
$SKETCHINC
 40
0.1
  9
$FILLETRAD
 40
0.0
  9
$AUNITS
 70
           0
  9
$AUPREC
 70
           2
  9
$MENU
  1
acad
  9
$ELEVATION
 40
0.0
  9
$PELEVATION
 40
0.0
  9
$THICKNESS
 40
0.0
  9
$LIMCHECK
 70
           0
  9
$BLIPMODE
 70
           1
  9
$CHAMFERA
 40
0.0
  9
$CHAMFERB
 40
0.0
  9
$CHAMFERC
 40
0.0
  9
$CHAMFERD
 40
0.0
  9
$SKPOLY
 70
           0
  9
$TDCREATE
 40
0.000000000
  9
$TDUPDATE
 40
0.000000000
  9
$TDINDWG
 40
0.0000000000
  9
$TDUSRTIMER
 40
0.0000000000
  9
$USRTIMER
 70
           1
  9
$ANGBASE
 50
0.0
  9
$ANGDIR
 70
           0
  9
$PDMODE
 70
           2
  9
$PDSIZE
 40
0.5
  9
$PLINEWID
 40
0.0
  9
$COORDS
 70
           0
  9
$SPLFRAME
 70
           0
  9
$SPLINETYPE
 70
           6
  9
$SPLINESEGS
 70
           8
  9
$ATTDIA
 70
           0
  9
$ATTREQ
 70
           1
  9
$HANDLING
 70
           1
  9
$HANDSEED
  5
98
  9
$SURFTAB1
 70
           6
  9
$SURFTAB2
 70
           6
  9
$SURFTYPE
 70
           6
  9
$SURFU
 70
           6
  9
$SURFV
 70
           6
  9
$UCSNAME
  2

  9
$UCSORG
 10
0.0
 20
0.0
 30
0.0
  9
$UCSXDIR
 10
1.0
 20
0.0
 30
0.0
  9
$UCSYDIR
 10
0.0
 20
1.0
 30
0.0
  9
$PUCSNAME
  2

  9
$PUCSORG
 10
0.0
 20
0.0
 30
0.0
  9
$PUCSXDIR
 10
1.0
 20
0.0
 30
0.0
  9
$PUCSYDIR
 10
0.0
 20
1.0
 30
0.0
  9
$USERI1
 70
           0
  9
$USERI2
 70
           0
  9
$USERI3
 70
           0
  9
$USERI4
 70
           0
  9
$USERI5
 70
           0
  9
$USERR1
 40
0.0
  9
$USERR2
 40
0.0
  9
$USERR3
 40
0.0
  9
$USERR4
 40
0.0
  9
$USERR5
 40
0.0
  9
$WORLDVIEW
 70
           1
  9
$SHADEDGE
 70
           3
  9
$SHADEDIF
 70
          70
  9
$TILEMODE
 70
           1
  9
$MAXACTVP
 70
          16
  9
$PINSBASE
 10
0.0
 20
0.0
 30
0.0
  9
$PLIMCHECK
 70
           0
  9
$PEXTMIN
 10
1.000000000000E+20
 20
1.000000000000E+20
 30
1.000000000000E+20
  9
$PEXTMAX
 10
-1.000000000000E+20
 20
-1.000000000000E+20
 30
-1.000000000000E+20
  9
$PLIMMIN
 10
0.0
 20
0.0
  9
$PLIMMAX
 10
12.0
 20
9.0
  9
$UNITMODE
 70
           0
  9
$VISRETAIN
 70
           0
  9
$PLINEGEN
 70
           1
  9
$PSLTSCALE
 70
           0
  9
$TREEDEPTH
 70
        3020
  9
$PICKSTYLE
 70
           1
  9
$CMLSTYLE
  2
STANDARD
  9
$CMLJUST
 70
           0
  9
$CMLSCALE
 40
1.0
  9
$SAVEIMAGES
 70
           0
  0
ENDSEC
  0
SECTION
  2
CLASSES
  0
CLASS
  1
LWPOLYLINE
  2
AcDbPolyline
  3
"AutoCAD"
 90
        0
280
           0
281
           1
  0
CLASS
  1
IMAGE
  2
AcDbRasterImage
  3
ISM
 90
      127
280
           0
281
           1
  0
CLASS
  1
OLE2FRAME
  2
AcDbOle2Frame
  3
""
 90
        0
280
           0
281
           1
  0
CLASS
  1
HATCH
  2
AcDbHatch
  3
"ACAD_SEDONA"
 90
        0
280
           0
281
           1
  0
CLASS
  1
DICTIONARYVAR
  2
AcDbDictionaryVar
  3
"AutoCAD"
 90
        0
280
           0
281
           0
  0
CLASS
  1
RASTERVARIABLES
  2
AcDbRasterVariables
  3
ISM
 90
        0
280
           0
281
           0
  0
CLASS
  1
IMAGEDEF
  2
AcDbRasterImageDef
  3
ISM
 90
        0
280
           0
281
           0
  0
CLASS
  1
IMAGEDEF_REACTOR
  2
AcDbRasterImageDefReactor
  3
ISM
 90
        1
280
           0
281
           0
  0
CLASS
  1
IDBUFFER
  2
AcDbIdBuffer
  3
"Acad"
 90
        0
280
           0
281
           0
  0
CLASS
  1
SPATIAL_FILTER
  2
AcDbSpatialFilter
  3
"Acad"
 90
        0
280
           0
281
           0
  0
CLASS
  1
XRECORD
  2
AcDbXrecord
  3
"<Built In>"
 90
        0
280
           0
281
           0
  0
ENDSEC
  0
SECTION
  2
TABLES
  0
TABLE
  2
VPORT
  5
7
100
AcDbSymbolTable
 70
           1
  0
VPORT
  5
15
100
AcDbSymbolTableRecord
100
AcDbViewportTableRecord
  2
*ACTIVE
 70
           0
 10
0.0
 20
0.0
 11
1.0
 21
1.0
 12
6.591288
 22
4.579184
 13
0.0
 23
0.0
 14
1.0
 24
1.0
 15
0.0
 25
0.0
 16
0.0
 26
0.0
 36
1.0
 17
0.0
 27
0.0
 37
0.0
 40
9.158369
 41
0.688564
 42
50.0
 43
0.0
 44
0.0
 50
0.0
 51
0.0
 71
           0
 72
         100
 73
           1
 74
           1
 75
           0
 76
           0
 77
           0
 78
           0
  0
ENDTAB
  0
TABLE
  2
LTYPE
  5
4
100
AcDbSymbolTable
 70
           5
  0
LTYPE
  5
11
100
AcDbSymbolTableRecord
100
AcDbLinetypeTableRecord
  2
BYBLOCK
 70
           0
  3

 72
          65
 73
           0
 40
0.0
  0
LTYPE
  5
12
100
AcDbSymbolTableRecord
100
AcDbLinetypeTableRecord
  2
BYLAYER
 70
           0
  3

 72
          65
 73
           0
 40
0.0
  0
LTYPE
  5
13
100
AcDbSymbolTableRecord
100
AcDbLinetypeTableRecord
  2
CONTINUOUS
 70
           0
  3
Solid line
 72
          65
 73
           0
 40
0.0
  0
LTYPE
  5
1D
100
AcDbSymbolTableRecord
100
AcDbLinetypeTableRecord
  2
GESTRICHELT
 70
           0
  3

 72
          65
 73
           2
 40
0.75
 49
0.5
 74
           0
 49
-0.25
 74
           0
  0
LTYPE
  5
1E
100
AcDbSymbolTableRecord
100
AcDbLinetypeTableRecord
  2
STRICHPUNKT
 70
           0
  3

 72
          65
 73
           4
 40
1.0
 49
0.5
 74
           0
 49
-0.25
 74
           0
 49
0.0
 74
           0
 49
-0.25
 74
           0
  0
ENDTAB
  0
TABLE
  2
LAYER
  5
2
100
AcDbSymbolTable
 70
           4
  0
LAYER
  5
14
100
AcDbSymbolTableRecord
100
AcDbLayerTableRecord
  2
0
 70
           0
 62
           7
  6
CONTINUOUS
  0
LAYER
  5
20
100
AcDbSymbolTableRecord
100
AcDbLayerTableRecord
  2
BLACK
 70
           0
 62
           7
  6
CONTINUOUS
  0
LAYER
  5
21
100
AcDbSymbolTableRecord
100
AcDbLayerTableRecord
  2
WHITE
 70
           0
 62
           7
  6
CONTINUOUS
  0
LAYER
  5
22
100
AcDbSymbolTableRecord
100
AcDbLayerTableRecord
  2
YELLOW
 70
           0
 62
           7
  6
CONTINUOUS
  0
ENDTAB
  0
TABLE
  2
STYLE
  5
3
100
AcDbSymbolTable
 70
           2
  0
STYLE
  5
17
100
AcDbSymbolTableRecord
100
AcDbTextStyleTableRecord
  2
TXT
 70
           0
 40
3.5
 41
1.0
 50
0.0
 71
           0
 42
3.5
  3
TXT
  4

  0
STYLE
  5
1F
100
AcDbSymbolTableRecord
100
AcDbTextStyleTableRecord
  2
GOTHICG
 70
           0
 40
3.5
 41
1.0
 50
0.0
 71
           0
 42
3.5
  3
GOTHICG
  4

  0
ENDTAB
  0
TABLE
  2
VIEW
  5
5
100
AcDbSymbolTable
 70
           0
  0
ENDTAB
  0
TABLE
  2
UCS
  5
6
100
AcDbSymbolTable
 70
           0
  0
ENDTAB
  0
TABLE
  2
APPID
  5
8
100
AcDbSymbolTable
 70
           2
  0
APPID
  5
16
100
AcDbSymbolTableRecord
100
AcDbRegAppTableRecord
  2
ACAD
 70
           0
  0
APPID
  5
23
100
AcDbSymbolTableRecord
100
AcDbRegAppTableRecord
  2
MegaCADPntStyle
 70
           0
  0
ENDTAB
  0
TABLE
  2
DIMSTYLE
  5
9
100
AcDbSymbolTable
 70
           1
  0
DIMSTYLE
105
18
100
AcDbSymbolTableRecord
100
AcDbDimStyleTableRecord
  2
STANDARD
 70
           0
  3

  4

  5

  6

  7

 40
1.0
 41
0.18
 42
0.0625
 43
0.38
 44
0.18
 45
0.0
 46
0.0
 47
0.0
 48
0.0
140
0.18
141
0.09
142
0.0
143
25.4
144
1.0
145
0.0
146
1.0
147
0.09
 71
           0
 72
           0
 73
           1
 74
           1
 75
           0
 76
           0
 77
           0
 78
           0
170
           0
171
           2
172
           0
173
           0
174
           0
175
           0
176
           0
177
           0
178
           0
270
           2
271
           4
272
           4
273
           2
274
           2
340
17
275
           0
280
           0
281
           0
282
           0
283
           1
284
           0
285
           0
286
           0
287
           0
288
           0
  0
ENDTAB
  0
TABLE
  2
BLOCK_RECORD
  5
1
100
AcDbSymbolTable
 70
           1
  0
BLOCK_RECORD
  5
A
100
AcDbSymbolTableRecord
100
AcDbBlockTableRecord
  2
*MODEL_SPACE
  0
BLOCK_RECORD
  5
B
100
AcDbSymbolTableRecord
100
AcDbBlockTableRecord
  2
*PAPER_SPACE
  0
BLOCK_RECORD
  5
24
100
AcDbSymbolTableRecord
100
AcDbBlockTableRecord
  2
ELIPPSE
  0
ENDTAB
  0
ENDSEC
  0
SECTION
  2
BLOCKS
  0
BLOCK
  5
D
100
AcDbEntity
  8
0
100
AcDbBlockBegin
  2
*MODEL_SPACE
 70
           0
 10
0.0
 20
0.0
 30
0.0
  3
*MODEL_SPACE
  1

  0
ENDBLK
  5
E
100
AcDbEntity
  8
0
100
AcDbBlockEnd
  0
BLOCK
  5
F
100
AcDbEntity
 67
           1
  8
0
100
AcDbBlockBegin
  2
*PAPER_SPACE
 70
           0
 10
0.0
 20
0.0
 30
0.0
  3
*PAPER_SPACE
  1

  0
ENDBLK
  5
10
100
AcDbEntity
 67
           1
  8
0
100
AcDbBlockEnd
  0
BLOCK
  5
93
100
AcDbEntity
  8
0
100
AcDbBlockBegin
  2
ELIPPSE
 70
          64
 10
0.0
 20
0.0
 30
0.0
  3
ELIPPSE
  1

  0
CIRCLE
  5
94
100
AcDbEntity
  8
0
  6
BYBLOCK
 62
           0
100
AcDbCircle
 10
0.0
 20
0.0
 30
0.0
 40
1.0
  0
ENDBLK
  5
95
100
AcDbEntity
  8
0
  6
BYBLOCK
 62
           0
100
AcDbBlockEnd
  0
ENDSEC
  0
SECTION
  2
ENTITIES
  0
LINE
  5
25
100
AcDbEntity
  8
0
  6
CONTINUOUS
 62
          15
100
AcDbLine
 10
-1879.264422981389
 20
-5685.294423395514
 30
0.0
 11
-1245.264422981389
 21
-5685.294423395514
 31
0.0
  0
LINE
  5
26
100
AcDbEntity
  8
0
  6
CONTINUOUS
 62
          15
100
AcDbLine
 10
-1245.264422981389
 20
-6017.794423395514
 30
0.0
 11
-1245.264422981389
 21
-6310.294423395514
 31
0.0
  0
LINE
  5
27
100
AcDbEntity
  8
0
  6
GESTRICHELT
 62
          15
100
AcDbLine
 10
-1245.264422981389
 20
-5977.794423395514
 30
0.0
 11
-1245.264422981389
 21
-6017.794423395514
 31
0.0
  0
LINE
  5
28
100
AcDbEntity
  8
0
  6
CONTINUOUS
 62
          15
100
AcDbLine
 10
-1245.264422981389
 20
-5685.294423395514
 30
0.0
 11
-1245.264422981389
 21
-5977.794423395514
 31
0.0
  0
LINE
  5
29
100
AcDbEntity
  8
0
  6
CONTINUOUS
 62
          15
100
AcDbLine
 10
-1245.264422981389
 20
-6310.294423395514
 30
0.0
 11
-1879.264422981389
 21
-6310.294423395514
 31
0.0
  0
LINE
  5
2A
100
AcDbEntity
  8
0
  6
CONTINUOUS
 62
          15
100
AcDbLine
 10
-1879.264422981389
 20
-6310.294423395514
 30
0.0
 11
-1879.264422981389
 21
-5685.294423395514
 31
0.0
  0
LINE
  5
2B
100
AcDbEntity
  8
0
  6
STRICHPUNKT
 62
          15
100
AcDbLine
 10
-1562.264422981389
 20
-5685.294423395514
 30
0.0
 11
-1562.264422981389
 21
-6310.294423395514
 31
0.0
  0
LINE
  5
2C
100
AcDbEntity
  8
0
  6
GESTRICHELT
 62
          15
100
AcDbLine
 10
-1879.264422981389
 20
-5997.794423395514
 30
0.0
 11
-1245.264422981389
 21
-5997.794423395514
 31
0.0
  0
LINE
  5
2D
100
AcDbEntity
  8
WHITE
  6
CONTINUOUS
 62
          15
100
AcDbLine
 10
-1587.26441630601
 20
-5976.638742509073
 30
0.0
 11
-1587.264514981389
 21
-5827.794545395514
 31
0.0
  0
ARC
  5
2E
100
AcDbEntity
  8
WHITE
  6
CONTINUOUS
 62
          15
100
AcDbCircle
 10
-1577.264514981389
 20
-5827.794545395514
 30
0.0
 40
10.0
100
AcDbArc
 50
90.0
 51
180.0
  0
LINE
  5
2F
100
AcDbEntity
  8
WHITE
  6
CONTINUOUS
 62
          15
100
AcDbLine
 10
-1577.264514981389
 20
-5817.794545395514
 30
0.0
 11
-1566.417712981389
 21
-5817.794423395514
 31
0.0
  0
LINE
  5
30
100
AcDbEntity
  8
WHITE
  6
CONTINUOUS
 62
          15
100
AcDbLine
 10
-1566.417712981389
 20
-5817.794423395514
 30
0.0
 11
-1562.264422981389
 21
-5822.794423395514
 31
0.0
  0
LINE
  5
31
100
AcDbEntity
  8
WHITE
  6
CONTINUOUS
 62
          15
100
AcDbLine
 10
-1562.264422981389
 20
-5822.794423395514
 30
0.0
 11
-1558.052478981389
 21
-5817.843740395513
 31
0.0
  0
ARC
  5
32
100
AcDbEntity
  8
WHITE
  6
CONTINUOUS
 62
          15
100
AcDbCircle
 10
-1562.264422981389
 20
-5997.794423395514
 30
0.0
 40
179.999969
100
AcDbArc
 50
76.340812
 51
88.659174
  0
LINE
  5
33
100
AcDbEntity
  8
WHITE
  6
CONTINUOUS
 62
          15
100
AcDbLine
 10
-1519.758141981389
 20
-5822.885290395514
 30
0.0
 11
-1516.971057981389
 21
-5828.757436395514
 31
0.0
  0
LINE
  5
34
100
AcDbEntity
  8
WHITE
  6
CONTINUOUS
 62
          15
100
AcDbLine
 10
-1516.971057981389
 20
-5828.757436395514
 30
0.0
 11
-1511.621295981389
 21
-5825.065541395514
 31
0.0
  0
ARC
  5
35
100
AcDbEntity
  8
WHITE
  6
CONTINUOUS
 62
          15
100
AcDbCircle
 10
-1562.264422981389
 20
-5997.794423395514
 30
0.0
 40
179.999981
100
AcDbArc
 50
61.340809
 51
73.659163
  0
LINE
  5
36
100
AcDbEntity
  8
WHITE
  6
CONTINUOUS
 62
          15
100
AcDbLine
 10
-1475.936669981389
 20
-5839.846586395513
 30
0.0
 11
-1474.764361981389
 21
-5846.239980395513
 31
0.0
  0
LINE
  5
37
100
AcDbEntity
  8
WHITE
  6
CONTINUOUS
 62
          15
100
AcDbLine
 10
-1474.764361981389
 20
-5846.239980395513
 30
0.0
 11
-1468.641395981389
 21
-5844.058553395514
 31
0.0
  0
ARC
  5
38
100
AcDbEntity
  8
WHITE
  6
CONTINUOUS
 62
          15
100
AcDbCircle
 10
-1562.264422981389
 20
-5997.794423395514
 30
0.0
 40
179.999969
100
AcDbArc
 50
46.340822
 51
58.659161
  0
LINE
  5
39
100
AcDbEntity
  8
WHITE
  6
CONTINUOUS
 62
          15
100
AcDbLine
 10
-1437.998359981389
 20
-5867.571789395513
 30
0.0
 11
-1438.520709981389
 21
-5874.050740395514
 31
0.0
  0
LINE
  5
3A
100
AcDbEntity
  8
WHITE
  6
CONTINUOUS
 62
          15
100
AcDbLine
 10
-1438.520709981389
 20
-5874.050740395514
 30
0.0
 11
-1432.041736981389
 21
-5873.528371395513
 31
0.0
  0
ARC
  5
3B
100
AcDbEntity
  8
WHITE
  6
CONTINUOUS
 62
          15
100
AcDbCircle
 10
-1562.264422981389
 20
-5997.794423395514
 30
0.0
 40
179.999999
100
AcDbArc
 50
31.340818
 51
43.659164
  0
LINE
  5
3C
100
AcDbEntity
  8
WHITE
  6
CONTINUOUS
 62
          15
100
AcDbLine
 10
-1408.528491981389
 20
-5904.171437395514
 30
0.0
 11
-1410.709949981389
 21
-5910.294423395514
 31
0.0
  0
LINE
  5
3D
100
AcDbEntity
  8
WHITE
  6
CONTINUOUS
 62
          15
100
AcDbLine
 10
-1410.709949981389
 20
-5910.294423395514
 30
0.0
 11
-1404.316581981389
 21
-5911.466743395514
 31
0.0
  0
ARC
  5
3E
100
AcDbEntity
  8
WHITE
  6
CONTINUOUS
 62
          15
100
AcDbCircle
 10
-1562.264422981389
 20
-5997.794423395514
 30
0.0
 40
179.999969
100
AcDbArc
 50
16.340816
 51
28.65917
  0
LINE
  5
3F
100
AcDbEntity
  8
WHITE
  6
CONTINUOUS
 62
          15
100
AcDbLine
 10
-1389.535532981389
 20
-5947.151364395514
 30
0.0
 11
-1393.227405981389
 21
-5952.501119395513
 31
0.0
  0
LINE
  5
40
100
AcDbEntity
  8
WHITE
  6
CONTINUOUS
 62
          15
100
AcDbLine
 10
-1393.227405981389
 20
-5952.501119395513
 30
0.0
 11
-1387.355243981389
 21
-5955.288228395513
 31
0.0
  0
ARC
  5
41
100
AcDbEntity
  8
WHITE
  6
CONTINUOUS
 62
          15
100
AcDbCircle
 10
-1562.264422981389
 20
-5997.794423395514
 30
0.0
 40
179.999993
100
AcDbArc
 50
6.37937045756
 51
13.659158
  0
ARC
  5
42
100
AcDbEntity
  8
WHITE
  6
GESTRICHELT
 62
          15
100
AcDbCircle
 10
-1562.264422981389
 20
-5997.794423395514
 30
0.0
 40
179.999993
100
AcDbArc
 50
1.958154042582
 51
6.37937045756
  0
ARC
  5
43
100
AcDbEntity
  8
WHITE
  6
CONTINUOUS
 62
          15
100
AcDbCircle
 10
-1562.264422981389
 20
-5997.794423395514
 30
0.0
 40
179.999993
100
AcDbArc
 50
1.309594
 51
1.958154042582
  0
LINE
  5
44
100
AcDbEntity
  8
WHITE
  6
CONTINUOUS
 62
          15
100
AcDbLine
 10
-1382.311042981389
 20
-5993.680561395514
 30
0.0
 11
-1387.264422981389
 21
-5997.794423395514
 31
0.0
  0
LINE
  5
45
100
AcDbEntity
  8
WHITE
  6
CONTINUOUS
 62
          15
100
AcDbLine
 10
-1387.264422981389
 20
-5997.794423395514
 30
0.0
 11
-1382.264422981389
 21
-6001.947713395513
 31
0.0
  0
LINE
  5
46
100
AcDbEntity
  8
WHITE
  6
GESTRICHELT
 62
          15
100
AcDbLine
 10
-1382.264422981389
 20
-6004.00576102584
 30
0.0
 11
-1382.264422981389
 21
-6012.794423395514
 31
0.0
  0
LINE
  5
47
100
AcDbEntity
  8
WHITE
  6
CONTINUOUS
 62
          15
100
AcDbLine
 10
-1382.264422981389
 20
-6001.947713395513
 30
0.0
 11
-1382.264422981389
 21
-6004.00576102584
 31
0.0
  0
ARC
  5
48
100
AcDbEntity
  8
WHITE
  6
GESTRICHELT
 62
          15
100
AcDbCircle
 10
-1392.264422981389
 20
-6012.794423395514
 30
0.0
 40
10.0
100
AcDbArc
 50
329.999999999998
 51
0.0
  0
ARC
  5
49
100
AcDbEntity
  8
WHITE
  6
CONTINUOUS
 62
          15
100
AcDbCircle
 10
-1392.264422981389
 20
-6012.794423395514
 30
0.0
 40
10.0
100
AcDbArc
 50
269.999999999999
 51
329.999999999998
  0
LINE
  5
4A
100
AcDbEntity
  8
WHITE
  6
GESTRICHELT
 62
          15
100
AcDbLine
 10
-1535.680848731293
 20
-6022.794409960723
 30
0.0
 11
-1541.108733506389
 21
-6022.794409452256
 31
0.0
  0
LINE
  5
4B
100
AcDbEntity
  8
WHITE
  6
CONTINUOUS
 62
          15
100
AcDbLine
 10
-1392.264422981389
 20
-6022.794423395514
 30
0.0
 11
-1535.680848731293
 21
-6022.794409960723
 31
0.0
  0
ARC
  5
4C
100
AcDbEntity
  8
WHITE
  6
CONTINUOUS
 62
          15
100
AcDbCircle
 10
-1562.264422981389
 20
-5997.794423395514
 30
0.0
 40
144.0
100
AcDbArc
 50
7.983556145555
 51
90.0
  0
ARC
  5
4D
100
AcDbEntity
  8
WHITE
  6
GESTRICHELT
 62
          15
100
AcDbCircle
 10
-1562.264422981389
 20
-5997.794423395514
 30
0.0
 40
144.0
100
AcDbArc
 50
0.0
 51
7.983556145555
  0
LINE
  5
4E
100
AcDbEntity
  8
WHITE
  6
CONTINUOUS
 62
          15
100
AcDbLine
 10
-1562.264422981389
 20
-5853.794423395514
 30
0.0
 11
-1567.764422981389
 21
-5853.794423395514
 31
0.0
  0
LINE
  5
4F
100
AcDbEntity
  8
WHITE
  6
CONTINUOUS
 62
          15
100
AcDbLine
 10
-1567.764422981389
 20
-5853.794423395514
 30
0.0
 11
-1567.764422981389
 21
-5841.794423395514
 31
0.0
  0
LINE
  5
50
100
AcDbEntity
  8
WHITE
  6
CONTINUOUS
 62
          15
100
AcDbLine
 10
-1567.764422981389
 20
-5841.794423395514
 30
0.0
 11
-1562.264422981389
 21
-5841.794423395514
 31
0.0
  0
ARC
  5
51
100
AcDbEntity
  8
WHITE
  6
CONTINUOUS
 62
          15
100
AcDbCircle
 10
-1562.264422981389
 20
-5997.794423395514
 30
0.0
 40
156.0
100
AcDbArc
 50
8.206528905083
 51
90.0
  0
ARC
  5
52
100
AcDbEntity
  8
WHITE
  6
GESTRICHELT
 62
          15
100
AcDbCircle
 10
-1562.264422981389
 20
-5997.794423395514
 30
0.0
 40
156.0
100
AcDbArc
 50
0.0
 51
8.206528905083
  0
LINE
  5
53
100
AcDbEntity
  8
WHITE
  6
GESTRICHELT
 62
          15
100
AcDbLine
 10
-1406.264422981389
 20
-5997.794423395514
 30
0.0
 11
-1406.264422981389
 21
-6003.294423395514
 31
0.0
  0
LINE
  5
54
100
AcDbEntity
  8
WHITE
  6
GESTRICHELT
 62
          15
100
AcDbLine
 10
-1406.264422981389
 20
-6003.294423395514
 30
0.0
 11
-1418.264422981389
 21
-6003.294423395514
 31
0.0
  0
LINE
  5
55
100
AcDbEntity
  8
WHITE
  6
GESTRICHELT
 62
          15
100
AcDbLine
 10
-1418.264422981389
 20
-6003.294423395514
 30
0.0
 11
-1418.264422981389
 21
-5997.794423395514
 31
0.0
  0
CIRCLE
  5
56
100
AcDbEntity
  8
0
  6
GESTRICHELT
 62
          15
100
AcDbCircle
 10
-1562.264422981389
 20
-5997.794423395514
 30
0.0
 40
22.75
  0
ARC
  5
57
100
AcDbEntity
  8
0
  6
GESTRICHELT
 62
          15
100
AcDbCircle
 10
-1562.264422981389
 20
-5997.794423395514
 30
0.0
 40
32.75
100
AcDbArc
 50
305.700699324332
 51
310.238835888346
  0
ARC
  5
58
100
AcDbEntity
  8
0
  6
CONTINUOUS
 62
          15
100
AcDbCircle
 10
-1562.264422981389
 20
-5997.794423395514
 30
0.0
 40
32.75
100
AcDbArc
 50
139.761183795191
 51
305.700699324332
  0
LINE
  5
59
100
AcDbEntity
  8
WHITE
  6
CONTINUOUS
 62
          15
100
AcDbLine
 10
-1556.833166396662
 20
-5869.479608097205
 30
0.0
 11
-1545.583166396662
 21
-5891.979608097205
 31
0.0
  0
LINE
  5
5A
100
AcDbEntity
  8
WHITE
  6
CONTINUOUS
 62
          15
100
AcDbLine
 10
-1545.583166396662
 20
-5891.979608097205
 30
0.0
 11
-1550.614319396662
 21
-5891.979608097205
 31
0.0
  0
LINE
  5
5B
100
AcDbEntity
  8
WHITE
  6
CONTINUOUS
 62
          15
100
AcDbLine
 10
-1550.614319396662
 20
-5891.979608097205
 30
0.0
 11
-1552.921119896661
 21
-5887.366005597204
 31
0.0
  0
LINE
  5
5C
100
AcDbEntity
  8
WHITE
  6
CONTINUOUS
 62
          15
100
AcDbLine
 10
-1552.921119896661
 20
-5887.366005597204
 30
0.0
 11
-1560.745212896661
 21
-5887.366005597204
 31
0.0
  0
LINE
  5
5D
100
AcDbEntity
  8
WHITE
  6
CONTINUOUS
 62
          15
100
AcDbLine
 10
-1560.745212896661
 20
-5887.366005597204
 30
0.0
 11
-1563.052013396661
 21
-5891.979608097205
 31
0.0
  0
LINE
  5
5E
100
AcDbEntity
  8
WHITE
  6
CONTINUOUS
 62
          15
100
AcDbLine
 10
-1563.052013396661
 20
-5891.979608097205
 30
0.0
 11
-1568.083166396662
 21
-5891.979608097205
 31
0.0
  0
LINE
  5
5F
100
AcDbEntity
  8
WHITE
  6
CONTINUOUS
 62
          15
100
AcDbLine
 10
-1568.083166396662
 20
-5891.979608097205
 30
0.0
 11
-1556.833166396662
 21
-5869.479608097205
 31
0.0
  0
LINE
  5
60
100
AcDbEntity
  8
WHITE
  6
GESTRICHELT
 62
          15
100
AcDbLine
 10
-1452.883151429934
 20
-6003.091900632875
 30
0.0
 11
-1437.883151429935
 21
-6003.091900632875
 31
0.0
  0
LINE
  5
61
100
AcDbEntity
  8
WHITE
  6
GESTRICHELT
 62
          15
100
AcDbLine
 10
-1437.883151429935
 20
-6003.091900632875
 30
0.0
 11
-1437.883151429935
 21
-5998.591900632875
 31
0.0
  0
LINE
  5
62
100
AcDbEntity
  8
WHITE
  6
GESTRICHELT
 62
          15
100
AcDbLine
 10
-1437.883151429935
 20
-5998.591900632875
 30
0.0
 11
-1444.931322977066
 21
-5998.591900632875
 31
0.0
  0
LINE
  5
63
100
AcDbEntity
  8
WHITE
  6
GESTRICHELT
 62
          15
100
AcDbLine
 10
-1437.883151429935
 20
-5987.341900632875
 30
0.0
 11
-1437.883151429935
 21
-5980.591900632875
 31
0.0
  0
LINE
  5
64
100
AcDbEntity
  8
WHITE
  6
GESTRICHELT
 62
          15
100
AcDbLine
 10
-1437.883151429935
 20
-5980.591900632875
 30
0.0
 11
-1452.883151429934
 21
-5980.591900632875
 31
0.0
  0
LINE
  5
65
100
AcDbEntity
  8
WHITE
  6
GESTRICHELT
 62
          15
100
AcDbLine
 10
-1452.883151429934
 20
-5985.091900632875
 30
0.0
 11
-1445.390465241408
 21
-5985.091900632875
 31
0.0
  0
LINE
  5
66
100
AcDbEntity
  8
0
  6
GESTRICHELT
 62
          15
100
AcDbLine
 10
-1452.883151429934
 20
-5980.591900632875
 30
0.0
 11
-1452.883151429934
 21
-5985.091900632875
 31
0.0
  0
LINE
  5
67
100
AcDbEntity
  8
0
  6
GESTRICHELT
 62
          15
100
AcDbLine
 10
-1452.883151429934
 20
-5997.409411091015
 30
0.0
 11
-1452.883151429934
 21
-6003.091900632875
 31
0.0
  0
LINE
  5
68
100
AcDbEntity
  8
0
  6
GESTRICHELT
 62
          15
100
AcDbLine
 10
-1446.02790587943
 20
-5996.068423257335
 30
0.0
 11
-1437.883151429935
 21
-5987.341900632875
 31
0.0
  0
LINE
  5
69
100
AcDbEntity
  8
0
  6
GESTRICHELT
 62
          15
100
AcDbLine
 10
-1452.479734332299
 20
-5996.385933715475
 30
0.0
 11
-1444.293882339043
 21
-5987.615378008415
 31
0.0
  0
ARC
  5
6A
100
AcDbEntity
  8
0
  6
GESTRICHELT
 62
          15
100
AcDbCircle
 10
-1445.390465241408
 20
-5986.591900632875
 30
0.0
 40
1.5
100
AcDbArc
 50
316.974934010881
 51
90.0
  0
ARC
  5
6B
100
AcDbEntity
  8
0
  6
GESTRICHELT
 62
          15
100
AcDbCircle
 10
-1444.931322977066
 20
-5997.091900632875
 30
0.0
 40
1.5
100
AcDbArc
 50
136.974934010881
 51
269.999999999999
  0
ARC
  5
6C
100
AcDbEntity
  8
0
  6
GESTRICHELT
 62
          15
100
AcDbCircle
 10
-1451.383151429934
 20
-5997.409411091015
 30
0.0
 40
1.5
100
AcDbArc
 50
136.974934010883
 51
180.0
  0
LINE
  5
6D
100
AcDbEntity
  8
WHITE
  6
CONTINUOUS
 62
          15
100
AcDbLine
 10
-1187.264422981389
 20
-6002.794423395514
 30
0.0
 11
-1187.264422981389
 21
-5992.794423395514
 31
0.0
  0
ARC
  5
6E
100
AcDbEntity
  8
WHITE
  6
CONTINUOUS
 62
          15
100
AcDbCircle
 10
-1202.264422981389
 20
-5992.794423395514
 30
0.0
 40
15.0
100
AcDbArc
 50
0.0
 51
90.0
  0
LINE
  5
6F
100
AcDbEntity
  8
WHITE
  6
CONTINUOUS
 62
          15
100
AcDbLine
 10
-1419.250135638051
 20
-5977.794423395514
 30
0.0
 11
-1512.264422981389
 21
-5977.794423395514
 31
0.0
  0
LINE
  5
70
100
AcDbEntity
  8
WHITE
  6
GESTRICHELT
 62
          15
100
AcDbLine
 10
-1405.278710324728
 20
-5977.794423395514
 30
0.0
 11
-1419.250135638051
 21
-5977.794423395514
 31
0.0
  0
LINE
  5
71
100
AcDbEntity
  8
WHITE
  6
CONTINUOUS
 62
          15
100
AcDbLine
 10
-1202.264422981389
 20
-5977.794423395514
 30
0.0
 11
-1405.278710324728
 21
-5977.794423395514
 31
0.0
  0
LINE
  5
72
100
AcDbEntity
  8
WHITE
  6
CONTINUOUS
 62
          15
100
AcDbLine
 10
-1512.264422981389
 20
-5977.794423395514
 30
0.0
 11
-1555.999896981389
 21
-5968.455800395514
 31
0.0
  0
ARC
  5
73
100
AcDbEntity
  8
WHITE
  6
CONTINUOUS
 62
          15
100
AcDbCircle
 10
-1562.264422981389
 20
-5997.794423395514
 30
0.0
 40
29.999985
100
AcDbArc
 50
77.946928
 51
282.053073
  0
LINE
  5
74
100
AcDbEntity
  8
WHITE
  6
CONTINUOUS
 62
          15
100
AcDbLine
 10
-1555.999899981389
 20
-6027.133030395514
 30
0.0
 11
-1512.264422981389
 21
-6017.794423395514
 31
0.0
  0
LINE
  5
75
100
AcDbEntity
  8
WHITE
  6
CONTINUOUS
 62
          15
100
AcDbLine
 10
-1399.124222104111
 20
-6017.794423395514
 30
0.0
 11
-1202.264422981389
 21
-6017.794423395514
 31
0.0
  0
LINE
  5
76
100
AcDbEntity
  8
WHITE
  6
GESTRICHELT
 62
          15
100
AcDbLine
 10
-1425.404623858668
 20
-6017.794423395514
 30
0.0
 11
-1399.124222104111
 21
-6017.794423395514
 31
0.0
  0
LINE
  5
77
100
AcDbEntity
  8
WHITE
  6
CONTINUOUS
 62
          15
100
AcDbLine
 10
-1512.264422981389
 20
-6017.794423395514
 30
0.0
 11
-1425.404623858668
 21
-6017.794423395514
 31
0.0
  0
ARC
  5
78
100
AcDbEntity
  8
WHITE
  6
CONTINUOUS
 62
          15
100
AcDbCircle
 10
-1202.264422981389
 20
-6002.794423395514
 30
0.0
 40
15.0
100
AcDbArc
 50
270.0
 51
0.0
  0
CIRCLE
  5
79
100
AcDbEntity
  8
WHITE
  6
GESTRICHELT
 62
          15
100
AcDbCircle
 10
-1412.264422981389
 20
-5997.794423395514
 30
0.0
 40
7.0
  0
LINE
  5
7A
100
AcDbEntity
  8
YELLOW
  6
CONTINUOUS
 62
           2
100
AcDbLine
 10
-1307.264422981389
 20
-6017.794423395514
 30
0.0
 11
-1307.264422981389
 21
-5977.794423395514
 31
0.0
  0
LINE
  5
7B
100
AcDbEntity
  8
YELLOW
  6
CONTINUOUS
 62
           2
100
AcDbLine
 10
-1372.264422981389
 20
-5977.794423395514
 30
0.0
 11
-1372.264422981389
 21
-6017.794423395514
 31
0.0
  0
LINE
  5
7C
100
AcDbEntity
  8
0
  6
CONTINUOUS
 62
          15
100
AcDbLine
 10
-1389.580598592569
 20
-5998.449763893027
 30
0.0
 11
-1383.609691294637
 21
-6003.529664113275
 31
0.0
  0
LINE
  5
7D
100
AcDbEntity
  8
0
  6
GESTRICHELT
 62
          15
100
AcDbLine
 10
-1390.372414412698
 20
-5997.77610658127
 30
0.0
 11
-1389.580598592569
 21
-5998.449763893027
 31
0.0
  0
LINE
  5
7E
100
AcDbEntity
  8
0
  6
GESTRICHELT
 62
          15
100
AcDbLine
 10
-1390.141548235077
 20
-5997.584335790073
 30
0.0
 11
-1390.372414412698
 21
-5997.77610658127
 31
0.0
  0
LINE
  5
7F
100
AcDbEntity
  8
0
  6
CONTINUOUS
 62
          15
100
AcDbLine
 10
-1383.542360939082
 20
-5992.102669388994
 30
0.0
 11
-1390.141548235077
 21
-5997.584335790073
 31
0.0
  0
LINE
  5
80
100
AcDbEntity
  8
0
  6
CONTINUOUS
 62
          15
100
AcDbLine
 10
-1380.31374369339
 20
-6002.018151722697
 30
0.0
 11
-1380.26445769339
 21
-5993.652917722697
 31
0.0
  0
ARC
  5
81
100
AcDbEntity
  8
0
  6
CONTINUOUS
 62
          15
100
AcDbCircle
 10
-1382.313708981389
 20
-6002.006368395514
 30
0.0
 40
2.0
100
AcDbArc
 50
229.609685635494
 51
359.662430588941
  0
ARC
  5
82
100
AcDbEntity
  8
0
  6
CONTINUOUS
 62
          15
100
AcDbCircle
 10
-1382.264422981389
 20
-5993.641134395514
 30
0.0
 40
2.0
100
AcDbArc
 50
359.662430588941
 51
129.714981743212
  0
CIRCLE
  5
83
100
AcDbEntity
  8
0
  6
CONTINUOUS
 62
          15
100
AcDbCircle
 10
-1562.264422981389
 20
-5997.794423395514
 30
0.0
 40
15.25
  0
ARC
  5
84
100
AcDbEntity
  8
BLACK
  6
CONTINUOUS
 62
          15
100
AcDbCircle
 10
-1403.389527981389
 20
-6016.223332395514
 30
0.0
 40
4.545455
100
AcDbArc
 50
243.219638
 51
348.208933
  0
ARC
  5
85
100
AcDbEntity
  8
BLACK
  6
CONTINUOUS
 62
          15
100
AcDbCircle
 10
-1412.264422981389
 20
-6033.807610395514
 30
0.0
 40
15.151515
100
AcDbArc
 50
63.219638
 51
116.780361
  0
ARC
  5
86
100
AcDbEntity
  8
BLACK
  6
CONTINUOUS
 62
          15
100
AcDbCircle
 10
-1392.322715981389
 20
-6002.345988395514
 30
0.0
 40
4.545455
100
AcDbArc
 50
294.64821
 51
39.637504
  0
ARC
  5
87
100
AcDbEntity
  8
BLACK
  6
CONTINUOUS
 62
          15
100
AcDbCircle
 10
-1384.108178981389
 20
-6020.248278395514
 30
0.0
 40
15.151515
100
AcDbArc
 50
114.64821
 51
168.208933
  0
ARC
  5
88
100
AcDbEntity
  8
BLACK
  6
CONTINUOUS
 62
          15
100
AcDbCircle
 10
-1396.272415981389
 20
-5985.041223395514
 30
0.0
 40
4.545455
100
AcDbArc
 50
346.076782
 51
91.066075
  0
ARC
  5
89
100
AcDbEntity
  8
BLACK
  6
CONTINUOUS
 62
          15
100
AcDbCircle
 10
-1377.154160981389
 20
-5989.780735395514
 30
0.0
 40
15.151515
100
AcDbArc
 50
166.076782
 51
219.637504
  0
ARC
  5
8A
100
AcDbEntity
  8
BLACK
  6
CONTINUOUS
 62
          15
100
AcDbCircle
 10
-1412.264422981389
 20
-5977.339878395514
 30
0.0
 40
4.545455
100
AcDbArc
 50
37.505353
 51
142.494647
  0
ARC
  5
8B
100
AcDbEntity
  8
BLACK
  6
CONTINUOUS
 62
          15
100
AcDbCircle
 10
-1396.638886981389
 20
-5965.347662395514
 30
0.0
 40
15.151515
100
AcDbArc
 50
217.505353
 51
271.066076
  0
ARC
  5
8C
100
AcDbEntity
  8
BLACK
  6
CONTINUOUS
 62
          15
100
AcDbCircle
 10
-1428.256429981389
 20
-5985.041223395514
 30
0.0
 40
4.545455
100
AcDbArc
 50
88.933925
 51
193.923218
  0
ARC
  5
8D
100
AcDbEntity
  8
BLACK
  6
CONTINUOUS
 62
          15
100
AcDbCircle
 10
-1427.889958981389
 20
-5965.347662395514
 30
0.0
 40
15.151515
100
AcDbArc
 50
268.933924
 51
322.494647
  0
ARC
  5
8E
100
AcDbEntity
  8
BLACK
  6
CONTINUOUS
 62
          15
100
AcDbCircle
 10
-1432.206129981389
 20
-6002.345988395514
 30
0.0
 40
4.545455
100
AcDbArc
 50
140.362496
 51
245.35179
  0
ARC
  5
8F
100
AcDbEntity
  8
BLACK
  6
CONTINUOUS
 62
          15
100
AcDbCircle
 10
-1447.374684981389
 20
-5989.780735395514
 30
0.0
 40
15.151515
100
AcDbArc
 50
320.362496
 51
13.923218
  0
ARC
  5
90
100
AcDbEntity
  8
BLACK
  6
CONTINUOUS
 62
          15
100
AcDbCircle
 10
-1421.139317981389
 20
-6016.223332395514
 30
0.0
 40
4.545455
100
AcDbArc
 50
191.791067
 51
296.780361
  0
ARC
  5
91
100
AcDbEntity
  8
BLACK
  6
CONTINUOUS
 62
          15
100
AcDbCircle
 10
-1440.420666981389
 20
-6020.248278395514
 30
0.0
 40
15.151515
100
AcDbArc
 50
11.791067
 51
65.35179
  0
TEXT
  5
92
100
AcDbEntity
  8
0
  6
CONTINUOUS
 62
          15
100
AcDbText
 10
-1804.443383900839
 20
-6255.933670176035
 30
0.0
 40
3.5
  1
630-270
 41
0.900000010218
  7
GOTHICG
100
AcDbText
  0
ENDSEC
  0
SECTION
  2
OBJECTS
  0
DICTIONARY
  5
19
100
AcDbDictionary
  3
ACAD_GROUP
350
1A
  3
ACAD_MLINESTYLE
350
1B
  0
DICTIONARY
  5
1A
102
{ACAD_REACTORS
330
19
102
}
100
AcDbDictionary
  0
DICTIONARY
  5
1B
102
{ACAD_REACTORS
330
19
102
}
100
AcDbDictionary
  3
STANDARD
350
1C
  0
MLINESTYLE
  5
1C
102
{ACAD_REACTORS
330
1B
102
}
100
AcDbMlineStyle
  2
STANDARD
 70
           0
  3

 62
           0
 51
90.0
 52
90.0
 71
           2
 49
0.5
 62
         256
  6
BYLAYER
 49
-0.5
 62
         256
  6
BYLAYER
  0
ENDSEC
  0
EOF
