  0
SECTION
  2
HEADER
  9
$ACADVER
  1
AC1012
  9
$DWGCODEPAGE
  3
dos850
  9
$INSBASE
 10
0.0
 20
0.0
 30
0.0
  9
$EXTMIN
 10
-15577.079880148358
 20
-6438.587586482876
 30
0.0
  9
$EXTMAX
 10
-15356.368800154822
 20
-6215.160653311747
 30
0.0
  9
$LIMMIN
 10
-15577.079880148358
 20
-6438.587586482876
  9
$LIMMAX
 10
-15356.368800154822
 20
-6215.160653311747
  9
$ORTHOMODE
 70
           0
  9
$REGENMODE
 70
           1
  9
$FILLMODE
 70
           1
  9
$QTEXTMODE
 70
           0
  9
$MIRRTEXT
 70
           1
  9
$DRAGMODE
 70
           2
  9
$LTSCALE
 40
5.0
  9
$OSMODE
 70
           0
  9
$ATTMODE
 70
           1
  9
$TEXTSIZE
 40
0.2
  9
$TRACEWID
 40
0.05
  9
$TEXTSTYLE
  7
TXT
  9
$CLAYER
  8
0
  9
$CELTYPE
  6
CONTINUOUS
  9
$CECOLOR
 62
         256
  9
$CELTSCALE
 40
1.0
  9
$DELOBJ
 70
           1
  9
$DISPSILH
 70
           0
  9
$DIMSCALE
 40
1.0
  9
$DIMASZ
 40
3.5
  9
$DIMEXO
 40
0.0625
  9
$DIMDLI
 40
0.38
  9
$DIMRND
 40
0.0
  9
$DIMDLE
 40
0.0
  9
$DIMEXE
 40
0.18
  9
$DIMTP
 40
0.0
  9
$DIMTM
 40
0.0
  9
$DIMTXT
 40
3.5
  9
$DIMCEN
 40
0.09
  9
$DIMTSZ
 40
0.0
  9
$DIMTOL
 70
           0
  9
$DIMLIM
 70
           0
  9
$DIMTIH
 70
           1
  9
$DIMTOH
 70
           1
  9
$DIMSE1
 70
           0
  9
$DIMSE2
 70
           0
  9
$DIMTAD
 70
           0
  9
$DIMZIN
 70
           0
  9
$DIMBLK
  1

  9
$DIMASO
 70
           1
  9
$DIMSHO
 70
           1
  9
$DIMPOST
  1

  9
$DIMAPOST
  1

  9
$DIMALT
 70
           0
  9
$DIMALTD
 70
           2
  9
$DIMALTF
 40
25.4
  9
$DIMLFAC
 40
1.0
  9
$DIMTOFL
 70
           0
  9
$DIMTVP
 40
0.0
  9
$DIMTIX
 70
           0
  9
$DIMSOXD
 70
           0
  9
$DIMSAH
 70
           0
  9
$DIMBLK1
  1

  9
$DIMBLK2
  1

  9
$DIMSTYLE
  2
STANDARD
  9
$DIMCLRD
 70
           0
  9
$DIMCLRE
 70
           0
  9
$DIMCLRT
 70
           0
  9
$DIMTFAC
 40
1.0
  9
$DIMGAP
 40
0.09
  9
$DIMJUST
 70
           0
  9
$DIMSD1
 70
           0
  9
$DIMSD2
 70
           0
  9
$DIMTOLJ
 70
           1
  9
$DIMTZIN
 70
           0
  9
$DIMALTZ
 70
           0
  9
$DIMALTTZ
 70
           0
  9
$DIMFIT
 70
           3
  9
$DIMUPT
 70
           0
  9
$DIMUNIT
 70
           2
  9
$DIMDEC
 70
           4
  9
$DIMTDEC
 70
           4
  9
$DIMALTU
 70
           2
  9
$DIMALTTD
 70
           2
  9
$DIMTXSTY
  7
TXT
  9
$DIMAUNIT
 70
           0
  9
$LUNITS
 70
           2
  9
$LUPREC
 70
           3
  9
$SKETCHINC
 40
0.1
  9
$FILLETRAD
 40
0.0
  9
$AUNITS
 70
           0
  9
$AUPREC
 70
           3
  9
$MENU
  1
acad
  9
$ELEVATION
 40
0.0
  9
$PELEVATION
 40
0.0
  9
$THICKNESS
 40
0.0
  9
$LIMCHECK
 70
           0
  9
$BLIPMODE
 70
           1
  9
$CHAMFERA
 40
0.0
  9
$CHAMFERB
 40
0.0
  9
$CHAMFERC
 40
0.0
  9
$CHAMFERD
 40
0.0
  9
$SKPOLY
 70
           0
  9
$TDCREATE
 40
0.000000000
  9
$TDUPDATE
 40
0.000000000
  9
$TDINDWG
 40
0.0000000000
  9
$TDUSRTIMER
 40
0.0000000000
  9
$USRTIMER
 70
           1
  9
$ANGBASE
 50
0.0
  9
$ANGDIR
 70
           0
  9
$PDMODE
 70
           2
  9
$PDSIZE
 40
0.5
  9
$PLINEWID
 40
0.0
  9
$COORDS
 70
           0
  9
$SPLFRAME
 70
           0
  9
$SPLINETYPE
 70
           6
  9
$SPLINESEGS
 70
           8
  9
$ATTDIA
 70
           0
  9
$ATTREQ
 70
           1
  9
$HANDLING
 70
           1
  9
$HANDSEED
  5
8B
  9
$SURFTAB1
 70
           6
  9
$SURFTAB2
 70
           6
  9
$SURFTYPE
 70
           6
  9
$SURFU
 70
           6
  9
$SURFV
 70
           6
  9
$UCSNAME
  2

  9
$UCSORG
 10
0.0
 20
0.0
 30
0.0
  9
$UCSXDIR
 10
1.0
 20
0.0
 30
0.0
  9
$UCSYDIR
 10
0.0
 20
1.0
 30
0.0
  9
$PUCSNAME
  2

  9
$PUCSORG
 10
0.0
 20
0.0
 30
0.0
  9
$PUCSXDIR
 10
1.0
 20
0.0
 30
0.0
  9
$PUCSYDIR
 10
0.0
 20
1.0
 30
0.0
  9
$USERI1
 70
           0
  9
$USERI2
 70
           0
  9
$USERI3
 70
           0
  9
$USERI4
 70
           0
  9
$USERI5
 70
           0
  9
$USERR1
 40
0.0
  9
$USERR2
 40
0.0
  9
$USERR3
 40
0.0
  9
$USERR4
 40
0.0
  9
$USERR5
 40
0.0
  9
$WORLDVIEW
 70
           1
  9
$SHADEDGE
 70
           3
  9
$SHADEDIF
 70
          70
  9
$TILEMODE
 70
           1
  9
$MAXACTVP
 70
          16
  9
$PINSBASE
 10
0.0
 20
0.0
 30
0.0
  9
$PLIMCHECK
 70
           0
  9
$PEXTMIN
 10
1.000000000000E+20
 20
1.000000000000E+20
 30
1.000000000000E+20
  9
$PEXTMAX
 10
-1.000000000000E+20
 20
-1.000000000000E+20
 30
-1.000000000000E+20
  9
$PLIMMIN
 10
0.0
 20
0.0
  9
$PLIMMAX
 10
12.0
 20
9.0
  9
$UNITMODE
 70
           0
  9
$VISRETAIN
 70
           0
  9
$PLINEGEN
 70
           1
  9
$PSLTSCALE
 70
           0
  9
$TREEDEPTH
 70
        3020
  9
$PICKSTYLE
 70
           1
  9
$CMLSTYLE
  2
STANDARD
  9
$CMLJUST
 70
           0
  9
$CMLSCALE
 40
1.0
  9
$SAVEIMAGES
 70
           0
  0
ENDSEC
  0
SECTION
  2
CLASSES
  0
CLASS
  1
LWPOLYLINE
  2
AcDbPolyline
  3
"AutoCAD"
 90
        0
280
           0
281
           1
  0
CLASS
  1
IMAGE
  2
AcDbRasterImage
  3
ISM
 90
      127
280
           0
281
           1
  0
CLASS
  1
OLE2FRAME
  2
AcDbOle2Frame
  3
""
 90
        0
280
           0
281
           1
  0
CLASS
  1
HATCH
  2
AcDbHatch
  3
"ACAD_SEDONA"
 90
        0
280
           0
281
           1
  0
CLASS
  1
DICTIONARYVAR
  2
AcDbDictionaryVar
  3
"AutoCAD"
 90
        0
280
           0
281
           0
  0
CLASS
  1
RASTERVARIABLES
  2
AcDbRasterVariables
  3
ISM
 90
        0
280
           0
281
           0
  0
CLASS
  1
IMAGEDEF
  2
AcDbRasterImageDef
  3
ISM
 90
        0
280
           0
281
           0
  0
CLASS
  1
IMAGEDEF_REACTOR
  2
AcDbRasterImageDefReactor
  3
ISM
 90
        1
280
           0
281
           0
  0
CLASS
  1
IDBUFFER
  2
AcDbIdBuffer
  3
"Acad"
 90
        0
280
           0
281
           0
  0
CLASS
  1
SPATIAL_FILTER
  2
AcDbSpatialFilter
  3
"Acad"
 90
        0
280
           0
281
           0
  0
CLASS
  1
XRECORD
  2
AcDbXrecord
  3
"<Built In>"
 90
        0
280
           0
281
           0
  0
ENDSEC
  0
SECTION
  2
TABLES
  0
TABLE
  2
VPORT
  5
7
100
AcDbSymbolTable
 70
           1
  0
VPORT
  5
15
100
AcDbSymbolTableRecord
100
AcDbViewportTableRecord
  2
*ACTIVE
 70
           0
 10
0.0
 20
0.0
 11
1.0
 21
1.0
 12
6.591288
 22
4.579184
 13
0.0
 23
0.0
 14
1.0
 24
1.0
 15
0.0
 25
0.0
 16
0.0
 26
0.0
 36
1.0
 17
0.0
 27
0.0
 37
0.0
 40
9.158369
 41
0.688564
 42
50.0
 43
0.0
 44
0.0
 50
0.0
 51
0.0
 71
           0
 72
         100
 73
           1
 74
           1
 75
           0
 76
           0
 77
           0
 78
           0
  0
ENDTAB
  0
TABLE
  2
LTYPE
  5
4
100
AcDbSymbolTable
 70
           5
  0
LTYPE
  5
11
100
AcDbSymbolTableRecord
100
AcDbLinetypeTableRecord
  2
BYBLOCK
 70
           0
  3

 72
          65
 73
           0
 40
0.0
  0
LTYPE
  5
12
100
AcDbSymbolTableRecord
100
AcDbLinetypeTableRecord
  2
BYLAYER
 70
           0
  3

 72
          65
 73
           0
 40
0.0
  0
LTYPE
  5
13
100
AcDbSymbolTableRecord
100
AcDbLinetypeTableRecord
  2
CONTINUOUS
 70
           0
  3
Solid line
 72
          65
 73
           0
 40
0.0
  0
LTYPE
  5
1D
100
AcDbSymbolTableRecord
100
AcDbLinetypeTableRecord
  2
GESTRICHELT
 70
           0
  3

 72
          65
 73
           2
 40
0.75
 49
0.5
 74
           0
 49
-0.25
 74
           0
  0
LTYPE
  5
1E
100
AcDbSymbolTableRecord
100
AcDbLinetypeTableRecord
  2
STRICHPUNKT
 70
           0
  3

 72
          65
 73
           4
 40
1.0
 49
0.5
 74
           0
 49
-0.25
 74
           0
 49
0.0
 74
           0
 49
-0.25
 74
           0
  0
ENDTAB
  0
TABLE
  2
LAYER
  5
2
100
AcDbSymbolTable
 70
           2
  0
LAYER
  5
14
100
AcDbSymbolTableRecord
100
AcDbLayerTableRecord
  2
0
 70
           0
 62
           7
  6
CONTINUOUS
  0
LAYER
  5
20
100
AcDbSymbolTableRecord
100
AcDbLayerTableRecord
  2
FREI
 70
           0
 62
           7
  6
CONTINUOUS
  0
ENDTAB
  0
TABLE
  2
STYLE
  5
3
100
AcDbSymbolTable
 70
           2
  0
STYLE
  5
17
100
AcDbSymbolTableRecord
100
AcDbTextStyleTableRecord
  2
TXT
 70
           0
 40
3.5
 41
1.0
 50
0.0
 71
           0
 42
3.5
  3
TXT
  4

  0
STYLE
  5
1F
100
AcDbSymbolTableRecord
100
AcDbTextStyleTableRecord
  2
GOTHICG
 70
           0
 40
3.5
 41
1.0
 50
0.0
 71
           0
 42
3.5
  3
GOTHICG
  4

  0
ENDTAB
  0
TABLE
  2
VIEW
  5
5
100
AcDbSymbolTable
 70
           0
  0
ENDTAB
  0
TABLE
  2
UCS
  5
6
100
AcDbSymbolTable
 70
           0
  0
ENDTAB
  0
TABLE
  2
APPID
  5
8
100
AcDbSymbolTable
 70
           2
  0
APPID
  5
16
100
AcDbSymbolTableRecord
100
AcDbRegAppTableRecord
  2
ACAD
 70
           0
  0
APPID
  5
21
100
AcDbSymbolTableRecord
100
AcDbRegAppTableRecord
  2
MegaCADPntStyle
 70
           0
  0
ENDTAB
  0
TABLE
  2
DIMSTYLE
  5
9
100
AcDbSymbolTable
 70
           1
  0
DIMSTYLE
105
18
100
AcDbSymbolTableRecord
100
AcDbDimStyleTableRecord
  2
STANDARD
 70
           0
  3

  4

  5

  6

  7

 40
1.0
 41
0.18
 42
0.0625
 43
0.38
 44
0.18
 45
0.0
 46
0.0
 47
0.0
 48
0.0
140
0.18
141
0.09
142
0.0
143
25.4
144
1.0
145
0.0
146
1.0
147
0.09
 71
           0
 72
           0
 73
           1
 74
           1
 75
           0
 76
           0
 77
           0
 78
           0
170
           0
171
           2
172
           0
173
           0
174
           0
175
           0
176
           0
177
           0
178
           0
270
           2
271
           4
272
           4
273
           2
274
           2
340
17
275
           0
280
           0
281
           0
282
           0
283
           1
284
           0
285
           0
286
           0
287
           0
288
           0
  0
ENDTAB
  0
TABLE
  2
BLOCK_RECORD
  5
1
100
AcDbSymbolTable
 70
           1
  0
BLOCK_RECORD
  5
A
100
AcDbSymbolTableRecord
100
AcDbBlockTableRecord
  2
*MODEL_SPACE
  0
BLOCK_RECORD
  5
B
100
AcDbSymbolTableRecord
100
AcDbBlockTableRecord
  2
*PAPER_SPACE
  0
BLOCK_RECORD
  5
22
100
AcDbSymbolTableRecord
100
AcDbBlockTableRecord
  2
ELIPPSE
  0
ENDTAB
  0
ENDSEC
  0
SECTION
  2
BLOCKS
  0
BLOCK
  5
D
100
AcDbEntity
  8
0
100
AcDbBlockBegin
  2
*MODEL_SPACE
 70
           0
 10
0.0
 20
0.0
 30
0.0
  3
*MODEL_SPACE
  1

  0
ENDBLK
  5
E
100
AcDbEntity
  8
0
100
AcDbBlockEnd
  0
BLOCK
  5
F
100
AcDbEntity
 67
           1
  8
0
100
AcDbBlockBegin
  2
*PAPER_SPACE
 70
           0
 10
0.0
 20
0.0
 30
0.0
  3
*PAPER_SPACE
  1

  0
ENDBLK
  5
10
100
AcDbEntity
 67
           1
  8
0
100
AcDbBlockEnd
  0
BLOCK
  5
86
100
AcDbEntity
  8
0
100
AcDbBlockBegin
  2
ELIPPSE
 70
          64
 10
0.0
 20
0.0
 30
0.0
  3
ELIPPSE
  1

  0
CIRCLE
  5
87
100
AcDbEntity
  8
0
  6
BYBLOCK
 62
           0
100
AcDbCircle
 10
0.0
 20
0.0
 30
0.0
 40
1.0
  0
ENDBLK
  5
88
100
AcDbEntity
  8
0
  6
BYBLOCK
 62
           0
100
AcDbBlockEnd
  0
ENDSEC
  0
SECTION
  2
ENTITIES
  0
LINE
  5
23
100
AcDbEntity
  8
FREI
  6
CONTINUOUS
 62
          15
100
AcDbLine
 10
-15448.023867625518
 20
-6219.376449421599
 30
0.0
 11
-15531.157868264549
 21
-6253.811679980619
 31
0.0
  0
LINE
  5
24
100
AcDbEntity
  8
FREI
  6
GESTRICHELT
 62
          15
100
AcDbLine
 10
-15443.334390139504
 20
-6217.434004246448
 30
0.0
 11
-15448.023867625518
 21
-6219.376449421599
 31
0.0
  0
LINE
  5
25
100
AcDbEntity
  8
FREI
  6
CONTINUOUS
 62
          15
100
AcDbLine
 10
-15437.846035480909
 20
-6215.160653311747
 30
0.0
 11
-15443.334390139504
 21
-6217.434004246448
 31
0.0
  0
LINE
  5
26
100
AcDbEntity
  8
FREI
  6
CONTINUOUS
 62
          15
100
AcDbLine
 10
-15469.194614578126
 20
-6403.404207399146
 30
0.0
 11
-15454.62118179153
 21
-6438.587586482876
 31
0.0
  0
LINE
  5
27
100
AcDbEntity
  8
FREI
  6
CONTINUOUS
 62
          15
100
AcDbLine
 10
-15531.157868264549
 20
-6253.811679980619
 30
0.0
 11
-15523.855420692891
 21
-6271.441347946635
 31
0.0
  0
LINE
  5
28
100
AcDbEntity
  8
FREI
  6
CONTINUOUS
 62
          15
100
AcDbLine
 10
-15454.62118179153
 20
-6438.587586482876
 30
0.0
 11
-15361.30934900789
 21
-6399.936559814003
 31
0.0
  0
LINE
  5
29
100
AcDbEntity
  8
FREI
  6
CONTINUOUS
 62
          15
100
AcDbLine
 10
-15436.121366810648
 20
-6219.324371806089
 30
0.0
 11
-15437.846035480909
 21
-6215.160653311747
 31
0.0
  0
LINE
  5
2A
100
AcDbEntity
  8
FREI
  6
GESTRICHELT
 62
          15
100
AcDbLine
 10
-15370.304084455793
 20
-6378.22134750572
 30
0.0
 11
-15436.121366810648
 21
-6219.324371806089
 31
0.0
  0
LINE
  5
2B
100
AcDbEntity
  8
FREI
  6
CONTINUOUS
 62
          15
100
AcDbLine
 10
-15361.30934900789
 20
-6399.936559814003
 30
0.0
 11
-15370.304084455793
 21
-6378.22134750572
 31
0.0
  0
LINE
  5
2C
100
AcDbEntity
  8
FREI
  6
STRICHPUNKT
 62
          15
100
AcDbLine
 10
-15407.965265399711
 20
-6419.26207314844
 30
0.0
 11
-15484.501951872729
 21
-6234.486166646182
 31
0.0
  0
LINE
  5
2D
100
AcDbEntity
  8
FREI
  6
STRICHPUNKT
 62
          15
100
AcDbLine
 10
-15469.194614578126
 20
-6271.441347946635
 30
0.0
 11
-15530.423963756541
 21
-6419.26207314844
 31
0.0
  0
LINE
  5
2E
100
AcDbEntity
  8
FREI
  6
CONTINUOUS
 62
          15
100
AcDbLine
 10
-15523.855420692891
 20
-6271.441347946635
 30
0.0
 11
-15577.079880148358
 21
-6399.936559814003
 31
0.0
  0
LINE
  5
2F
100
AcDbEntity
  8
FREI
  6
CONTINUOUS
 62
          15
100
AcDbLine
 10
-15469.194614578126
 20
-6403.404207399146
 30
0.0
 11
-15483.76804736472
 21
-6438.587586482876
 31
0.0
  0
LINE
  5
30
100
AcDbEntity
  8
FREI
  6
CONTINUOUS
 62
          15
100
AcDbLine
 10
-15444.912511898478
 20
-6271.441347946633
 30
0.0
 11
-15523.855420692891
 21
-6271.441347946635
 31
0.0
  0
LINE
  5
31
100
AcDbEntity
  8
FREI
  6
GESTRICHELT
 62
          15
100
AcDbLine
 10
-15414.533808463359
 20
-6271.441347946633
 30
0.0
 11
-15444.912511898478
 21
-6271.441347946633
 31
0.0
  0
LINE
  5
32
100
AcDbEntity
  8
FREI
  6
CONTINUOUS
 62
          15
100
AcDbLine
 10
-15577.079880148358
 20
-6399.936559814003
 30
0.0
 11
-15483.76804736472
 21
-6438.587586482876
 31
0.0
  0
LINE
  5
33
100
AcDbEntity
  8
FREI
  6
CONTINUOUS
 62
          15
100
AcDbLine
 10
-15469.194614578126
 20
-6300.698877322131
 30
0.0
 11
-15469.194614578126
 21
-6271.441347946635
 31
0.0
  0
LINE
  5
34
100
AcDbEntity
  8
FREI
  6
GESTRICHELT
 62
          15
100
AcDbLine
 10
-15469.194614578126
 20
-6319.1021540614
 30
0.0
 11
-15469.194614578126
 21
-6300.698877322131
 31
0.0
  0
LINE
  5
35
100
AcDbEntity
  8
FREI
  6
GESTRICHELT
 62
          15
100
AcDbLine
 10
-15469.194614578126
 20
-6389.0471783343
 30
0.0
 11
-15469.194614578126
 21
-6333.1021540614
 31
0.0
  0
LINE
  5
36
100
AcDbEntity
  8
FREI
  6
CONTINUOUS
 62
          15
100
AcDbLine
 10
-15469.194614578126
 20
-6403.404207399146
 30
0.0
 11
-15469.194614578126
 21
-6389.0471783343
 31
0.0
  0
CIRCLE
  5
37
100
AcDbEntity
  8
FREI
  6
CONTINUOUS
 62
          15
100
AcDbCircle
 10
-15469.194614578126
 20
-6326.1021540614
 30
0.0
 40
7.0
  0
LINE
  5
38
100
AcDbEntity
  8
FREI
  6
GESTRICHELT
 62
          15
100
AcDbLine
 10
-15450.311343292897
 20
-6326.102154061398
 30
0.0
 11
-15450.322370306401
 21
-6359.378530244141
 31
0.0
  0
ARC
  5
39
100
AcDbEntity
  8
FREI
  6
GESTRICHELT
 62
          15
100
AcDbCircle
 10
-15469.194614578126
 20
-6326.1021540614
 30
0.0
 40
18.883271285229
100
AcDbArc
 50
171.087470809998
 51
180.000000000001
  0
ARC
  5
3A
100
AcDbEntity
  8
FREI
  6
CONTINUOUS
 62
          15
100
AcDbCircle
 10
-15469.194614578126
 20
-6326.1021540614
 30
0.0
 40
18.883271285229
100
AcDbArc
 50
109.531001786783
 51
171.087470809998
  0
ARC
  5
3B
100
AcDbEntity
  8
FREI
  6
GESTRICHELT
 62
          15
100
AcDbCircle
 10
-15469.194614578126
 20
-6326.1021540614
 30
0.0
 40
18.883271285229
100
AcDbArc
 50
0.000000683099
 51
109.531001786783
  0
LINE
  5
3C
100
AcDbEntity
  8
FREI
  6
CONTINUOUS
 62
          15
100
AcDbLine
 10
-15488.077885863353
 20
-6389.0471783343
 30
0.0
 11
-15450.311343292899
 21
-6389.0471783343
 31
0.0
  0
LINE
  5
3D
100
AcDbEntity
  8
FREI
  6
CONTINUOUS
 62
          15
100
AcDbLine
 10
-15488.077885863353
 20
-6340.21310189806
 30
0.0
 11
-15488.077885863353
 21
-6389.0471783343
 31
0.0
  0
LINE
  5
3E
100
AcDbEntity
  8
FREI
  6
GESTRICHELT
 62
          15
100
AcDbLine
 10
-15488.077885863353
 20
-6326.1021540614
 30
0.0
 11
-15488.077885863353
 21
-6340.21310189806
 31
0.0
  0
LINE
  5
3F
100
AcDbEntity
  8
FREI
  6
CONTINUOUS
 62
          15
100
AcDbLine
 10
-15450.311343292899
 20
-6389.0471783343
 30
0.0
 11
-15450.310214269919
 21
-6359.380970587734
 31
0.0
  0
CIRCLE
  5
40
100
AcDbEntity
  8
FREI
  6
CONTINUOUS
 62
          15
100
AcDbCircle
 10
-15469.194614578126
 20
-6376.459117466287
 30
0.0
 40
5.03587333797
  0
ARC
  5
41
100
AcDbEntity
  8
FREI
  6
CONTINUOUS
 62
          15
100
AcDbCircle
 10
-15416.042764115206
 20
-6248.127542147768
 30
0.0
 40
20.102193939583
100
AcDbArc
 50
22.507101035151
 51
69.812326881122
  0
ARC
  5
42
100
AcDbEntity
  8
FREI
  6
CONTINUOUS
 62
          15
100
AcDbCircle
 10
-15376.470994094405
 20
-6343.646671023929
 30
0.0
 40
20.102193939583
100
AcDbArc
 50
335.201835748251
 51
22.507101035151
  0
LINE
  5
43
100
AcDbEntity
  8
FREI
  6
CONTINUOUS
 62
          15
100
AcDbLine
 10
-15372.389765397676
 20
-6382.734617332784
 30
0.0
 11
-15358.222621293076
 21
-6352.077893795182
 31
0.0
  0
LINE
  5
44
100
AcDbEntity
  8
FREI
  6
CONTINUOUS
 62
          15
100
AcDbLine
 10
-15440.803276528815
 20
-6217.602990027719
 30
0.0
 11
-15409.104566587443
 21
-6229.25754660303
 31
0.0
  0
LINE
  5
45
100
AcDbEntity
  8
FREI
  6
CONTINUOUS
 62
          15
100
AcDbLine
 10
-15397.468002169164
 20
-6240.430926627128
 30
0.0
 11
-15357.89623214836
 21
-6335.950055503294
 31
0.0
  0
ARC
  5
46
100
AcDbEntity
  8
FREI
  6
CONTINUOUS
 62
          15
100
AcDbCircle
 10
-15484.702935437337
 20
-6332.529609547828
 30
0.0
 40
8.392040578676
100
AcDbArc
 50
140.165285169611
 51
264.705526113971
  0
LINE
  5
47
100
AcDbEntity
  8
FREI
  6
CONTINUOUS
 62
          15
100
AcDbLine
 10
-15436.827114330006
 20
-6261.699244472604
 30
0.0
 11
-15491.160963142976
 21
-6327.166152289517
 31
0.0
  0
LINE
  5
48
100
AcDbEntity
  8
FREI
  6
CONTINUOUS
 62
          15
100
AcDbLine
 10
-15450.372362224682
 20
-6229.011766260372
 30
0.0
 11
-15387.221390021859
 21
-6381.434374659721
 31
0.0
  0
ARC
  5
49
100
AcDbEntity
  8
FREI
  6
CONTINUOUS
 62
          15
100
AcDbCircle
 10
-15442.61789526867
 20
-6225.795698542146
 30
0.0
 40
8.392335574478
100
AcDbArc
 50
77.511072586301
 51
202.525620150222
  0
ARC
  5
4A
100
AcDbEntity
  8
FREI
  6
CONTINUOUS
 62
          15
100
AcDbCircle
 10
-15379.468706106163
 20
-6378.222833628317
 30
0.0
 40
8.392335574478
100
AcDbArc
 50
202.501734733568
 51
327.488481380678
  0
LINE
  5
4B
100
AcDbEntity
  8
FREI
  6
GESTRICHELT
 62
          15
100
AcDbLine
 10
-15431.397115845339
 20
-6345.962170386387
 30
0.0
 11
-15451.177790721487
 21
-6344.036470159002
 31
0.0
  0
LINE
  5
4C
100
AcDbEntity
  8
FREI
  6
CONTINUOUS
 62
          15
100
AcDbLine
 10
-15431.369127106818
 20
-6345.998069834366
 30
0.0
 11
-15400.666195838225
 21
-6348.988546263996
 31
0.0
  0
LINE
  5
4D
100
AcDbEntity
  8
FREI
  6
CONTINUOUS
 62
          15
100
AcDbLine
 10
-15451.166524000462
 20
-6344.069859232801
 30
0.0
 11
-15485.476990586281
 21
-6340.882428588668
 31
0.0
  0
ARC
  5
4E
100
AcDbEntity
  8
FREI
  6
CONTINUOUS
 62
          15
100
AcDbCircle
 10
-15469.194614578126
 20
-6376.459117466287
 30
0.0
 40
9.071415910955
100
AcDbArc
 50
78.645411513612
 51
318.642951543439
  0
LINE
  5
4F
100
AcDbEntity
  8
FREI
  6
GESTRICHELT
 62
          15
100
AcDbLine
 10
-15450.121004468383
 20
-6355.14952682761
 30
0.0
 11
-15449.011290346627
 21
-6355.374370234982
 31
0.0
  0
ARC
  5
50
100
AcDbEntity
  8
FREI
  6
GESTRICHELT
 62
          15
100
AcDbCircle
 10
-15412.150387340957
 20
-6322.205945681073
 30
0.0
 40
2.092700220231
100
AcDbArc
 50
302.413090928373
 51
18.608604704482
  0
ARC
  5
51
100
AcDbEntity
  8
FREI
  6
GESTRICHELT
 62
          15
100
AcDbCircle
 10
-15403.0490169158
 20
-6305.528396285563
 30
0.0
 40
2.092700220231
100
AcDbArc
 50
258.637406711703
 51
318.708608284301
  0
ARC
  5
52
100
AcDbEntity
  8
FREI
  6
GESTRICHELT
 62
          15
100
AcDbCircle
 10
-15401.503256067692
 20
-6310.108900070036
 30
0.0
 40
2.092700220231
100
AcDbArc
 50
258.669531649356
 51
318.708608284301
  0
LINE
  5
53
100
AcDbEntity
  8
FREI
  6
GESTRICHELT
 62
          15
100
AcDbLine
 10
-15404.984855222654
 20
-6299.070995085718
 30
0.0
 11
-15408.01807858032
 21
-6300.092939814698
 31
0.0
  0
LINE
  5
54
100
AcDbEntity
  8
FREI
  6
GESTRICHELT
 62
          15
100
AcDbLine
 10
-15397.917596157746
 20
-6302.878983421777
 30
0.0
 11
-15401.476524155598
 21
-6306.909446420856
 31
0.0
  0
LINE
  5
55
100
AcDbEntity
  8
FREI
  6
GESTRICHELT
 62
          15
100
AcDbLine
 10
-15399.930763307493
 20
-6311.489950205329
 30
0.0
 11
-15392.61261838359
 21
-6303.187272537873
 31
0.0
  0
ARC
  5
56
100
AcDbEntity
  8
FREI
  6
GESTRICHELT
 62
          15
100
AcDbCircle
 10
-15399.422444028687
 20
-6297.193607719231
 30
0.0
 40
9.071120915153
100
AcDbArc
 50
318.64739556867
 51
198.639402770663
  0
ARC
  5
57
100
AcDbEntity
  8
FREI
  6
CONTINUOUS
 62
          15
100
AcDbCircle
 10
-15417.302270904182
 20
-6306.93449650016
 30
0.0
 40
2.092700220231
100
AcDbArc
 50
132.795679260578
 51
198.634226065905
  0
ARC
  5
58
100
AcDbEntity
  8
FREI
  6
GESTRICHELT
 62
          15
100
AcDbCircle
 10
-15417.302270904182
 20
-6306.93449650016
 30
0.0
 40
2.092700220231
100
AcDbArc
 50
84.731670676549
 51
132.795679260578
  0
LINE
  5
59
100
AcDbEntity
  8
FREI
  6
GESTRICHELT
 62
          15
100
AcDbLine
 10
-15412.382761718309
 20
-6310.057208779364
 30
0.0
 11
-15401.913979385046
 21
-6312.158695090117
 31
0.0
  0
LINE
  5
5A
100
AcDbEntity
  8
FREI
  6
GESTRICHELT
 62
          15
100
AcDbLine
 10
-15403.460916162006
 20
-6307.578093572824
 30
0.0
 11
-15414.585097473122
 21
-6305.355829402428
 31
0.0
  0
ARC
  5
5B
100
AcDbEntity
  8
FREI
  6
CONTINUOUS
 62
          15
100
AcDbCircle
 10
-15416.863555972455
 20
-6318.053681042822
 30
0.0
 40
1.046055114313
100
AcDbArc
 50
258.667060351511
 51
18.608604704482
  0
ARC
  5
5C
100
AcDbEntity
  8
FREI
  6
CONTINUOUS
 62
          15
100
AcDbCircle
 10
-15412.150387340957
 20
-6322.205945681073
 30
0.0
 40
2.092700220231
100
AcDbArc
 50
258.669531649356
 51
302.413090928373
  0
LINE
  5
5D
100
AcDbEntity
  8
FREI
  6
CONTINUOUS
 62
          15
100
AcDbLine
 10
-15419.285486981738
 20
-6307.603241384948
 30
0.0
 11
-15415.870772004824
 21
-6317.719406333248
 31
0.0
  0
ARC
  5
5E
100
AcDbEntity
  8
FREI
  6
CONTINUOUS
 62
          15
100
AcDbCircle
 10
-15423.236233545949
 20
-6323.183806749445
 30
0.0
 40
1.046055114313
100
AcDbArc
 50
78.603100952973
 51
198.685618161791
  0
ARC
  5
5F
100
AcDbEntity
  8
FREI
  6
CONTINUOUS
 62
          15
100
AcDbCircle
 10
-15427.949402177448
 20
-6319.031542111197
 30
0.0
 40
2.092700220231
100
AcDbArc
 50
78.637401704415
 51
198.634226065905
  0
LINE
  5
60
100
AcDbEntity
  8
FREI
  6
CONTINUOUS
 62
          15
100
AcDbLine
 10
-15423.028717062723
 20
-6322.154352123218
 30
0.0
 11
-15412.561110658311
 21
-6324.255740701154
 31
0.0
  0
LINE
  5
61
100
AcDbEntity
  8
FREI
  6
CONTINUOUS
 62
          15
100
AcDbLine
 10
-15417.069896526831
 20
-6319.083233401869
 30
0.0
 11
-15427.53750293124
 21
-6316.981844823933
 31
0.0
  0
LINE
  5
62
100
AcDbEntity
  8
FREI
  6
CONTINUOUS
 62
          15
100
AcDbLine
 10
-15427.717027800096
 20
-6331.180279012906
 30
0.0
 11
-15438.183458275651
 21
-6329.078988167788
 31
0.0
  0
LINE
  5
63
100
AcDbEntity
  8
FREI
  6
CONTINUOUS
 62
          15
100
AcDbLine
 10
-15433.675848335986
 20
-6334.251397734255
 30
0.0
 11
-15423.208241931578
 21
-6336.352786312191
 31
0.0
  0
ARC
  5
64
100
AcDbEntity
  8
FREI
  6
CONTINUOUS
 62
          15
100
AcDbCircle
 10
-15438.595357521859
 20
-6331.128685455051
 30
0.0
 40
2.092700220231
100
AcDbArc
 50
78.637401704415
 51
198.634226065905
  0
ARC
  5
65
100
AcDbEntity
  8
FREI
  6
CONTINUOUS
 62
          15
100
AcDbCircle
 10
-15433.882188890364
 20
-6335.280950093302
 30
0.0
 40
1.046055114313
100
AcDbArc
 50
78.667055344222
 51
198.659895497622
  0
LINE
  5
66
100
AcDbEntity
  8
FREI
  6
CONTINUOUS
 62
          15
100
AcDbLine
 10
-15429.932618255003
 20
-6319.700286995985
 30
0.0
 11
-15426.517903278089
 21
-6329.816451944285
 31
0.0
  0
LINE
  5
67
100
AcDbEntity
  8
FREI
  6
CONTINUOUS
 62
          15
100
AcDbLine
 10
-15420.811950678961
 20
-6333.634441872959
 30
0.0
 11
-15424.225489727021
 21
-6323.518374657479
 31
0.0
  0
ARC
  5
68
100
AcDbEntity
  8
FREI
  6
CONTINUOUS
 62
          15
100
AcDbCircle
 10
-15422.796342685371
 20
-6334.30308902493
 30
0.0
 40
2.092700220231
100
AcDbArc
 50
258.637406711703
 51
18.621406255528
  0
ARC
  5
69
100
AcDbEntity
  8
FREI
  6
CONTINUOUS
 62
          15
100
AcDbCircle
 10
-15427.51068724572
 20
-6330.150726653861
 30
0.0
 40
1.046055114313
100
AcDbArc
 50
258.667060351511
 51
18.608604704482
  0
LINE
  5
6A
100
AcDbEntity
  8
FREI
  6
CONTINUOUS
 62
          15
100
AcDbLine
 10
-15438.36415907336
 20
-6343.277324623943
 30
0.0
 11
-15448.830589548916
 21
-6341.176033778827
 31
0.0
  0
LINE
  5
6B
100
AcDbEntity
  8
FREI
  6
CONTINUOUS
 62
          15
100
AcDbLine
 10
-15444.322979609251
 20
-6346.348443345294
 30
0.0
 11
-15433.855373204844
 21
-6348.44983192323
 31
0.0
  0
ARC
  5
6C
100
AcDbEntity
  8
FREI
  6
CONTINUOUS
 62
          15
100
AcDbCircle
 10
-15449.242488795124
 20
-6343.22573106609
 30
0.0
 40
2.092700220231
100
AcDbArc
 50
78.637401704415
 51
198.634226065905
  0
ARC
  5
6D
100
AcDbEntity
  8
FREI
  6
CONTINUOUS
 62
          15
100
AcDbCircle
 10
-15444.529320163627
 20
-6347.377995704339
 30
0.0
 40
1.046055114313
100
AcDbArc
 50
78.667055344222
 51
198.659895497622
  0
LINE
  5
6E
100
AcDbEntity
  8
FREI
  6
CONTINUOUS
 62
          15
100
AcDbLine
 10
-15440.578573599416
 20
-6331.797430339841
 30
0.0
 11
-15437.165034551355
 21
-6341.913497555323
 31
0.0
  0
LINE
  5
6F
100
AcDbEntity
  8
FREI
  6
CONTINUOUS
 62
          15
100
AcDbLine
 10
-15431.459081952227
 20
-6345.731487483996
 30
0.0
 11
-15434.872621000288
 21
-6335.615420268512
 31
0.0
  0
ARC
  5
70
100
AcDbEntity
  8
FREI
  6
CONTINUOUS
 62
          15
100
AcDbCircle
 10
-15433.443473958634
 20
-6346.400134635967
 30
0.0
 40
2.092700220231
100
AcDbArc
 50
258.637406711703
 51
18.621406255528
  0
ARC
  5
71
100
AcDbEntity
  8
FREI
  6
CONTINUOUS
 62
          15
100
AcDbCircle
 10
-15438.158209450257
 20
-6342.252475980313
 30
0.0
 40
1.046055114313
100
AcDbArc
 50
258.637406711703
 51
18.845177758969
  0
ARC
  5
72
100
AcDbEntity
  8
FREI
  6
CONTINUOUS
 62
          15
100
AcDbCircle
 10
-15448.805340723522
 20
-6354.349521591352
 30
0.0
 40
1.046055114313
100
AcDbArc
 50
258.637406711703
 51
18.845177758969
  0
ARC
  5
73
100
AcDbEntity
  8
FREI
  6
CONTINUOUS
 62
          15
100
AcDbCircle
 10
-15444.090605231901
 20
-6358.497180247005
 30
0.0
 40
2.092700220231
100
AcDbArc
 50
258.637406711703
 51
18.621406255528
  0
LINE
  5
74
100
AcDbEntity
  8
FREI
  6
CONTINUOUS
 62
          15
100
AcDbLine
 10
-15442.106213225492
 20
-6357.828533095033
 30
0.0
 11
-15445.519752273553
 21
-6347.712465879549
 31
0.0
  0
LINE
  5
75
100
AcDbEntity
  8
FREI
  6
CONTINUOUS
 62
          15
100
AcDbLine
 10
-15451.225704872681
 20
-6343.894475950878
 30
0.0
 11
-15447.81216582462
 21
-6354.01054316636
 31
0.0
  0
ARC
  5
76
100
AcDbEntity
  8
FREI
  6
CONTINUOUS
 62
          15
100
AcDbCircle
 10
-15457.105334919255
 20
-6370.118015829143
 30
0.0
 40
4.18658042367
100
AcDbArc
 50
318.637481348987
 51
18.634221057158
  0
ARC
  5
77
100
AcDbEntity
  8
FREI
  6
CONTINUOUS
 62
          15
100
AcDbCircle
 10
-15461.845235462843
 20
-6369.165204840074
 30
0.0
 40
4.18658042367
100
AcDbArc
 50
318.637481348987
 51
18.634221057158
  0
ARC
  5
78
100
AcDbEntity
  8
FREI
  6
CONTINUOUS
 62
          15
100
AcDbCircle
 10
-15455.176451436892
 20
-6359.475041315376
 30
0.0
 40
1.046055114313
100
AcDbArc
 50
78.667055344222
 51
198.685618161791
  0
ARC
  5
79
100
AcDbEntity
  8
FREI
  6
CONTINUOUS
 62
          15
100
AcDbCircle
 10
-15459.88962006839
 20
-6355.322776677125
 30
0.0
 40
2.092700220231
100
AcDbArc
 50
78.637401704415
 51
198.752718090275
  0
LINE
  5
7A
100
AcDbEntity
  8
FREI
  6
CONTINUOUS
 62
          15
100
AcDbLine
 10
-15454.970110882516
 20
-6358.445488956331
 30
0.0
 11
-15444.502504478107
 21
-6360.546877534265
 31
0.0
  0
LINE
  5
7B
100
AcDbEntity
  8
FREI
  6
CONTINUOUS
 62
          15
100
AcDbLine
 10
-15449.011290346627
 20
-6355.374370234982
 30
0.0
 11
-15459.47772082218
 21
-6353.273079389865
 31
0.0
  0
LINE
  5
7C
100
AcDbEntity
  8
FREI
  6
CONTINUOUS
 62
          15
100
AcDbLine
 10
-15461.87322707722
 20
-6355.996225277328
 30
0.0
 11
-15457.878803307736
 21
-6367.827715070498
 31
0.0
  0
LINE
  5
7D
100
AcDbEntity
  8
FREI
  6
CONTINUOUS
 62
          15
100
AcDbLine
 10
-15453.138902764145
 20
-6368.780526059567
 30
0.0
 11
-15456.165707617965
 21
-6359.809609223406
 31
0.0
  0
LINE
  5
7E
100
AcDbEntity
  8
FREI
  6
CONTINUOUS
 62
          15
100
AcDbLine
 10
-15453.963092187832
 20
-6372.884624349506
 30
0.0
 11
-15462.38596486188
 21
-6382.452684552107
 31
0.0
  0
LINE
  5
7F
100
AcDbEntity
  8
FREI
  6
CONTINUOUS
 62
          15
100
AcDbLine
 10
-15464.718993928209
 20
-6378.768199840111
 30
0.0
 11
-15458.702992731422
 21
-6371.931813360437
 31
0.0
  0
LINE
  5
80
100
AcDbEntity
  8
FREI
  6
CONTINUOUS
 62
          15
100
AcDbLine
 10
-15468.204022290593
 20
-6371.521068208327
 30
0.0
 11
-15467.408805671588
 21
-6367.566120552181
 31
0.0
  0
LINE
  5
81
100
AcDbEntity
  8
FREI
  6
GESTRICHELT
 62
          15
100
AcDbLine
 10
-15417.110273488615
 20
-6304.852314296826
 30
0.0
 11
-15414.585097473122
 21
-6305.355829402428
 31
0.0
  0
LINE
  5
82
100
AcDbEntity
  8
FREI
  6
GESTRICHELT
 62
          15
100
AcDbLine
 10
-15410.164819405696
 20
-6321.53739626192
 30
0.0
 11
-15413.57953438261
 21
-6311.421231313621
 31
0.0
  0
ARC
  5
83
100
AcDbEntity
  8
FREI
  6
GESTRICHELT
 62
          15
100
AcDbCircle
 10
-15412.589102272685
 20
-6311.086761138407
 30
0.0
 40
1.046055114313
100
AcDbArc
 50
78.667055344222
 51
198.659895497622
  0
CIRCLE
  5
84
100
AcDbEntity
  8
FREI
  6
CONTINUOUS
 62
          15
100
AcDbCircle
 10
-15399.41577938684
 20
-6297.198897831555
 30
0.0
 40
5.874546403394
  0
TEXT
  5
85
100
AcDbEntity
  8
FREI
  6
CONTINUOUS
 62
          15
100
AcDbText
 10
-15558.505887899059
 20
-6386.748911922048
 30
0.0
 40
3.527777671814
  1
100-230
 41
0.899999979725
  7
GOTHICG
100
AcDbText
  0
ENDSEC
  0
SECTION
  2
OBJECTS
  0
DICTIONARY
  5
19
100
AcDbDictionary
  3
ACAD_GROUP
350
1A
  3
ACAD_MLINESTYLE
350
1B
  0
DICTIONARY
  5
1A
102
{ACAD_REACTORS
330
19
102
}
100
AcDbDictionary
  0
DICTIONARY
  5
1B
102
{ACAD_REACTORS
330
19
102
}
100
AcDbDictionary
  3
STANDARD
350
1C
  0
MLINESTYLE
  5
1C
102
{ACAD_REACTORS
330
1B
102
}
100
AcDbMlineStyle
  2
STANDARD
 70
           0
  3

 62
           0
 51
90.0
 52
90.0
 71
           2
 49
0.5
 62
         256
  6
BYLAYER
 49
-0.5
 62
         256
  6
BYLAYER
  0
ENDSEC
  0
EOF
