  0
SECTION
  2
HEADER
  9
$ACADVER
  1
AC1012
  9
$DWGCODEPAGE
  3
dos850
  9
$INSBASE
 10
0.0
 20
0.0
 30
0.0
  9
$EXTMIN
 10
-15748.796840463981
 20
-8793.025109248656
 30
0.0
  9
$EXTMAX
 10
-15416.364188194422
 20
-8468.107409872158
 30
0.0
  9
$LIMMIN
 10
-15748.796840463981
 20
-8793.025109248656
  9
$LIMMAX
 10
-15416.364188194422
 20
-8468.107409872158
  9
$ORTHOMODE
 70
           0
  9
$REGENMODE
 70
           1
  9
$FILLMODE
 70
           1
  9
$QTEXTMODE
 70
           0
  9
$MIRRTEXT
 70
           1
  9
$DRAGMODE
 70
           2
  9
$LTSCALE
 40
5.0
  9
$OSMODE
 70
           0
  9
$ATTMODE
 70
           1
  9
$TEXTSIZE
 40
0.2
  9
$TRACEWID
 40
0.05
  9
$TEXTSTYLE
  7
TXT
  9
$CLAYER
  8
0
  9
$CELTYPE
  6
CONTINUOUS
  9
$CECOLOR
 62
         256
  9
$CELTSCALE
 40
1.0
  9
$DELOBJ
 70
           1
  9
$DISPSILH
 70
           0
  9
$DIMSCALE
 40
1.0
  9
$DIMASZ
 40
3.5
  9
$DIMEXO
 40
0.0625
  9
$DIMDLI
 40
0.38
  9
$DIMRND
 40
0.0
  9
$DIMDLE
 40
0.0
  9
$DIMEXE
 40
0.18
  9
$DIMTP
 40
0.0
  9
$DIMTM
 40
0.0
  9
$DIMTXT
 40
3.5
  9
$DIMCEN
 40
0.09
  9
$DIMTSZ
 40
0.0
  9
$DIMTOL
 70
           0
  9
$DIMLIM
 70
           0
  9
$DIMTIH
 70
           1
  9
$DIMTOH
 70
           1
  9
$DIMSE1
 70
           0
  9
$DIMSE2
 70
           0
  9
$DIMTAD
 70
           0
  9
$DIMZIN
 70
           0
  9
$DIMBLK
  1

  9
$DIMASO
 70
           1
  9
$DIMSHO
 70
           1
  9
$DIMPOST
  1

  9
$DIMAPOST
  1

  9
$DIMALT
 70
           0
  9
$DIMALTD
 70
           2
  9
$DIMALTF
 40
25.4
  9
$DIMLFAC
 40
1.0
  9
$DIMTOFL
 70
           0
  9
$DIMTVP
 40
0.0
  9
$DIMTIX
 70
           0
  9
$DIMSOXD
 70
           0
  9
$DIMSAH
 70
           0
  9
$DIMBLK1
  1

  9
$DIMBLK2
  1

  9
$DIMSTYLE
  2
STANDARD
  9
$DIMCLRD
 70
           0
  9
$DIMCLRE
 70
           0
  9
$DIMCLRT
 70
           0
  9
$DIMTFAC
 40
1.0
  9
$DIMGAP
 40
0.09
  9
$DIMJUST
 70
           0
  9
$DIMSD1
 70
           0
  9
$DIMSD2
 70
           0
  9
$DIMTOLJ
 70
           1
  9
$DIMTZIN
 70
           0
  9
$DIMALTZ
 70
           0
  9
$DIMALTTZ
 70
           0
  9
$DIMFIT
 70
           3
  9
$DIMUPT
 70
           0
  9
$DIMUNIT
 70
           2
  9
$DIMDEC
 70
           4
  9
$DIMTDEC
 70
           4
  9
$DIMALTU
 70
           2
  9
$DIMALTTD
 70
           2
  9
$DIMTXSTY
  7
TXT
  9
$DIMAUNIT
 70
           0
  9
$LUNITS
 70
           2
  9
$LUPREC
 70
           3
  9
$SKETCHINC
 40
0.1
  9
$FILLETRAD
 40
0.0
  9
$AUNITS
 70
           0
  9
$AUPREC
 70
           3
  9
$MENU
  1
acad
  9
$ELEVATION
 40
0.0
  9
$PELEVATION
 40
0.0
  9
$THICKNESS
 40
0.0
  9
$LIMCHECK
 70
           0
  9
$BLIPMODE
 70
           1
  9
$CHAMFERA
 40
0.0
  9
$CHAMFERB
 40
0.0
  9
$CHAMFERC
 40
0.0
  9
$CHAMFERD
 40
0.0
  9
$SKPOLY
 70
           0
  9
$TDCREATE
 40
0.000000000
  9
$TDUPDATE
 40
0.000000000
  9
$TDINDWG
 40
0.0000000000
  9
$TDUSRTIMER
 40
0.0000000000
  9
$USRTIMER
 70
           1
  9
$ANGBASE
 50
0.0
  9
$ANGDIR
 70
           0
  9
$PDMODE
 70
           2
  9
$PDSIZE
 40
0.5
  9
$PLINEWID
 40
0.0
  9
$COORDS
 70
           0
  9
$SPLFRAME
 70
           0
  9
$SPLINETYPE
 70
           6
  9
$SPLINESEGS
 70
           8
  9
$ATTDIA
 70
           0
  9
$ATTREQ
 70
           1
  9
$HANDLING
 70
           1
  9
$HANDSEED
  5
8B
  9
$SURFTAB1
 70
           6
  9
$SURFTAB2
 70
           6
  9
$SURFTYPE
 70
           6
  9
$SURFU
 70
           6
  9
$SURFV
 70
           6
  9
$UCSNAME
  2

  9
$UCSORG
 10
0.0
 20
0.0
 30
0.0
  9
$UCSXDIR
 10
1.0
 20
0.0
 30
0.0
  9
$UCSYDIR
 10
0.0
 20
1.0
 30
0.0
  9
$PUCSNAME
  2

  9
$PUCSORG
 10
0.0
 20
0.0
 30
0.0
  9
$PUCSXDIR
 10
1.0
 20
0.0
 30
0.0
  9
$PUCSYDIR
 10
0.0
 20
1.0
 30
0.0
  9
$USERI1
 70
           0
  9
$USERI2
 70
           0
  9
$USERI3
 70
           0
  9
$USERI4
 70
           0
  9
$USERI5
 70
           0
  9
$USERR1
 40
0.0
  9
$USERR2
 40
0.0
  9
$USERR3
 40
0.0
  9
$USERR4
 40
0.0
  9
$USERR5
 40
0.0
  9
$WORLDVIEW
 70
           1
  9
$SHADEDGE
 70
           3
  9
$SHADEDIF
 70
          70
  9
$TILEMODE
 70
           1
  9
$MAXACTVP
 70
          16
  9
$PINSBASE
 10
0.0
 20
0.0
 30
0.0
  9
$PLIMCHECK
 70
           0
  9
$PEXTMIN
 10
1.000000000000E+20
 20
1.000000000000E+20
 30
1.000000000000E+20
  9
$PEXTMAX
 10
-1.000000000000E+20
 20
-1.000000000000E+20
 30
-1.000000000000E+20
  9
$PLIMMIN
 10
0.0
 20
0.0
  9
$PLIMMAX
 10
12.0
 20
9.0
  9
$UNITMODE
 70
           0
  9
$VISRETAIN
 70
           0
  9
$PLINEGEN
 70
           1
  9
$PSLTSCALE
 70
           0
  9
$TREEDEPTH
 70
        3020
  9
$PICKSTYLE
 70
           1
  9
$CMLSTYLE
  2
STANDARD
  9
$CMLJUST
 70
           0
  9
$CMLSCALE
 40
1.0
  9
$SAVEIMAGES
 70
           0
  0
ENDSEC
  0
SECTION
  2
CLASSES
  0
CLASS
  1
LWPOLYLINE
  2
AcDbPolyline
  3
"AutoCAD"
 90
        0
280
           0
281
           1
  0
CLASS
  1
IMAGE
  2
AcDbRasterImage
  3
ISM
 90
      127
280
           0
281
           1
  0
CLASS
  1
OLE2FRAME
  2
AcDbOle2Frame
  3
""
 90
        0
280
           0
281
           1
  0
CLASS
  1
HATCH
  2
AcDbHatch
  3
"ACAD_SEDONA"
 90
        0
280
           0
281
           1
  0
CLASS
  1
DICTIONARYVAR
  2
AcDbDictionaryVar
  3
"AutoCAD"
 90
        0
280
           0
281
           0
  0
CLASS
  1
RASTERVARIABLES
  2
AcDbRasterVariables
  3
ISM
 90
        0
280
           0
281
           0
  0
CLASS
  1
IMAGEDEF
  2
AcDbRasterImageDef
  3
ISM
 90
        0
280
           0
281
           0
  0
CLASS
  1
IMAGEDEF_REACTOR
  2
AcDbRasterImageDefReactor
  3
ISM
 90
        1
280
           0
281
           0
  0
CLASS
  1
IDBUFFER
  2
AcDbIdBuffer
  3
"Acad"
 90
        0
280
           0
281
           0
  0
CLASS
  1
SPATIAL_FILTER
  2
AcDbSpatialFilter
  3
"Acad"
 90
        0
280
           0
281
           0
  0
CLASS
  1
XRECORD
  2
AcDbXrecord
  3
"<Built In>"
 90
        0
280
           0
281
           0
  0
ENDSEC
  0
SECTION
  2
TABLES
  0
TABLE
  2
VPORT
  5
7
100
AcDbSymbolTable
 70
           1
  0
VPORT
  5
15
100
AcDbSymbolTableRecord
100
AcDbViewportTableRecord
  2
*ACTIVE
 70
           0
 10
0.0
 20
0.0
 11
1.0
 21
1.0
 12
6.591288
 22
4.579184
 13
0.0
 23
0.0
 14
1.0
 24
1.0
 15
0.0
 25
0.0
 16
0.0
 26
0.0
 36
1.0
 17
0.0
 27
0.0
 37
0.0
 40
9.158369
 41
0.688564
 42
50.0
 43
0.0
 44
0.0
 50
0.0
 51
0.0
 71
           0
 72
         100
 73
           1
 74
           1
 75
           0
 76
           0
 77
           0
 78
           0
  0
ENDTAB
  0
TABLE
  2
LTYPE
  5
4
100
AcDbSymbolTable
 70
           5
  0
LTYPE
  5
11
100
AcDbSymbolTableRecord
100
AcDbLinetypeTableRecord
  2
BYBLOCK
 70
           0
  3

 72
          65
 73
           0
 40
0.0
  0
LTYPE
  5
12
100
AcDbSymbolTableRecord
100
AcDbLinetypeTableRecord
  2
BYLAYER
 70
           0
  3

 72
          65
 73
           0
 40
0.0
  0
LTYPE
  5
13
100
AcDbSymbolTableRecord
100
AcDbLinetypeTableRecord
  2
CONTINUOUS
 70
           0
  3
Solid line
 72
          65
 73
           0
 40
0.0
  0
LTYPE
  5
1D
100
AcDbSymbolTableRecord
100
AcDbLinetypeTableRecord
  2
GESTRICHELT
 70
           0
  3

 72
          65
 73
           2
 40
0.75
 49
0.5
 74
           0
 49
-0.25
 74
           0
  0
LTYPE
  5
1E
100
AcDbSymbolTableRecord
100
AcDbLinetypeTableRecord
  2
STRICHPUNKT
 70
           0
  3

 72
          65
 73
           4
 40
1.0
 49
0.5
 74
           0
 49
-0.25
 74
           0
 49
0.0
 74
           0
 49
-0.25
 74
           0
  0
ENDTAB
  0
TABLE
  2
LAYER
  5
2
100
AcDbSymbolTable
 70
           2
  0
LAYER
  5
14
100
AcDbSymbolTableRecord
100
AcDbLayerTableRecord
  2
0
 70
           0
 62
           7
  6
CONTINUOUS
  0
LAYER
  5
20
100
AcDbSymbolTableRecord
100
AcDbLayerTableRecord
  2
FREI
 70
           0
 62
           7
  6
CONTINUOUS
  0
ENDTAB
  0
TABLE
  2
STYLE
  5
3
100
AcDbSymbolTable
 70
           2
  0
STYLE
  5
17
100
AcDbSymbolTableRecord
100
AcDbTextStyleTableRecord
  2
TXT
 70
           0
 40
3.5
 41
1.0
 50
0.0
 71
           0
 42
3.5
  3
TXT
  4

  0
STYLE
  5
1F
100
AcDbSymbolTableRecord
100
AcDbTextStyleTableRecord
  2
GOTHICG
 70
           0
 40
3.5
 41
1.0
 50
0.0
 71
           0
 42
3.5
  3
GOTHICG
  4

  0
ENDTAB
  0
TABLE
  2
VIEW
  5
5
100
AcDbSymbolTable
 70
           0
  0
ENDTAB
  0
TABLE
  2
UCS
  5
6
100
AcDbSymbolTable
 70
           0
  0
ENDTAB
  0
TABLE
  2
APPID
  5
8
100
AcDbSymbolTable
 70
           2
  0
APPID
  5
16
100
AcDbSymbolTableRecord
100
AcDbRegAppTableRecord
  2
ACAD
 70
           0
  0
APPID
  5
21
100
AcDbSymbolTableRecord
100
AcDbRegAppTableRecord
  2
MegaCADPntStyle
 70
           0
  0
ENDTAB
  0
TABLE
  2
DIMSTYLE
  5
9
100
AcDbSymbolTable
 70
           1
  0
DIMSTYLE
105
18
100
AcDbSymbolTableRecord
100
AcDbDimStyleTableRecord
  2
STANDARD
 70
           0
  3

  4

  5

  6

  7

 40
1.0
 41
0.18
 42
0.0625
 43
0.38
 44
0.18
 45
0.0
 46
0.0
 47
0.0
 48
0.0
140
0.18
141
0.09
142
0.0
143
25.4
144
1.0
145
0.0
146
1.0
147
0.09
 71
           0
 72
           0
 73
           1
 74
           1
 75
           0
 76
           0
 77
           0
 78
           0
170
           0
171
           2
172
           0
173
           0
174
           0
175
           0
176
           0
177
           0
178
           0
270
           2
271
           4
272
           4
273
           2
274
           2
340
17
275
           0
280
           0
281
           0
282
           0
283
           1
284
           0
285
           0
286
           0
287
           0
288
           0
  0
ENDTAB
  0
TABLE
  2
BLOCK_RECORD
  5
1
100
AcDbSymbolTable
 70
           1
  0
BLOCK_RECORD
  5
A
100
AcDbSymbolTableRecord
100
AcDbBlockTableRecord
  2
*MODEL_SPACE
  0
BLOCK_RECORD
  5
B
100
AcDbSymbolTableRecord
100
AcDbBlockTableRecord
  2
*PAPER_SPACE
  0
BLOCK_RECORD
  5
22
100
AcDbSymbolTableRecord
100
AcDbBlockTableRecord
  2
ELIPPSE
  0
ENDTAB
  0
ENDSEC
  0
SECTION
  2
BLOCKS
  0
BLOCK
  5
D
100
AcDbEntity
  8
0
100
AcDbBlockBegin
  2
*MODEL_SPACE
 70
           0
 10
0.0
 20
0.0
 30
0.0
  3
*MODEL_SPACE
  1

  0
ENDBLK
  5
E
100
AcDbEntity
  8
0
100
AcDbBlockEnd
  0
BLOCK
  5
F
100
AcDbEntity
 67
           1
  8
0
100
AcDbBlockBegin
  2
*PAPER_SPACE
 70
           0
 10
0.0
 20
0.0
 30
0.0
  3
*PAPER_SPACE
  1

  0
ENDBLK
  5
10
100
AcDbEntity
 67
           1
  8
0
100
AcDbBlockEnd
  0
BLOCK
  5
86
100
AcDbEntity
  8
0
100
AcDbBlockBegin
  2
ELIPPSE
 70
          64
 10
0.0
 20
0.0
 30
0.0
  3
ELIPPSE
  1

  0
CIRCLE
  5
87
100
AcDbEntity
  8
0
  6
BYBLOCK
 62
           0
100
AcDbCircle
 10
0.0
 20
0.0
 30
0.0
 40
1.0
  0
ENDBLK
  5
88
100
AcDbEntity
  8
0
  6
BYBLOCK
 62
           0
100
AcDbBlockEnd
  0
ENDSEC
  0
SECTION
  2
ENTITIES
  0
LINE
  5
23
100
AcDbEntity
  8
FREI
  6
CONTINUOUS
 62
          15
100
AcDbLine
 10
-15525.428966418473
 20
-8468.107409872158
 30
0.0
 11
-15674.173571152789
 21
-8529.719442482938
 31
0.0
  0
LINE
  5
24
100
AcDbEntity
  8
FREI
  6
CONTINUOUS
 62
          15
100
AcDbLine
 10
-15582.580514329202
 20
-8750.844642485654
 30
0.0
 11
-15565.108792928739
 21
-8793.025109248656
 31
0.0
  0
LINE
  5
25
100
AcDbEntity
  8
FREI
  6
CONTINUOUS
 62
          15
100
AcDbLine
 10
-15674.173571152789
 20
-8529.719442482938
 30
0.0
 11
-15669.713086452739
 21
-8540.488005140558
 31
0.0
  0
LINE
  5
26
100
AcDbEntity
  8
FREI
  6
CONTINUOUS
 62
          15
100
AcDbLine
 10
-15565.108792928739
 20
-8793.025109248656
 30
0.0
 11
-15416.364188194422
 21
-8731.413076637877
 31
0.0
  0
LINE
  5
27
100
AcDbEntity
  8
FREI
  6
CONTINUOUS
 62
          15
100
AcDbLine
 10
-15512.65755161505
 20
-8498.940332701275
 30
0.0
 11
-15525.428966418473
 21
-8468.107409872158
 31
0.0
  0
LINE
  5
28
100
AcDbEntity
  8
FREI
  6
GESTRICHELT
 62
          15
100
AcDbLine
 10
-15442.148396248704
 20
-8669.164491858177
 30
0.0
 11
-15512.65755161505
 21
-8498.940332701275
 31
0.0
  0
LINE
  5
29
100
AcDbEntity
  8
FREI
  6
CONTINUOUS
 62
          15
100
AcDbLine
 10
-15416.364188194422
 20
-8731.413076637877
 30
0.0
 11
-15442.148396248704
 21
-8669.164491858177
 31
0.0
  0
LINE
  5
2A
100
AcDbEntity
  8
FREI
  6
STRICHPUNKT
 62
          15
100
AcDbLine
 10
-15490.73649056158
 20
-8762.219092943267
 30
0.0
 11
-15599.80126878563
 21
-8498.913426177549
 31
0.0
  0
LINE
  5
2B
100
AcDbEntity
  8
FREI
  6
STRICHPUNKT
 62
          15
100
AcDbLine
 10
-15582.580514329202
 20
-8540.488005140556
 30
0.0
 11
-15674.424538096822
 21
-8762.219092943267
 31
0.0
  0
LINE
  5
2C
100
AcDbEntity
  8
FREI
  6
CONTINUOUS
 62
          15
100
AcDbLine
 10
-15669.713086452739
 20
-8540.488005140558
 30
0.0
 11
-15748.796840463981
 21
-8731.413076637875
 31
0.0
  0
LINE
  5
2D
100
AcDbEntity
  8
FREI
  6
CONTINUOUS
 62
          15
100
AcDbLine
 10
-15582.580514329202
 20
-8750.844642485654
 30
0.0
 11
-15600.052235729663
 21
-8793.025109248652
 31
0.0
  0
LINE
  5
2E
100
AcDbEntity
  8
FREI
  6
GESTRICHELT
 62
          15
100
AcDbLine
 10
-15542.032518860669
 20
-8540.488005140554
 30
0.0
 11
-15495.447942205665
 21
-8540.488005140554
 31
0.0
  0
LINE
  5
2F
100
AcDbEntity
  8
FREI
  6
CONTINUOUS
 62
          15
100
AcDbLine
 10
-15669.713086452739
 20
-8540.488005140558
 30
0.0
 11
-15542.032518860669
 21
-8540.488005140554
 31
0.0
  0
LINE
  5
30
100
AcDbEntity
  8
FREI
  6
CONTINUOUS
 62
          15
100
AcDbLine
 10
-15582.580514329202
 20
-8594.645536351727
 30
0.0
 11
-15582.580514329202
 21
-8540.488005140556
 31
0.0
  0
LINE
  5
31
100
AcDbEntity
  8
FREI
  6
GESTRICHELT
 62
          15
100
AcDbLine
 10
-15582.580514329202
 20
-8620.620577264092
 30
0.0
 11
-15582.580514329202
 21
-8594.645536351727
 31
0.0
  0
LINE
  5
32
100
AcDbEntity
  8
FREI
  6
GESTRICHELT
 62
          15
100
AcDbLine
 10
-15582.5805143292
 20
-8709.327152834334
 30
0.0
 11
-15582.580514329202
 21
-8634.620577264092
 31
0.0
  0
LINE
  5
33
100
AcDbEntity
  8
FREI
  6
CONTINUOUS
 62
          15
100
AcDbLine
 10
-15582.580514329202
 20
-8750.844642485654
 30
0.0
 11
-15582.5805143292
 21
-8709.327152834334
 31
0.0
  0
LINE
  5
34
100
AcDbEntity
  8
FREI
  6
CONTINUOUS
 62
          15
100
AcDbLine
 10
-15600.052235729663
 20
-8793.025109248652
 30
0.0
 11
-15748.796840463981
 21
-8731.413076637875
 31
0.0
  0
CIRCLE
  5
35
100
AcDbEntity
  8
FREI
  6
CONTINUOUS
 62
          15
100
AcDbCircle
 10
-15582.580514329202
 20
-8627.620577264092
 30
0.0
 40
7.0
  0
LINE
  5
36
100
AcDbEntity
  8
FREI
  6
GESTRICHELT
 62
          15
100
AcDbLine
 10
-15558.078110586195
 20
-8665.277083131326
 30
0.0
 11
-15558.106162923632
 21
-8670.810775800585
 31
0.0
  0
LINE
  5
37
100
AcDbEntity
  8
FREI
  6
GESTRICHELT
 62
          15
100
AcDbLine
 10
-15558.068847996517
 20
-8627.620577264092
 30
0.0
 11
-15558.07765824926
 21
-8654.207402823244
 31
0.0
  0
LINE
  5
38
100
AcDbEntity
  8
FREI
  6
GESTRICHELT
 62
          15
100
AcDbLine
 10
-15607.09524404579
 20
-8627.026280786113
 30
0.0
 11
-15607.092458910814
 21
-8645.937347265699
 31
0.0
  0
ARC
  5
39
100
AcDbEntity
  8
FREI
  6
GESTRICHELT
 62
          15
100
AcDbCircle
 10
-15582.580514329202
 20
-8627.620577264092
 30
0.0
 40
24.511666332682
100
AcDbArc
 50
171.08747081001
 51
178.553410663232
  0
ARC
  5
3A
100
AcDbEntity
  8
FREI
  6
CONTINUOUS
 62
          15
100
AcDbCircle
 10
-15582.580514329202
 20
-8627.620577264092
 30
0.0
 40
24.511666332682
100
AcDbArc
 50
109.531001786774
 51
171.08747081001
  0
ARC
  5
3B
100
AcDbEntity
  8
FREI
  6
GESTRICHELT
 62
          15
100
AcDbCircle
 10
-15582.580514329202
 20
-8627.620577264092
 30
0.0
 40
24.511666332682
100
AcDbArc
 50
0.000000683099
 51
109.531001786774
  0
LINE
  5
3C
100
AcDbEntity
  8
FREI
  6
CONTINUOUS
 62
          15
100
AcDbLine
 10
-15607.092180661884
 20
-8709.327152834338
 30
0.0
 11
-15558.068847996517
 21
-8709.327152834336
 31
0.0
  0
LINE
  5
3D
100
AcDbEntity
  8
FREI
  6
CONTINUOUS
 62
          15
100
AcDbLine
 10
-15607.092180661884
 20
-8645.937469490318
 30
0.0
 11
-15607.092180661884
 21
-8709.327152834338
 31
0.0
  0
LINE
  5
3E
100
AcDbEntity
  8
FREI
  6
CONTINUOUS
 62
          15
100
AcDbLine
 10
-15558.068847996517
 20
-8709.327152834336
 30
0.0
 11
-15558.067382454132
 21
-8670.818561041308
 31
0.0
  0
ARC
  5
3F
100
AcDbEntity
  8
FREI
  6
CONTINUOUS
 62
          15
100
AcDbCircle
 10
-15513.586090437675
 20
-8526.404657586956
 30
0.0
 40
26.093904120701
100
AcDbArc
 50
22.507101035151
 51
69.812326881122
  0
ARC
  5
40
100
AcDbEntity
  8
FREI
  6
CONTINUOUS
 62
          15
100
AcDbCircle
 10
-15462.219459715048
 20
-8650.394456813769
 30
0.0
 40
26.093904120701
100
AcDbArc
 50
335.201835748251
 51
22.507101035151
  0
LINE
  5
41
100
AcDbEntity
  8
FREI
  6
CONTINUOUS
 62
          15
100
AcDbLine
 10
-15456.921769789902
 20
-8701.133054119304
 30
0.0
 11
-15438.531931295627
 21
-8661.338710922277
 31
0.0
  0
LINE
  5
42
100
AcDbEntity
  8
FREI
  6
CONTINUOUS
 62
          15
100
AcDbLine
 10
-15545.726783082568
 20
-8486.781881150628
 30
0.0
 11
-15504.579876409294
 21
-8501.910223995166
 31
0.0
  0
LINE
  5
43
100
AcDbEntity
  8
FREI
  6
CONTINUOUS
 62
          15
100
AcDbLine
 10
-15489.474888509094
 20
-8516.413969602698
 30
0.0
 11
-15438.108257786464
 21
-8640.403768829514
 31
0.0
  0
ARC
  5
44
100
AcDbEntity
  8
FREI
  6
CONTINUOUS
 62
          15
100
AcDbCircle
 10
-15602.71128407451
 20
-8635.963816201445
 30
0.0
 40
10.893393173657
100
AcDbArc
 50
140.165285169611
 51
264.705526113971
  0
LINE
  5
45
100
AcDbEntity
  8
FREI
  6
CONTINUOUS
 62
          15
100
AcDbLine
 10
-15540.565476038377
 20
-8544.021575435987
 30
0.0
 11
-15611.094207663162
 21
-8629.001713464082
 31
0.0
  0
LINE
  5
46
100
AcDbEntity
  8
FREI
  6
CONTINUOUS
 62
          15
100
AcDbLine
 10
-15558.148054383657
 20
-8501.591185749127
 30
0.0
 11
-15476.174145528632
 21
-8699.445257864505
 31
0.0
  0
ARC
  5
47
100
AcDbEntity
  8
FREI
  6
CONTINUOUS
 62
          15
100
AcDbCircle
 10
-15548.082271620571
 20
-8497.416528846636
 30
0.0
 40
10.893776096645
100
AcDbArc
 50
77.511072586301
 51
202.525620150222
  0
ARC
  5
48
100
AcDbEntity
  8
FREI
  6
CONTINUOUS
 62
          15
100
AcDbCircle
 10
-15466.110677263314
 20
-8695.276476884426
 30
0.0
 40
10.893776096645
100
AcDbArc
 50
202.501734733568
 51
327.488481380678
  0
LINE
  5
49
100
AcDbEntity
  8
FREI
  6
GESTRICHELT
 62
          15
100
AcDbLine
 10
-15533.516998630375
 20
-8653.400119704946
 30
0.0
 11
-15559.193550911794
 21
-8650.900440453539
 31
0.0
  0
LINE
  5
4A
100
AcDbEntity
  8
FREI
  6
CONTINUOUS
 62
          15
100
AcDbLine
 10
-15533.480667498477
 20
-8653.446719432139
 30
0.0
 11
-15493.62634377864
 21
-8657.328544742579
 31
0.0
  0
LINE
  5
4B
100
AcDbEntity
  8
FREI
  6
CONTINUOUS
 62
          15
100
AcDbLine
 10
-15559.178926003731
 20
-8650.943781558148
 30
0.0
 11
-15603.716056036284
 21
-8646.806297367644
 31
0.0
  0
ARC
  5
4C
100
AcDbEntity
  8
FREI
  6
CONTINUOUS
 62
          15
100
AcDbCircle
 10
-15582.580514329202
 20
-8692.987063073852
 30
0.0
 40
11.775264815914
100
AcDbArc
 50
78.645411513612
 51
318.642951543439
  0
LINE
  5
4D
100
AcDbEntity
  8
FREI
  6
GESTRICHELT
 62
          15
100
AcDbLine
 10
-15557.821776306122
 20
-8665.325882575435
 30
0.0
 11
-15556.38129801895
 21
-8665.617743370915
 31
0.0
  0
ARC
  5
4E
100
AcDbEntity
  8
FREI
  6
GESTRICHELT
 62
          15
100
AcDbCircle
 10
-15508.533542111156
 20
-8622.563055273406
 30
0.0
 40
2.716455679623
100
AcDbArc
 50
302.413090928372
 51
18.608604704482
  0
CIRCLE
  5
4F
100
AcDbEntity
  8
FREI
  6
CONTINUOUS
 62
          15
100
AcDbCircle
 10
-15492.003225073711
 20
-8590.102344224242
 30
0.0
 40
7.625528390755
  0
ARC
  5
50
100
AcDbEntity
  8
FREI
  6
GESTRICHELT
 62
          15
100
AcDbCircle
 10
-15496.719394463647
 20
-8600.914553811197
 30
0.0
 40
2.716455679623
100
AcDbArc
 50
258.637406711703
 51
318.708608284301
  0
ARC
  5
51
100
AcDbEntity
  8
FREI
  6
GESTRICHELT
 62
          15
100
AcDbCircle
 10
-15494.712900272752
 20
-8606.860334004929
 30
0.0
 40
2.716455679623
100
AcDbArc
 50
258.669531649356
 51
318.708608284301
  0
LINE
  5
52
100
AcDbEntity
  8
FREI
  6
GESTRICHELT
 62
          15
100
AcDbLine
 10
-15499.23223357584
 20
-8592.532443466223
 30
0.0
 11
-15503.169547070551
 21
-8593.858991595986
 31
0.0
  0
LINE
  5
53
100
AcDbEntity
  8
FREI
  6
GESTRICHELT
 62
          15
100
AcDbLine
 10
-15490.058489605895
 20
-8597.475450325701
 30
0.0
 11
-15494.678200580111
 21
-8602.70724320244
 31
0.0
  0
LINE
  5
54
100
AcDbEntity
  8
FREI
  6
GESTRICHELT
 62
          15
100
AcDbLine
 10
-15492.671706389214
 20
-8608.653023396173
 30
0.0
 11
-15483.17229689393
 21
-8597.875628866461
 31
0.0
  0
ARC
  5
55
100
AcDbEntity
  8
FREI
  6
GESTRICHELT
 62
          15
100
AcDbCircle
 10
-15492.011876195369
 20
-8590.095477327815
 30
0.0
 40
11.774881892926
100
AcDbArc
 50
318.647395568672
 51
198.639402770666
  0
ARC
  5
56
100
AcDbEntity
  8
FREI
  6
CONTINUOUS
 62
          15
100
AcDbCircle
 10
-15515.221008968942
 20
-8602.739759771006
 30
0.0
 40
2.716455679623
100
AcDbArc
 50
132.795679260585
 51
198.634226065905
  0
ARC
  5
57
100
AcDbEntity
  8
FREI
  6
GESTRICHELT
 62
          15
100
AcDbCircle
 10
-15515.221008968942
 20
-8602.739759771006
 30
0.0
 40
2.716455679623
100
AcDbArc
 50
84.731670676549
 51
132.795679260585
  0
LINE
  5
58
100
AcDbEntity
  8
FREI
  6
GESTRICHELT
 62
          15
100
AcDbLine
 10
-15508.835178576355
 20
-8606.79323547893
 30
0.0
 11
-15495.246044808886
 21
-8609.521096053182
 31
0.0
  0
LINE
  5
59
100
AcDbEntity
  8
FREI
  6
GESTRICHELT
 62
          15
100
AcDbLine
 10
-15497.25406542893
 20
-8603.575188996145
 30
0.0
 11
-15511.693948032089
 21
-8600.690551211457
 31
0.0
  0
ARC
  5
5A
100
AcDbEntity
  8
FREI
  6
CONTINUOUS
 62
          15
100
AcDbCircle
 10
-15514.651529567876
 20
-8617.173156256418
 30
0.0
 40
1.357844916823
100
AcDbArc
 50
258.667060351511
 51
18.608604704482
  0
ARC
  5
5B
100
AcDbEntity
  8
FREI
  6
CONTINUOUS
 62
          15
100
AcDbCircle
 10
-15508.533542111156
 20
-8622.563055273406
 30
0.0
 40
2.716455679623
100
AcDbArc
 50
258.669531649356
 51
302.413090928372
  0
LINE
  5
5C
100
AcDbEntity
  8
FREI
  6
CONTINUOUS
 62
          15
100
AcDbLine
 10
-15517.795347388614
 20
-8603.607832428019
 30
0.0
 11
-15513.362833928895
 21
-8616.73924679122
 31
0.0
  0
ARC
  5
5D
100
AcDbEntity
  8
FREI
  6
CONTINUOUS
 62
          15
100
AcDbCircle
 10
-15522.923663350623
 20
-8623.83238005647
 30
0.0
 40
1.357844916823
100
AcDbArc
 50
78.603100952973
 51
198.685618161791
  0
ARC
  5
5E
100
AcDbEntity
  8
FREI
  6
CONTINUOUS
 62
          15
100
AcDbCircle
 10
-15529.041650807347
 20
-8618.442481039483
 30
0.0
 40
2.716455679623
100
AcDbArc
 50
78.637401704415
 51
198.634226065905
  0
LINE
  5
5F
100
AcDbEntity
  8
FREI
  6
CONTINUOUS
 62
          15
100
AcDbLine
 10
-15522.65429398561
 20
-8622.496083610715
 30
0.0
 11
-15509.066686647287
 21
-8625.223817321659
 31
0.0
  0
LINE
  5
60
100
AcDbEntity
  8
FREI
  6
CONTINUOUS
 62
          15
100
AcDbLine
 10
-15514.919372503742
 20
-8618.509579565483
 30
0.0
 11
-15528.506979842066
 21
-8615.781845854535
 31
0.0
  0
LINE
  5
61
100
AcDbEntity
  8
FREI
  6
CONTINUOUS
 62
          15
100
AcDbLine
 10
-15528.740014342147
 20
-8634.212300833957
 30
0.0
 11
-15542.326095251321
 21
-8631.48469398632
 31
0.0
  0
LINE
  5
62
100
AcDbEntity
  8
FREI
  6
CONTINUOUS
 62
          15
100
AcDbLine
 10
-15536.474935824015
 20
-8638.198804879192
 30
0.0
 11
-15522.887328485689
 21
-8640.92653859014
 31
0.0
  0
ARC
  5
63
100
AcDbEntity
  8
FREI
  6
CONTINUOUS
 62
          15
100
AcDbCircle
 10
-15542.860766216601
 20
-8634.145329171266
 30
0.0
 40
2.716455679623
100
AcDbArc
 50
78.637401704415
 51
198.634226065905
  0
ARC
  5
64
100
AcDbEntity
  8
FREI
  6
CONTINUOUS
 62
          15
100
AcDbCircle
 10
-15536.742778759881
 20
-8639.535228188253
 30
0.0
 40
1.357844916823
100
AcDbArc
 50
78.667055344222
 51
198.659895497622
  0
LINE
  5
65
100
AcDbEntity
  8
FREI
  6
CONTINUOUS
 62
          15
100
AcDbLine
 10
-15531.615989227017
 20
-8619.310553696494
 30
0.0
 11
-15527.183475767295
 21
-8632.441968059697
 31
0.0
  0
LINE
  5
66
100
AcDbEntity
  8
FREI
  6
CONTINUOUS
 62
          15
100
AcDbLine
 10
-15519.776792671591
 20
-8637.397957611485
 30
0.0
 11
-15524.207779702165
 21
-8624.266670111587
 31
0.0
  0
ARC
  5
67
100
AcDbEntity
  8
FREI
  6
CONTINUOUS
 62
          15
100
AcDbCircle
 10
-15522.352657520411
 20
-8638.265903405192
 30
0.0
 40
2.716455679623
100
AcDbArc
 50
258.637406711703
 51
18.621406255528
  0
ARC
  5
68
100
AcDbEntity
  8
FREI
  6
CONTINUOUS
 62
          15
100
AcDbCircle
 10
-15528.47217140628
 20
-8632.875877524899
 30
0.0
 40
1.357844916823
100
AcDbArc
 50
258.667060351511
 51
18.608604704482
  0
LINE
  5
69
100
AcDbEntity
  8
FREI
  6
CONTINUOUS
 62
          15
100
AcDbLine
 10
-15542.560656180551
 20
-8649.915022102437
 30
0.0
 11
-15556.146737089723
 21
-8647.187415254799
 31
0.0
  0
LINE
  5
6A
100
AcDbEntity
  8
FREI
  6
CONTINUOUS
 62
          15
100
AcDbLine
 10
-15550.295577662419
 20
-8653.901526147669
 30
0.0
 11
-15536.707970324094
 21
-8656.629259858617
 31
0.0
  0
ARC
  5
6B
100
AcDbEntity
  8
FREI
  6
CONTINUOUS
 62
          15
100
AcDbCircle
 10
-15556.681408055003
 20
-8649.848050439743
 30
0.0
 40
2.716455679623
100
AcDbArc
 50
78.637401704415
 51
198.634226065905
  0
ARC
  5
6C
100
AcDbEntity
  8
FREI
  6
CONTINUOUS
 62
          15
100
AcDbCircle
 10
-15550.563420598282
 20
-8655.237949456732
 30
0.0
 40
1.357844916823
100
AcDbArc
 50
78.667055344222
 51
198.659895497622
  0
LINE
  5
6D
100
AcDbEntity
  8
FREI
  6
CONTINUOUS
 62
          15
100
AcDbLine
 10
-15545.435104636274
 20
-8635.013401828281
 30
0.0
 11
-15541.0041176057
 21
-8648.144689328174
 31
0.0
  0
LINE
  5
6E
100
AcDbEntity
  8
FREI
  6
CONTINUOUS
 62
          15
100
AcDbLine
 10
-15533.597434509995
 20
-8653.100678879962
 30
0.0
 11
-15538.028421540568
 21
-8639.969391380068
 31
0.0
  0
ARC
  5
6F
100
AcDbEntity
  8
FREI
  6
CONTINUOUS
 62
          15
100
AcDbCircle
 10
-15536.173299358814
 20
-8653.968624673669
 30
0.0
 40
2.716455679623
100
AcDbArc
 50
258.637406711703
 51
18.621406255528
  0
ARC
  5
70
100
AcDbEntity
  8
FREI
  6
CONTINUOUS
 62
          15
100
AcDbCircle
 10
-15542.293320697909
 20
-8648.584704509964
 30
0.0
 40
1.357844916823
100
AcDbArc
 50
258.637406711703
 51
18.845177758969
  0
ARC
  5
71
100
AcDbEntity
  8
FREI
  6
CONTINUOUS
 62
          15
100
AcDbCircle
 10
-15556.113962536312
 20
-8664.287425778439
 30
0.0
 40
1.357844916823
100
AcDbArc
 50
258.637406711703
 51
18.845177758969
  0
ARC
  5
72
100
AcDbEntity
  8
FREI
  6
CONTINUOUS
 62
          15
100
AcDbCircle
 10
-15549.993941197215
 20
-8669.671345942146
 30
0.0
 40
2.716455679623
100
AcDbArc
 50
258.637406711703
 51
18.621406255528
  0
LINE
  5
73
100
AcDbEntity
  8
FREI
  6
CONTINUOUS
 62
          15
100
AcDbLine
 10
-15547.418076348396
 20
-8668.803400148439
 30
0.0
 11
-15551.849063378972
 21
-8655.672112648545
 31
0.0
  0
LINE
  5
74
100
AcDbEntity
  8
FREI
  6
CONTINUOUS
 62
          15
100
AcDbLine
 10
-15559.255746474677
 20
-8650.716123096756
 30
0.0
 11
-15554.824759444104
 21
-8663.847410596653
 31
0.0
  0
ARC
  5
75
100
AcDbEntity
  8
FREI
  6
CONTINUOUS
 62
          15
100
AcDbCircle
 10
-15566.887873752008
 20
-8684.755916829987
 30
0.0
 40
5.4344430512
100
AcDbArc
 50
318.637481348987
 51
18.634221057158
  0
ARC
  5
76
100
AcDbEntity
  8
FREI
  6
CONTINUOUS
 62
          15
100
AcDbCircle
 10
-15573.040560901372
 20
-8683.51910861549
 30
0.0
 40
5.4344430512
100
AcDbArc
 50
318.637481348987
 51
18.634221057158
  0
ARC
  5
77
100
AcDbEntity
  8
FREI
  6
CONTINUOUS
 62
          15
100
AcDbCircle
 10
-15564.384062436686
 20
-8670.940670725209
 30
0.0
 40
1.357844916823
100
AcDbArc
 50
78.667055344222
 51
198.685618161791
  0
ARC
  5
78
100
AcDbEntity
  8
FREI
  6
CONTINUOUS
 62
          15
100
AcDbCircle
 10
-15570.502049893406
 20
-8665.55077170822
 30
0.0
 40
2.716455679623
100
AcDbArc
 50
78.637401704415
 51
198.752718090275
  0
LINE
  5
79
100
AcDbEntity
  8
FREI
  6
CONTINUOUS
 62
          15
100
AcDbLine
 10
-15564.116219500818
 20
-8669.604247416144
 30
0.0
 11
-15550.528612162496
 21
-8672.331981127094
 31
0.0
  0
LINE
  5
7A
100
AcDbEntity
  8
FREI
  6
CONTINUOUS
 62
          15
100
AcDbLine
 10
-15556.38129801895
 20
-8665.617743370915
 30
0.0
 11
-15569.967378928126
 21
-8662.890136523274
 31
0.0
  0
LINE
  5
7B
100
AcDbEntity
  8
FREI
  6
CONTINUOUS
 62
          15
100
AcDbLine
 10
-15573.076895766306
 20
-8666.424950081822
 30
0.0
 11
-15567.891884062028
 21
-8681.782963301468
 31
0.0
  0
LINE
  5
7C
100
AcDbEntity
  8
FREI
  6
CONTINUOUS
 62
          15
100
AcDbLine
 10
-15561.739196912662
 20
-8683.019771515965
 30
0.0
 11
-15565.668178788226
 21
-8671.374960780328
 31
0.0
  0
LINE
  5
7D
100
AcDbEntity
  8
FREI
  6
CONTINUOUS
 62
          15
100
AcDbLine
 10
-15562.809046296448
 20
-8688.347147602448
 30
0.0
 11
-15573.742461456908
 21
-8700.767087749186
 31
0.0
  0
LINE
  5
7E
100
AcDbEntity
  8
FREI
  6
CONTINUOUS
 62
          15
100
AcDbLine
 10
-15576.770878999318
 20
-8695.984396312721
 30
0.0
 11
-15568.961733445814
 21
-8687.110339387949
 31
0.0
  0
LINE
  5
7F
100
AcDbEntity
  8
FREI
  6
CONTINUOUS
 62
          15
100
AcDbLine
 10
-15581.294663627967
 20
-8686.57716650894
 30
0.0
 11
-15580.262422755459
 21
-8681.443397267036
 31
0.0
  0
CIRCLE
  5
80
100
AcDbEntity
  8
FREI
  6
CONTINUOUS
 62
          15
100
AcDbCircle
 10
-15582.580514329202
 20
-8692.987063073852
 30
0.0
 40
6.536878334769
  0
LINE
  5
81
100
AcDbEntity
  8
FREI
  6
GESTRICHELT
 62
          15
100
AcDbLine
 10
-15514.971784323699
 20
-8600.036957134693
 30
0.0
 11
-15511.693948032089
 21
-8600.690551211457
 31
0.0
  0
LINE
  5
82
100
AcDbEntity
  8
FREI
  6
GESTRICHELT
 62
          15
100
AcDbLine
 10
-15505.956150833188
 20
-8621.695236343008
 30
0.0
 11
-15510.388664292908
 21
-8608.563821979808
 31
0.0
  0
ARC
  5
83
100
AcDbEntity
  8
FREI
  6
GESTRICHELT
 62
          15
100
AcDbCircle
 10
-15509.103021512223
 20
-8608.129658787995
 30
0.0
 40
1.357844916823
100
AcDbArc
 50
78.667055344222
 51
198.659895497622
  0
LINE
  5
84
100
AcDbEntity
  8
FREI
  6
CONTINUOUS
 62
          15
100
AcDbLine
 10
-15558.078110586195
 20
-8665.277083131326
 30
0.0
 11
-15558.07765824926
 21
-8654.207402823244
 31
0.0
  0
TEXT
  5
85
100
AcDbEntity
  8
FREI
  6
CONTINUOUS
 62
          15
100
AcDbText
 10
-15715.551400628156
 20
-8720.472423326322
 30
0.0
 40
3.527777671814
  1
160-230
 41
0.899999979725
  7
GOTHICG
100
AcDbText
  0
ENDSEC
  0
SECTION
  2
OBJECTS
  0
DICTIONARY
  5
19
100
AcDbDictionary
  3
ACAD_GROUP
350
1A
  3
ACAD_MLINESTYLE
350
1B
  0
DICTIONARY
  5
1A
102
{ACAD_REACTORS
330
19
102
}
100
AcDbDictionary
  0
DICTIONARY
  5
1B
102
{ACAD_REACTORS
330
19
102
}
100
AcDbDictionary
  3
STANDARD
350
1C
  0
MLINESTYLE
  5
1C
102
{ACAD_REACTORS
330
1B
102
}
100
AcDbMlineStyle
  2
STANDARD
 70
           0
  3

 62
           0
 51
90.0
 52
90.0
 71
           2
 49
0.5
 62
         256
  6
BYLAYER
 49
-0.5
 62
         256
  6
BYLAYER
  0
ENDSEC
  0
EOF
