  0
SECTION
  2
HEADER
  9
$ACADVER
  1
AC1012
  9
$DWGCODEPAGE
  3
dos850
  9
$INSBASE
 10
0.0
 20
0.0
 30
0.0
  9
$EXTMIN
 10
-15541.293637933655
 20
-5946.563602445532
 30
0.0
  9
$EXTMAX
 10
-15342.225735768694
 20
-5745.398968458464
 30
0.0
  9
$LIMMIN
 10
-15541.293637933655
 20
-5946.563602445532
  9
$LIMMAX
 10
-15342.225735768694
 20
-5745.398968458464
  9
$ORTHOMODE
 70
           0
  9
$REGENMODE
 70
           1
  9
$FILLMODE
 70
           1
  9
$QTEXTMODE
 70
           0
  9
$MIRRTEXT
 70
           1
  9
$DRAGMODE
 70
           2
  9
$LTSCALE
 40
5.0
  9
$OSMODE
 70
           0
  9
$ATTMODE
 70
           1
  9
$TEXTSIZE
 40
0.2
  9
$TRACEWID
 40
0.05
  9
$TEXTSTYLE
  7
TXT
  9
$CLAYER
  8
0
  9
$CELTYPE
  6
CONTINUOUS
  9
$CECOLOR
 62
         256
  9
$CELTSCALE
 40
1.0
  9
$DELOBJ
 70
           1
  9
$DISPSILH
 70
           0
  9
$DIMSCALE
 40
1.0
  9
$DIMASZ
 40
3.5
  9
$DIMEXO
 40
0.0625
  9
$DIMDLI
 40
0.38
  9
$DIMRND
 40
0.0
  9
$DIMDLE
 40
0.0
  9
$DIMEXE
 40
0.18
  9
$DIMTP
 40
0.0
  9
$DIMTM
 40
0.0
  9
$DIMTXT
 40
3.5
  9
$DIMCEN
 40
0.09
  9
$DIMTSZ
 40
0.0
  9
$DIMTOL
 70
           0
  9
$DIMLIM
 70
           0
  9
$DIMTIH
 70
           1
  9
$DIMTOH
 70
           1
  9
$DIMSE1
 70
           0
  9
$DIMSE2
 70
           0
  9
$DIMTAD
 70
           0
  9
$DIMZIN
 70
           0
  9
$DIMBLK
  1

  9
$DIMASO
 70
           1
  9
$DIMSHO
 70
           1
  9
$DIMPOST
  1

  9
$DIMAPOST
  1

  9
$DIMALT
 70
           0
  9
$DIMALTD
 70
           2
  9
$DIMALTF
 40
25.4
  9
$DIMLFAC
 40
1.0
  9
$DIMTOFL
 70
           0
  9
$DIMTVP
 40
0.0
  9
$DIMTIX
 70
           0
  9
$DIMSOXD
 70
           0
  9
$DIMSAH
 70
           0
  9
$DIMBLK1
  1

  9
$DIMBLK2
  1

  9
$DIMSTYLE
  2
STANDARD
  9
$DIMCLRD
 70
           0
  9
$DIMCLRE
 70
           0
  9
$DIMCLRT
 70
           0
  9
$DIMTFAC
 40
1.0
  9
$DIMGAP
 40
0.09
  9
$DIMJUST
 70
           0
  9
$DIMSD1
 70
           0
  9
$DIMSD2
 70
           0
  9
$DIMTOLJ
 70
           1
  9
$DIMTZIN
 70
           0
  9
$DIMALTZ
 70
           0
  9
$DIMALTTZ
 70
           0
  9
$DIMFIT
 70
           3
  9
$DIMUPT
 70
           0
  9
$DIMUNIT
 70
           2
  9
$DIMDEC
 70
           4
  9
$DIMTDEC
 70
           4
  9
$DIMALTU
 70
           2
  9
$DIMALTTD
 70
           2
  9
$DIMTXSTY
  7
TXT
  9
$DIMAUNIT
 70
           0
  9
$LUNITS
 70
           2
  9
$LUPREC
 70
           3
  9
$SKETCHINC
 40
0.1
  9
$FILLETRAD
 40
0.0
  9
$AUNITS
 70
           0
  9
$AUPREC
 70
           3
  9
$MENU
  1
acad
  9
$ELEVATION
 40
0.0
  9
$PELEVATION
 40
0.0
  9
$THICKNESS
 40
0.0
  9
$LIMCHECK
 70
           0
  9
$BLIPMODE
 70
           1
  9
$CHAMFERA
 40
0.0
  9
$CHAMFERB
 40
0.0
  9
$CHAMFERC
 40
0.0
  9
$CHAMFERD
 40
0.0
  9
$SKPOLY
 70
           0
  9
$TDCREATE
 40
0.000000000
  9
$TDUPDATE
 40
0.000000000
  9
$TDINDWG
 40
0.0000000000
  9
$TDUSRTIMER
 40
0.0000000000
  9
$USRTIMER
 70
           1
  9
$ANGBASE
 50
0.0
  9
$ANGDIR
 70
           0
  9
$PDMODE
 70
           2
  9
$PDSIZE
 40
0.5
  9
$PLINEWID
 40
0.0
  9
$COORDS
 70
           0
  9
$SPLFRAME
 70
           0
  9
$SPLINETYPE
 70
           6
  9
$SPLINESEGS
 70
           8
  9
$ATTDIA
 70
           0
  9
$ATTREQ
 70
           1
  9
$HANDLING
 70
           1
  9
$HANDSEED
  5
8A
  9
$SURFTAB1
 70
           6
  9
$SURFTAB2
 70
           6
  9
$SURFTYPE
 70
           6
  9
$SURFU
 70
           6
  9
$SURFV
 70
           6
  9
$UCSNAME
  2

  9
$UCSORG
 10
0.0
 20
0.0
 30
0.0
  9
$UCSXDIR
 10
1.0
 20
0.0
 30
0.0
  9
$UCSYDIR
 10
0.0
 20
1.0
 30
0.0
  9
$PUCSNAME
  2

  9
$PUCSORG
 10
0.0
 20
0.0
 30
0.0
  9
$PUCSXDIR
 10
1.0
 20
0.0
 30
0.0
  9
$PUCSYDIR
 10
0.0
 20
1.0
 30
0.0
  9
$USERI1
 70
           0
  9
$USERI2
 70
           0
  9
$USERI3
 70
           0
  9
$USERI4
 70
           0
  9
$USERI5
 70
           0
  9
$USERR1
 40
0.0
  9
$USERR2
 40
0.0
  9
$USERR3
 40
0.0
  9
$USERR4
 40
0.0
  9
$USERR5
 40
0.0
  9
$WORLDVIEW
 70
           1
  9
$SHADEDGE
 70
           3
  9
$SHADEDIF
 70
          70
  9
$TILEMODE
 70
           1
  9
$MAXACTVP
 70
          16
  9
$PINSBASE
 10
0.0
 20
0.0
 30
0.0
  9
$PLIMCHECK
 70
           0
  9
$PEXTMIN
 10
1.000000000000E+20
 20
1.000000000000E+20
 30
1.000000000000E+20
  9
$PEXTMAX
 10
-1.000000000000E+20
 20
-1.000000000000E+20
 30
-1.000000000000E+20
  9
$PLIMMIN
 10
0.0
 20
0.0
  9
$PLIMMAX
 10
12.0
 20
9.0
  9
$UNITMODE
 70
           0
  9
$VISRETAIN
 70
           0
  9
$PLINEGEN
 70
           1
  9
$PSLTSCALE
 70
           0
  9
$TREEDEPTH
 70
        3020
  9
$PICKSTYLE
 70
           1
  9
$CMLSTYLE
  2
STANDARD
  9
$CMLJUST
 70
           0
  9
$CMLSCALE
 40
1.0
  9
$SAVEIMAGES
 70
           0
  0
ENDSEC
  0
SECTION
  2
CLASSES
  0
CLASS
  1
LWPOLYLINE
  2
AcDbPolyline
  3
"AutoCAD"
 90
        0
280
           0
281
           1
  0
CLASS
  1
IMAGE
  2
AcDbRasterImage
  3
ISM
 90
      127
280
           0
281
           1
  0
CLASS
  1
OLE2FRAME
  2
AcDbOle2Frame
  3
""
 90
        0
280
           0
281
           1
  0
CLASS
  1
HATCH
  2
AcDbHatch
  3
"ACAD_SEDONA"
 90
        0
280
           0
281
           1
  0
CLASS
  1
DICTIONARYVAR
  2
AcDbDictionaryVar
  3
"AutoCAD"
 90
        0
280
           0
281
           0
  0
CLASS
  1
RASTERVARIABLES
  2
AcDbRasterVariables
  3
ISM
 90
        0
280
           0
281
           0
  0
CLASS
  1
IMAGEDEF
  2
AcDbRasterImageDef
  3
ISM
 90
        0
280
           0
281
           0
  0
CLASS
  1
IMAGEDEF_REACTOR
  2
AcDbRasterImageDefReactor
  3
ISM
 90
        1
280
           0
281
           0
  0
CLASS
  1
IDBUFFER
  2
AcDbIdBuffer
  3
"Acad"
 90
        0
280
           0
281
           0
  0
CLASS
  1
SPATIAL_FILTER
  2
AcDbSpatialFilter
  3
"Acad"
 90
        0
280
           0
281
           0
  0
CLASS
  1
XRECORD
  2
AcDbXrecord
  3
"<Built In>"
 90
        0
280
           0
281
           0
  0
ENDSEC
  0
SECTION
  2
TABLES
  0
TABLE
  2
VPORT
  5
7
100
AcDbSymbolTable
 70
           1
  0
VPORT
  5
15
100
AcDbSymbolTableRecord
100
AcDbViewportTableRecord
  2
*ACTIVE
 70
           0
 10
0.0
 20
0.0
 11
1.0
 21
1.0
 12
6.591288
 22
4.579184
 13
0.0
 23
0.0
 14
1.0
 24
1.0
 15
0.0
 25
0.0
 16
0.0
 26
0.0
 36
1.0
 17
0.0
 27
0.0
 37
0.0
 40
9.158369
 41
0.688564
 42
50.0
 43
0.0
 44
0.0
 50
0.0
 51
0.0
 71
           0
 72
         100
 73
           1
 74
           1
 75
           0
 76
           0
 77
           0
 78
           0
  0
ENDTAB
  0
TABLE
  2
LTYPE
  5
4
100
AcDbSymbolTable
 70
           5
  0
LTYPE
  5
11
100
AcDbSymbolTableRecord
100
AcDbLinetypeTableRecord
  2
BYBLOCK
 70
           0
  3

 72
          65
 73
           0
 40
0.0
  0
LTYPE
  5
12
100
AcDbSymbolTableRecord
100
AcDbLinetypeTableRecord
  2
BYLAYER
 70
           0
  3

 72
          65
 73
           0
 40
0.0
  0
LTYPE
  5
13
100
AcDbSymbolTableRecord
100
AcDbLinetypeTableRecord
  2
CONTINUOUS
 70
           0
  3
Solid line
 72
          65
 73
           0
 40
0.0
  0
LTYPE
  5
1D
100
AcDbSymbolTableRecord
100
AcDbLinetypeTableRecord
  2
GESTRICHELT
 70
           0
  3

 72
          65
 73
           2
 40
0.75
 49
0.5
 74
           0
 49
-0.25
 74
           0
  0
LTYPE
  5
1E
100
AcDbSymbolTableRecord
100
AcDbLinetypeTableRecord
  2
STRICHPUNKT
 70
           0
  3

 72
          65
 73
           4
 40
1.0
 49
0.5
 74
           0
 49
-0.25
 74
           0
 49
0.0
 74
           0
 49
-0.25
 74
           0
  0
ENDTAB
  0
TABLE
  2
LAYER
  5
2
100
AcDbSymbolTable
 70
           2
  0
LAYER
  5
14
100
AcDbSymbolTableRecord
100
AcDbLayerTableRecord
  2
0
 70
           0
 62
           7
  6
CONTINUOUS
  0
LAYER
  5
20
100
AcDbSymbolTableRecord
100
AcDbLayerTableRecord
  2
FREI
 70
           0
 62
           7
  6
CONTINUOUS
  0
ENDTAB
  0
TABLE
  2
STYLE
  5
3
100
AcDbSymbolTable
 70
           2
  0
STYLE
  5
17
100
AcDbSymbolTableRecord
100
AcDbTextStyleTableRecord
  2
TXT
 70
           0
 40
3.5
 41
1.0
 50
0.0
 71
           0
 42
3.5
  3
TXT
  4

  0
STYLE
  5
1F
100
AcDbSymbolTableRecord
100
AcDbTextStyleTableRecord
  2
GOTHICG
 70
           0
 40
3.5
 41
1.0
 50
0.0
 71
           0
 42
3.5
  3
GOTHICG
  4

  0
ENDTAB
  0
TABLE
  2
VIEW
  5
5
100
AcDbSymbolTable
 70
           0
  0
ENDTAB
  0
TABLE
  2
UCS
  5
6
100
AcDbSymbolTable
 70
           0
  0
ENDTAB
  0
TABLE
  2
APPID
  5
8
100
AcDbSymbolTable
 70
           2
  0
APPID
  5
16
100
AcDbSymbolTableRecord
100
AcDbRegAppTableRecord
  2
ACAD
 70
           0
  0
APPID
  5
21
100
AcDbSymbolTableRecord
100
AcDbRegAppTableRecord
  2
MegaCADPntStyle
 70
           0
  0
ENDTAB
  0
TABLE
  2
DIMSTYLE
  5
9
100
AcDbSymbolTable
 70
           1
  0
DIMSTYLE
105
18
100
AcDbSymbolTableRecord
100
AcDbDimStyleTableRecord
  2
STANDARD
 70
           0
  3

  4

  5

  6

  7

 40
1.0
 41
0.18
 42
0.0625
 43
0.38
 44
0.18
 45
0.0
 46
0.0
 47
0.0
 48
0.0
140
0.18
141
0.09
142
0.0
143
25.4
144
1.0
145
0.0
146
1.0
147
0.09
 71
           0
 72
           0
 73
           1
 74
           1
 75
           0
 76
           0
 77
           0
 78
           0
170
           0
171
           2
172
           0
173
           0
174
           0
175
           0
176
           0
177
           0
178
           0
270
           2
271
           4
272
           4
273
           2
274
           2
340
17
275
           0
280
           0
281
           0
282
           0
283
           1
284
           0
285
           0
286
           0
287
           0
288
           0
  0
ENDTAB
  0
TABLE
  2
BLOCK_RECORD
  5
1
100
AcDbSymbolTable
 70
           1
  0
BLOCK_RECORD
  5
A
100
AcDbSymbolTableRecord
100
AcDbBlockTableRecord
  2
*MODEL_SPACE
  0
BLOCK_RECORD
  5
B
100
AcDbSymbolTableRecord
100
AcDbBlockTableRecord
  2
*PAPER_SPACE
  0
BLOCK_RECORD
  5
22
100
AcDbSymbolTableRecord
100
AcDbBlockTableRecord
  2
ELIPPSE
  0
ENDTAB
  0
ENDSEC
  0
SECTION
  2
BLOCKS
  0
BLOCK
  5
D
100
AcDbEntity
  8
0
100
AcDbBlockBegin
  2
*MODEL_SPACE
 70
           0
 10
0.0
 20
0.0
 30
0.0
  3
*MODEL_SPACE
  1

  0
ENDBLK
  5
E
100
AcDbEntity
  8
0
100
AcDbBlockEnd
  0
BLOCK
  5
F
100
AcDbEntity
 67
           1
  8
0
100
AcDbBlockBegin
  2
*PAPER_SPACE
 70
           0
 10
0.0
 20
0.0
 30
0.0
  3
*PAPER_SPACE
  1

  0
ENDBLK
  5
10
100
AcDbEntity
 67
           1
  8
0
100
AcDbBlockEnd
  0
BLOCK
  5
85
100
AcDbEntity
  8
0
100
AcDbBlockBegin
  2
ELIPPSE
 70
          64
 10
0.0
 20
0.0
 30
0.0
  3
ELIPPSE
  1

  0
CIRCLE
  5
86
100
AcDbEntity
  8
0
  6
BYBLOCK
 62
           0
100
AcDbCircle
 10
0.0
 20
0.0
 30
0.0
 40
1.0
  0
ENDBLK
  5
87
100
AcDbEntity
  8
0
  6
BYBLOCK
 62
           0
100
AcDbBlockEnd
  0
ENDSEC
  0
SECTION
  2
ENTITIES
  0
LINE
  5
23
100
AcDbEntity
  8
FREI
  6
CONTINUOUS
 62
          15
100
AcDbLine
 10
-15368.809462450341
 20
-5916.331611288691
 30
0.0
 11
-15441.795945518734
 21
-5946.563602445532
 31
0.0
  0
LINE
  5
24
100
AcDbEntity
  8
FREI
  6
CONTINUOUS
 62
          15
100
AcDbLine
 10
-15497.80604210355
 20
-5811.343267640642
 30
0.0
 11
-15504.938711858973
 21
-5794.12347958117
 31
0.0
  0
LINE
  5
25
100
AcDbEntity
  8
FREI
  6
GESTRICHELT
 62
          15
100
AcDbLine
 10
-15454.023868963675
 20
-5917.042783825092
 30
0.0
 11
-15455.051550192
 21
-5914.561741865878
 31
0.0
  0
LINE
  5
26
100
AcDbEntity
  8
FREI
  6
CONTINUOUS
 62
          15
100
AcDbLine
 10
-15441.795945518734
 20
-5946.563602445532
 30
0.0
 11
-15454.023868963675
 21
-5917.042783825092
 31
0.0
  0
LINE
  5
27
100
AcDbEntity
  8
FREI
  6
GESTRICHELT
 62
          15
100
AcDbLine
 10
-15433.168393160577
 20
-5764.395240200455
 30
0.0
 11
-15431.95222879058
 21
-5763.891488424327
 31
0.0
  0
LINE
  5
28
100
AcDbEntity
  8
FREI
  6
CONTINUOUS
 62
          15
100
AcDbLine
 10
-15504.938711858973
 20
-5794.12347958117
 30
0.0
 11
-15433.168393160577
 21
-5764.395240200455
 31
0.0
  0
LINE
  5
29
100
AcDbEntity
  8
FREI
  6
CONTINUOUS
 62
          15
100
AcDbLine
 10
-15370.155693962193
 20
-5913.08152091468
 30
0.0
 11
-15368.809462450341
 21
-5916.331611288691
 31
0.0
  0
LINE
  5
2A
100
AcDbEntity
  8
FREI
  6
GESTRICHELT
 62
          15
100
AcDbLine
 10
-15431.95222879058
 20
-5763.891488424327
 30
0.0
 11
-15370.155693962193
 21
-5913.08152091468
 31
0.0
  0
LINE
  5
2B
100
AcDbEntity
  8
FREI
  6
STRICHPUNKT
 62
          15
100
AcDbLine
 10
-15405.302703984536
 20
-5931.447606867111
 30
0.0
 11
-15468.445470324776
 21
-5779.007484002749
 31
0.0
  0
LINE
  5
2C
100
AcDbEntity
  8
FREI
  6
STRICHPUNKT
 62
          15
100
AcDbLine
 10
-15455.051550191998
 20
-5811.343267640644
 30
0.0
 11
-15504.80039639946
 21
-5931.447606867111
 31
0.0
  0
LINE
  5
2D
100
AcDbEntity
  8
FREI
  6
CONTINUOUS
 62
          15
100
AcDbLine
 10
-15497.80604210355
 20
-5811.343267640642
 30
0.0
 11
-15541.293637933655
 21
-5916.331611288689
 31
0.0
  0
LINE
  5
2E
100
AcDbEntity
  8
FREI
  6
CONTINUOUS
 62
          15
100
AcDbLine
 10
-15456.079231420321
 20
-5917.042783825094
 30
0.0
 11
-15468.307154865264
 21
-5946.563602445532
 31
0.0
  0
LINE
  5
2F
100
AcDbEntity
  8
FREI
  6
GESTRICHELT
 62
          15
100
AcDbLine
 10
-15455.051550192
 20
-5914.561741865878
 30
0.0
 11
-15456.079231420321
 21
-5917.042783825094
 31
0.0
  0
LINE
  5
30
100
AcDbEntity
  8
FREI
  6
CONTINUOUS
 62
          15
100
AcDbLine
 10
-15440.651018177739
 20
-5811.343267640644
 30
0.0
 11
-15497.80604210355
 21
-5811.343267640642
 31
0.0
  0
LINE
  5
31
100
AcDbEntity
  8
FREI
  6
GESTRICHELT
 62
          15
100
AcDbLine
 10
-15412.297058280448
 20
-5811.343267640644
 30
0.0
 11
-15440.651018177739
 21
-5811.343267640644
 31
0.0
  0
LINE
  5
32
100
AcDbEntity
  8
FREI
  6
CONTINUOUS
 62
          15
100
AcDbLine
 10
-15541.293637933655
 20
-5916.331611288689
 30
0.0
 11
-15468.307154865264
 21
-5946.563602445532
 31
0.0
  0
LINE
  5
33
100
AcDbEntity
  8
FREI
  6
CONTINUOUS
 62
          15
100
AcDbLine
 10
-15455.051550191998
 20
-5828.694482812923
 30
0.0
 11
-15455.051550191998
 21
-5811.343267640644
 31
0.0
  0
LINE
  5
34
100
AcDbEntity
  8
FREI
  6
GESTRICHELT
 62
          15
100
AcDbLine
 10
-15455.051550191998
 20
-5847.097759552192
 30
0.0
 11
-15455.051550191998
 21
-5828.694482812923
 31
0.0
  0
LINE
  5
35
100
AcDbEntity
  8
FREI
  6
GESTRICHELT
 62
          15
100
AcDbLine
 10
-15455.051550192
 20
-5914.561741865878
 30
0.0
 11
-15455.051550191998
 21
-5861.097759552192
 31
0.0
  0
CIRCLE
  5
36
100
AcDbEntity
  8
FREI
  6
CONTINUOUS
 62
          15
100
AcDbCircle
 10
-15455.051550192
 20
-5854.097759552192
 30
0.0
 40
7.0
  0
LINE
  5
37
100
AcDbEntity
  8
FREI
  6
GESTRICHELT
 62
          15
100
AcDbLine
 10
-15436.168278906771
 20
-5854.097759552192
 30
0.0
 11
-15436.179305920276
 21
-5887.374135734933
 31
0.0
  0
ARC
  5
38
100
AcDbEntity
  8
FREI
  6
GESTRICHELT
 62
          15
100
AcDbCircle
 10
-15455.051550192
 20
-5854.097759552192
 30
0.0
 40
18.883271285229
100
AcDbArc
 50
171.087470809998
 51
180.000000000001
  0
ARC
  5
39
100
AcDbEntity
  8
FREI
  6
CONTINUOUS
 62
          15
100
AcDbCircle
 10
-15455.051550192
 20
-5854.097759552192
 30
0.0
 40
18.883271285229
100
AcDbArc
 50
109.531001786783
 51
171.087470809998
  0
ARC
  5
3A
100
AcDbEntity
  8
FREI
  6
GESTRICHELT
 62
          15
100
AcDbCircle
 10
-15455.051550192
 20
-5854.097759552192
 30
0.0
 40
18.883271285229
100
AcDbArc
 50
0.000000683099
 51
109.531001786783
  0
LINE
  5
3B
100
AcDbEntity
  8
FREI
  6
CONTINUOUS
 62
          15
100
AcDbLine
 10
-15473.934821477227
 20
-5917.042783825092
 30
0.0
 11
-15436.168278906771
 21
-5917.042783825094
 31
0.0
  0
LINE
  5
3C
100
AcDbEntity
  8
FREI
  6
CONTINUOUS
 62
          15
100
AcDbLine
 10
-15473.934821477227
 20
-5868.208707388853
 30
0.0
 11
-15473.934821477227
 21
-5917.042783825092
 31
0.0
  0
LINE
  5
3D
100
AcDbEntity
  8
FREI
  6
GESTRICHELT
 62
          15
100
AcDbLine
 10
-15473.934821477227
 20
-5854.097759552194
 30
0.0
 11
-15473.934821477227
 21
-5868.208707388853
 31
0.0
  0
LINE
  5
3E
100
AcDbEntity
  8
FREI
  6
CONTINUOUS
 62
          15
100
AcDbLine
 10
-15436.168278906771
 20
-5917.042783825094
 30
0.0
 11
-15436.167149883793
 21
-5887.376576078525
 31
0.0
  0
CIRCLE
  5
3F
100
AcDbEntity
  8
FREI
  6
CONTINUOUS
 62
          15
100
AcDbCircle
 10
-15455.051550191998
 20
-5904.454722957081
 30
0.0
 40
5.03587333797
  0
ARC
  5
40
100
AcDbEntity
  8
FREI
  6
CONTINUOUS
 62
          15
100
AcDbCircle
 10
-15401.89969972908
 20
-5776.123147638561
 30
0.0
 40
20.102193939583
100
AcDbArc
 50
22.507101035151
 51
69.812326881122
  0
ARC
  5
41
100
AcDbEntity
  8
FREI
  6
CONTINUOUS
 62
          15
100
AcDbCircle
 10
-15362.327929708277
 20
-5871.642276514723
 30
0.0
 40
20.102193939583
100
AcDbArc
 50
335.201835748251
 51
22.507101035151
  0
LINE
  5
42
100
AcDbEntity
  8
FREI
  6
CONTINUOUS
 62
          15
100
AcDbLine
 10
-15358.246701011551
 20
-5910.730222823576
 30
0.0
 11
-15344.079556906949
 21
-5880.073499285973
 31
0.0
  0
LINE
  5
43
100
AcDbEntity
  8
FREI
  6
CONTINUOUS
 62
          15
100
AcDbLine
 10
-15426.660212142688
 20
-5745.598595518514
 30
0.0
 11
-15394.961502201317
 21
-5757.253152093824
 31
0.0
  0
LINE
  5
44
100
AcDbEntity
  8
FREI
  6
CONTINUOUS
 62
          15
100
AcDbLine
 10
-15383.324937783038
 20
-5768.426532117924
 30
0.0
 11
-15343.753167762236
 21
-5863.945660994087
 31
0.0
  0
ARC
  5
45
100
AcDbEntity
  8
FREI
  6
CONTINUOUS
 62
          15
100
AcDbCircle
 10
-15470.559871051209
 20
-5860.525215038621
 30
0.0
 40
8.392040578676
100
AcDbArc
 50
140.165285169611
 51
264.705526113971
  0
LINE
  5
46
100
AcDbEntity
  8
FREI
  6
CONTINUOUS
 62
          15
100
AcDbLine
 10
-15422.68404994388
 20
-5789.694849963399
 30
0.0
 11
-15477.017898756851
 21
-5855.161757780311
 31
0.0
  0
LINE
  5
47
100
AcDbEntity
  8
FREI
  6
CONTINUOUS
 62
          15
100
AcDbLine
 10
-15436.229297838554
 20
-5757.007371751167
 30
0.0
 11
-15373.078325635734
 21
-5909.429980150516
 31
0.0
  0
ARC
  5
48
100
AcDbEntity
  8
FREI
  6
CONTINUOUS
 62
          15
100
AcDbCircle
 10
-15428.474830882546
 20
-5753.791304032941
 30
0.0
 40
8.392335574478
100
AcDbArc
 50
77.511072586301
 51
202.525620150222
  0
ARC
  5
49
100
AcDbEntity
  8
FREI
  6
CONTINUOUS
 62
          15
100
AcDbCircle
 10
-15365.325641720037
 20
-5906.21843911911
 30
0.0
 40
8.392335574478
100
AcDbArc
 50
202.501734733568
 51
327.488481380678
  0
LINE
  5
4A
100
AcDbEntity
  8
FREI
  6
GESTRICHELT
 62
          15
100
AcDbLine
 10
-15417.254051459215
 20
-5873.95777587718
 30
0.0
 11
-15437.03472633536
 21
-5872.032075649798
 31
0.0
  0
LINE
  5
4B
100
AcDbEntity
  8
FREI
  6
CONTINUOUS
 62
          15
100
AcDbLine
 10
-15417.226062720692
 20
-5873.993675325158
 30
0.0
 11
-15386.523131452101
 21
-5876.984151754791
 31
0.0
  0
LINE
  5
4C
100
AcDbEntity
  8
FREI
  6
CONTINUOUS
 62
          15
100
AcDbLine
 10
-15437.023459614335
 20
-5872.065464723594
 30
0.0
 11
-15471.333926200152
 21
-5868.878034079461
 31
0.0
  0
ARC
  5
4D
100
AcDbEntity
  8
FREI
  6
CONTINUOUS
 62
          15
100
AcDbCircle
 10
-15455.051550191998
 20
-5904.454722957081
 30
0.0
 40
9.071415910955
100
AcDbArc
 50
78.645411513612
 51
318.642951543439
  0
LINE
  5
4E
100
AcDbEntity
  8
FREI
  6
GESTRICHELT
 62
          15
100
AcDbLine
 10
-15435.977940082257
 20
-5883.145132318406
 30
0.0
 11
-15434.868225960501
 21
-5883.369975725776
 31
0.0
  0
ARC
  5
4F
100
AcDbEntity
  8
FREI
  6
GESTRICHELT
 62
          15
100
AcDbCircle
 10
-15398.007322954832
 20
-5850.201551171868
 30
0.0
 40
2.092700220231
100
AcDbArc
 50
302.413090928373
 51
18.608604704482
  0
ARC
  5
50
100
AcDbEntity
  8
FREI
  6
GESTRICHELT
 62
          15
100
AcDbCircle
 10
-15388.905952529674
 20
-5833.524001776358
 30
0.0
 40
2.092700220231
100
AcDbArc
 50
258.637406711703
 51
318.708608284301
  0
ARC
  5
51
100
AcDbEntity
  8
FREI
  6
GESTRICHELT
 62
          15
100
AcDbCircle
 10
-15387.360191681566
 20
-5838.104505560831
 30
0.0
 40
2.092700220231
100
AcDbArc
 50
258.669531649356
 51
318.708608284301
  0
LINE
  5
52
100
AcDbEntity
  8
FREI
  6
GESTRICHELT
 62
          15
100
AcDbLine
 10
-15390.841790836528
 20
-5827.066600576513
 30
0.0
 11
-15393.875014194193
 21
-5828.088545305492
 31
0.0
  0
LINE
  5
53
100
AcDbEntity
  8
FREI
  6
GESTRICHELT
 62
          15
100
AcDbLine
 10
-15383.774531771618
 20
-5830.874588912572
 30
0.0
 11
-15387.333459769474
 21
-5834.905051911647
 31
0.0
  0
LINE
  5
54
100
AcDbEntity
  8
FREI
  6
GESTRICHELT
 62
          15
100
AcDbLine
 10
-15385.787698921364
 20
-5839.48555569612
 30
0.0
 11
-15378.46955399746
 21
-5831.182878028664
 31
0.0
  0
ARC
  5
55
100
AcDbEntity
  8
FREI
  6
GESTRICHELT
 62
          15
100
AcDbCircle
 10
-15385.279379642558
 20
-5825.189213210027
 30
0.0
 40
9.071120915153
100
AcDbArc
 50
318.64739556867
 51
198.639402770663
  0
ARC
  5
56
100
AcDbEntity
  8
FREI
  6
CONTINUOUS
 62
          15
100
AcDbCircle
 10
-15403.159206518056
 20
-5834.930101990952
 30
0.0
 40
2.092700220231
100
AcDbArc
 50
132.795679260578
 51
198.634226065905
  0
ARC
  5
57
100
AcDbEntity
  8
FREI
  6
GESTRICHELT
 62
          15
100
AcDbCircle
 10
-15403.159206518056
 20
-5834.930101990952
 30
0.0
 40
2.092700220231
100
AcDbArc
 50
84.731670676549
 51
132.795679260578
  0
LINE
  5
58
100
AcDbEntity
  8
FREI
  6
GESTRICHELT
 62
          15
100
AcDbLine
 10
-15398.239697332181
 20
-5838.052814270156
 30
0.0
 11
-15387.77091499892
 21
-5840.154300580908
 31
0.0
  0
LINE
  5
59
100
AcDbEntity
  8
FREI
  6
GESTRICHELT
 62
          15
100
AcDbLine
 10
-15389.317851775882
 20
-5835.573699063619
 30
0.0
 11
-15400.442033086998
 21
-5833.351434893219
 31
0.0
  0
ARC
  5
5A
100
AcDbEntity
  8
FREI
  6
CONTINUOUS
 62
          15
100
AcDbCircle
 10
-15402.720491586328
 20
-5846.049286533617
 30
0.0
 40
1.046055114313
100
AcDbArc
 50
258.667060351511
 51
18.608604704482
  0
ARC
  5
5B
100
AcDbEntity
  8
FREI
  6
CONTINUOUS
 62
          15
100
AcDbCircle
 10
-15398.007322954832
 20
-5850.201551171868
 30
0.0
 40
2.092700220231
100
AcDbArc
 50
258.669531649356
 51
302.413090928373
  0
LINE
  5
5C
100
AcDbEntity
  8
FREI
  6
CONTINUOUS
 62
          15
100
AcDbLine
 10
-15405.142422595609
 20
-5835.59884687574
 30
0.0
 11
-15401.727707618697
 21
-5845.71501182404
 31
0.0
  0
ARC
  5
5D
100
AcDbEntity
  8
FREI
  6
CONTINUOUS
 62
          15
100
AcDbCircle
 10
-15409.093169159823
 20
-5851.17941224024
 30
0.0
 40
1.046055114313
100
AcDbArc
 50
78.603100952973
 51
198.685618161791
  0
ARC
  5
5E
100
AcDbEntity
  8
FREI
  6
CONTINUOUS
 62
          15
100
AcDbCircle
 10
-15413.80633779132
 20
-5847.027147601989
 30
0.0
 40
2.092700220231
100
AcDbArc
 50
78.637401704415
 51
198.634226065905
  0
LINE
  5
5F
100
AcDbEntity
  8
FREI
  6
CONTINUOUS
 62
          15
100
AcDbLine
 10
-15408.885652676594
 20
-5850.149957614013
 30
0.0
 11
-15398.418046272185
 21
-5852.251346191949
 31
0.0
  0
LINE
  5
60
100
AcDbEntity
  8
FREI
  6
CONTINUOUS
 62
          15
100
AcDbLine
 10
-15402.926832140703
 20
-5847.078838892662
 30
0.0
 11
-15413.394438545114
 21
-5844.977450314726
 31
0.0
  0
LINE
  5
61
100
AcDbEntity
  8
FREI
  6
CONTINUOUS
 62
          15
100
AcDbLine
 10
-15413.573963413972
 20
-5859.175884503701
 30
0.0
 11
-15424.040393889525
 21
-5857.074593658582
 31
0.0
  0
LINE
  5
62
100
AcDbEntity
  8
FREI
  6
CONTINUOUS
 62
          15
100
AcDbLine
 10
-15419.53278394986
 20
-5862.247003225049
 30
0.0
 11
-15409.06517754545
 21
-5864.348391802986
 31
0.0
  0
ARC
  5
63
100
AcDbEntity
  8
FREI
  6
CONTINUOUS
 62
          15
100
AcDbCircle
 10
-15424.452293135733
 20
-5859.124290945844
 30
0.0
 40
2.092700220231
100
AcDbArc
 50
78.637401704415
 51
198.634226065905
  0
ARC
  5
64
100
AcDbEntity
  8
FREI
  6
CONTINUOUS
 62
          15
100
AcDbCircle
 10
-15419.739124504234
 20
-5863.276555584095
 30
0.0
 40
1.046055114313
100
AcDbArc
 50
78.667055344222
 51
198.659895497622
  0
LINE
  5
65
100
AcDbEntity
  8
FREI
  6
CONTINUOUS
 62
          15
100
AcDbLine
 10
-15415.789553868875
 20
-5847.69589248678
 30
0.0
 11
-15412.374838891961
 21
-5857.812057435077
 31
0.0
  0
LINE
  5
66
100
AcDbEntity
  8
FREI
  6
CONTINUOUS
 62
          15
100
AcDbLine
 10
-15406.668886292833
 20
-5861.630047363752
 30
0.0
 11
-15410.082425340894
 21
-5851.51398014827
 31
0.0
  0
ARC
  5
67
100
AcDbEntity
  8
FREI
  6
CONTINUOUS
 62
          15
100
AcDbCircle
 10
-15408.653278299244
 20
-5862.298694515722
 30
0.0
 40
2.092700220231
100
AcDbArc
 50
258.637406711703
 51
18.621406255528
  0
ARC
  5
68
100
AcDbEntity
  8
FREI
  6
CONTINUOUS
 62
          15
100
AcDbCircle
 10
-15413.367622859594
 20
-5858.146332144655
 30
0.0
 40
1.046055114313
100
AcDbArc
 50
258.667060351511
 51
18.608604704482
  0
LINE
  5
69
100
AcDbEntity
  8
FREI
  6
CONTINUOUS
 62
          15
100
AcDbLine
 10
-15424.221094687236
 20
-5871.272930114738
 30
0.0
 11
-15434.68752516279
 21
-5869.171639269619
 31
0.0
  0
LINE
  5
6A
100
AcDbEntity
  8
FREI
  6
CONTINUOUS
 62
          15
100
AcDbLine
 10
-15430.179915223125
 20
-5874.344048836088
 30
0.0
 11
-15419.712308818715
 21
-5876.445437414023
 31
0.0
  0
ARC
  5
6B
100
AcDbEntity
  8
FREI
  6
CONTINUOUS
 62
          15
100
AcDbCircle
 10
-15435.099424408998
 20
-5871.221336556883
 30
0.0
 40
2.092700220231
100
AcDbArc
 50
78.637401704415
 51
198.634226065905
  0
ARC
  5
6C
100
AcDbEntity
  8
FREI
  6
CONTINUOUS
 62
          15
100
AcDbCircle
 10
-15430.386255777503
 20
-5875.373601195132
 30
0.0
 40
1.046055114313
100
AcDbArc
 50
78.667055344222
 51
198.659895497622
  0
LINE
  5
6D
100
AcDbEntity
  8
FREI
  6
CONTINUOUS
 62
          15
100
AcDbLine
 10
-15426.435509213286
 20
-5859.793035830634
 30
0.0
 11
-15423.021970165228
 21
-5869.909103046116
 31
0.0
  0
LINE
  5
6E
100
AcDbEntity
  8
FREI
  6
CONTINUOUS
 62
          15
100
AcDbLine
 10
-15417.316017566101
 20
-5873.727092974791
 30
0.0
 11
-15420.72955661416
 21
-5863.611025759307
 31
0.0
  0
ARC
  5
6F
100
AcDbEntity
  8
FREI
  6
CONTINUOUS
 62
          15
100
AcDbCircle
 10
-15419.300409572508
 20
-5874.395740126759
 30
0.0
 40
2.092700220231
100
AcDbArc
 50
258.637406711703
 51
18.621406255528
  0
ARC
  5
70
100
AcDbEntity
  8
FREI
  6
CONTINUOUS
 62
          15
100
AcDbCircle
 10
-15424.01514506413
 20
-5870.248081471106
 30
0.0
 40
1.046055114313
100
AcDbArc
 50
258.637406711703
 51
18.845177758969
  0
ARC
  5
71
100
AcDbEntity
  8
FREI
  6
CONTINUOUS
 62
          15
100
AcDbCircle
 10
-15434.662276337396
 20
-5882.345127082143
 30
0.0
 40
1.046055114313
100
AcDbArc
 50
258.637406711703
 51
18.845177758969
  0
ARC
  5
72
100
AcDbEntity
  8
FREI
  6
CONTINUOUS
 62
          15
100
AcDbCircle
 10
-15429.947540845773
 20
-5886.492785737796
 30
0.0
 40
2.092700220231
100
AcDbArc
 50
258.637406711703
 51
18.621406255528
  0
LINE
  5
73
100
AcDbEntity
  8
FREI
  6
CONTINUOUS
 62
          15
100
AcDbLine
 10
-15427.963148839366
 20
-5885.824138585828
 30
0.0
 11
-15431.376687887427
 21
-5875.708071370344
 31
0.0
  0
LINE
  5
74
100
AcDbEntity
  8
FREI
  6
CONTINUOUS
 62
          15
100
AcDbLine
 10
-15437.082640486551
 20
-5871.890081441671
 30
0.0
 11
-15433.669101438492
 21
-5882.006148657153
 31
0.0
  0
ARC
  5
75
100
AcDbEntity
  8
FREI
  6
CONTINUOUS
 62
          15
100
AcDbCircle
 10
-15442.962270533128
 20
-5898.113621319936
 30
0.0
 40
4.18658042367
100
AcDbArc
 50
318.637481348987
 51
18.634221057158
  0
ARC
  5
76
100
AcDbEntity
  8
FREI
  6
CONTINUOUS
 62
          15
100
AcDbCircle
 10
-15447.702171076719
 20
-5897.160810330869
 30
0.0
 40
4.18658042367
100
AcDbArc
 50
318.637481348987
 51
18.634221057158
  0
ARC
  5
77
100
AcDbEntity
  8
FREI
  6
CONTINUOUS
 62
          15
100
AcDbCircle
 10
-15441.033387050767
 20
-5887.47064680617
 30
0.0
 40
1.046055114313
100
AcDbArc
 50
78.667055344222
 51
198.685618161791
  0
ARC
  5
78
100
AcDbEntity
  8
FREI
  6
CONTINUOUS
 62
          15
100
AcDbCircle
 10
-15445.746555682263
 20
-5883.31838216792
 30
0.0
 40
2.092700220231
100
AcDbArc
 50
78.637401704415
 51
198.752718090275
  0
LINE
  5
79
100
AcDbEntity
  8
FREI
  6
CONTINUOUS
 62
          15
100
AcDbLine
 10
-15440.82704649639
 20
-5886.441094447125
 30
0.0
 11
-15430.359440091981
 21
-5888.54248302506
 31
0.0
  0
LINE
  5
7A
100
AcDbEntity
  8
FREI
  6
CONTINUOUS
 62
          15
100
AcDbLine
 10
-15434.868225960501
 20
-5883.369975725776
 30
0.0
 11
-15445.334656436056
 21
-5881.268684880656
 31
0.0
  0
LINE
  5
7B
100
AcDbEntity
  8
FREI
  6
CONTINUOUS
 62
          15
100
AcDbLine
 10
-15447.730162691092
 20
-5883.991830768121
 30
0.0
 11
-15443.735738921607
 21
-5895.823320561291
 31
0.0
  0
LINE
  5
7C
100
AcDbEntity
  8
FREI
  6
CONTINUOUS
 62
          15
100
AcDbLine
 10
-15438.995838378016
 20
-5896.77613155036
 30
0.0
 11
-15442.022643231836
 21
-5887.8052147142
 31
0.0
  0
LINE
  5
7D
100
AcDbEntity
  8
FREI
  6
CONTINUOUS
 62
          15
100
AcDbLine
 10
-15439.820027801705
 20
-5900.8802298403
 30
0.0
 11
-15448.242900475754
 21
-5910.4482900429
 31
0.0
  0
LINE
  5
7E
100
AcDbEntity
  8
FREI
  6
CONTINUOUS
 62
          15
100
AcDbLine
 10
-15450.575929542081
 20
-5906.763805330903
 30
0.0
 11
-15444.559928345294
 21
-5899.927418851231
 31
0.0
  0
LINE
  5
7F
100
AcDbEntity
  8
FREI
  6
CONTINUOUS
 62
          15
100
AcDbLine
 10
-15454.060957904469
 20
-5899.516673699121
 30
0.0
 11
-15453.265741285462
 21
-5895.561726042976
 31
0.0
  0
LINE
  5
80
100
AcDbEntity
  8
FREI
  6
GESTRICHELT
 62
          15
100
AcDbLine
 10
-15402.96720910249
 20
-5832.84791978762
 30
0.0
 11
-15400.442033086998
 21
-5833.351434893219
 31
0.0
  0
LINE
  5
81
100
AcDbEntity
  8
FREI
  6
GESTRICHELT
 62
          15
100
AcDbLine
 10
-15396.02175501957
 20
-5849.533001752713
 30
0.0
 11
-15399.436469996481
 21
-5839.416836804413
 31
0.0
  0
ARC
  5
82
100
AcDbEntity
  8
FREI
  6
GESTRICHELT
 62
          15
100
AcDbCircle
 10
-15398.446037886559
 20
-5839.082366629203
 30
0.0
 40
1.046055114313
100
AcDbArc
 50
78.667055344222
 51
198.659895497622
  0
CIRCLE
  5
83
100
AcDbEntity
  8
FREI
  6
CONTINUOUS
 62
          15
100
AcDbCircle
 10
-15385.27271500071
 20
-5825.19450332235
 30
0.0
 40
5.874546403394
  0
TEXT
  5
84
100
AcDbEntity
  8
FREI
  6
CONTINUOUS
 62
          15
100
AcDbText
 10
-15528.068641297365
 20
-5909.898715162181
 30
0.0
 40
3.527777671814
  1
80-230
 41
0.899999979725
  7
GOTHICG
100
AcDbText
  0
ENDSEC
  0
SECTION
  2
OBJECTS
  0
DICTIONARY
  5
19
100
AcDbDictionary
  3
ACAD_GROUP
350
1A
  3
ACAD_MLINESTYLE
350
1B
  0
DICTIONARY
  5
1A
102
{ACAD_REACTORS
330
19
102
}
100
AcDbDictionary
  0
DICTIONARY
  5
1B
102
{ACAD_REACTORS
330
19
102
}
100
AcDbDictionary
  3
STANDARD
350
1C
  0
MLINESTYLE
  5
1C
102
{ACAD_REACTORS
330
1B
102
}
100
AcDbMlineStyle
  2
STANDARD
 70
           0
  3

 62
           0
 51
90.0
 52
90.0
 71
           2
 49
0.5
 62
         256
  6
BYLAYER
 49
-0.5
 62
         256
  6
BYLAYER
  0
ENDSEC
  0
EOF
