  0
SECTION
  2
HEADER
  9
$ACADVER
  1
AC1012
  9
$DWGCODEPAGE
  3
dos850
  9
$INSBASE
 10
0.0
 20
0.0
 30
0.0
  9
$EXTMIN
 10
-14547.967264265735
 20
-8838.07791521664
 30
0.0
  9
$EXTMAX
 10
-13898.861991130956
 20
-8513.160215840144
 30
0.0
  9
$LIMMIN
 10
-14547.967264265735
 20
-8838.07791521664
  9
$LIMMAX
 10
-13898.861991130956
 20
-8513.160215840144
  9
$ORTHOMODE
 70
           0
  9
$REGENMODE
 70
           1
  9
$FILLMODE
 70
           1
  9
$QTEXTMODE
 70
           0
  9
$MIRRTEXT
 70
           1
  9
$DRAGMODE
 70
           2
  9
$LTSCALE
 40
5.0
  9
$OSMODE
 70
           0
  9
$ATTMODE
 70
           1
  9
$TEXTSIZE
 40
0.2
  9
$TRACEWID
 40
0.05
  9
$TEXTSTYLE
  7
TXT
  9
$CLAYER
  8
0
  9
$CELTYPE
  6
CONTINUOUS
  9
$CECOLOR
 62
         256
  9
$CELTSCALE
 40
1.0
  9
$DELOBJ
 70
           1
  9
$DISPSILH
 70
           0
  9
$DIMSCALE
 40
1.0
  9
$DIMASZ
 40
3.5
  9
$DIMEXO
 40
0.0625
  9
$DIMDLI
 40
0.38
  9
$DIMRND
 40
0.0
  9
$DIMDLE
 40
0.0
  9
$DIMEXE
 40
0.18
  9
$DIMTP
 40
0.0
  9
$DIMTM
 40
0.0
  9
$DIMTXT
 40
3.5
  9
$DIMCEN
 40
0.09
  9
$DIMTSZ
 40
0.0
  9
$DIMTOL
 70
           0
  9
$DIMLIM
 70
           0
  9
$DIMTIH
 70
           1
  9
$DIMTOH
 70
           1
  9
$DIMSE1
 70
           0
  9
$DIMSE2
 70
           0
  9
$DIMTAD
 70
           0
  9
$DIMZIN
 70
           0
  9
$DIMBLK
  1

  9
$DIMASO
 70
           1
  9
$DIMSHO
 70
           1
  9
$DIMPOST
  1

  9
$DIMAPOST
  1

  9
$DIMALT
 70
           0
  9
$DIMALTD
 70
           2
  9
$DIMALTF
 40
25.4
  9
$DIMLFAC
 40
1.0
  9
$DIMTOFL
 70
           0
  9
$DIMTVP
 40
0.0
  9
$DIMTIX
 70
           0
  9
$DIMSOXD
 70
           0
  9
$DIMSAH
 70
           0
  9
$DIMBLK1
  1

  9
$DIMBLK2
  1

  9
$DIMSTYLE
  2
STANDARD
  9
$DIMCLRD
 70
           0
  9
$DIMCLRE
 70
           0
  9
$DIMCLRT
 70
           0
  9
$DIMTFAC
 40
1.0
  9
$DIMGAP
 40
0.09
  9
$DIMJUST
 70
           0
  9
$DIMSD1
 70
           0
  9
$DIMSD2
 70
           0
  9
$DIMTOLJ
 70
           1
  9
$DIMTZIN
 70
           0
  9
$DIMALTZ
 70
           0
  9
$DIMALTTZ
 70
           0
  9
$DIMFIT
 70
           3
  9
$DIMUPT
 70
           0
  9
$DIMUNIT
 70
           2
  9
$DIMDEC
 70
           4
  9
$DIMTDEC
 70
           4
  9
$DIMALTU
 70
           2
  9
$DIMALTTD
 70
           2
  9
$DIMTXSTY
  7
TXT
  9
$DIMAUNIT
 70
           0
  9
$LUNITS
 70
           2
  9
$LUPREC
 70
           3
  9
$SKETCHINC
 40
0.1
  9
$FILLETRAD
 40
0.0
  9
$AUNITS
 70
           0
  9
$AUPREC
 70
           3
  9
$MENU
  1
acad
  9
$ELEVATION
 40
0.0
  9
$PELEVATION
 40
0.0
  9
$THICKNESS
 40
0.0
  9
$LIMCHECK
 70
           0
  9
$BLIPMODE
 70
           1
  9
$CHAMFERA
 40
0.0
  9
$CHAMFERB
 40
0.0
  9
$CHAMFERC
 40
0.0
  9
$CHAMFERD
 40
0.0
  9
$SKPOLY
 70
           0
  9
$TDCREATE
 40
0.000000000
  9
$TDUPDATE
 40
0.000000000
  9
$TDINDWG
 40
0.0000000000
  9
$TDUSRTIMER
 40
0.0000000000
  9
$USRTIMER
 70
           1
  9
$ANGBASE
 50
0.0
  9
$ANGDIR
 70
           0
  9
$PDMODE
 70
           2
  9
$PDSIZE
 40
0.5
  9
$PLINEWID
 40
0.0
  9
$COORDS
 70
           0
  9
$SPLFRAME
 70
           0
  9
$SPLINETYPE
 70
           6
  9
$SPLINESEGS
 70
           8
  9
$ATTDIA
 70
           0
  9
$ATTREQ
 70
           1
  9
$HANDLING
 70
           1
  9
$HANDSEED
  5
3AB
  9
$SURFTAB1
 70
           6
  9
$SURFTAB2
 70
           6
  9
$SURFTYPE
 70
           6
  9
$SURFU
 70
           6
  9
$SURFV
 70
           6
  9
$UCSNAME
  2

  9
$UCSORG
 10
0.0
 20
0.0
 30
0.0
  9
$UCSXDIR
 10
1.0
 20
0.0
 30
0.0
  9
$UCSYDIR
 10
0.0
 20
1.0
 30
0.0
  9
$PUCSNAME
  2

  9
$PUCSORG
 10
0.0
 20
0.0
 30
0.0
  9
$PUCSXDIR
 10
1.0
 20
0.0
 30
0.0
  9
$PUCSYDIR
 10
0.0
 20
1.0
 30
0.0
  9
$USERI1
 70
           0
  9
$USERI2
 70
           0
  9
$USERI3
 70
           0
  9
$USERI4
 70
           0
  9
$USERI5
 70
           0
  9
$USERR1
 40
0.0
  9
$USERR2
 40
0.0
  9
$USERR3
 40
0.0
  9
$USERR4
 40
0.0
  9
$USERR5
 40
0.0
  9
$WORLDVIEW
 70
           1
  9
$SHADEDGE
 70
           3
  9
$SHADEDIF
 70
          70
  9
$TILEMODE
 70
           1
  9
$MAXACTVP
 70
          16
  9
$PINSBASE
 10
0.0
 20
0.0
 30
0.0
  9
$PLIMCHECK
 70
           0
  9
$PEXTMIN
 10
1.000000000000E+20
 20
1.000000000000E+20
 30
1.000000000000E+20
  9
$PEXTMAX
 10
-1.000000000000E+20
 20
-1.000000000000E+20
 30
-1.000000000000E+20
  9
$PLIMMIN
 10
0.0
 20
0.0
  9
$PLIMMAX
 10
12.0
 20
9.0
  9
$UNITMODE
 70
           0
  9
$VISRETAIN
 70
           0
  9
$PLINEGEN
 70
           1
  9
$PSLTSCALE
 70
           0
  9
$TREEDEPTH
 70
        3020
  9
$PICKSTYLE
 70
           1
  9
$CMLSTYLE
  2
STANDARD
  9
$CMLJUST
 70
           0
  9
$CMLSCALE
 40
1.0
  9
$SAVEIMAGES
 70
           0
  0
ENDSEC
  0
SECTION
  2
CLASSES
  0
CLASS
  1
LWPOLYLINE
  2
AcDbPolyline
  3
"AutoCAD"
 90
        0
280
           0
281
           1
  0
CLASS
  1
IMAGE
  2
AcDbRasterImage
  3
ISM
 90
      127
280
           0
281
           1
  0
CLASS
  1
OLE2FRAME
  2
AcDbOle2Frame
  3
""
 90
        0
280
           0
281
           1
  0
CLASS
  1
HATCH
  2
AcDbHatch
  3
"ACAD_SEDONA"
 90
        0
280
           0
281
           1
  0
CLASS
  1
DICTIONARYVAR
  2
AcDbDictionaryVar
  3
"AutoCAD"
 90
        0
280
           0
281
           0
  0
CLASS
  1
RASTERVARIABLES
  2
AcDbRasterVariables
  3
ISM
 90
        0
280
           0
281
           0
  0
CLASS
  1
IMAGEDEF
  2
AcDbRasterImageDef
  3
ISM
 90
        0
280
           0
281
           0
  0
CLASS
  1
IMAGEDEF_REACTOR
  2
AcDbRasterImageDefReactor
  3
ISM
 90
        1
280
           0
281
           0
  0
CLASS
  1
IDBUFFER
  2
AcDbIdBuffer
  3
"Acad"
 90
        0
280
           0
281
           0
  0
CLASS
  1
SPATIAL_FILTER
  2
AcDbSpatialFilter
  3
"Acad"
 90
        0
280
           0
281
           0
  0
CLASS
  1
XRECORD
  2
AcDbXrecord
  3
"<Built In>"
 90
        0
280
           0
281
           0
  0
ENDSEC
  0
SECTION
  2
TABLES
  0
TABLE
  2
VPORT
  5
7
100
AcDbSymbolTable
 70
           1
  0
VPORT
  5
15
100
AcDbSymbolTableRecord
100
AcDbViewportTableRecord
  2
*ACTIVE
 70
           0
 10
0.0
 20
0.0
 11
1.0
 21
1.0
 12
6.591288
 22
4.579184
 13
0.0
 23
0.0
 14
1.0
 24
1.0
 15
0.0
 25
0.0
 16
0.0
 26
0.0
 36
1.0
 17
0.0
 27
0.0
 37
0.0
 40
9.158369
 41
0.688564
 42
50.0
 43
0.0
 44
0.0
 50
0.0
 51
0.0
 71
           0
 72
         100
 73
           1
 74
           1
 75
           0
 76
           0
 77
           0
 78
           0
  0
ENDTAB
  0
TABLE
  2
LTYPE
  5
4
100
AcDbSymbolTable
 70
           5
  0
LTYPE
  5
11
100
AcDbSymbolTableRecord
100
AcDbLinetypeTableRecord
  2
BYBLOCK
 70
           0
  3

 72
          65
 73
           0
 40
0.0
  0
LTYPE
  5
12
100
AcDbSymbolTableRecord
100
AcDbLinetypeTableRecord
  2
BYLAYER
 70
           0
  3

 72
          65
 73
           0
 40
0.0
  0
LTYPE
  5
13
100
AcDbSymbolTableRecord
100
AcDbLinetypeTableRecord
  2
CONTINUOUS
 70
           0
  3
Solid line
 72
          65
 73
           0
 40
0.0
  0
LTYPE
  5
1D
100
AcDbSymbolTableRecord
100
AcDbLinetypeTableRecord
  2
GESTRICHELT
 70
           0
  3

 72
          65
 73
           2
 40
0.75
 49
0.5
 74
           0
 49
-0.25
 74
           0
  0
LTYPE
  5
1E
100
AcDbSymbolTableRecord
100
AcDbLinetypeTableRecord
  2
STRICHPUNKT
 70
           0
  3

 72
          65
 73
           4
 40
1.0
 49
0.5
 74
           0
 49
-0.25
 74
           0
 49
0.0
 74
           0
 49
-0.25
 74
           0
  0
ENDTAB
  0
TABLE
  2
LAYER
  5
2
100
AcDbSymbolTable
 70
           3
  0
LAYER
  5
14
100
AcDbSymbolTableRecord
100
AcDbLayerTableRecord
  2
0
 70
           0
 62
           7
  6
CONTINUOUS
  0
LAYER
  5
20
100
AcDbSymbolTableRecord
100
AcDbLayerTableRecord
  2
FREI
 70
           0
 62
           7
  6
CONTINUOUS
  0
LAYER
  5
21
100
AcDbSymbolTableRecord
100
AcDbLayerTableRecord
  2
Frei
 70
           0
 62
           7
  6
CONTINUOUS
  0
ENDTAB
  0
TABLE
  2
STYLE
  5
3
100
AcDbSymbolTable
 70
           2
  0
STYLE
  5
17
100
AcDbSymbolTableRecord
100
AcDbTextStyleTableRecord
  2
TXT
 70
           0
 40
3.5
 41
1.0
 50
0.0
 71
           0
 42
3.5
  3
TXT
  4

  0
STYLE
  5
1F
100
AcDbSymbolTableRecord
100
AcDbTextStyleTableRecord
  2
GOTHICG
 70
           0
 40
3.5
 41
1.0
 50
0.0
 71
           0
 42
3.5
  3
GOTHICG
  4

  0
ENDTAB
  0
TABLE
  2
VIEW
  5
5
100
AcDbSymbolTable
 70
           0
  0
ENDTAB
  0
TABLE
  2
UCS
  5
6
100
AcDbSymbolTable
 70
           0
  0
ENDTAB
  0
TABLE
  2
APPID
  5
8
100
AcDbSymbolTable
 70
           2
  0
APPID
  5
16
100
AcDbSymbolTableRecord
100
AcDbRegAppTableRecord
  2
ACAD
 70
           0
  0
APPID
  5
22
100
AcDbSymbolTableRecord
100
AcDbRegAppTableRecord
  2
MegaCADPntStyle
 70
           0
  0
ENDTAB
  0
TABLE
  2
DIMSTYLE
  5
9
100
AcDbSymbolTable
 70
           1
  0
DIMSTYLE
105
18
100
AcDbSymbolTableRecord
100
AcDbDimStyleTableRecord
  2
STANDARD
 70
           0
  3

  4

  5

  6

  7

 40
1.0
 41
0.18
 42
0.0625
 43
0.38
 44
0.18
 45
0.0
 46
0.0
 47
0.0
 48
0.0
140
0.18
141
0.09
142
0.0
143
25.4
144
1.0
145
0.0
146
1.0
147
0.09
 71
           0
 72
           0
 73
           1
 74
           1
 75
           0
 76
           0
 77
           0
 78
           0
170
           0
171
           2
172
           0
173
           0
174
           0
175
           0
176
           0
177
           0
178
           0
270
           2
271
           4
272
           4
273
           2
274
           2
340
17
275
           0
280
           0
281
           0
282
           0
283
           1
284
           0
285
           0
286
           0
287
           0
288
           0
  0
ENDTAB
  0
TABLE
  2
BLOCK_RECORD
  5
1
100
AcDbSymbolTable
 70
           3
  0
BLOCK_RECORD
  5
A
100
AcDbSymbolTableRecord
100
AcDbBlockTableRecord
  2
*MODEL_SPACE
  0
BLOCK_RECORD
  5
B
100
AcDbSymbolTableRecord
100
AcDbBlockTableRecord
  2
*PAPER_SPACE
  0
BLOCK_RECORD
  5
23
100
AcDbSymbolTableRecord
100
AcDbBlockTableRecord
  2
ELIPPSE
  0
BLOCK_RECORD
  5
24
100
AcDbSymbolTableRecord
100
AcDbBlockTableRecord
  2
MAK1
  0
BLOCK_RECORD
  5
25
100
AcDbSymbolTableRecord
100
AcDbBlockTableRecord
  2
MAK2
  0
ENDTAB
  0
ENDSEC
  0
SECTION
  2
BLOCKS
  0
BLOCK
  5
D
100
AcDbEntity
  8
0
100
AcDbBlockBegin
  2
*MODEL_SPACE
 70
           0
 10
0.0
 20
0.0
 30
0.0
  3
*MODEL_SPACE
  1

  0
ENDBLK
  5
E
100
AcDbEntity
  8
0
100
AcDbBlockEnd
  0
BLOCK
  5
F
100
AcDbEntity
 67
           1
  8
0
100
AcDbBlockBegin
  2
*PAPER_SPACE
 70
           0
 10
0.0
 20
0.0
 30
0.0
  3
*PAPER_SPACE
  1

  0
ENDBLK
  5
10
100
AcDbEntity
 67
           1
  8
0
100
AcDbBlockEnd
  0
BLOCK
  5
34F
100
AcDbEntity
  8
0
100
AcDbBlockBegin
  2
ELIPPSE
 70
          64
 10
0.0
 20
0.0
 30
0.0
  3
ELIPPSE
  1

  0
CIRCLE
  5
350
100
AcDbEntity
  8
0
  6
BYBLOCK
 62
           0
100
AcDbCircle
 10
0.0
 20
0.0
 30
0.0
 40
1.0
  0
ENDBLK
  5
351
100
AcDbEntity
  8
0
  6
BYBLOCK
 62
           0
100
AcDbBlockEnd
  0
BLOCK
  5
352
100
AcDbEntity
  8
0
100
AcDbBlockBegin
  2
MAK1
 70
          64
 10
0.0
 20
0.0
 30
0.0
  3
MAK1
  1

  0
LINE
  5
353
100
AcDbEntity
  8
Frei
  6
CONTINUOUS
 62
           2
100
AcDbLine
 10
191.903508353411
 20
615.106916893559
 30
0.0
 11
192.293358480827
 21
615.496767020977
 31
0.0
  0
LINE
  5
354
100
AcDbEntity
  8
Frei
  6
CONTINUOUS
 62
           2
100
AcDbLine
 10
191.903508353409
 20
614.04625672178
 30
0.0
 11
193.354018652608
 21
615.496767020979
 31
0.0
  0
LINE
  5
355
100
AcDbEntity
  8
Frei
  6
CONTINUOUS
 62
           2
100
AcDbLine
 10
191.903508353411
 20
612.985596550001
 30
0.0
 11
193.903508353411
 21
614.985596550001
 31
0.0
  0
LINE
  5
356
100
AcDbEntity
  8
Frei
  6
CONTINUOUS
 62
           2
100
AcDbLine
 10
191.903508353411
 20
611.924936378216
 30
0.0
 11
193.903508353411
 21
613.924936378218
 31
0.0
  0
LINE
  5
357
100
AcDbEntity
  8
Frei
  6
CONTINUOUS
 62
           2
100
AcDbLine
 10
191.903508353411
 20
610.864276206441
 30
0.0
 11
193.903508353411
 21
612.864276206437
 31
0.0
  0
LINE
  5
358
100
AcDbEntity
  8
Frei
  6
CONTINUOUS
 62
           2
100
AcDbLine
 10
191.903508353409
 20
609.80361603466
 30
0.0
 11
193.903508353409
 21
611.803616034658
 31
0.0
  0
LINE
  5
359
100
AcDbEntity
  8
Frei
  6
CONTINUOUS
 62
           2
100
AcDbLine
 10
191.903508353411
 20
608.742955862879
 30
0.0
 11
193.903508353411
 21
610.742955862879
 31
0.0
  0
LINE
  5
35A
100
AcDbEntity
  8
Frei
  6
CONTINUOUS
 62
           2
100
AcDbLine
 10
191.903508353409
 20
607.6822956911
 30
0.0
 11
193.903508353411
 21
609.6822956911
 31
0.0
  0
LINE
  5
35B
100
AcDbEntity
  8
Frei
  6
CONTINUOUS
 62
           2
100
AcDbLine
 10
191.903508353411
 20
606.621635519319
 30
0.0
 11
193.903508353411
 21
608.621635519321
 31
0.0
  0
LINE
  5
35C
100
AcDbEntity
  8
Frei
  6
CONTINUOUS
 62
           2
100
AcDbLine
 10
191.903508353411
 20
605.56097534754
 30
0.0
 11
193.903508353409
 21
607.56097534754
 31
0.0
  0
LINE
  5
35D
100
AcDbEntity
  8
Frei
  6
CONTINUOUS
 62
           2
100
AcDbLine
 10
191.903508353411
 20
604.500315175761
 30
0.0
 11
193.903508353411
 21
606.500315175761
 31
0.0
  0
LINE
  5
35E
100
AcDbEntity
  8
Frei
  6
CONTINUOUS
 62
           2
100
AcDbLine
 10
191.903508353409
 20
603.439655003982
 30
0.0
 11
193.903508353409
 21
605.439655003982
 31
0.0
  0
LINE
  5
35F
100
AcDbEntity
  8
Frei
  6
CONTINUOUS
 62
           2
100
AcDbLine
 10
191.903508353411
 20
602.378994832203
 30
0.0
 11
193.903508353411
 21
604.378994832203
 31
0.0
  0
LINE
  5
360
100
AcDbEntity
  8
Frei
  6
CONTINUOUS
 62
           2
100
AcDbLine
 10
191.903508353411
 20
601.318334660422
 30
0.0
 11
193.903508353409
 21
603.31833466042
 31
0.0
  0
LINE
  5
361
100
AcDbEntity
  8
Frei
  6
CONTINUOUS
 62
           2
100
AcDbLine
 10
191.903508353411
 20
600.257674488643
 30
0.0
 11
193.903508353411
 21
602.257674488645
 31
0.0
  0
LINE
  5
362
100
AcDbEntity
  8
Frei
  6
CONTINUOUS
 62
           2
100
AcDbLine
 10
191.903508353409
 20
599.19701431686
 30
0.0
 11
193.903508353411
 21
601.19701431686
 31
0.0
  0
LINE
  5
363
100
AcDbEntity
  8
Frei
  6
CONTINUOUS
 62
           2
100
AcDbLine
 10
191.903508353411
 20
598.136354145079
 30
0.0
 11
193.903508353411
 21
600.136354145081
 31
0.0
  0
LINE
  5
364
100
AcDbEntity
  8
Frei
  6
CONTINUOUS
 62
           2
100
AcDbLine
 10
191.903508353411
 20
597.075693973302
 30
0.0
 11
193.903508353411
 21
599.0756939733
 31
0.0
  0
LINE
  5
365
100
AcDbEntity
  8
Frei
  6
CONTINUOUS
 62
           2
100
AcDbLine
 10
191.903508353409
 20
596.015033801523
 30
0.0
 11
193.903508353411
 21
598.015033801521
 31
0.0
  0
LINE
  5
366
100
AcDbEntity
  8
Frei
  6
CONTINUOUS
 62
           2
100
AcDbLine
 10
192.445901744644
 20
595.496767020979
 30
0.0
 11
193.903508353411
 21
596.954373629744
 31
0.0
  0
LINE
  5
367
100
AcDbEntity
  8
Frei
  6
CONTINUOUS
 62
           2
100
AcDbLine
 10
193.506561916423
 20
595.496767020975
 30
0.0
 11
193.903508353411
 21
595.893713457963
 31
0.0
  0
LINE
  5
368
100
AcDbEntity
  8
Frei
  6
CONTINUOUS
 62
           2
100
AcDbLine
 10
192.573740611428
 20
595.496767020977
 30
0.0
 11
191.903508353411
 21
596.166999278996
 31
0.0
  0
LINE
  5
369
100
AcDbEntity
  8
Frei
  6
CONTINUOUS
 62
           2
100
AcDbLine
 10
193.634400783207
 20
595.496767020979
 30
0.0
 11
191.903508353409
 21
597.227659450777
 31
0.0
  0
LINE
  5
36A
100
AcDbEntity
  8
Frei
  6
CONTINUOUS
 62
           2
100
AcDbLine
 10
193.903508353409
 20
596.288319622556
 30
0.0
 11
191.903508353411
 21
598.288319622552
 31
0.0
  0
LINE
  5
36B
100
AcDbEntity
  8
Frei
  6
CONTINUOUS
 62
           2
100
AcDbLine
 10
193.903508353411
 20
597.348979794337
 30
0.0
 11
191.903508353411
 21
599.348979794337
 31
0.0
  0
LINE
  5
36C
100
AcDbEntity
  8
Frei
  6
CONTINUOUS
 62
           2
100
AcDbLine
 10
193.903508353411
 20
598.409639966116
 30
0.0
 11
191.903508353409
 21
600.409639966116
 31
0.0
  0
LINE
  5
36D
100
AcDbEntity
  8
Frei
  6
CONTINUOUS
 62
           2
100
AcDbLine
 10
193.903508353411
 20
599.470300137895
 30
0.0
 11
191.903508353411
 21
601.470300137897
 31
0.0
  0
LINE
  5
36E
100
AcDbEntity
  8
Frei
  6
CONTINUOUS
 62
           2
100
AcDbLine
 10
193.903508353409
 20
600.530960309674
 30
0.0
 11
191.903508353409
 21
602.530960309674
 31
0.0
  0
LINE
  5
36F
100
AcDbEntity
  8
Frei
  6
CONTINUOUS
 62
           2
100
AcDbLine
 10
193.903508353411
 20
601.591620481453
 30
0.0
 11
191.903508353411
 21
603.591620481453
 31
0.0
  0
LINE
  5
370
100
AcDbEntity
  8
Frei
  6
CONTINUOUS
 62
           2
100
AcDbLine
 10
193.903508353411
 20
602.652280653234
 30
0.0
 11
191.903508353409
 21
604.652280653234
 31
0.0
  0
LINE
  5
371
100
AcDbEntity
  8
Frei
  6
CONTINUOUS
 62
           2
100
AcDbLine
 10
193.903508353411
 20
603.712940825013
 30
0.0
 11
191.903508353411
 21
605.712940825013
 31
0.0
  0
LINE
  5
372
100
AcDbEntity
  8
Frei
  6
CONTINUOUS
 62
           2
100
AcDbLine
 10
193.903508353409
 20
604.773600996792
 30
0.0
 11
191.903508353409
 21
606.773600996792
 31
0.0
  0
LINE
  5
373
100
AcDbEntity
  8
Frei
  6
CONTINUOUS
 62
           2
100
AcDbLine
 10
193.903508353413
 20
605.834261168573
 30
0.0
 11
191.903508353411
 21
607.834261168573
 31
0.0
  0
LINE
  5
374
100
AcDbEntity
  8
Frei
  6
CONTINUOUS
 62
           2
100
AcDbLine
 10
193.903508353411
 20
606.89492134035
 30
0.0
 11
191.903508353409
 21
608.894921340352
 31
0.0
  0
LINE
  5
375
100
AcDbEntity
  8
Frei
  6
CONTINUOUS
 62
           2
100
AcDbLine
 10
193.903508353409
 20
607.955581512133
 30
0.0
 11
191.903508353411
 21
609.955581512131
 31
0.0
  0
LINE
  5
376
100
AcDbEntity
  8
Frei
  6
CONTINUOUS
 62
           2
100
AcDbLine
 10
193.903508353409
 20
609.01624168391
 30
0.0
 11
191.903508353409
 21
611.01624168391
 31
0.0
  0
LINE
  5
377
100
AcDbEntity
  8
Frei
  6
CONTINUOUS
 62
           2
100
AcDbLine
 10
193.903508353411
 20
610.076901855693
 30
0.0
 11
191.903508353411
 21
612.076901855693
 31
0.0
  0
LINE
  5
378
100
AcDbEntity
  8
Frei
  6
CONTINUOUS
 62
           2
100
AcDbLine
 10
193.903508353411
 20
611.137562027474
 30
0.0
 11
191.903508353411
 21
613.137562027474
 31
0.0
  0
LINE
  5
379
100
AcDbEntity
  8
Frei
  6
CONTINUOUS
 62
           2
100
AcDbLine
 10
193.903508353409
 20
612.198222199253
 30
0.0
 11
191.903508353411
 21
614.198222199253
 31
0.0
  0
LINE
  5
37A
100
AcDbEntity
  8
Frei
  6
CONTINUOUS
 62
           2
100
AcDbLine
 10
193.903508353411
 20
613.25888237103
 30
0.0
 11
191.903508353409
 21
615.25888237103
 31
0.0
  0
LINE
  5
37B
100
AcDbEntity
  8
Frei
  6
CONTINUOUS
 62
           2
100
AcDbLine
 10
193.903508353411
 20
614.319542542811
 30
0.0
 11
192.726283875245
 21
615.496767020979
 31
0.0
  0
LINE
  5
37C
100
AcDbEntity
  8
Frei
  6
CONTINUOUS
 62
           2
100
AcDbLine
 10
193.903508353411
 20
615.38020271459
 30
0.0
 11
193.786944047026
 21
615.496767020977
 31
0.0
  0
ENDBLK
  5
37D
100
AcDbEntity
  8
0
  6
BYBLOCK
 62
           0
100
AcDbBlockEnd
  0
BLOCK
  5
37E
100
AcDbEntity
  8
0
100
AcDbBlockBegin
  2
MAK2
 70
          64
 10
0.0
 20
0.0
 30
0.0
  3
MAK2
  1

  0
LINE
  5
37F
100
AcDbEntity
  8
Frei
  6
CONTINUOUS
 62
           2
100
AcDbLine
 10
-32.096491646591
 20
614.9062131391
 30
0.0
 11
-31.505937764712
 21
615.496767020979
 31
0.0
  0
LINE
  5
380
100
AcDbEntity
  8
Frei
  6
CONTINUOUS
 62
           2
100
AcDbLine
 10
-32.096491646591
 20
613.845552967321
 30
0.0
 11
-30.445277592933
 21
615.496767020977
 31
0.0
  0
LINE
  5
381
100
AcDbEntity
  8
Frei
  6
CONTINUOUS
 62
           2
100
AcDbLine
 10
-32.096491646589
 20
612.784892795542
 30
0.0
 11
-30.096491646591
 21
614.784892795542
 31
0.0
  0
LINE
  5
382
100
AcDbEntity
  8
Frei
  6
CONTINUOUS
 62
           2
100
AcDbLine
 10
-32.096491646593
 20
611.724232623761
 30
0.0
 11
-30.096491646591
 21
613.724232623763
 31
0.0
  0
LINE
  5
383
100
AcDbEntity
  8
Frei
  6
CONTINUOUS
 62
           2
100
AcDbLine
 10
-32.096491646591
 20
610.663572451982
 30
0.0
 11
-30.096491646593
 21
612.663572451982
 31
0.0
  0
LINE
  5
384
100
AcDbEntity
  8
Frei
  6
CONTINUOUS
 62
           2
100
AcDbLine
 10
-32.096491646591
 20
609.602912280201
 30
0.0
 11
-30.096491646591
 21
611.602912280203
 31
0.0
  0
LINE
  5
385
100
AcDbEntity
  8
Frei
  6
CONTINUOUS
 62
           2
100
AcDbLine
 10
-32.096491646589
 20
608.542252108424
 30
0.0
 11
-30.096491646591
 21
610.542252108422
 31
0.0
  0
LINE
  5
386
100
AcDbEntity
  8
Frei
  6
CONTINUOUS
 62
           2
100
AcDbLine
 10
-32.096491646593
 20
607.481591936645
 30
0.0
 11
-30.096491646593
 21
609.481591936643
 31
0.0
  0
LINE
  5
387
100
AcDbEntity
  8
Frei
  6
CONTINUOUS
 62
           2
100
AcDbLine
 10
-32.096491646591
 20
606.420931764864
 30
0.0
 11
-30.096491646593
 21
608.420931764866
 31
0.0
  0
LINE
  5
388
100
AcDbEntity
  8
Frei
  6
CONTINUOUS
 62
           2
100
AcDbLine
 10
-32.096491646589
 20
605.360271593085
 30
0.0
 11
-30.096491646591
 21
607.360271593085
 31
0.0
  0
LINE
  5
389
100
AcDbEntity
  8
Frei
  6
CONTINUOUS
 62
           2
100
AcDbLine
 10
-32.096491646589
 20
604.299611421302
 30
0.0
 11
-30.096491646591
 21
606.299611421302
 31
0.0
  0
LINE
  5
38A
100
AcDbEntity
  8
Frei
  6
CONTINUOUS
 62
           2
100
AcDbLine
 10
-32.096491646591
 20
603.238951249521
 30
0.0
 11
-30.096491646593
 21
605.238951249523
 31
0.0
  0
LINE
  5
38B
100
AcDbEntity
  8
Frei
  6
CONTINUOUS
 62
           2
100
AcDbLine
 10
-32.096491646591
 20
602.178291077744
 30
0.0
 11
-30.096491646593
 21
604.178291077742
 31
0.0
  0
LINE
  5
38C
100
AcDbEntity
  8
Frei
  6
CONTINUOUS
 62
           2
100
AcDbLine
 10
-32.096491646589
 20
601.117630905963
 30
0.0
 11
-30.096491646591
 21
603.117630905963
 31
0.0
  0
LINE
  5
38D
100
AcDbEntity
  8
Frei
  6
CONTINUOUS
 62
           2
100
AcDbLine
 10
-32.096491646591
 20
600.056970734184
 30
0.0
 11
-30.096491646593
 21
602.056970734184
 31
0.0
  0
LINE
  5
38E
100
AcDbEntity
  8
Frei
  6
CONTINUOUS
 62
           2
100
AcDbLine
 10
-32.096491646591
 20
598.996310562405
 30
0.0
 11
-30.096491646593
 21
600.996310562405
 31
0.0
  0
LINE
  5
38F
100
AcDbEntity
  8
Frei
  6
CONTINUOUS
 62
           2
100
AcDbLine
 10
-32.096491646591
 20
597.935650390624
 30
0.0
 11
-30.096491646593
 21
599.935650390626
 31
0.0
  0
LINE
  5
390
100
AcDbEntity
  8
Frei
  6
CONTINUOUS
 62
           2
100
AcDbLine
 10
-32.096491646589
 20
596.874990218845
 30
0.0
 11
-30.096491646591
 21
598.874990218845
 31
0.0
  0
LINE
  5
391
100
AcDbEntity
  8
Frei
  6
CONTINUOUS
 62
           2
100
AcDbLine
 10
-32.096491646591
 20
595.814330047067
 30
0.0
 11
-30.096491646593
 21
597.814330047066
 31
0.0
  0
LINE
  5
392
100
AcDbEntity
  8
Frei
  6
CONTINUOUS
 62
           2
100
AcDbLine
 10
-31.353394500899
 20
595.496767020975
 30
0.0
 11
-30.096491646593
 21
596.753669875287
 31
0.0
  0
LINE
  5
393
100
AcDbEntity
  8
Frei
  6
CONTINUOUS
 62
           2
100
AcDbLine
 10
-30.292734329119
 20
595.496767020979
 30
0.0
 11
-30.096491646593
 21
595.693009703504
 31
0.0
  0
LINE
  5
394
100
AcDbEntity
  8
Frei
  6
CONTINUOUS
 62
           2
100
AcDbLine
 10
-31.225555634115
 20
595.496767020977
 30
0.0
 11
-32.096491646591
 21
596.367703033453
 31
0.0
  0
LINE
  5
395
100
AcDbEntity
  8
Frei
  6
CONTINUOUS
 62
           2
100
AcDbLine
 10
-30.164895462334
 20
595.496767020977
 30
0.0
 11
-32.096491646591
 21
597.428363205232
 31
0.0
  0
LINE
  5
396
100
AcDbEntity
  8
Frei
  6
CONTINUOUS
 62
           2
100
AcDbLine
 10
-30.096491646591
 20
596.489023377011
 30
0.0
 11
-32.096491646591
 21
598.489023377013
 31
0.0
  0
LINE
  5
397
100
AcDbEntity
  8
Frei
  6
CONTINUOUS
 62
           2
100
AcDbLine
 10
-30.096491646593
 20
597.549683548796
 30
0.0
 11
-32.096491646591
 21
599.549683548796
 31
0.0
  0
LINE
  5
398
100
AcDbEntity
  8
Frei
  6
CONTINUOUS
 62
           2
100
AcDbLine
 10
-30.096491646593
 20
598.610343720573
 30
0.0
 11
-32.096491646591
 21
600.610343720573
 31
0.0
  0
LINE
  5
399
100
AcDbEntity
  8
Frei
  6
CONTINUOUS
 62
           2
100
AcDbLine
 10
-30.096491646591
 20
599.671003892354
 30
0.0
 11
-32.096491646591
 21
601.671003892354
 31
0.0
  0
LINE
  5
39A
100
AcDbEntity
  8
Frei
  6
CONTINUOUS
 62
           2
100
AcDbLine
 10
-30.096491646593
 20
600.731664064133
 30
0.0
 11
-32.096491646589
 21
602.731664064133
 31
0.0
  0
LINE
  5
39B
100
AcDbEntity
  8
Frei
  6
CONTINUOUS
 62
           2
100
AcDbLine
 10
-30.096491646593
 20
601.792324235912
 30
0.0
 11
-32.096491646591
 21
603.792324235912
 31
0.0
  0
LINE
  5
39C
100
AcDbEntity
  8
Frei
  6
CONTINUOUS
 62
           2
100
AcDbLine
 10
-30.096491646593
 20
602.852984407693
 30
0.0
 11
-32.096491646591
 21
604.852984407693
 31
0.0
  0
LINE
  5
39D
100
AcDbEntity
  8
Frei
  6
CONTINUOUS
 62
           2
100
AcDbLine
 10
-30.096491646591
 20
603.913644579472
 30
0.0
 11
-32.096491646591
 21
605.913644579472
 31
0.0
  0
LINE
  5
39E
100
AcDbEntity
  8
Frei
  6
CONTINUOUS
 62
           2
100
AcDbLine
 10
-30.096491646593
 20
604.974304751249
 30
0.0
 11
-32.096491646589
 21
606.974304751253
 31
0.0
  0
LINE
  5
39F
100
AcDbEntity
  8
Frei
  6
CONTINUOUS
 62
           2
100
AcDbLine
 10
-30.096491646593
 20
606.03496492303
 30
0.0
 11
-32.096491646591
 21
608.03496492303
 31
0.0
  0
LINE
  5
3A0
100
AcDbEntity
  8
Frei
  6
CONTINUOUS
 62
           2
100
AcDbLine
 10
-30.096491646593
 20
607.095625094809
 30
0.0
 11
-32.096491646591
 21
609.095625094809
 31
0.0
  0
LINE
  5
3A1
100
AcDbEntity
  8
Frei
  6
CONTINUOUS
 62
           2
100
AcDbLine
 10
-30.096491646591
 20
608.156285266594
 30
0.0
 11
-32.096491646589
 21
610.15628526659
 31
0.0
  0
LINE
  5
3A2
100
AcDbEntity
  8
Frei
  6
CONTINUOUS
 62
           2
100
AcDbLine
 10
-30.096491646593
 20
609.216945438369
 30
0.0
 11
-32.096491646589
 21
611.216945438369
 31
0.0
  0
LINE
  5
3A3
100
AcDbEntity
  8
Frei
  6
CONTINUOUS
 62
           2
100
AcDbLine
 10
-30.096491646593
 20
610.277605610152
 30
0.0
 11
-32.096491646591
 21
612.277605610152
 31
0.0
  0
LINE
  5
3A4
100
AcDbEntity
  8
Frei
  6
CONTINUOUS
 62
           2
100
AcDbLine
 10
-30.096491646593
 20
611.338265781931
 30
0.0
 11
-32.096491646591
 21
613.338265781933
 31
0.0
  0
LINE
  5
3A5
100
AcDbEntity
  8
Frei
  6
CONTINUOUS
 62
           2
100
AcDbLine
 10
-30.096491646591
 20
612.39892595371
 30
0.0
 11
-32.096491646589
 21
614.39892595371
 31
0.0
  0
LINE
  5
3A6
100
AcDbEntity
  8
Frei
  6
CONTINUOUS
 62
           2
100
AcDbLine
 10
-30.096491646593
 20
613.459586125491
 30
0.0
 11
-32.096491646589
 21
615.459586125491
 31
0.0
  0
LINE
  5
3A7
100
AcDbEntity
  8
Frei
  6
CONTINUOUS
 62
           2
100
AcDbLine
 10
-30.096491646591
 20
614.52024629727
 30
0.0
 11
-31.073012370298
 21
615.496767020977
 31
0.0
  0
ENDBLK
  5
3A8
100
AcDbEntity
  8
0
  6
BYBLOCK
 62
           0
100
AcDbBlockEnd
  0
ENDSEC
  0
SECTION
  2
ENTITIES
  0
INSERT
  5
26
100
AcDbEntity
  8
FREI
  6
CONTINUOUS
 62
           7
100
AcDbBlockReference
  2
MAK1
 10
-14206.106486691169
 20
-9263.148732453876
 30
0.0
 50
356.087999999999
  0
INSERT
  5
27
100
AcDbEntity
  8
FREI
  6
CONTINUOUS
 62
           7
100
AcDbBlockReference
  2
MAK2
 10
-14206.106486691169
 20
-9263.148732453876
 30
0.0
 50
356.087999999999
  0
LINE
  5
28
100
AcDbEntity
  8
FREI
  6
CONTINUOUS
 62
          15
100
AcDbLine
 10
-14324.599390220224
 20
-8513.160215840144
 30
0.0
 11
-14473.343994954543
 21
-8574.772248450921
 31
0.0
  0
LINE
  5
29
100
AcDbEntity
  8
FREI
  6
CONTINUOUS
 62
          15
100
AcDbLine
 10
-14381.750938130956
 20
-8795.897448453638
 30
0.0
 11
-14364.279216730492
 21
-8838.07791521664
 31
0.0
  0
LINE
  5
2A
100
AcDbEntity
  8
FREI
  6
CONTINUOUS
 62
          15
100
AcDbLine
 10
-14473.343994954543
 20
-8574.772248450921
 30
0.0
 11
-14468.883510254493
 21
-8585.540811108542
 31
0.0
  0
LINE
  5
2B
100
AcDbEntity
  8
FREI
  6
CONTINUOUS
 62
          15
100
AcDbLine
 10
-14364.279216730492
 20
-8838.07791521664
 30
0.0
 11
-14215.534611996174
 21
-8776.465882605862
 31
0.0
  0
LINE
  5
2C
100
AcDbEntity
  8
FREI
  6
CONTINUOUS
 62
          15
100
AcDbLine
 10
-14277.166483216186
 20
-8627.673383232077
 30
0.0
 11
-14324.599390220224
 21
-8513.160215840144
 31
0.0
  0
LINE
  5
2D
100
AcDbEntity
  8
FREI
  6
GESTRICHELT
 62
          15
100
AcDbLine
 10
-14248.171533850069
 20
-8697.673383232079
 30
0.0
 11
-14277.166483216186
 21
-8627.673383232077
 31
0.0
  0
LINE
  5
2E
100
AcDbEntity
  8
FREI
  6
CONTINUOUS
 62
          15
100
AcDbLine
 10
-14215.534611996174
 20
-8776.465882605862
 30
0.0
 11
-14248.171533850069
 21
-8697.673383232079
 31
0.0
  0
LINE
  5
2F
100
AcDbEntity
  8
FREI
  6
STRICHPUNKT
 62
          15
100
AcDbLine
 10
-14289.906914363333
 20
-8807.271898911251
 30
0.0
 11
-14398.971692587384
 21
-8543.966232145533
 31
0.0
  0
LINE
  5
30
100
AcDbEntity
  8
FREI
  6
STRICHPUNKT
 62
          15
100
AcDbLine
 10
-14381.750938130956
 20
-8585.540811108542
 30
0.0
 11
-14473.594961898574
 21
-8807.271898911251
 31
0.0
  0
LINE
  5
31
100
AcDbEntity
  8
FREI
  6
CONTINUOUS
 62
          15
100
AcDbLine
 10
-14468.883510254493
 20
-8585.540811108542
 30
0.0
 11
-14547.967264265735
 21
-8776.46588260586
 31
0.0
  0
LINE
  5
32
100
AcDbEntity
  8
FREI
  6
CONTINUOUS
 62
          15
100
AcDbLine
 10
-14381.750938130956
 20
-8795.897448453638
 30
0.0
 11
-14399.222659531419
 21
-8838.07791521664
 31
0.0
  0
LINE
  5
33
100
AcDbEntity
  8
FREI
  6
CONTINUOUS
 62
          15
100
AcDbLine
 10
-14468.883510254493
 20
-8585.540811108542
 30
0.0
 11
-14294.618366007417
 21
-8585.54081110854
 31
0.0
  0
LINE
  5
34
100
AcDbEntity
  8
FREI
  6
CONTINUOUS
 62
          15
100
AcDbLine
 10
-14381.750938130954
 20
-8627.673383232075
 30
0.0
 11
-14381.750938130956
 21
-8585.540811108542
 31
0.0
  0
LINE
  5
35
100
AcDbEntity
  8
FREI
  6
GESTRICHELT
 62
          15
100
AcDbLine
 10
-14381.750938130954
 20
-8665.673383232079
 30
0.0
 11
-14381.750938130954
 21
-8627.673383232075
 31
0.0
  0
LINE
  5
36
100
AcDbEntity
  8
FREI
  6
GESTRICHELT
 62
          15
100
AcDbLine
 10
-14381.750938130954
 20
-8697.673383232075
 30
0.0
 11
-14381.750938130954
 21
-8679.673383232077
 31
0.0
  0
LINE
  5
37
100
AcDbEntity
  8
FREI
  6
CONTINUOUS
 62
          15
100
AcDbLine
 10
-14381.750938130956
 20
-8795.897448453638
 30
0.0
 11
-14381.750938130954
 21
-8697.673383232075
 31
0.0
  0
LINE
  5
38
100
AcDbEntity
  8
FREI
  6
CONTINUOUS
 62
          15
100
AcDbLine
 10
-14399.222659531419
 20
-8838.07791521664
 30
0.0
 11
-14547.967264265735
 21
-8776.46588260586
 31
0.0
  0
CIRCLE
  5
39
100
AcDbEntity
  8
FREI
  6
CONTINUOUS
 62
          15
100
AcDbCircle
 10
-14381.750938130957
 20
-8672.673383232077
 30
0.0
 40
7.0
  0
CIRCLE
  5
3A
100
AcDbEntity
  8
Frei
  6
CONTINUOUS
 62
           7
100
AcDbCircle
 10
-13918.861991130958
 20
-8672.673383232079
 30
0.0
 40
6.25
  0
CIRCLE
  5
3B
100
AcDbEntity
  8
FREI
  6
CONTINUOUS
 62
          15
100
AcDbCircle
 10
-14316.155491322657
 20
-8645.502859534156
 30
0.0
 40
6.25
  0
ARC
  5
3C
100
AcDbEntity
  8
FREI
  6
CONTINUOUS
 62
          15
100
AcDbCircle
 10
-14381.750938130957
 20
-8672.673383232077
 30
0.0
 40
17.25
100
AcDbArc
 50
111.69299050693
 51
293.307009493072
  0
LINE
  5
3D
100
AcDbEntity
  8
FREI
  6
CONTINUOUS
 62
          15
100
AcDbLine
 10
-14322.162028963749
 20
-8630.403720301532
 30
0.0
 11
-14388.127108857652
 21
-8656.645066200525
 31
0.0
  0
LINE
  5
3E
100
AcDbEntity
  8
FREI
  6
CONTINUOUS
 62
          15
100
AcDbLine
 10
-14370.602579892988
 20
-8686.653231455408
 30
0.0
 11
-14374.925840025786
 21
-8688.515748454949
 31
0.0
  0
ARC
  5
3F
100
AcDbEntity
  8
FREI
  6
CONTINUOUS
 62
          15
100
AcDbCircle
 10
-14316.155491322657
 20
-8645.502859534156
 30
0.0
 40
16.25
100
AcDbArc
 50
43.677190698584
 51
111.692990506929
  0
ARC
  5
40
100
AcDbEntity
  8
FREI
  6
GESTRICHELT
 62
          15
100
AcDbCircle
 10
-14316.155491322657
 20
-8645.502859534156
 30
0.0
 40
16.25
100
AcDbArc
 50
308.476134970704
 51
43.677190698584
  0
ARC
  5
41
100
AcDbEntity
  8
FREI
  6
CONTINUOUS
 62
          15
100
AcDbCircle
 10
-14316.155491322657
 20
-8645.502859534156
 30
0.0
 40
16.25
100
AcDbArc
 50
223.699865029297
 51
308.476134970704
  0
ARC
  5
42
100
AcDbEntity
  8
FREI
  6
GESTRICHELT
 62
          15
100
AcDbCircle
 10
-14316.155491322657
 20
-8645.502859534156
 30
0.0
 40
16.25
100
AcDbArc
 50
216.333732352792
 51
223.699865029297
  0
ARC
  5
43
100
AcDbEntity
  8
FREI
  6
CONTINUOUS
 62
          15
100
AcDbCircle
 10
-14316.155491322657
 20
-8645.502859534156
 30
0.0
 40
16.25
100
AcDbArc
 50
210.049825852107
 51
216.333732352792
  0
LINE
  5
44
100
AcDbEntity
  8
FREI
  6
CONTINUOUS
 62
          15
100
AcDbLine
 10
-14338.228463835143
 20
-8652.758059667176
 30
0.0
 11
-14367.20079969071
 21
-8684.240850804206
 31
0.0
  0
ARC
  5
45
100
AcDbEntity
  8
FREI
  6
CONTINUOUS
 62
          15
100
AcDbCircle
 10
-14334.54928442816
 20
-8656.143859261249
 30
0.0
 40
5.0
100
AcDbArc
 50
30.049825852111
 51
137.377894256055
  0
ARC
  5
46
100
AcDbEntity
  8
FREI
  6
CONTINUOUS
 62
          15
100
AcDbCircle
 10
-14374.559158504679
 20
-8677.469251616063
 30
0.0
 40
10.0
100
AcDbArc
 50
293.30700949307
 51
317.377894256059
  0
LINE
  5
47
100
AcDbEntity
  8
Frei
  6
GESTRICHELT
 62
           7
100
AcDbLine
 10
-13936.420958793182
 20
-8671.47227758868
 30
0.0
 11
-13935.227034528803
 21
-8654.013052381044
 31
0.0
  0
LINE
  5
48
100
AcDbEntity
  8
Frei
  6
GESTRICHELT
 62
           7
100
AcDbLine
 10
-13935.227034528803
 20
-8654.013052381044
 30
0.0
 11
-13939.217714576262
 21
-8653.740155406333
 31
0.0
  0
LINE
  5
49
100
AcDbEntity
  8
Frei
  6
CONTINUOUS
 62
           7
100
AcDbLine
 10
-13939.217714576262
 20
-8653.740155406333
 30
0.0
 11
-13938.569584261315
 21
-8644.262290293616
 31
0.0
  0
LINE
  5
4A
100
AcDbEntity
  8
Frei
  6
CONTINUOUS
 62
           7
100
AcDbLine
 10
-13938.569584261315
 20
-8644.262290293616
 30
0.0
 11
-13968.100616612517
 21
-8642.242852680723
 31
0.0
  0
LINE
  5
4B
100
AcDbEntity
  8
Frei
  6
CONTINUOUS
 62
           7
100
AcDbLine
 10
-13968.100616612517
 20
-8642.242852680723
 30
0.0
 11
-13968.134728734356
 21
-8642.741687686659
 31
0.0
  0
LINE
  5
4C
100
AcDbEntity
  8
Frei
  6
CONTINUOUS
 62
           7
100
AcDbLine
 10
-13968.134728734356
 20
-8642.741687686659
 30
0.0
 11
-14195.976598335932
 21
-8627.161406377119
 31
0.0
  0
LINE
  5
4D
100
AcDbEntity
  8
Frei
  6
CONTINUOUS
 62
           7
100
AcDbLine
 10
-14195.976598335932
 20
-8627.161406377119
 30
0.0
 11
-14195.942486214093
 21
-8626.662571371187
 31
0.0
  0
LINE
  5
4E
100
AcDbEntity
  8
Frei
  6
CONTINUOUS
 62
           7
100
AcDbLine
 10
-14195.942486214093
 20
-8626.662571371187
 30
0.0
 11
-14225.473518565293
 21
-8624.643133758298
 31
0.0
  0
LINE
  5
4F
100
AcDbEntity
  8
Frei
  6
CONTINUOUS
 62
           7
100
AcDbLine
 10
-14225.473518565293
 20
-8624.643133758298
 30
0.0
 11
-14226.12164888024
 21
-8634.120998871014
 31
0.0
  0
LINE
  5
50
100
AcDbEntity
  8
Frei
  6
CONTINUOUS
 62
           7
100
AcDbLine
 10
-14226.12164888024
 20
-8634.120998871014
 30
0.0
 11
-14236.597184004821
 21
-8633.404644312388
 31
0.0
  0
LINE
  5
51
100
AcDbEntity
  8
Frei
  6
CONTINUOUS
 62
           7
100
AcDbLine
 10
-14236.597184004821
 20
-8633.404644312388
 30
0.0
 11
-14236.631296126659
 21
-8633.90347931832
 31
0.0
  0
LINE
  5
52
100
AcDbEntity
  8
Frei
  6
CONTINUOUS
 62
           7
100
AcDbLine
 10
-14236.631296126659
 20
-8633.90347931832
 30
0.0
 11
-14247.605666257174
 21
-8633.153012637857
 31
0.0
  0
LINE
  5
53
100
AcDbEntity
  8
Frei
  6
CONTINUOUS
 62
           7
100
AcDbLine
 10
-14247.605666257174
 20
-8633.153012637857
 30
0.0
 11
-14249.925290542251
 21
-8667.073793041262
 31
0.0
  0
LINE
  5
54
100
AcDbEntity
  8
Frei
  6
CONTINUOUS
 62
           7
100
AcDbLine
 10
-14249.925290542251
 20
-8667.073793041262
 30
0.0
 11
-14238.950920411737
 21
-8667.824259721729
 31
0.0
  0
LINE
  5
55
100
AcDbEntity
  8
Frei
  6
CONTINUOUS
 62
           7
100
AcDbLine
 10
-14238.950920411737
 20
-8667.824259721729
 30
0.0
 11
-14238.985032533576
 21
-8668.323094727661
 31
0.0
  0
LINE
  5
56
100
AcDbEntity
  8
Frei
  6
CONTINUOUS
 62
           7
100
AcDbLine
 10
-14238.985032533576
 20
-8668.323094727661
 30
0.0
 11
-14228.509497408995
 21
-8669.039449286287
 31
0.0
  0
LINE
  5
57
100
AcDbEntity
  8
Frei
  6
CONTINUOUS
 62
           7
100
AcDbLine
 10
-14228.509497408995
 20
-8669.039449286287
 30
0.0
 11
-14229.157627723944
 21
-8678.517314399003
 31
0.0
  0
LINE
  5
58
100
AcDbEntity
  8
Frei
  6
CONTINUOUS
 62
           7
100
AcDbLine
 10
-14229.157627723944
 20
-8678.517314399003
 30
0.0
 11
-14199.626595372743
 21
-8680.536752011893
 31
0.0
  0
LINE
  5
59
100
AcDbEntity
  8
Frei
  6
CONTINUOUS
 62
           7
100
AcDbLine
 10
-14199.626595372743
 20
-8680.536752011893
 30
0.0
 11
-14199.592483250903
 21
-8680.037917005961
 31
0.0
  0
LINE
  5
5A
100
AcDbEntity
  8
Frei
  6
CONTINUOUS
 62
           7
100
AcDbLine
 10
-13976.426670381383
 20
-8695.298440233139
 30
0.0
 11
-13971.750613649328
 21
-8695.618198315497
 31
0.0
  0
LINE
  5
5B
100
AcDbEntity
  8
Frei
  6
GESTRICHELT
 62
           7
100
AcDbLine
 10
-14004.361433723159
 20
-8693.388205420102
 30
0.0
 11
-13976.426670381383
 21
-8695.298440233139
 31
0.0
  0
LINE
  5
5C
100
AcDbEntity
  8
Frei
  6
CONTINUOUS
 62
           7
100
AcDbLine
 10
-14166.98166317707
 20
-8682.267909901355
 30
0.0
 11
-14004.361433723159
 21
-8693.388205420102
 31
0.0
  0
LINE
  5
5D
100
AcDbEntity
  8
Frei
  6
GESTRICHELT
 62
           7
100
AcDbLine
 10
-14194.916426518845
 20
-8680.357675088319
 30
0.0
 11
-14166.98166317707
 21
-8682.267909901355
 31
0.0
  0
LINE
  5
5E
100
AcDbEntity
  8
Frei
  6
CONTINUOUS
 62
           7
100
AcDbLine
 10
-14199.592483250903
 20
-8680.037917005961
 30
0.0
 11
-14194.916426518845
 21
-8680.357675088319
 31
0.0
  0
LINE
  5
5F
100
AcDbEntity
  8
Frei
  6
CONTINUOUS
 62
           7
100
AcDbLine
 10
-13971.750613649328
 20
-8695.618198315497
 30
0.0
 11
-13971.784725771167
 21
-8696.117033321429
 31
0.0
  0
LINE
  5
60
100
AcDbEntity
  8
Frei
  6
CONTINUOUS
 62
           7
100
AcDbLine
 10
-13971.784725771167
 20
-8696.117033321429
 30
0.0
 11
-13942.253693419965
 21
-8698.136470934318
 31
0.0
  0
LINE
  5
61
100
AcDbEntity
  8
Frei
  6
CONTINUOUS
 62
           7
100
AcDbLine
 10
-13942.253693419965
 20
-8698.136470934318
 30
0.0
 11
-13941.605563105017
 21
-8688.658605821602
 31
0.0
  0
LINE
  5
62
100
AcDbEntity
  8
Frei
  6
GESTRICHELT
 62
           7
100
AcDbLine
 10
-13941.605563105017
 20
-8688.658605821602
 30
0.0
 11
-13937.614883057558
 21
-8688.931502796317
 31
0.0
  0
LINE
  5
63
100
AcDbEntity
  8
Frei
  6
GESTRICHELT
 62
           7
100
AcDbLine
 10
-13937.614883057558
 20
-8688.931502796317
 30
0.0
 11
-13936.420958793182
 21
-8671.47227758868
 31
0.0
  0
LINE
  5
64
100
AcDbEntity
  8
Frei
  6
CONTINUOUS
 62
           7
100
AcDbLine
 10
-13939.217714576262
 20
-8653.740155406333
 30
0.0
 11
-13941.605563105017
 21
-8688.658605821602
 31
0.0
  0
LINE
  5
65
100
AcDbEntity
  8
Frei
  6
CONTINUOUS
 62
           7
100
AcDbLine
 10
-13970.421141666908
 20
-8676.176805388943
 30
0.0
 11
-13971.750613649328
 21
-8695.618198315497
 31
0.0
  0
LINE
  5
66
100
AcDbEntity
  8
Frei
  6
GESTRICHELT
 62
           7
100
AcDbLine
 10
-13969.900860422922
 20
-8668.568527643802
 30
0.0
 11
-13970.421141666908
 21
-8676.176805388943
 31
0.0
  0
LINE
  5
67
100
AcDbEntity
  8
Frei
  6
CONTINUOUS
 62
           7
100
AcDbLine
 10
-13968.134728734356
 20
-8642.741687686659
 30
0.0
 11
-13969.900860422922
 21
-8668.568527643802
 31
0.0
  0
LINE
  5
68
100
AcDbEntity
  8
Frei
  6
CONTINUOUS
 62
           7
100
AcDbLine
 10
-14198.26298672188
 20
-8660.596165124753
 30
0.0
 11
-14199.592483250903
 21
-8680.037917005961
 31
0.0
  0
LINE
  5
69
100
AcDbEntity
  8
Frei
  6
CONTINUOUS
 62
           7
100
AcDbLine
 10
-14197.742705477895
 20
-8652.987887379612
 30
0.0
 11
-14198.26298672188
 21
-8660.596165124753
 31
0.0
  0
LINE
  5
6A
100
AcDbEntity
  8
Frei
  6
CONTINUOUS
 62
           7
100
AcDbLine
 10
-14195.976598335932
 20
-8627.161406377119
 30
0.0
 11
-14197.742705477895
 21
-8652.987887379612
 31
0.0
  0
LINE
  5
6B
100
AcDbEntity
  8
Frei
  6
CONTINUOUS
 62
           7
100
AcDbLine
 10
-14226.12164888024
 20
-8634.120998871014
 30
0.0
 11
-14228.509497408995
 21
-8669.039449286287
 31
0.0
  0
LINE
  5
6C
100
AcDbEntity
  8
Frei
  6
CONTINUOUS
 62
           7
100
AcDbLine
 10
-14236.597184004821
 20
-8633.404644312388
 30
0.0
 11
-14238.985032533576
 21
-8668.323094727661
 31
0.0
  0
LINE
  5
6D
100
AcDbEntity
  8
Frei
  6
GESTRICHELT
 62
           7
100
AcDbLine
 10
-14261.879596183126
 20
-8643.202599983615
 30
0.0
 11
-14280.015394958153
 21
-8641.962409198863
 31
0.0
  0
LINE
  5
6E
100
AcDbEntity
  8
Frei
  6
CONTINUOUS
 62
           7
100
AcDbLine
 10
-14256.836328038493
 20
-8643.547476697102
 30
0.0
 11
-14261.879596183126
 21
-8643.202599983615
 31
0.0
  0
LINE
  5
6F
100
AcDbEntity
  8
Frei
  6
GESTRICHELT
 62
           7
100
AcDbLine
 10
-14262.698287107269
 20
-8655.174640125992
 30
0.0
 11
-14280.834085882296
 21
-8653.934449341243
 31
0.0
  0
LINE
  5
70
100
AcDbEntity
  8
Frei
  6
CONTINUOUS
 62
           7
100
AcDbLine
 10
-14257.655018962636
 20
-8655.519516839479
 30
0.0
 11
-14262.698287107269
 21
-8655.174640125992
 31
0.0
  0
LINE
  5
71
100
AcDbEntity
  8
Frei
  6
GESTRICHELT
 62
           7
100
AcDbLine
 10
-14280.832721991059
 20
-8642.675098237207
 30
0.0
 11
-14280.015394958153
 21
-8641.962409198863
 31
0.0
  0
LINE
  5
72
100
AcDbEntity
  8
Frei
  6
GESTRICHELT
 62
           7
100
AcDbLine
 10
-14281.546785579583
 20
-8653.11713160279
 30
0.0
 11
-14280.834085882296
 21
-8653.934449341243
 31
0.0
  0
LINE
  5
73
100
AcDbEntity
  8
Frei
  6
GESTRICHELT
 62
           7
100
AcDbLine
 10
-14280.832721991059
 20
-8642.675098237207
 30
0.0
 11
-14281.546785579583
 21
-8653.11713160279
 31
0.0
  0
LINE
  5
74
100
AcDbEntity
  8
Frei
  6
CONTINUOUS
 62
           7
100
AcDbLine
 10
-14261.931909850935
 20
-8643.96760337201
 30
0.0
 11
-14256.888641706302
 21
-8644.312480085497
 31
0.0
  0
LINE
  5
75
100
AcDbEntity
  8
Frei
  6
GESTRICHELT
 62
           7
100
AcDbLine
 10
-14280.832721991059
 20
-8642.675098237207
 30
0.0
 11
-14261.931909850935
 21
-8643.96760337201
 31
0.0
  0
LINE
  5
76
100
AcDbEntity
  8
Frei
  6
CONTINUOUS
 62
           7
100
AcDbLine
 10
-14262.645973439459
 20
-8654.409636737593
 30
0.0
 11
-14257.602705294827
 21
-8654.75451345108
 31
0.0
  0
LINE
  5
77
100
AcDbEntity
  8
Frei
  6
GESTRICHELT
 62
           7
100
AcDbLine
 10
-14281.546785579583
 20
-8653.11713160279
 30
0.0
 11
-14262.645973439459
 21
-8654.409636737593
 31
0.0
  0
LINE
  5
78
100
AcDbEntity
  8
Frei
  6
GESTRICHELT
 62
           7
100
AcDbLine
 10
-14280.015394958153
 20
-8641.962409198863
 30
0.0
 11
-14280.834085882296
 21
-8653.934449341243
 31
0.0
  0
LINE
  5
79
100
AcDbEntity
  8
Frei
  6
CONTINUOUS
 62
           7
100
AcDbLine
 10
-14248.219684450283
 20
-8642.132042744641
 30
0.0
 11
-14256.699879551135
 21
-8641.55213667337
 31
0.0
  0
LINE
  5
7A
100
AcDbEntity
  8
Frei
  6
CONTINUOUS
 62
           7
100
AcDbLine
 10
-14256.699879551135
 20
-8641.55213667337
 30
0.0
 11
-14257.791467449993
 21
-8657.51485686321
 31
0.0
  0
LINE
  5
7B
100
AcDbEntity
  8
Frei
  6
CONTINUOUS
 62
           7
100
AcDbLine
 10
-14257.791467449993
 20
-8657.51485686321
 30
0.0
 11
-14249.311272349141
 21
-8658.094762934477
 31
0.0
  0
LINE
  5
7C
100
AcDbEntity
  8
Frei
  6
CONTINUOUS
 62
           7
100
AcDbLine
 10
-14256.927496777562
 20
-8644.880673110656
 30
0.0
 11
-14251.606593373182
 21
-8645.244535516194
 31
0.0
  0
LINE
  5
7D
100
AcDbEntity
  8
Frei
  6
CONTINUOUS
 62
           7
100
AcDbLine
 10
-14257.563850223567
 20
-8654.186320425924
 30
0.0
 11
-14252.242946819188
 21
-8654.550182831463
 31
0.0
  0
LINE
  5
7E
100
AcDbEntity
  8
Frei
  6
CONTINUOUS
 62
           7
100
AcDbLine
 10
-14251.606593373182
 20
-8645.244535516194
 30
0.0
 11
-14252.242946819188
 21
-8654.550182831463
 31
0.0
  0
LINE
  5
7F
100
AcDbEntity
  8
Frei
  6
CONTINUOUS
 62
           7
100
AcDbLine
 10
-14256.927496777562
 20
-8644.880673110656
 30
0.0
 11
-14252.242946819188
 21
-8654.550182831463
 31
0.0
  0
LINE
  5
80
100
AcDbEntity
  8
Frei
  6
CONTINUOUS
 62
           7
100
AcDbLine
 10
-14251.606593373182
 20
-8645.244535516194
 30
0.0
 11
-14257.563850223567
 21
-8654.186320425924
 31
0.0
  0
CIRCLE
  5
81
100
AcDbEntity
  8
Frei
  6
CONTINUOUS
 62
           7
100
AcDbCircle
 10
-14213.757538440581
 20
-8658.521383561343
 30
0.0
 40
5.7225
  0
ARC
  5
82
100
AcDbEntity
  8
Frei
  6
CONTINUOUS
 62
           7
100
AcDbCircle
 10
-14213.757538440581
 20
-8658.521383561343
 30
0.0
 40
6.5785
100
AcDbArc
 50
106.088
 51
16.088
  0
CIRCLE
  5
83
100
AcDbEntity
  8
Frei
  6
CONTINUOUS
 62
           7
100
AcDbCircle
 10
-13953.969673544676
 20
-8664.258221131277
 30
0.0
 40
5.7225
  0
ARC
  5
84
100
AcDbEntity
  8
Frei
  6
CONTINUOUS
 62
           7
100
AcDbCircle
 10
-13953.969673544676
 20
-8664.258221131277
 30
0.0
 40
6.57849
100
AcDbArc
 50
106.087999999994
 51
16.088000000002
  0
LINE
  5
85
100
AcDbEntity
  8
Frei
  6
CONTINUOUS
 62
           7
100
AcDbLine
 10
-14205.061121031809
 20
-8642.010319478359
 30
0.0
 11
-14212.539012182211
 21
-8648.530989093146
 31
0.0
  0
LINE
  5
86
100
AcDbEntity
  8
Frei
  6
CONTINUOUS
 62
           7
100
AcDbLine
 10
-14205.882565201733
 20
-8641.068282135308
 30
0.0
 11
-14213.360450211954
 21
-8647.588861959797
 31
0.0
  0
CIRCLE
  5
87
100
AcDbEntity
  8
Frei
  6
CONTINUOUS
 62
           7
100
AcDbCircle
 10
-14209.210786986367
 20
-8644.799610672479
 30
0.0
 40
5.0
  0
LINE
  5
88
100
AcDbEntity
  8
Frei
  6
CONTINUOUS
 62
           7
100
AcDbLine
 10
-13954.366462472301
 20
-8675.190763200095
 30
0.0
 11
-13961.844746550527
 21
-8681.711315734883
 31
0.0
  0
LINE
  5
89
100
AcDbEntity
  8
Frei
  6
CONTINUOUS
 62
           7
100
AcDbLine
 10
-13955.188100036044
 20
-8674.248622421896
 30
0.0
 11
-13962.666390254451
 21
-8680.769264746985
 31
0.0
  0
CIRCLE
  5
8A
100
AcDbEntity
  8
Frei
  6
CONTINUOUS
 62
           7
100
AcDbCircle
 10
-13958.516424998894
 20
-8677.979994020141
 30
0.0
 40
5.0
  0
LINE
  5
8B
100
AcDbEntity
  8
Frei
  6
CONTINUOUS
 62
           7
100
AcDbLine
 10
-14261.929493276266
 20
-8638.217580756518
 30
0.0
 11
-14264.529541047588
 21
-8638.039780190582
 31
0.0
  0
LINE
  5
8C
100
AcDbEntity
  8
Frei
  6
CONTINUOUS
 62
           7
100
AcDbLine
 10
-14267.12956886551
 20
-8637.861980989132
 30
0.0
 11
-14264.529541047588
 21
-8638.039780190582
 31
0.0
  0
LINE
  5
8D
100
AcDbEntity
  8
Frei
  6
CONTINUOUS
 62
           7
100
AcDbLine
 10
-14268.626408771821
 20
-8659.750861049448
 30
0.0
 11
-14266.026380953899
 21
-8659.928660250898
 31
0.0
  0
LINE
  5
8E
100
AcDbEntity
  8
Frei
  6
CONTINUOUS
 62
           7
100
AcDbLine
 10
-14263.426333182577
 20
-8660.106460816834
 30
0.0
 11
-14266.026380953899
 21
-8659.928660250898
 31
0.0
  0
LINE
  5
8F
100
AcDbEntity
  8
Frei
  6
CONTINUOUS
 62
           7
100
AcDbLine
 10
-14262.303703935086
 20
-8643.689810748299
 30
0.0
 11
-14264.903751706408
 21
-8643.512010182363
 31
0.0
  0
LINE
  5
90
100
AcDbEntity
  8
Frei
  6
CONTINUOUS
 62
           7
100
AcDbLine
 10
-14267.50377952433
 20
-8643.334210980913
 30
0.0
 11
-14264.903751706408
 21
-8643.512010182363
 31
0.0
  0
LINE
  5
91
100
AcDbEntity
  8
Frei
  6
CONTINUOUS
 62
           7
100
AcDbLine
 10
-14268.252198112999
 20
-8654.27863105767
 30
0.0
 11
-14265.652170295078
 21
-8654.456430259121
 31
0.0
  0
LINE
  5
92
100
AcDbEntity
  8
Frei
  6
CONTINUOUS
 62
           7
100
AcDbLine
 10
-14263.052122523755
 20
-8654.634230825057
 30
0.0
 11
-14265.652170295078
 21
-8654.456430259121
 31
0.0
  0
ARC
  5
93
100
AcDbEntity
  8
Frei
  6
CONTINUOUS
 62
           7
100
AcDbCircle
 10
-14300.976190297288
 20
-8646.543047623127
 30
0.0
 40
38.7776
100
AcDbArc
 50
356.947436999999
 51
4.21961
  0
ARC
  5
94
100
AcDbEntity
  8
Frei
  6
CONTINUOUS
 62
           7
100
AcDbCircle
 10
-14229.5797317042
 20
-8651.425392818357
 30
0.0
 40
38.7776
100
AcDbArc
 50
167.956
 51
175.229
  0
ARC
  5
95
100
AcDbEntity
  8
Frei
  6
CONTINUOUS
 62
           7
100
AcDbCircle
 10
-14229.5797317042
 20
-8651.425392818357
 30
0.0
 40
38.7776
100
AcDbArc
 50
176.946999999999
 51
184.219999999999
  0
ARC
  5
96
100
AcDbEntity
  8
Frei
  6
CONTINUOUS
 62
           7
100
AcDbCircle
 10
-14300.976190297288
 20
-8646.543047623127
 30
0.0
 40
38.7776
100
AcDbArc
 50
347.956389999999
 51
355.228562999999
  0
LINE
  5
97
100
AcDbEntity
  8
Frei
  6
CONTINUOUS
 62
           7
100
AcDbLine
 10
-14262.253609400906
 20
-8648.608035816058
 30
0.0
 11
-14262.288941645198
 21
-8649.188620054803
 31
0.0
  0
LINE
  5
98
100
AcDbEntity
  8
Frei
  6
CONTINUOUS
 62
           7
100
AcDbLine
 10
-14268.222908522695
 20
-8648.199833792311
 30
0.0
 11
-14268.266980356291
 21
-8648.779820386681
 31
0.0
  0
LINE
  5
99
100
AcDbEntity
  8
Frei
  6
CONTINUOUS
 62
           7
100
AcDbLine
 10
-14268.302272693778
 20
-8649.360407354394
 30
0.0
 11
-14268.266980356291
 21
-8648.779820386681
 31
0.0
  0
LINE
  5
9A
100
AcDbEntity
  8
Frei
  6
CONTINUOUS
 62
           7
100
AcDbLine
 10
-14262.332973571989
 20
-8649.768609378141
 30
0.0
 11
-14262.288941645198
 21
-8649.188620054803
 31
0.0
  0
ARC
  5
9B
100
AcDbEntity
  8
Frei
  6
CONTINUOUS
 62
           7
100
AcDbCircle
 10
-14271.838514780058
 20
-8640.288891388023
 30
0.0
 40
10.1345
100
AcDbArc
 50
340.369499999999
 51
356.087999999999
  0
ARC
  5
9C
100
AcDbEntity
  8
Frei
  6
CONTINUOUS
 62
           7
100
AcDbCircle
 10
-14257.594770043965
 20
-8641.262929597266
 30
0.0
 40
10.1232
100
AcDbArc
 50
176.088
 51
191.806999999999
  0
ARC
  5
9D
100
AcDbEntity
  8
Frei
  6
CONTINUOUS
 62
           7
100
AcDbCircle
 10
-14258.717397244729
 20
-8657.679549735702
 30
0.0
 40
10.1345
100
AcDbArc
 50
160.369
 51
176.088
  0
ARC
  5
9E
100
AcDbEntity
  8
Frei
  6
CONTINUOUS
 62
           7
100
AcDbCircle
 10
-14272.961141980823
 20
-8656.705511526459
 30
0.0
 40
10.1232
100
AcDbArc
 50
356.087999999999
 51
11.8065
  0
ARC
  5
9F
100
AcDbEntity
  8
Frei
  6
CONTINUOUS
 62
           7
100
AcDbCircle
 10
-14271.838514780058
 20
-8640.288891388023
 30
0.0
 40
10.1232
100
AcDbArc
 50
356.087999999999
 51
11.8065
  0
ARC
  5
A0
100
AcDbEntity
  8
Frei
  6
CONTINUOUS
 62
           7
100
AcDbCircle
 10
-14257.594770043965
 20
-8641.262929597266
 30
0.0
 40
10.1345
100
AcDbArc
 50
160.369
 51
176.088
  0
ARC
  5
A1
100
AcDbEntity
  8
Frei
  6
CONTINUOUS
 62
           7
100
AcDbCircle
 10
-14258.717397244729
 20
-8657.679549735702
 30
0.0
 40
10.1232
100
AcDbArc
 50
176.088
 51
191.806999999999
  0
ARC
  5
A2
100
AcDbEntity
  8
Frei
  6
CONTINUOUS
 62
           7
100
AcDbCircle
 10
-14272.961141980823
 20
-8656.705511526459
 30
0.0
 40
10.1345
100
AcDbArc
 50
340.369499999999
 51
356.087999999999
  0
LINE
  5
A3
100
AcDbEntity
  8
Frei
  6
CONTINUOUS
 62
           7
100
AcDbLine
 10
-14261.727628044815
 20
-8640.980309985585
 30
0.0
 11
-14262.288941645198
 21
-8649.188620054803
 31
0.0
  0
LINE
  5
A4
100
AcDbEntity
  8
Frei
  6
CONTINUOUS
 62
           7
100
AcDbLine
 10
-14267.705666755908
 20
-8640.571510317463
 30
0.0
 11
-14268.266980356291
 21
-8648.779820386681
 31
0.0
  0
LINE
  5
A5
100
AcDbEntity
  8
Frei
  6
CONTINUOUS
 62
           7
100
AcDbLine
 10
-14268.828293956672
 20
-8656.988130455899
 30
0.0
 11
-14268.266980356291
 21
-8648.779820386681
 31
0.0
  0
LINE
  5
A6
100
AcDbEntity
  8
Frei
  6
CONTINUOUS
 62
           7
100
AcDbLine
 10
-14262.850255245579
 20
-8657.396930124021
 30
0.0
 11
-14262.288941645198
 21
-8649.188620054803
 31
0.0
  0
LINE
  5
A7
100
AcDbEntity
  8
Frei
  6
CONTINUOUS
 62
           7
100
AcDbLine
 10
-13933.204900437642
 20
-8683.277420511389
 30
0.0
 11
-13934.04582719614
 21
-8683.234644422391
 31
0.0
  0
LINE
  5
A8
100
AcDbEntity
  8
Frei
  6
CONTINUOUS
 62
           7
100
AcDbLine
 10
-13932.366122739944
 20
-8682.533032915038
 30
0.0
 11
-13932.856595121881
 21
-8689.705403918677
 31
0.0
  0
LINE
  5
A9
100
AcDbEntity
  8
Frei
  6
CONTINUOUS
 62
           7
100
AcDbLine
 10
-13930.898211825723
 20
-8661.067192910952
 30
0.0
 11
-13930.908236763697
 21
-8661.213791531129
 31
0.0
  0
LINE
  5
AA
100
AcDbEntity
  8
Frei
  6
CONTINUOUS
 62
           7
100
AcDbLine
 10
-13932.466768983608
 20
-8660.143453656689
 30
0.0
 11
-13931.627847358948
 21
-8660.215551608279
 31
0.0
  0
LINE
  5
AB
100
AcDbEntity
  8
Frei
  6
CONTINUOUS
 62
           7
100
AcDbLine
 10
-13930.707773445112
 20
-8661.800148468414
 30
0.0
 11
-13932.077679514856
 21
-8681.832824994541
 31
0.0
  0
LINE
  5
AC
100
AcDbEntity
  8
Frei
  6
CONTINUOUS
 62
           7
100
AcDbLine
 10
-13919.349691389443
 20
-8682.260987127625
 30
0.0
 11
-13931.517320104271
 21
-8681.642046698507
 31
0.0
  0
LINE
  5
AD
100
AcDbEntity
  8
Frei
  6
CONTINUOUS
 62
           7
100
AcDbLine
 10
-13918.039985415762
 20
-8663.108640339342
 30
0.0
 11
-13930.178601230467
 21
-8662.065432833799
 31
0.0
  0
LINE
  5
AE
100
AcDbEntity
  8
Frei
  6
CONTINUOUS
 62
           7
100
AcDbLine
 10
-13932.35609780197
 20
-8682.386434294858
 30
0.0
 11
-13932.366122739944
 21
-8682.533032915038
 31
0.0
  0
LINE
  5
AF
100
AcDbEntity
  8
Frei
  6
CONTINUOUS
 62
           7
100
AcDbLine
 10
-13933.434539536776
 20
-8651.252765277692
 30
0.0
 11
-13932.554945397216
 21
-8651.343848682929
 31
0.0
  0
LINE
  5
B0
100
AcDbEntity
  8
Frei
  6
CONTINUOUS
 62
           7
100
AcDbLine
 10
-13930.407739443786
 20
-8653.894821907314
 30
0.0
 11
-13930.898211825723
 21
-8661.067192910952
 31
0.0
  0
LINE
  5
B1
100
AcDbEntity
  8
Frei
  6
CONTINUOUS
 62
           7
100
AcDbLine
 10
-13935.331077955212
 20
-8691.940329533889
 30
0.0
 11
-13936.214883104822
 21
-8691.910825388753
 31
0.0
  0
LINE
  5
B2
100
AcDbEntity
  8
Frei
  6
CONTINUOUS
 62
           7
100
AcDbLine
 10
-13934.63030237207
 20
-8646.105268372379
 30
0.0
 11
-13938.667028703538
 21
-8645.68725878849
 31
0.0
  0
LINE
  5
B3
100
AcDbEntity
  8
Frei
  6
CONTINUOUS
 62
           7
100
AcDbLine
 10
-13938.100246127375
 20
-8696.847623887948
 30
0.0
 11
-13942.156298070948
 21
-8696.712220348753
 31
0.0
  0
LINE
  5
B4
100
AcDbEntity
  8
Frei
  6
CONTINUOUS
 62
           7
100
AcDbLine
 10
-13935.723382591537
 20
-8684.723419615097
 30
0.0
 11
-13936.214883104822
 21
-8691.910825388753
 31
0.0
  0
LINE
  5
B5
100
AcDbEntity
  8
Frei
  6
CONTINUOUS
 62
           7
100
AcDbLine
 10
-13933.434539536776
 20
-8651.252765277692
 30
0.0
 11
-13933.926040050061
 21
-8658.440171051345
 31
0.0
  0
LINE
  5
B6
100
AcDbEntity
  8
Frei
  6
CONTINUOUS
 62
           7
100
AcDbLine
 10
-13933.198831736447
 20
-8647.805917188638
 30
0.0
 11
-13933.434539536776
 21
-8651.252765277692
 31
0.0
  0
LINE
  5
B7
100
AcDbEntity
  8
Frei
  6
CONTINUOUS
 62
           7
100
AcDbLine
 10
-13936.214883104822
 20
-8691.910825388753
 30
0.0
 11
-13936.450590905151
 21
-8695.357673477807
 31
0.0
  0
ARC
  5
B8
100
AcDbEntity
  8
Frei
  6
CONTINUOUS
 62
           7
100
AcDbCircle
 10
-13918.861991130963
 20
-8672.673383232082
 30
0.0
 40
9.6
100
AcDbArc
 50
267.087999999997
 51
85.088000000002
  0
ARC
  5
B9
100
AcDbEntity
  8
Frei
  6
CONTINUOUS
 62
           7
100
AcDbCircle
 10
-13918.861991130963
 20
-8672.673383232082
 30
0.0
 40
4.799999999999
100
AcDbArc
 50
176.087999999989
 51
356.08800000001
  0
ARC
  5
BA
100
AcDbEntity
  8
Frei
  6
CONTINUOUS
 62
           7
100
AcDbCircle
 10
-13918.861991130958
 20
-8672.673383232079
 30
0.0
 40
4.799999999996
100
AcDbArc
 50
356.087999999956
 51
66.291117282785
  0
ARC
  5
BB
100
AcDbEntity
  8
Frei
  6
CONTINUOUS
 62
           7
100
AcDbCircle
 10
-13918.861991130963
 20
-8672.673383232082
 30
0.0
 40
4.8
100
AcDbArc
 50
66.291117282759
 51
176.088
  0
ARC
  5
BC
100
AcDbEntity
  8
Frei
  6
CONTINUOUS
 62
           7
100
AcDbCircle
 10
-13931.55796179248
 20
-8682.441013689793
 30
0.0
 40
0.799999999992
100
AcDbArc
 50
87.087999999855
 51
130.515004001098
  0
ARC
  5
BD
100
AcDbEntity
  8
Frei
  6
CONTINUOUS
 62
           7
100
AcDbCircle
 10
-13931.55796179249
 20
-8682.441013689793
 30
0.0
 40
0.799999999986
100
AcDbArc
 50
130.515004000449
 51
176.088000000456
  0
ARC
  5
BE
100
AcDbEntity
  8
Frei
  6
CONTINUOUS
 62
           7
100
AcDbCircle
 10
-13933.164258749435
 20
-8682.478453520092
 30
0.0
 40
0.8
100
AcDbArc
 50
267.087999999976
 51
356.087999999999
  0
ARC
  5
BF
100
AcDbEntity
  8
Frei
  6
CONTINUOUS
 62
           7
100
AcDbCircle
 10
-13934.127110572554
 20
-8684.832578404985
 30
0.0
 40
1.599999999999
100
AcDbArc
 50
87.087999999911
 51
176.088
  0
ARC
  5
C0
100
AcDbEntity
  8
Frei
  6
CONTINUOUS
 62
           7
100
AcDbCircle
 10
-13930.110100754213
 20
-8661.268370926075
 30
0.0
 40
0.79999999999
100
AcDbArc
 50
176.087999999609
 51
221.660995999455
  0
ARC
  5
C1
100
AcDbEntity
  8
Frei
  6
CONTINUOUS
 62
           7
100
AcDbCircle
 10
-13930.110100754206
 20
-8661.268370926082
 30
0.0
 40
0.799999999992
100
AcDbArc
 50
221.660995998901
 51
265.088000000144
  0
ARC
  5
C2
100
AcDbEntity
  8
Frei
  6
CONTINUOUS
 62
           7
100
AcDbCircle
 10
-13932.329768031077
 20
-8658.549329841229
 30
0.0
 40
1.600000000001
100
AcDbArc
 50
176.088000000032
 51
265.088000000024
  0
ARC
  5
C3
100
AcDbEntity
  8
Frei
  6
CONTINUOUS
 62
           7
100
AcDbCircle
 10
-13931.696347835215
 20
-8661.01261351601
 30
0.0
 40
0.800000000001
100
AcDbArc
 50
356.088000000064
 51
85.087999999895
  0
ARC
  5
C4
100
AcDbEntity
  8
Frei
  6
CONTINUOUS
 62
           7
100
AcDbCircle
 10
-13938.046862924135
 20
-8695.248514687923
 30
0.0
 40
1.599999999998
100
AcDbArc
 50
268.087999999915
 51
356.088000000064
  0
ARC
  5
C5
100
AcDbEntity
  8
Frei
  6
CONTINUOUS
 62
           7
100
AcDbCircle
 10
-13935.251003150355
 20
-8689.541665733847
 30
0.0
 40
2.400000000001
100
AcDbArc
 50
268.087999999977
 51
356.087999999999
  0
ARC
  5
C6
100
AcDbEntity
  8
Frei
  6
CONTINUOUS
 62
           7
100
AcDbCircle
 10
-13932.802147472261
 20
-8653.731083722483
 30
0.0
 40
2.399999999999
100
AcDbArc
 50
356.087999999999
 51
84.087999999979
  0
ARC
  5
C7
100
AcDbEntity
  8
Frei
  6
CONTINUOUS
 62
           7
100
AcDbCircle
 10
-13934.79510375543
 20
-8647.69675839875
 30
0.0
 40
1.599999999998
100
AcDbArc
 50
356.087999999934
 51
84.088000000085
  0
LINE
  5
C8
100
AcDbEntity
  8
Frei
  6
CONTINUOUS
 62
           7
100
AcDbLine
 10
-14268.676325818362
 20
-8654.765840457869
 30
0.0
 11
-14268.635391272155
 21
-8654.167238450747
 31
0.0
  0
LINE
  5
C9
100
AcDbEntity
  8
Frei
  6
CONTINUOUS
 62
           7
100
AcDbLine
 10
-14268.635391272155
 20
-8654.167238450747
 30
0.0
 11
-14267.898569440425
 21
-8643.39240232261
 31
0.0
  0
LINE
  5
CA
100
AcDbEntity
  8
Frei
  6
CONTINUOUS
 62
           7
100
AcDbLine
 10
-14267.898569440425
 20
-8643.39240232261
 30
0.0
 11
-14267.857634894219
 21
-8642.793800315489
 31
0.0
  0
LINE
  5
CB
100
AcDbEntity
  8
Frei
  6
CONTINUOUS
 62
           7
100
AcDbLine
 10
-14267.857634894219
 20
-8642.793800315489
 30
0.0
 11
-14267.632494890078
 21
-8639.501489276336
 31
0.0
  0
LINE
  5
CC
100
AcDbEntity
  8
Frei
  6
CONTINUOUS
 62
           7
100
AcDbLine
 10
-14293.029751565193
 20
-8659.114478680767
 30
0.0
 11
-14291.728618312462
 21
-8659.203454826224
 31
0.0
  0
LINE
  5
CD
100
AcDbEntity
  8
Frei
  6
CONTINUOUS
 62
           7
100
AcDbLine
 10
-14290.091236464174
 20
-8635.259374541467
 30
0.0
 11
-14291.392369716905
 21
-8635.170398396011
 31
0.0
  0
LINE
  5
CE
100
AcDbEntity
  8
Frei
  6
CONTINUOUS
 62
           7
100
AcDbLine
 10
-14291.728618312462
 20
-8659.203454826224
 30
0.0
 11
-14287.941634504681
 21
-8659.46242232353
 31
0.0
  0
LINE
  5
CF
100
AcDbEntity
  8
Frei
  6
CONTINUOUS
 62
           7
100
AcDbLine
 10
-14286.304252656393
 20
-8635.518342038773
 30
0.0
 11
-14290.091236464174
 21
-8635.259374541467
 31
0.0
  0
LINE
  5
D0
100
AcDbEntity
  8
Frei
  6
CONTINUOUS
 62
           7
100
AcDbLine
 10
-14326.845469880158
 20
-8632.74598860526
 30
0.0
 11
-14291.392369716905
 21
-8635.170398396011
 31
0.0
  0
LINE
  5
D1
100
AcDbEntity
  8
Frei
  6
CONTINUOUS
 62
           7
100
AcDbLine
 10
-14328.482851728446
 20
-8656.690068890017
 30
0.0
 11
-14293.029751565193
 21
-8659.114478680767
 31
0.0
  0
LINE
  5
D2
100
AcDbEntity
  8
Frei
  6
CONTINUOUS
 62
           7
100
AcDbLine
 10
-14285.529153284337
 20
-8637.375549879442
 30
0.0
 11
-14286.920927855381
 21
-8657.728018121485
 31
0.0
  0
LINE
  5
D3
100
AcDbEntity
  8
Frei
  6
CONTINUOUS
 62
           7
100
AcDbLine
 10
-14268.468996081447
 20
-8638.542184446349
 30
0.0
 11
-14271.183037177596
 21
-8638.356588609149
 31
0.0
  0
LINE
  5
D4
100
AcDbEntity
  8
Frei
  6
CONTINUOUS
 62
           7
100
AcDbLine
 10
-14268.901465822502
 20
-8658.058151497022
 30
0.0
 11
-14268.676325818362
 21
-8654.765840457869
 31
0.0
  0
LINE
  5
D5
100
AcDbEntity
  8
Frei
  6
CONTINUOUS
 62
           7
100
AcDbLine
 10
-14286.023024844701
 20
-8657.789419940797
 30
0.0
 11
-14284.18677439559
 21
-8657.914989314042
 31
0.0
  0
LINE
  5
D6
100
AcDbEntity
  8
Frei
  6
CONTINUOUS
 62
           7
100
AcDbLine
 10
-14282.713130732131
 20
-8636.36531705776
 30
0.0
 11
-14282.794999824546
 21
-8637.562521071999
 31
0.0
  0
LINE
  5
D7
100
AcDbEntity
  8
Frei
  6
CONTINUOUS
 62
           7
100
AcDbLine
 10
-14282.794999824546
 20
-8637.562521071999
 30
0.0
 11
-14284.631250273656
 21
-8637.436951698754
 31
0.0
  0
LINE
  5
D8
100
AcDbEntity
  8
Frei
  6
CONTINUOUS
 62
           7
100
AcDbLine
 10
-14282.794999824546
 20
-8637.562521071999
 30
0.0
 11
-14284.18677439559
 21
-8657.914989314042
 31
0.0
  0
LINE
  5
D9
100
AcDbEntity
  8
Frei
  6
CONTINUOUS
 62
           7
100
AcDbLine
 10
-14284.18677439559
 20
-8657.914989314042
 30
0.0
 11
-14284.268643488005
 21
-8659.112193328278
 31
0.0
  0
LINE
  5
DA
100
AcDbEntity
  8
Frei
  6
CONTINUOUS
 62
           7
100
AcDbLine
 10
-14272.656680841055
 20
-8659.906260865431
 30
0.0
 11
-14272.57481174864
 21
-8658.709056851192
 31
0.0
  0
LINE
  5
DB
100
AcDbEntity
  8
Frei
  6
CONTINUOUS
 62
           7
100
AcDbLine
 10
-14272.57481174864
 20
-8658.709056851192
 30
0.0
 11
-14269.860770652491
 21
-8658.894652688392
 31
0.0
  0
LINE
  5
DC
100
AcDbEntity
  8
Frei
  6
CONTINUOUS
 62
           7
100
AcDbLine
 10
-14272.57481174864
 20
-8658.709056851192
 30
0.0
 11
-14271.183037177596
 21
-8638.356588609149
 31
0.0
  0
LINE
  5
DD
100
AcDbEntity
  8
Frei
  6
CONTINUOUS
 62
           7
100
AcDbLine
 10
-14271.183037177596
 20
-8638.356588609149
 30
0.0
 11
-14271.101168085181
 21
-8637.159384594914
 31
0.0
  0
LINE
  5
DE
100
AcDbEntity
  8
Frei
  6
CONTINUOUS
 62
           7
100
AcDbLine
 10
-14282.713130732131
 20
-8636.36531705776
 30
0.0
 11
-14271.101168085181
 21
-8637.159384594914
 31
0.0
  0
LINE
  5
DF
100
AcDbEntity
  8
Frei
  6
CONTINUOUS
 62
           7
100
AcDbLine
 10
-14284.268643488005
 20
-8659.112193328278
 30
0.0
 11
-14272.656680841055
 21
-8659.906260865431
 31
0.0
  0
ARC
  5
E0
100
AcDbEntity
  8
Frei
  6
CONTINUOUS
 62
           7
100
AcDbCircle
 10
-14307.94043310969
 20
-8646.0668077913
 30
0.0
 40
20.866107311614
100
AcDbArc
 50
320.981694434247
 51
31.194305565753
  0
ARC
  5
E1
100
AcDbEntity
  8
Frei
  6
CONTINUOUS
 62
           7
100
AcDbCircle
 10
-14298.073014806452
 20
-8646.741577146691
 30
0.0
 40
29.660254037844
100
AcDbArc
 50
152.22307458395
 51
199.95292541605
  0
ARC
  5
E2
100
AcDbEntity
  8
Frei
  6
CONTINUOUS
 62
           7
100
AcDbCircle
 10
-14308.655994157189
 20
-8646.017875167596
 30
0.0
 40
22.516660498395
100
AcDbArc
 50
143.883772496028
 51
208.292227503973
  0
CIRCLE
  5
E3
100
AcDbEntity
  8
Frei
  6
CONTINUOUS
 62
           7
100
AcDbCircle
 10
-14316.155140925806
 20
-8645.505056690101
 30
0.0
 40
5.1
  0
ARC
  5
E4
100
AcDbEntity
  8
Frei
  6
CONTINUOUS
 62
           7
100
AcDbCircle
 10
-14286.365654475703
 20
-8636.416245049451
 30
0.0
 40
0.9
100
AcDbArc
 50
356.087999999999
 51
86.088
  0
ARC
  5
E5
100
AcDbEntity
  8
Frei
  6
CONTINUOUS
 62
           7
100
AcDbCircle
 10
-14284.569848454345
 20
-8636.539048688072
 30
0.0
 40
0.9
100
AcDbArc
 50
176.088
 51
266.087999999999
  0
ARC
  5
E6
100
AcDbEntity
  8
Frei
  6
CONTINUOUS
 62
           7
100
AcDbCircle
 10
-14268.530397900757
 20
-8639.440087457027
 30
0.0
 40
0.9
100
AcDbArc
 50
356.087999999999
 51
86.088
  0
ARC
  5
E7
100
AcDbEntity
  8
Frei
  6
CONTINUOUS
 62
           7
100
AcDbCircle
 10
-14269.799368833181
 20
-8657.996749677714
 30
0.0
 40
0.9
100
AcDbArc
 50
266.087999999999
 51
356.087999999999
  0
ARC
  5
E8
100
AcDbEntity
  8
Frei
  6
CONTINUOUS
 62
           7
100
AcDbCircle
 10
-14286.084426664012
 20
-8658.687322951475
 30
0.0
 40
0.9
100
AcDbArc
 50
86.088
 51
176.088
  0
ARC
  5
E9
100
AcDbEntity
  8
Frei
  6
CONTINUOUS
 62
           7
100
AcDbCircle
 10
-14287.880232685371
 20
-8658.564519312851
 30
0.0
 40
0.9
100
AcDbArc
 50
266.087999999999
 51
356.087999999999
  0
LINE
  5
EA
100
AcDbEntity
  8
Frei
  6
CONTINUOUS
 62
           7
100
AcDbLine
 10
-14010.382372703232
 20
-8686.16071985595
 30
0.0
 11
-14006.890527661706
 21
-8686.399504708825
 31
0.0
  0
LINE
  5
EB
100
AcDbEntity
  8
Frei
  6
CONTINUOUS
 62
           7
100
AcDbLine
 10
-14010.245924215875
 20
-8684.165379832219
 30
0.0
 11
-14010.382372703232
 21
-8686.16071985595
 31
0.0
  0
LINE
  5
EC
100
AcDbEntity
  8
Frei
  6
CONTINUOUS
 62
           7
100
AcDbLine
 10
-14005.244727334893
 20
-8676.989863839786
 30
0.0
 11
-14005.824633406162
 21
-8685.470058940638
 31
0.0
  0
LINE
  5
ED
100
AcDbEntity
  8
Frei
  6
CONTINUOUS
 62
           7
100
AcDbLine
 10
-14009.734242388286
 20
-8676.682854743234
 30
0.0
 11
-14005.244727334893
 21
-8676.989863839786
 31
0.0
  0
LINE
  5
EE
100
AcDbEntity
  8
Frei
  6
CONTINUOUS
 62
           7
100
AcDbLine
 10
-14009.768354510124
 20
-8677.181689749166
 30
0.0
 11
-14009.734242388286
 21
-8676.682854743234
 31
0.0
  0
LINE
  5
EF
100
AcDbEntity
  8
Frei
  6
CONTINUOUS
 62
           7
100
AcDbLine
 10
-14006.258777313966
 20
-8677.867813179448
 30
0.0
 11
-14009.768354510124
 21
-8677.181689749166
 31
0.0
  0
LINE
  5
F0
100
AcDbEntity
  8
Frei
  6
CONTINUOUS
 62
           7
100
AcDbLine
 10
-14005.996336507467
 20
-8680.446640120168
 30
0.0
 11
-14005.855876336547
 21
-8678.39263566614
 31
0.0
  0
LINE
  5
F1
100
AcDbEntity
  8
Frei
  6
CONTINUOUS
 62
           7
100
AcDbLine
 10
-14010.245924215875
 20
-8684.165379832219
 30
0.0
 11
-14009.768354510124
 21
-8677.181689749166
 31
0.0
  0
LINE
  5
F2
100
AcDbEntity
  8
Frei
  6
CONTINUOUS
 62
           7
100
AcDbLine
 10
-14006.675615637185
 20
-8683.963404313148
 30
0.0
 11
-14010.245924215875
 21
-8684.165379832219
 31
0.0
  0
LINE
  5
F3
100
AcDbEntity
  8
Frei
  6
CONTINUOUS
 62
           7
100
AcDbLine
 10
-14006.064560751147
 20
-8681.444310132032
 30
0.0
 11
-14006.205020922067
 21
-8683.498314586057
 31
0.0
  0
LINE
  5
F4
100
AcDbEntity
  8
Frei
  6
CONTINUOUS
 62
           2
100
AcDbLine
 10
-14007.613069745565
 20
-8680.837249833763
 30
0.0
 11
-14004.84268545725
 21
-8681.026698619957
 31
0.0
  0
LINE
  5
F5
100
AcDbEntity
  8
Frei
  6
CONTINUOUS
 62
           7
100
AcDbLine
 10
-14007.578957623724
 20
-8680.338414827835
 30
0.0
 11
-14005.996336507467
 21
-8680.446640120168
 31
0.0
  0
LINE
  5
F6
100
AcDbEntity
  8
Frei
  6
CONTINUOUS
 62
           7
100
AcDbLine
 10
-14007.613069745565
 20
-8680.837249833763
 30
0.0
 11
-14007.578957623724
 21
-8680.338414827835
 31
0.0
  0
LINE
  5
F7
100
AcDbEntity
  8
Frei
  6
CONTINUOUS
 62
           7
100
AcDbLine
 10
-14007.647181867404
 20
-8681.336084839699
 30
0.0
 11
-14007.613069745565
 21
-8680.837249833763
 31
0.0
  0
LINE
  5
F8
100
AcDbEntity
  8
Frei
  6
CONTINUOUS
 62
           7
100
AcDbLine
 10
-14006.064560751147
 20
-8681.444310132032
 30
0.0
 11
-14007.647181867404
 21
-8681.336084839699
 31
0.0
  0
LINE
  5
F9
100
AcDbEntity
  8
Frei
  6
CONTINUOUS
 62
           7
100
AcDbLine
 10
-14149.557339358385
 20
-8676.643437862771
 30
0.0
 11
-14147.305939316988
 21
-8643.72032747123
 31
0.0
  0
LINE
  5
FA
100
AcDbEntity
  8
Frei
  6
CONTINUOUS
 62
           7
100
AcDbLine
 10
-14163.524719524494
 20
-8675.688298451267
 30
0.0
 11
-14149.557339358385
 21
-8676.643437862771
 31
0.0
  0
LINE
  5
FB
100
AcDbEntity
  8
Frei
  6
CONTINUOUS
 62
           7
100
AcDbLine
 10
-14157.282639435636
 20
-8643.038085034441
 30
0.0
 11
-14147.80477432292
 21
-8643.686215349389
 31
0.0
  0
LINE
  5
FC
100
AcDbEntity
  8
Frei
  6
CONTINUOUS
 62
           7
100
AcDbLine
 10
-14157.419087922994
 20
-8645.033425058173
 30
0.0
 11
-14157.282639435636
 21
-8643.038085034441
 31
0.0
  0
LINE
  5
FD
100
AcDbEntity
  8
Frei
  6
CONTINUOUS
 62
           7
100
AcDbLine
 10
-14157.896657628746
 20
-8652.017115141225
 30
0.0
 11
-14157.930769750585
 21
-8652.515950147157
 31
0.0
  0
LINE
  5
FE
100
AcDbEntity
  8
Frei
  6
CONTINUOUS
 62
           7
100
AcDbLine
 10
-14162.919119809909
 20
-8652.174828928764
 30
0.0
 11
-14162.33921373864
 21
-8643.694633827912
 31
0.0
  0
LINE
  5
FF
100
AcDbEntity
  8
Frei
  6
CONTINUOUS
 62
           7
100
AcDbLine
 10
-14157.930769750585
 20
-8652.515950147157
 30
0.0
 11
-14162.919119809909
 21
-8652.174828928764
 31
0.0
  0
LINE
  5
100
100
AcDbEntity
  8
Frei
  6
CONTINUOUS
 62
           7
100
AcDbLine
 10
-14161.273319483096
 20
-8642.765188059726
 30
0.0
 11
-14157.282639435636
 21
-8643.038085034441
 31
0.0
  0
LINE
  5
101
100
AcDbEntity
  8
Frei
  6
CONTINUOUS
 62
           7
100
AcDbLine
 10
-14161.406234824903
 20
-8651.330991710944
 30
0.0
 11
-14157.896657628746
 21
-8652.017115141225
 31
0.0
  0
LINE
  5
102
100
AcDbEntity
  8
Frei
  6
CONTINUOUS
 62
           7
100
AcDbLine
 10
-14161.668675631401
 20
-8648.752164770223
 30
0.0
 11
-14161.809135802321
 21
-8650.806169224252
 31
0.0
  0
LINE
  5
103
100
AcDbEntity
  8
Frei
  6
CONTINUOUS
 62
           7
100
AcDbLine
 10
-14157.419087922994
 20
-8645.033425058173
 30
0.0
 11
-14157.896657628746
 21
-8652.017115141225
 31
0.0
  0
LINE
  5
104
100
AcDbEntity
  8
Frei
  6
CONTINUOUS
 62
           7
100
AcDbLine
 10
-14160.989396501684
 20
-8645.235400577243
 30
0.0
 11
-14157.419087922994
 21
-8645.033425058173
 31
0.0
  0
LINE
  5
105
100
AcDbEntity
  8
Frei
  6
CONTINUOUS
 62
           7
100
AcDbLine
 10
-14161.600451387723
 20
-8647.754494758359
 30
0.0
 11
-14161.459991216801
 21
-8645.700490304334
 31
0.0
  0
LINE
  5
106
100
AcDbEntity
  8
Frei
  6
CONTINUOUS
 62
           2
100
AcDbLine
 10
-14160.051942393306
 20
-8648.361555056625
 30
0.0
 11
-14162.82232668162
 21
-8648.172106270431
 31
0.0
  0
LINE
  5
107
100
AcDbEntity
  8
Frei
  6
CONTINUOUS
 62
           7
100
AcDbLine
 10
-14160.086054515144
 20
-8648.860390062557
 30
0.0
 11
-14161.668675631401
 21
-8648.752164770223
 31
0.0
  0
LINE
  5
108
100
AcDbEntity
  8
Frei
  6
CONTINUOUS
 62
           7
100
AcDbLine
 10
-14160.051942393306
 20
-8648.361555056625
 30
0.0
 11
-14160.086054515144
 21
-8648.860390062557
 31
0.0
  0
LINE
  5
109
100
AcDbEntity
  8
Frei
  6
CONTINUOUS
 62
           7
100
AcDbLine
 10
-14160.017830271467
 20
-8647.862720050693
 30
0.0
 11
-14160.051942393306
 21
-8648.361555056625
 31
0.0
  0
LINE
  5
10A
100
AcDbEntity
  8
Frei
  6
CONTINUOUS
 62
           7
100
AcDbLine
 10
-14161.600451387723
 20
-8647.754494758359
 30
0.0
 11
-14160.017830271467
 21
-8647.862720050693
 31
0.0
  0
LINE
  5
10B
100
AcDbEntity
  8
Frei
  6
CONTINUOUS
 62
           7
100
AcDbLine
 10
-14123.843059054039
 20
-8681.709579237569
 30
0.0
 11
-14123.877171175878
 21
-8682.208414243502
 31
0.0
  0
LINE
  5
10C
100
AcDbEntity
  8
Frei
  6
CONTINUOUS
 62
           7
100
AcDbLine
 10
-14123.877171175878
 20
-8682.208414243502
 30
0.0
 11
-14047.05658026228
 21
-8687.461681006764
 31
0.0
  0
LINE
  5
10D
100
AcDbEntity
  8
Frei
  6
CONTINUOUS
 62
           7
100
AcDbLine
 10
-14047.05658026228
 20
-8687.461681006764
 30
0.0
 11
-14043.850040809381
 21
-8640.571190449115
 31
0.0
  0
LINE
  5
10E
100
AcDbEntity
  8
Frei
  6
CONTINUOUS
 62
           7
100
AcDbLine
 10
-14043.850040809381
 20
-8640.571190449115
 30
0.0
 11
-14120.670631722978
 21
-8635.317923685856
 31
0.0
  0
LINE
  5
10F
100
AcDbEntity
  8
Frei
  6
CONTINUOUS
 62
           7
100
AcDbLine
 10
-14147.80477432292
 20
-8643.686215349389
 30
0.0
 11
-14147.305939316988
 21
-8643.72032747123
 31
0.0
  0
LINE
  5
110
100
AcDbEntity
  8
Frei
  6
CONTINUOUS
 62
           7
100
AcDbLine
 10
-14121.668301734842
 20
-8635.249699442175
 30
0.0
 11
-14147.108887037397
 21
-8633.50998122837
 31
0.0
  0
LINE
  5
111
100
AcDbEntity
  8
Frei
  6
CONTINUOUS
 62
           7
100
AcDbLine
 10
-14149.816591484365
 20
-8680.434583907856
 30
0.0
 11
-14149.557339358385
 21
-8676.643437862771
 31
0.0
  0
LINE
  5
112
100
AcDbEntity
  8
Frei
  6
CONTINUOUS
 62
           7
100
AcDbLine
 10
-14147.80477432292
 20
-8643.686215349389
 30
0.0
 11
-14147.108887037397
 21
-8633.50998122837
 31
0.0
  0
LINE
  5
113
100
AcDbEntity
  8
Frei
  6
CONTINUOUS
 62
           7
100
AcDbLine
 10
-14123.843059054039
 20
-8681.709579237569
 30
0.0
 11
-14124.840729065903
 21
-8681.641354993892
 31
0.0
  0
LINE
  5
114
100
AcDbEntity
  8
Frei
  6
CONTINUOUS
 62
           7
100
AcDbLine
 10
-14120.704743844819
 20
-8635.816758691784
 30
0.0
 11
-14123.843059054039
 21
-8681.709579237569
 31
0.0
  0
LINE
  5
115
100
AcDbEntity
  8
Frei
  6
CONTINUOUS
 62
           7
100
AcDbLine
 10
-14120.704743844819
 20
-8635.816758691784
 30
0.0
 11
-14121.702413856683
 21
-8635.748534448107
 31
0.0
  0
LINE
  5
116
100
AcDbEntity
  8
Frei
  6
CONTINUOUS
 62
           7
100
AcDbLine
 10
-14120.670631722978
 20
-8635.317923685856
 30
0.0
 11
-14120.704743844819
 21
-8635.816758691784
 31
0.0
  0
LINE
  5
117
100
AcDbEntity
  8
Frei
  6
CONTINUOUS
 62
           7
100
AcDbLine
 10
-14124.840729065903
 20
-8681.641354993892
 30
0.0
 11
-14121.668301734842
 21
-8635.249699442175
 31
0.0
  0
LINE
  5
118
100
AcDbEntity
  8
Frei
  6
CONTINUOUS
 62
           7
100
AcDbLine
 10
-14124.874841187742
 20
-8682.140189999824
 30
0.0
 11
-14124.840729065903
 21
-8681.641354993892
 31
0.0
  0
LINE
  5
119
100
AcDbEntity
  8
Frei
  6
CONTINUOUS
 62
           7
100
AcDbLine
 10
-14149.816591484365
 20
-8680.434583907856
 30
0.0
 11
-14124.874841187742
 21
-8682.140189999824
 31
0.0
  0
LINE
  5
11A
100
AcDbEntity
  8
Frei
  6
CONTINUOUS
 62
           7
100
AcDbLine
 10
-14046.058910250415
 20
-8687.529905250442
 30
0.0
 11
-14021.117159953794
 21
-8689.235511342409
 31
0.0
  0
LINE
  5
11B
100
AcDbEntity
  8
Frei
  6
CONTINUOUS
 62
           7
100
AcDbLine
 10
-14046.024798128576
 20
-8687.03107024451
 30
0.0
 11
-14046.058910250415
 21
-8687.529905250442
 31
0.0
  0
LINE
  5
11C
100
AcDbEntity
  8
Frei
  6
CONTINUOUS
 62
           7
100
AcDbLine
 10
-14042.852370797515
 20
-8640.639414692796
 30
0.0
 11
-14046.024798128576
 21
-8687.03107024451
 31
0.0
  0
LINE
  5
11D
100
AcDbEntity
  8
Frei
  6
CONTINUOUS
 62
           7
100
AcDbLine
 10
-14042.886482919355
 20
-8641.138249698724
 30
0.0
 11
-14043.884152931221
 21
-8641.070025455047
 31
0.0
  0
LINE
  5
11E
100
AcDbEntity
  8
Frei
  6
CONTINUOUS
 62
           7
100
AcDbLine
 10
-14046.024798128576
 20
-8687.03107024451
 30
0.0
 11
-14047.022468140442
 21
-8686.962846000832
 31
0.0
  0
LINE
  5
11F
100
AcDbEntity
  8
Frei
  6
CONTINUOUS
 62
           7
100
AcDbLine
 10
-14017.41178549496
 20
-8642.379132906601
 30
0.0
 11
-14018.107672780483
 21
-8652.55536702762
 31
0.0
  0
LINE
  5
120
100
AcDbEntity
  8
Frei
  6
CONTINUOUS
 62
           7
100
AcDbLine
 10
-14017.41178549496
 20
-8642.379132906601
 30
0.0
 11
-14042.852370797515
 21
-8640.639414692796
 31
0.0
  0
LINE
  5
121
100
AcDbEntity
  8
Frei
  6
CONTINUOUS
 62
           7
100
AcDbLine
 10
-14018.606507786417
 20
-8652.521254905783
 30
0.0
 11
-14018.107672780483
 21
-8652.55536702762
 31
0.0
  0
LINE
  5
122
100
AcDbEntity
  8
Frei
  6
CONTINUOUS
 62
           7
100
AcDbLine
 10
-14018.606507786417
 20
-8652.521254905783
 30
0.0
 11
-14021.117159953794
 21
-8689.235511342409
 31
0.0
  0
LINE
  5
123
100
AcDbEntity
  8
Frei
  6
CONTINUOUS
 62
           7
100
AcDbLine
 10
-14194.141052452616
 20
-8647.032755217289
 30
0.0
 11
-14196.136392476345
 21
-8646.896306729934
 31
0.0
  0
LINE
  5
124
100
AcDbEntity
  8
Frei
  6
CONTINUOUS
 62
           7
100
AcDbLine
 10
-14194.439643070647
 20
-8666.056709686403
 30
0.0
 11
-14193.21160668443
 21
-8648.098649472835
 31
0.0
  0
LINE
  5
125
100
AcDbEntity
  8
Frei
  6
CONTINUOUS
 62
           7
100
AcDbLine
 10
-14197.500877349919
 20
-8666.84970696723
 30
0.0
 11
-14195.505537326191
 21
-8666.986155454586
 31
0.0
  0
LINE
  5
126
100
AcDbEntity
  8
Frei
  6
CONTINUOUS
 62
           7
100
AcDbLine
 10
-14198.089201899713
 20
-8660.795462652361
 30
0.0
 11
-14198.430323118107
 21
-8665.783812711688
 31
0.0
  0
LINE
  5
127
100
AcDbEntity
  8
Frei
  6
CONTINUOUS
 62
           7
100
AcDbLine
 10
-14196.136392476345
 20
-8646.896306729934
 30
0.0
 11
-14197.20228673189
 21
-8647.82575249812
 31
0.0
  0
LINE
  5
128
100
AcDbEntity
  8
Frei
  6
CONTINUOUS
 62
           7
100
AcDbLine
 10
-14194.141052452616
 20
-8647.032755217289
 30
0.0
 11
-14193.21160668443
 21
-8648.098649472835
 31
0.0
  0
LINE
  5
129
100
AcDbEntity
  8
Frei
  6
CONTINUOUS
 62
           7
100
AcDbLine
 10
-14194.439643070647
 20
-8666.056709686403
 30
0.0
 11
-14195.505537326191
 21
-8666.986155454586
 31
0.0
  0
LINE
  5
12A
100
AcDbEntity
  8
Frei
  6
CONTINUOUS
 62
           7
100
AcDbLine
 10
-14197.500877349919
 20
-8666.84970696723
 30
0.0
 11
-14198.430323118107
 21
-8665.783812711688
 31
0.0
  0
LINE
  5
12B
100
AcDbEntity
  8
Frei
  6
CONTINUOUS
 62
           7
100
AcDbLine
 10
-14197.500877349919
 20
-8666.84970696723
 30
0.0
 11
-14196.136392476345
 21
-8646.896306729934
 31
0.0
  0
LINE
  5
12C
100
AcDbEntity
  8
Frei
  6
CONTINUOUS
 62
           7
100
AcDbLine
 10
-14195.505537326191
 20
-8666.986155454586
 30
0.0
 11
-14194.141052452616
 21
-8647.032755217289
 31
0.0
  0
LINE
  5
12D
100
AcDbEntity
  8
Frei
  6
CONTINUOUS
 62
           7
100
AcDbLine
 10
-14194.951324898237
 20
-8673.539234775388
 30
0.0
 11
-14194.439643070647
 21
-8666.056709686403
 31
0.0
  0
LINE
  5
12E
100
AcDbEntity
  8
Frei
  6
CONTINUOUS
 62
           7
100
AcDbLine
 10
-14165.370764239209
 20
-8666.039872729354
 30
0.0
 11
-14166.018894554156
 21
-8675.51773784207
 31
0.0
  0
LINE
  5
12F
100
AcDbEntity
  8
Frei
  6
CONTINUOUS
 62
           7
100
AcDbLine
 10
-14198.609302205827
 20
-8653.74354832563
 30
0.0
 11
-14197.543407950283
 21
-8652.814102557444
 31
0.0
  0
LINE
  5
130
100
AcDbEntity
  8
Frei
  6
CONTINUOUS
 62
           7
100
AcDbLine
 10
-14197.20228673189
 20
-8647.82575249812
 30
0.0
 11
-14197.543407950283
 21
-8652.814102557444
 31
0.0
  0
LINE
  5
131
100
AcDbEntity
  8
Frei
  6
CONTINUOUS
 62
           7
100
AcDbLine
 10
-14198.643414327666
 20
-8654.242383331563
 30
0.0
 11
-14198.609302205827
 21
-8653.74354832563
 31
0.0
  0
LINE
  5
132
100
AcDbEntity
  8
Frei
  6
CONTINUOUS
 62
           7
100
AcDbLine
 10
-14198.089201899713
 20
-8660.795462652361
 30
0.0
 11
-14199.018647667899
 21
-8659.729568396819
 31
0.0
  0
LINE
  5
133
100
AcDbEntity
  8
Frei
  6
CONTINUOUS
 62
           7
100
AcDbLine
 10
-14198.020977656035
 20
-8659.797792640497
 30
0.0
 11
-14198.089201899713
 21
-8660.795462652361
 31
0.0
  0
LINE
  5
134
100
AcDbEntity
  8
Frei
  6
CONTINUOUS
 62
           2
100
AcDbLine
 10
-14197.611632193963
 20
-8653.811772569308
 30
0.0
 11
-14198.609302205827
 21
-8653.74354832563
 31
0.0
  0
LINE
  5
135
100
AcDbEntity
  8
Frei
  6
CONTINUOUS
 62
           7
100
AcDbLine
 10
-14197.543407950283
 20
-8652.814102557444
 30
0.0
 11
-14197.611632193963
 21
-8653.811772569308
 31
0.0
  0
LINE
  5
136
100
AcDbEntity
  8
Frei
  6
CONTINUOUS
 62
           2
100
AcDbLine
 10
-14198.020977656035
 20
-8659.797792640497
 30
0.0
 11
-14199.018647667899
 21
-8659.729568396819
 31
0.0
  0
LINE
  5
137
100
AcDbEntity
  8
Frei
  6
CONTINUOUS
 62
           7
100
AcDbLine
 10
-14197.611632193963
 20
-8653.811772569308
 30
0.0
 11
-14198.020977656035
 21
-8659.797792640497
 31
0.0
  0
LINE
  5
138
100
AcDbEntity
  8
Frei
  6
CONTINUOUS
 62
           1
100
AcDbLine
 10
-14196.160861212924
 20
-8654.412149192649
 30
0.0
 11
-14198.643414327666
 21
-8654.242383331563
 31
0.0
  0
LINE
  5
139
100
AcDbEntity
  8
Frei
  6
CONTINUOUS
 62
           7
100
AcDbLine
 10
-14198.677526449505
 20
-8654.741218337495
 30
0.0
 11
-14198.643414327666
 21
-8654.242383331563
 31
0.0
  0
LINE
  5
13A
100
AcDbEntity
  8
Frei
  6
CONTINUOUS
 62
           1
100
AcDbLine
 10
-14196.501982431317
 20
-8659.400499251973
 30
0.0
 11
-14198.984535546058
 21
-8659.230733390887
 31
0.0
  0
LINE
  5
13B
100
AcDbEntity
  8
Frei
  6
CONTINUOUS
 62
           7
100
AcDbLine
 10
-14199.018647667899
 20
-8659.729568396819
 30
0.0
 11
-14198.984535546058
 21
-8659.230733390887
 31
0.0
  0
LINE
  5
13C
100
AcDbEntity
  8
Frei
  6
CONTINUOUS
 62
           1
100
AcDbLine
 10
-14196.194973334763
 20
-8654.910984198581
 30
0.0
 11
-14198.677526449505
 21
-8654.741218337495
 31
0.0
  0
LINE
  5
13D
100
AcDbEntity
  8
Frei
  6
CONTINUOUS
 62
           7
100
AcDbLine
 10
-14198.950423424219
 20
-8658.731898384955
 30
0.0
 11
-14198.677526449505
 21
-8654.741218337495
 31
0.0
  0
LINE
  5
13E
100
AcDbEntity
  8
Frei
  6
CONTINUOUS
 62
           1
100
AcDbLine
 10
-14196.467870309478
 20
-8658.901664246041
 30
0.0
 11
-14198.950423424219
 21
-8658.731898384955
 31
0.0
  0
LINE
  5
13F
100
AcDbEntity
  8
Frei
  6
CONTINUOUS
 62
           7
100
AcDbLine
 10
-14198.984535546058
 20
-8659.230733390887
 30
0.0
 11
-14198.950423424219
 21
-8658.731898384955
 31
0.0
  0
LINE
  5
140
100
AcDbEntity
  8
Frei
  6
CONTINUOUS
 62
           7
100
AcDbLine
 10
-14191.111610425887
 20
-8645.681586612351
 30
0.0
 11
-14164.040391487473
 21
-8646.58530749799
 31
0.0
  0
LINE
  5
141
100
AcDbEntity
  8
Frei
  6
CONTINUOUS
 62
           7
100
AcDbLine
 10
-14193.173679453665
 20
-8647.544024625029
 30
0.0
 11
-14193.21160668443
 21
-8648.098649472835
 31
0.0
  0
LINE
  5
142
100
AcDbEntity
  8
Frei
  6
CONTINUOUS
 62
           7
100
AcDbLine
 10
-14166.018894554156
 20
-8675.51773784207
 30
0.0
 11
-14194.951324898237
 21
-8673.539234775388
 31
0.0
  0
LINE
  5
143
100
AcDbEntity
  8
Frei
  6
CONTINUOUS
 62
           7
100
AcDbLine
 10
-14195.019549141916
 20
-8674.536904787252
 30
0.0
 11
-14194.951324898237
 21
-8673.539234775388
 31
0.0
  0
LINE
  5
144
100
AcDbEntity
  8
Frei
  6
CONTINUOUS
 62
           7
100
AcDbLine
 10
-14194.520714135984
 20
-8674.571016909093
 30
0.0
 11
-14195.019549141916
 21
-8674.536904787252
 31
0.0
  0
LINE
  5
145
100
AcDbEntity
  8
Frei
  6
CONTINUOUS
 62
           7
100
AcDbLine
 10
-14166.018894554156
 20
-8675.51773784207
 30
0.0
 11
-14166.087118797836
 21
-8676.515407853934
 31
0.0
  0
LINE
  5
146
100
AcDbEntity
  8
Frei
  6
CONTINUOUS
 62
           7
100
AcDbLine
 10
-14205.883164428387
 20
-8686.824372504711
 30
0.0
 11
-14195.407629303807
 21
-8687.540727063337
 31
0.0
  0
LINE
  5
147
100
AcDbEntity
  8
Frei
  6
CONTINUOUS
 62
           7
100
AcDbLine
 10
-14208.471257345045
 20
-8702.684756329029
 30
0.0
 11
-14208.505369466884
 21
-8703.183591334961
 31
0.0
  0
LINE
  5
148
100
AcDbEntity
  8
Frei
  6
CONTINUOUS
 62
           7
100
AcDbLine
 10
-14207.111200814605
 20
-8704.782432718279
 30
0.0
 11
-14196.635665690024
 21
-8705.498787276905
 31
0.0
  0
LINE
  5
149
100
AcDbEntity
  8
Frei
  6
CONTINUOUS
 62
           7
100
AcDbLine
 10
-14196.396880837148
 20
-8702.006942235377
 30
0.0
 11
-14194.520714135984
 21
-8674.571016909093
 31
0.0
  0
LINE
  5
14A
100
AcDbEntity
  8
Frei
  6
CONTINUOUS
 62
           7
100
AcDbLine
 10
-14166.585953803768
 20
-8676.481295732097
 30
0.0
 11
-14194.520714135984
 21
-8674.571016909093
 31
0.0
  0
LINE
  5
14B
100
AcDbEntity
  8
Frei
  6
CONTINUOUS
 62
           7
100
AcDbLine
 10
-14195.002712184869
 20
-8703.605783618692
 30
0.0
 11
-14189.052506855731
 21
-8704.01267994061
 31
0.0
  0
LINE
  5
14C
100
AcDbEntity
  8
Frei
  6
CONTINUOUS
 62
           7
100
AcDbLine
 10
-14168.462120504932
 20
-8703.917221058382
 30
0.0
 11
-14166.585953803768
 21
-8676.481295732097
 31
0.0
  0
LINE
  5
14D
100
AcDbEntity
  8
Frei
  6
CONTINUOUS
 62
           7
100
AcDbLine
 10
-14166.087118797836
 20
-8676.515407853934
 30
0.0
 11
-14166.585953803768
 21
-8676.481295732097
 31
0.0
  0
LINE
  5
14E
100
AcDbEntity
  8
Frei
  6
CONTINUOUS
 62
           7
100
AcDbLine
 10
-14189.052506855731
 20
-8704.01267994061
 30
0.0
 11
-14196.635665690024
 21
-8705.498787276905
 31
0.0
  0
LINE
  5
14F
100
AcDbEntity
  8
Frei
  6
CONTINUOUS
 62
           7
100
AcDbLine
 10
-14170.060961888248
 20
-8705.31138971066
 30
0.0
 11
-14189.052506855731
 21
-8704.01267994061
 31
0.0
  0
LINE
  5
150
100
AcDbEntity
  8
Frei
  6
CONTINUOUS
 62
           7
100
AcDbLine
 10
-14212.504467992867
 20
-8688.376254944527
 30
0.0
 11
-14207.516117933543
 21
-8688.71737616292
 31
0.0
  0
LINE
  5
151
100
AcDbEntity
  8
Frei
  6
CONTINUOUS
 62
           7
100
AcDbLine
 10
-14207.482005811704
 20
-8688.218541156988
 30
0.0
 11
-14207.516117933543
 21
-8688.71737616292
 31
0.0
  0
LINE
  5
152
100
AcDbEntity
  8
Frei
  6
CONTINUOUS
 62
           7
100
AcDbLine
 10
-14213.459607404369
 20
-8702.343635110636
 30
0.0
 11
-14208.471257345045
 21
-8702.684756329029
 31
0.0
  0
LINE
  5
153
100
AcDbEntity
  8
Frei
  6
CONTINUOUS
 62
           7
100
AcDbLine
 10
-14208.403033101366
 20
-8701.687086317164
 30
0.0
 11
-14208.471257345045
 21
-8702.684756329029
 31
0.0
  0
LINE
  5
154
100
AcDbEntity
  8
Frei
  6
CONTINUOUS
 62
           2
100
AcDbLine
 10
-14207.584342177221
 20
-8689.715046174784
 30
0.0
 11
-14212.572692236545
 21
-8689.373924956391
 31
0.0
  0
LINE
  5
155
100
AcDbEntity
  8
Frei
  6
CONTINUOUS
 62
           7
100
AcDbLine
 10
-14207.516117933543
 20
-8688.71737616292
 30
0.0
 11
-14207.584342177221
 21
-8689.715046174784
 31
0.0
  0
LINE
  5
156
100
AcDbEntity
  8
Frei
  6
CONTINUOUS
 62
           2
100
AcDbLine
 10
-14208.403033101366
 20
-8701.687086317164
 30
0.0
 11
-14213.39138316069
 21
-8701.345965098772
 31
0.0
  0
LINE
  5
157
100
AcDbEntity
  8
Frei
  6
CONTINUOUS
 62
           7
100
AcDbLine
 10
-14207.584342177221
 20
-8689.715046174784
 30
0.0
 11
-14208.403033101366
 21
-8701.687086317164
 31
0.0
  0
LINE
  5
158
100
AcDbEntity
  8
Frei
  6
CONTINUOUS
 62
           7
100
AcDbLine
 10
-14164.415624827707
 20
-8652.072492563246
 30
0.0
 11
-14163.661397616444
 21
-8652.124069317521
 31
0.0
  0
LINE
  5
159
100
AcDbEntity
  8
Frei
  6
CONTINUOUS
 62
           7
100
AcDbLine
 10
-14164.040391487473
 20
-8646.58530749799
 30
0.0
 11
-14164.415624827707
 21
-8652.072492563246
 31
0.0
  0
LINE
  5
15A
100
AcDbEntity
  8
Frei
  6
CONTINUOUS
 62
           7
100
AcDbLine
 10
-14164.654409680583
 20
-8655.564337604774
 30
0.0
 11
-14163.90018246932
 21
-8655.615914359049
 31
0.0
  0
LINE
  5
15B
100
AcDbEntity
  8
Frei
  6
CONTINUOUS
 62
           7
100
AcDbLine
 10
-14164.415624827707
 20
-8652.072492563246
 30
0.0
 11
-14164.654409680583
 21
-8655.564337604774
 31
0.0
  0
LINE
  5
15C
100
AcDbEntity
  8
Frei
  6
CONTINUOUS
 62
           7
100
AcDbLine
 10
-14165.131979386333
 20
-8662.548027687826
 30
0.0
 11
-14164.377752175071
 21
-8662.599604442105
 31
0.0
  0
LINE
  5
15D
100
AcDbEntity
  8
Frei
  6
CONTINUOUS
 62
           7
100
AcDbLine
 10
-14164.654409680583
 20
-8655.564337604774
 30
0.0
 11
-14165.131979386333
 21
-8662.548027687826
 31
0.0
  0
LINE
  5
15E
100
AcDbEntity
  8
Frei
  6
CONTINUOUS
 62
           7
100
AcDbLine
 10
-14165.370764239209
 20
-8666.039872729354
 30
0.0
 11
-14164.616537027947
 21
-8666.091449483629
 31
0.0
  0
LINE
  5
15F
100
AcDbEntity
  8
Frei
  6
CONTINUOUS
 62
           7
100
AcDbLine
 10
-14165.131979386333
 20
-8662.548027687826
 30
0.0
 11
-14165.370764239209
 21
-8666.039872729354
 31
0.0
  0
LINE
  5
160
100
AcDbEntity
  8
Frei
  6
CONTINUOUS
 62
           7
100
AcDbLine
 10
-14163.396689515659
 20
-8659.15851901182
 30
0.0
 11
-14163.038512236346
 21
-8653.920751449528
 31
0.0
  0
LINE
  5
161
100
AcDbEntity
  8
Frei
  6
CONTINUOUS
 62
           7
100
AcDbLine
 10
-14212.441142029502
 20
-8687.450214416767
 30
0.0
 11
-14212.351809131367
 21
-8686.14386422898
 31
0.0
  0
LINE
  5
162
100
AcDbEntity
  8
Frei
  6
CONTINUOUS
 62
           7
100
AcDbLine
 10
-14217.84639469262
 20
-8704.286480980576
 30
0.0
 11
-14213.612266265869
 21
-8704.576025826184
 31
0.0
  0
LINE
  5
163
100
AcDbEntity
  8
Frei
  6
CONTINUOUS
 62
           7
100
AcDbLine
 10
-14217.429492088826
 20
-8687.109093198371
 30
0.0
 11
-14212.441142029502
 21
-8687.450214416767
 31
0.0
  0
LINE
  5
164
100
AcDbEntity
  8
Frei
  6
CONTINUOUS
 62
           7
100
AcDbLine
 10
-14212.577590516859
 20
-8689.445554440496
 30
0.0
 11
-14212.441142029502
 21
-8687.450214416767
 31
0.0
  0
LINE
  5
165
100
AcDbEntity
  8
Frei
  6
CONTINUOUS
 62
           7
100
AcDbLine
 10
-14212.577590516859
 20
-8689.445554440496
 30
0.0
 11
-14217.565940576183
 21
-8689.104433222103
 31
0.0
  0
LINE
  5
166
100
AcDbEntity
  8
Frei
  6
CONTINUOUS
 62
           7
100
AcDbLine
 10
-14217.429492088826
 20
-8687.109093198371
 30
0.0
 11
-14217.565940576183
 21
-8689.104433222103
 31
0.0
  0
LINE
  5
167
100
AcDbEntity
  8
Frei
  6
CONTINUOUS
 62
           7
100
AcDbLine
 10
-14212.666923414992
 20
-8690.75190462828
 30
0.0
 11
-14212.577590516859
 21
-8689.445554440496
 31
0.0
  0
LINE
  5
168
100
AcDbEntity
  8
Frei
  6
CONTINUOUS
 62
           7
100
AcDbLine
 10
-14212.84558921126
 20
-8693.364605003852
 30
0.0
 11
-14212.666923414992
 21
-8690.75190462828
 31
0.0
  0
LINE
  5
169
100
AcDbEntity
  8
Frei
  6
CONTINUOUS
 62
           7
100
AcDbLine
 10
-14212.84558921126
 20
-8693.364605003852
 30
0.0
 11
-14217.833939270584
 21
-8693.023483785459
 31
0.0
  0
LINE
  5
16A
100
AcDbEntity
  8
Frei
  6
CONTINUOUS
 62
           7
100
AcDbLine
 10
-14217.565940576183
 20
-8689.104433222103
 30
0.0
 11
-14217.833939270584
 21
-8693.023483785459
 31
0.0
  0
LINE
  5
16B
100
AcDbEntity
  8
Frei
  6
CONTINUOUS
 62
           7
100
AcDbLine
 10
-14213.118486185975
 20
-8697.355285051312
 30
0.0
 11
-14212.84558921126
 21
-8693.364605003852
 31
0.0
  0
LINE
  5
16C
100
AcDbEntity
  8
Frei
  6
CONTINUOUS
 62
           7
100
AcDbLine
 10
-14213.118486185975
 20
-8697.355285051312
 30
0.0
 11
-14218.106836245299
 21
-8697.014163832919
 31
0.0
  0
LINE
  5
16D
100
AcDbEntity
  8
Frei
  6
CONTINUOUS
 62
           7
100
AcDbLine
 10
-14217.833939270584
 20
-8693.023483785459
 30
0.0
 11
-14218.106836245299
 21
-8697.014163832919
 31
0.0
  0
LINE
  5
16E
100
AcDbEntity
  8
Frei
  6
CONTINUOUS
 62
           7
100
AcDbLine
 10
-14213.297151982242
 20
-8699.967985426883
 30
0.0
 11
-14213.118486185975
 21
-8697.355285051312
 31
0.0
  0
LINE
  5
16F
100
AcDbEntity
  8
Frei
  6
CONTINUOUS
 62
           7
100
AcDbLine
 10
-14213.386484880377
 20
-8701.274335614668
 30
0.0
 11
-14213.297151982242
 21
-8699.967985426883
 31
0.0
  0
LINE
  5
170
100
AcDbEntity
  8
Frei
  6
CONTINUOUS
 62
           7
100
AcDbLine
 10
-14213.386484880377
 20
-8701.274335614668
 30
0.0
 11
-14218.374834939701
 21
-8700.933214396275
 31
0.0
  0
LINE
  5
171
100
AcDbEntity
  8
Frei
  6
CONTINUOUS
 62
           7
100
AcDbLine
 10
-14218.106836245299
 20
-8697.014163832919
 30
0.0
 11
-14218.374834939701
 21
-8700.933214396275
 31
0.0
  0
LINE
  5
172
100
AcDbEntity
  8
Frei
  6
CONTINUOUS
 62
           7
100
AcDbLine
 10
-14213.522933367734
 20
-8703.269675638399
 30
0.0
 11
-14213.386484880377
 21
-8701.274335614668
 31
0.0
  0
LINE
  5
173
100
AcDbEntity
  8
Frei
  6
CONTINUOUS
 62
           7
100
AcDbLine
 10
-14213.522933367734
 20
-8703.269675638399
 30
0.0
 11
-14218.511283427059
 21
-8702.928554420007
 31
0.0
  0
LINE
  5
174
100
AcDbEntity
  8
Frei
  6
CONTINUOUS
 62
           7
100
AcDbLine
 10
-14218.374834939701
 20
-8700.933214396275
 30
0.0
 11
-14218.511283427059
 21
-8702.928554420007
 31
0.0
  0
LINE
  5
175
100
AcDbEntity
  8
Frei
  6
CONTINUOUS
 62
           7
100
AcDbLine
 10
-14213.612266265869
 20
-8704.576025826184
 30
0.0
 11
-14213.522933367734
 21
-8703.269675638399
 31
0.0
  0
LINE
  5
176
100
AcDbEntity
  8
Frei
  6
CONTINUOUS
 62
           7
100
AcDbLine
 10
-14217.429492088826
 20
-8687.109093198371
 30
0.0
 11
-14216.585937558119
 21
-8685.854319383372
 31
0.0
  0
LINE
  5
177
100
AcDbEntity
  8
Frei
  6
CONTINUOUS
 62
           7
100
AcDbLine
 10
-14212.351809131367
 20
-8686.14386422898
 30
0.0
 11
-14216.585937558119
 21
-8685.854319383372
 31
0.0
  0
LINE
  5
178
100
AcDbEntity
  8
Frei
  6
CONTINUOUS
 62
           7
100
AcDbLine
 10
-14217.84639469262
 20
-8704.286480980576
 30
0.0
 11
-14218.511283427059
 21
-8702.928554420007
 31
0.0
  0
LINE
  5
179
100
AcDbEntity
  8
Frei
  6
CONTINUOUS
 62
           7
100
AcDbLine
 10
-14216.901051841744
 20
-8690.462359782672
 30
0.0
 11
-14217.565940576183
 21
-8689.104433222103
 31
0.0
  0
LINE
  5
17A
100
AcDbEntity
  8
Frei
  6
CONTINUOUS
 62
           7
100
AcDbLine
 10
-14212.666923414992
 20
-8690.75190462828
 30
0.0
 11
-14216.901051841744
 21
-8690.462359782672
 31
0.0
  0
LINE
  5
17B
100
AcDbEntity
  8
Frei
  6
CONTINUOUS
 62
           7
100
AcDbLine
 10
-14217.833939270584
 20
-8693.023483785459
 30
0.0
 11
-14216.901051841744
 21
-8690.462359782672
 31
0.0
  0
LINE
  5
17C
100
AcDbEntity
  8
Frei
  6
CONTINUOUS
 62
           7
100
AcDbLine
 10
-14217.531280408994
 20
-8699.678440581276
 30
0.0
 11
-14218.106836245299
 21
-8697.014163832919
 31
0.0
  0
LINE
  5
17D
100
AcDbEntity
  8
Frei
  6
CONTINUOUS
 62
           7
100
AcDbLine
 10
-14213.297151982242
 20
-8699.967985426883
 30
0.0
 11
-14217.531280408994
 21
-8699.678440581276
 31
0.0
  0
LINE
  5
17E
100
AcDbEntity
  8
Frei
  6
CONTINUOUS
 62
           7
100
AcDbLine
 10
-14218.374834939701
 20
-8700.933214396275
 30
0.0
 11
-14217.531280408994
 21
-8699.678440581276
 31
0.0
  0
LINE
  5
17F
100
AcDbEntity
  8
Frei
  6
CONTINUOUS
 62
           3
100
AcDbLine
 10
-14173.068414799654
 20
-8697.989147773544
 30
0.0
 11
-14191.026475013223
 21
-8696.761111387328
 31
0.0
  0
LINE
  5
180
100
AcDbEntity
  8
Frei
  6
CONTINUOUS
 62
           3
100
AcDbLine
 10
-14173.707951352981
 20
-8698.546815234455
 30
0.0
 11
-14173.068414799654
 21
-8697.989147773544
 31
0.0
  0
LINE
  5
181
100
AcDbEntity
  8
Frei
  6
CONTINUOUS
 62
           3
100
AcDbLine
 10
-14173.15028389207
 20
-8699.186351787783
 30
0.0
 11
-14173.707951352981
 21
-8698.546815234455
 31
0.0
  0
LINE
  5
182
100
AcDbEntity
  8
Frei
  6
CONTINUOUS
 62
           3
100
AcDbLine
 10
-14191.108344105638
 20
-8697.958315401567
 30
0.0
 11
-14173.15028389207
 21
-8699.186351787783
 31
0.0
  0
LINE
  5
183
100
AcDbEntity
  8
Frei
  6
CONTINUOUS
 62
           3
100
AcDbLine
 10
-14190.468807552312
 20
-8697.400647940653
 30
0.0
 11
-14191.108344105638
 21
-8697.958315401567
 31
0.0
  0
LINE
  5
184
100
AcDbEntity
  8
Frei
  6
CONTINUOUS
 62
           3
100
AcDbLine
 10
-14191.026475013223
 20
-8696.761111387328
 30
0.0
 11
-14190.468807552312
 21
-8697.400647940653
 31
0.0
  0
LINE
  5
185
100
AcDbEntity
  8
Frei
  6
CONTINUOUS
 62
           3
100
AcDbLine
 10
-14173.707951352981
 20
-8698.546815234455
 30
0.0
 11
-14190.468807552312
 21
-8697.400647940653
 31
0.0
  0
LINE
  5
186
100
AcDbEntity
  8
Frei
  6
CONTINUOUS
 62
           3
100
AcDbLine
 10
-14190.971895618281
 20
-8695.962975377835
 30
0.0
 11
-14190.332359064954
 21
-8695.405307916924
 31
0.0
  0
LINE
  5
187
100
AcDbEntity
  8
Frei
  6
CONTINUOUS
 62
           3
100
AcDbLine
 10
-14173.013835404712
 20
-8697.191011764051
 30
0.0
 11
-14190.971895618281
 21
-8695.962975377835
 31
0.0
  0
LINE
  5
188
100
AcDbEntity
  8
Frei
  6
CONTINUOUS
 62
           3
100
AcDbLine
 10
-14173.571502865623
 20
-8696.551475210727
 30
0.0
 11
-14173.013835404712
 21
-8697.191011764051
 31
0.0
  0
LINE
  5
189
100
AcDbEntity
  8
Frei
  6
CONTINUOUS
 62
           3
100
AcDbLine
 10
-14172.931966312297
 20
-8695.993807749816
 30
0.0
 11
-14173.571502865623
 21
-8696.551475210727
 31
0.0
  0
LINE
  5
18A
100
AcDbEntity
  8
Frei
  6
CONTINUOUS
 62
           3
100
AcDbLine
 10
-14190.890026525865
 20
-8694.7657713636
 30
0.0
 11
-14172.931966312297
 21
-8695.993807749816
 31
0.0
  0
LINE
  5
18B
100
AcDbEntity
  8
Frei
  6
CONTINUOUS
 62
           3
100
AcDbLine
 10
-14190.332359064954
 20
-8695.405307916924
 30
0.0
 11
-14190.890026525865
 21
-8694.7657713636
 31
0.0
  0
LINE
  5
18C
100
AcDbEntity
  8
Frei
  6
CONTINUOUS
 62
           3
100
AcDbLine
 10
-14190.332359064954
 20
-8695.405307916924
 30
0.0
 11
-14173.571502865623
 21
-8696.551475210727
 31
0.0
  0
LINE
  5
18D
100
AcDbEntity
  8
Frei
  6
CONTINUOUS
 62
           3
100
AcDbLine
 10
-14190.835447130923
 20
-8693.967635354107
 30
0.0
 11
-14190.195910577597
 21
-8693.409967893193
 31
0.0
  0
LINE
  5
18E
100
AcDbEntity
  8
Frei
  6
CONTINUOUS
 62
           3
100
AcDbLine
 10
-14172.877386917355
 20
-8695.195671740323
 30
0.0
 11
-14190.835447130923
 21
-8693.967635354107
 31
0.0
  0
LINE
  5
18F
100
AcDbEntity
  8
Frei
  6
CONTINUOUS
 62
           3
100
AcDbLine
 10
-14173.435054378266
 20
-8694.556135186995
 30
0.0
 11
-14172.877386917355
 21
-8695.195671740323
 31
0.0
  0
LINE
  5
190
100
AcDbEntity
  8
Frei
  6
CONTINUOUS
 62
           3
100
AcDbLine
 10
-14172.795517824939
 20
-8693.998467726084
 30
0.0
 11
-14173.435054378266
 21
-8694.556135186995
 31
0.0
  0
LINE
  5
191
100
AcDbEntity
  8
Frei
  6
CONTINUOUS
 62
           3
100
AcDbLine
 10
-14190.753578038508
 20
-8692.770431339868
 30
0.0
 11
-14172.795517824939
 21
-8693.998467726084
 31
0.0
  0
LINE
  5
192
100
AcDbEntity
  8
Frei
  6
CONTINUOUS
 62
           3
100
AcDbLine
 10
-14190.195910577597
 20
-8693.409967893193
 30
0.0
 11
-14190.753578038508
 21
-8692.770431339868
 31
0.0
  0
LINE
  5
193
100
AcDbEntity
  8
Frei
  6
CONTINUOUS
 62
           3
100
AcDbLine
 10
-14190.698998643566
 20
-8691.972295330375
 30
0.0
 11
-14190.059462090239
 21
-8691.414627869464
 31
0.0
  0
LINE
  5
194
100
AcDbEntity
  8
Frei
  6
CONTINUOUS
 62
           3
100
AcDbLine
 10
-14184.620275785206
 20
-8692.387980140597
 30
0.0
 11
-14190.698998643566
 21
-8691.972295330375
 31
0.0
  0
LINE
  5
195
100
AcDbEntity
  8
Frei
  6
CONTINUOUS
 62
           3
100
AcDbLine
 10
-14173.298605890908
 20
-8692.560795163266
 30
0.0
 11
-14172.740938429997
 21
-8693.200331716595
 31
0.0
  0
LINE
  5
196
100
AcDbEntity
  8
Frei
  6
CONTINUOUS
 62
           3
100
AcDbLine
 10
-14172.659069337582
 20
-8692.003127702355
 30
0.0
 11
-14173.298605890908
 21
-8692.560795163266
 31
0.0
  0
LINE
  5
197
100
AcDbEntity
  8
Frei
  6
CONTINUOUS
 62
           3
100
AcDbLine
 10
-14178.73779219594
 20
-8691.587442892134
 30
0.0
 11
-14172.659069337582
 21
-8692.003127702355
 31
0.0
  0
LINE
  5
198
100
AcDbEntity
  8
Frei
  6
CONTINUOUS
 62
           3
100
AcDbLine
 10
-14190.059462090239
 20
-8691.414627869464
 30
0.0
 11
-14190.61712955115
 21
-8690.77509131614
 31
0.0
  0
LINE
  5
199
100
AcDbEntity
  8
Frei
  6
CONTINUOUS
 62
           3
100
AcDbLine
 10
-14190.562550156208
 20
-8689.976955306647
 30
0.0
 11
-14189.923013602882
 21
-8689.419287845733
 31
0.0
  0
LINE
  5
19A
100
AcDbEntity
  8
Frei
  6
CONTINUOUS
 62
           3
100
AcDbLine
 10
-14185.228304721479
 20
-8690.341730087941
 30
0.0
 11
-14190.562550156208
 21
-8689.976955306647
 31
0.0
  0
LINE
  5
19B
100
AcDbEntity
  8
Frei
  6
CONTINUOUS
 62
           3
100
AcDbLine
 10
-14173.162157403551
 20
-8690.565455139535
 30
0.0
 11
-14172.60448994264
 21
-8691.204991692863
 31
0.0
  0
LINE
  5
19C
100
AcDbEntity
  8
Frei
  6
CONTINUOUS
 62
           3
100
AcDbLine
 10
-14178.49640283828
 20
-8690.200680358244
 30
0.0
 11
-14173.162157403551
 21
-8690.565455139535
 31
0.0
  0
LINE
  5
19D
100
AcDbEntity
  8
Frei
  6
CONTINUOUS
 62
           3
100
AcDbLine
 10
-14183.980739231882
 20
-8691.830312679685
 30
0.0
 11
-14190.059462090239
 21
-8691.414627869464
 31
0.0
  0
LINE
  5
19E
100
AcDbEntity
  8
Frei
  6
CONTINUOUS
 62
           3
100
AcDbLine
 10
-14173.435054378266
 20
-8694.556135186995
 30
0.0
 11
-14190.195910577597
 21
-8693.409967893193
 31
0.0
  0
LINE
  5
19F
100
AcDbEntity
  8
Frei
  6
CONTINUOUS
 62
           3
100
AcDbLine
 10
-14183.980739231882
 20
-8691.830312679685
 30
0.0
 11
-14184.538406692791
 21
-8691.190776126357
 31
0.0
  0
LINE
  5
1A0
100
AcDbEntity
  8
Frei
  6
CONTINUOUS
 62
           3
100
AcDbLine
 10
-14190.61712955115
 20
-8690.77509131614
 30
0.0
 11
-14184.538406692791
 21
-8691.190776126357
 31
0.0
  0
LINE
  5
1A1
100
AcDbEntity
  8
Frei
  6
CONTINUOUS
 62
           3
100
AcDbLine
 10
-14184.620275785206
 20
-8692.387980140597
 30
0.0
 11
-14183.980739231882
 21
-8691.830312679685
 31
0.0
  0
LINE
  5
1A2
100
AcDbEntity
  8
Frei
  6
CONTINUOUS
 62
           3
100
AcDbLine
 10
-14184.588768168152
 20
-8689.784062627026
 30
0.0
 11
-14185.228304721479
 21
-8690.341730087941
 31
0.0
  0
LINE
  5
1A3
100
AcDbEntity
  8
Frei
  6
CONTINUOUS
 62
           3
100
AcDbLine
 10
-14189.923013602882
 20
-8689.419287845733
 30
0.0
 11
-14184.588768168152
 21
-8689.784062627026
 31
0.0
  0
LINE
  5
1A4
100
AcDbEntity
  8
Frei
  6
CONTINUOUS
 62
           3
100
AcDbLine
 10
-14177.938735377367
 20
-8690.840216911569
 30
0.0
 11
-14178.49640283828
 21
-8690.200680358244
 31
0.0
  0
LINE
  5
1A5
100
AcDbEntity
  8
Frei
  6
CONTINUOUS
 62
           3
100
AcDbLine
 10
-14172.60448994264
 20
-8691.204991692863
 30
0.0
 11
-14177.938735377367
 21
-8690.840216911569
 31
0.0
  0
LINE
  5
1A6
100
AcDbEntity
  8
Frei
  6
CONTINUOUS
 62
           3
100
AcDbLine
 10
-14179.377328749268
 20
-8692.145110353045
 30
0.0
 11
-14178.73779219594
 21
-8691.587442892134
 31
0.0
  0
LINE
  5
1A7
100
AcDbEntity
  8
Frei
  6
CONTINUOUS
 62
           3
100
AcDbLine
 10
-14173.298605890908
 20
-8692.560795163266
 30
0.0
 11
-14179.377328749268
 21
-8692.145110353045
 31
0.0
  0
LINE
  5
1A8
100
AcDbEntity
  8
Frei
  6
CONTINUOUS
 62
           3
100
AcDbLine
 10
-14178.819661288355
 20
-8692.784646906373
 30
0.0
 11
-14179.377328749268
 21
-8692.145110353045
 31
0.0
  0
LINE
  5
1A9
100
AcDbEntity
  8
Frei
  6
CONTINUOUS
 62
           3
100
AcDbLine
 10
-14172.740938429997
 20
-8693.200331716595
 30
0.0
 11
-14178.819661288355
 21
-8692.784646906373
 31
0.0
  0
LINE
  5
1AA
100
AcDbEntity
  8
Frei
  6
CONTINUOUS
 62
           3
100
AcDbLine
 10
-14190.61712955115
 20
-8690.77509131614
 30
0.0
 11
-14190.698998643566
 21
-8691.972295330375
 31
0.0
  0
LINE
  5
1AB
100
AcDbEntity
  8
Frei
  6
CONTINUOUS
 62
           3
100
AcDbLine
 10
-14190.835447130923
 20
-8693.967635354107
 30
0.0
 11
-14190.753578038508
 21
-8692.770431339868
 31
0.0
  0
LINE
  5
1AC
100
AcDbEntity
  8
Frei
  6
CONTINUOUS
 62
           3
100
AcDbLine
 10
-14190.971895618281
 20
-8695.962975377835
 30
0.0
 11
-14190.890026525865
 21
-8694.7657713636
 31
0.0
  0
LINE
  5
1AD
100
AcDbEntity
  8
Frei
  6
CONTINUOUS
 62
           3
100
AcDbLine
 10
-14191.108344105638
 20
-8697.958315401567
 30
0.0
 11
-14191.026475013223
 21
-8696.761111387328
 31
0.0
  0
LINE
  5
1AE
100
AcDbEntity
  8
Frei
  6
CONTINUOUS
 62
           3
100
AcDbLine
 10
-14190.521615610001
 20
-8689.378353299526
 30
0.0
 11
-14190.562550156208
 21
-8689.976955306647
 31
0.0
  0
LINE
  5
1AF
100
AcDbEntity
  8
Frei
  6
CONTINUOUS
 62
           3
100
AcDbLine
 10
-14172.60448994264
 20
-8691.204991692863
 30
0.0
 11
-14172.563555396433
 21
-8690.606389685745
 31
0.0
  0
LINE
  5
1B0
100
AcDbEntity
  8
Frei
  6
CONTINUOUS
 62
           3
100
AcDbLine
 10
-14172.740938429997
 20
-8693.200331716595
 30
0.0
 11
-14172.659069337582
 21
-8692.003127702355
 31
0.0
  0
LINE
  5
1B1
100
AcDbEntity
  8
Frei
  6
CONTINUOUS
 62
           3
100
AcDbLine
 10
-14172.877386917355
 20
-8695.195671740323
 30
0.0
 11
-14172.795517824939
 21
-8693.998467726084
 31
0.0
  0
LINE
  5
1B2
100
AcDbEntity
  8
Frei
  6
CONTINUOUS
 62
           3
100
AcDbLine
 10
-14173.013835404712
 20
-8697.191011764051
 30
0.0
 11
-14172.931966312297
 21
-8695.993807749816
 31
0.0
  0
LINE
  5
1B3
100
AcDbEntity
  8
Frei
  6
CONTINUOUS
 62
           3
100
AcDbLine
 10
-14173.15028389207
 20
-8699.186351787783
 30
0.0
 11
-14173.068414799654
 21
-8697.989147773544
 31
0.0
  0
LINE
  5
1B4
100
AcDbEntity
  8
Frei
  6
CONTINUOUS
 62
           3
100
AcDbLine
 10
-14172.05869599321
 20
-8683.223631597943
 30
0.0
 11
-14171.976826900796
 21
-8682.026427583707
 31
0.0
  0
LINE
  5
1B5
100
AcDbEntity
  8
Frei
  6
CONTINUOUS
 62
           3
100
AcDbLine
 10
-14172.195144480567
 20
-8685.218971621674
 30
0.0
 11
-14172.113275388154
 21
-8684.021767607435
 31
0.0
  0
LINE
  5
1B6
100
AcDbEntity
  8
Frei
  6
CONTINUOUS
 62
           3
100
AcDbLine
 10
-14172.331592967925
 20
-8687.214311645403
 30
0.0
 11
-14172.24972387551
 21
-8686.017107631167
 31
0.0
  0
LINE
  5
1B7
100
AcDbEntity
  8
Frei
  6
CONTINUOUS
 62
           3
100
AcDbLine
 10
-14172.468041455282
 20
-8689.209651669135
 30
0.0
 11
-14172.386172362867
 21
-8688.012447654895
 31
0.0
  0
LINE
  5
1B8
100
AcDbEntity
  8
Frei
  6
CONTINUOUS
 62
           3
100
AcDbLine
 10
-14172.563555396433
 20
-8690.606389685745
 30
0.0
 11
-14172.522620850224
 21
-8690.007787678624
 31
0.0
  0
LINE
  5
1B9
100
AcDbEntity
  8
Frei
  6
CONTINUOUS
 62
           3
100
AcDbLine
 10
-14190.480681063793
 20
-8688.779751292408
 30
0.0
 11
-14190.521615610001
 21
-8689.378353299526
 31
0.0
  0
LINE
  5
1BA
100
AcDbEntity
  8
Frei
  6
CONTINUOUS
 62
           3
100
AcDbLine
 10
-14190.016756206778
 20
-8681.995595211727
 30
0.0
 11
-14189.934887114365
 21
-8680.798391197492
 31
0.0
  0
LINE
  5
1BB
100
AcDbEntity
  8
Frei
  6
CONTINUOUS
 62
           3
100
AcDbLine
 10
-14190.153204694136
 20
-8683.990935235459
 30
0.0
 11
-14190.071335601722
 21
-8682.79373122122
 31
0.0
  0
LINE
  5
1BC
100
AcDbEntity
  8
Frei
  6
CONTINUOUS
 62
           3
100
AcDbLine
 10
-14190.289653181493
 20
-8685.986275259187
 30
0.0
 11
-14190.207784089078
 21
-8684.789071244948
 31
0.0
  0
LINE
  5
1BD
100
AcDbEntity
  8
Frei
  6
CONTINUOUS
 62
           3
100
AcDbLine
 10
-14190.344232576435
 20
-8686.78441126868
 30
0.0
 11
-14190.426101668851
 21
-8687.981615282915
 31
0.0
  0
LINE
  5
1BE
100
AcDbEntity
  8
Frei
  6
CONTINUOUS
 62
           3
100
AcDbLine
 10
-14178.464895221225
 20
-8687.596762844678
 30
0.0
 11
-14172.386172362867
 21
-8688.012447654895
 31
0.0
  0
LINE
  5
1BF
100
AcDbEntity
  8
Frei
  6
CONTINUOUS
 62
           3
100
AcDbLine
 10
-14179.104431774553
 20
-8688.154430305585
 30
0.0
 11
-14178.464895221225
 21
-8687.596762844678
 31
0.0
  0
LINE
  5
1C0
100
AcDbEntity
  8
Frei
  6
CONTINUOUS
 62
           3
100
AcDbLine
 10
-14179.104431774553
 20
-8688.154430305585
 30
0.0
 11
-14173.025708916193
 21
-8688.570115115806
 31
0.0
  0
LINE
  5
1C1
100
AcDbEntity
  8
Frei
  6
CONTINUOUS
 62
           3
100
AcDbLine
 10
-14178.54676431364
 20
-8688.793966858913
 30
0.0
 11
-14179.104431774553
 21
-8688.154430305585
 31
0.0
  0
LINE
  5
1C2
100
AcDbEntity
  8
Frei
  6
CONTINUOUS
 62
           3
100
AcDbLine
 10
-14177.856866284952
 20
-8689.643012897333
 30
0.0
 11
-14172.522620850224
 21
-8690.007787678624
 31
0.0
  0
LINE
  5
1C3
100
AcDbEntity
  8
Frei
  6
CONTINUOUS
 62
           3
100
AcDbLine
 10
-14178.49640283828
 20
-8690.200680358244
 30
0.0
 11
-14177.856866284952
 21
-8689.643012897333
 31
0.0
  0
LINE
  5
1C4
100
AcDbEntity
  8
Frei
  6
CONTINUOUS
 62
           3
100
AcDbLine
 10
-14185.146435629063
 20
-8689.144526073702
 30
0.0
 11
-14184.588768168152
 21
-8689.784062627026
 31
0.0
  0
LINE
  5
1C5
100
AcDbEntity
  8
Frei
  6
CONTINUOUS
 62
           3
100
AcDbLine
 10
-14183.707842257167
 20
-8687.839632632225
 30
0.0
 11
-14184.265509718076
 21
-8687.200096078897
 31
0.0
  0
LINE
  5
1C6
100
AcDbEntity
  8
Frei
  6
CONTINUOUS
 62
           3
100
AcDbLine
 10
-14184.347378810491
 20
-8688.397300093136
 30
0.0
 11
-14190.426101668851
 21
-8687.981615282915
 31
0.0
  0
LINE
  5
1C7
100
AcDbEntity
  8
Frei
  6
CONTINUOUS
 62
           3
100
AcDbLine
 10
-14184.347378810491
 20
-8688.397300093136
 30
0.0
 11
-14183.707842257167
 21
-8687.839632632225
 31
0.0
  0
LINE
  5
1C8
100
AcDbEntity
  8
Frei
  6
CONTINUOUS
 62
           3
100
AcDbLine
 10
-14189.650116628167
 20
-8685.428607798276
 30
0.0
 11
-14172.889260428836
 21
-8686.574775092078
 31
0.0
  0
LINE
  5
1C9
100
AcDbEntity
  8
Frei
  6
CONTINUOUS
 62
           3
100
AcDbLine
 10
-14189.786565115524
 20
-8687.423947822004
 30
0.0
 11
-14183.707842257167
 21
-8687.839632632225
 31
0.0
  0
LINE
  5
1CA
100
AcDbEntity
  8
Frei
  6
CONTINUOUS
 62
           3
100
AcDbLine
 10
-14172.522620850224
 20
-8690.007787678624
 30
0.0
 11
-14173.162157403551
 21
-8690.565455139535
 31
0.0
  0
LINE
  5
1CB
100
AcDbEntity
  8
Frei
  6
CONTINUOUS
 62
           3
100
AcDbLine
 10
-14190.480681063793
 20
-8688.779751292408
 30
0.0
 11
-14185.146435629063
 21
-8689.144526073702
 31
0.0
  0
LINE
  5
1CC
100
AcDbEntity
  8
Frei
  6
CONTINUOUS
 62
           3
100
AcDbLine
 10
-14189.923013602882
 20
-8689.419287845733
 30
0.0
 11
-14190.480681063793
 21
-8688.779751292408
 31
0.0
  0
LINE
  5
1CD
100
AcDbEntity
  8
Frei
  6
CONTINUOUS
 62
           3
100
AcDbLine
 10
-14190.426101668851
 20
-8687.981615282915
 30
0.0
 11
-14189.786565115524
 21
-8687.423947822004
 31
0.0
  0
LINE
  5
1CE
100
AcDbEntity
  8
Frei
  6
CONTINUOUS
 62
           3
100
AcDbLine
 10
-14172.468041455282
 20
-8689.209651669135
 30
0.0
 11
-14178.54676431364
 21
-8688.793966858913
 31
0.0
  0
LINE
  5
1CF
100
AcDbEntity
  8
Frei
  6
CONTINUOUS
 62
           3
100
AcDbLine
 10
-14173.025708916193
 20
-8688.570115115806
 30
0.0
 11
-14172.468041455282
 21
-8689.209651669135
 31
0.0
  0
LINE
  5
1D0
100
AcDbEntity
  8
Frei
  6
CONTINUOUS
 62
           3
100
AcDbLine
 10
-14172.386172362867
 20
-8688.012447654895
 30
0.0
 11
-14173.025708916193
 21
-8688.570115115806
 31
0.0
  0
LINE
  5
1D1
100
AcDbEntity
  8
Frei
  6
CONTINUOUS
 62
           3
100
AcDbLine
 10
-14190.344232576435
 20
-8686.78441126868
 30
0.0
 11
-14184.265509718076
 21
-8687.200096078897
 31
0.0
  0
LINE
  5
1D2
100
AcDbEntity
  8
Frei
  6
CONTINUOUS
 62
           3
100
AcDbLine
 10
-14189.786565115524
 20
-8687.423947822004
 30
0.0
 11
-14190.344232576435
 21
-8686.78441126868
 31
0.0
  0
LINE
  5
1D3
100
AcDbEntity
  8
Frei
  6
CONTINUOUS
 62
           3
100
AcDbLine
 10
-14190.289653181493
 20
-8685.986275259187
 30
0.0
 11
-14189.650116628167
 21
-8685.428607798276
 31
0.0
  0
LINE
  5
1D4
100
AcDbEntity
  8
Frei
  6
CONTINUOUS
 62
           3
100
AcDbLine
 10
-14172.331592967925
 20
-8687.214311645403
 30
0.0
 11
-14190.289653181493
 21
-8685.986275259187
 31
0.0
  0
LINE
  5
1D5
100
AcDbEntity
  8
Frei
  6
CONTINUOUS
 62
           3
100
AcDbLine
 10
-14172.889260428836
 20
-8686.574775092078
 30
0.0
 11
-14172.331592967925
 21
-8687.214311645403
 31
0.0
  0
LINE
  5
1D6
100
AcDbEntity
  8
Frei
  6
CONTINUOUS
 62
           3
100
AcDbLine
 10
-14172.24972387551
 20
-8686.017107631167
 30
0.0
 11
-14172.889260428836
 21
-8686.574775092078
 31
0.0
  0
LINE
  5
1D7
100
AcDbEntity
  8
Frei
  6
CONTINUOUS
 62
           3
100
AcDbLine
 10
-14190.207784089078
 20
-8684.789071244948
 30
0.0
 11
-14172.24972387551
 21
-8686.017107631167
 31
0.0
  0
LINE
  5
1D8
100
AcDbEntity
  8
Frei
  6
CONTINUOUS
 62
           3
100
AcDbLine
 10
-14189.650116628167
 20
-8685.428607798276
 30
0.0
 11
-14190.207784089078
 21
-8684.789071244948
 31
0.0
  0
LINE
  5
1D9
100
AcDbEntity
  8
Frei
  6
CONTINUOUS
 62
           3
100
AcDbLine
 10
-14172.752811941478
 20
-8684.579435068346
 30
0.0
 11
-14189.513668140809
 21
-8683.433267774544
 31
0.0
  0
LINE
  5
1DA
100
AcDbEntity
  8
Frei
  6
CONTINUOUS
 62
           3
100
AcDbLine
 10
-14190.153204694136
 20
-8683.990935235459
 30
0.0
 11
-14189.513668140809
 21
-8683.433267774544
 31
0.0
  0
LINE
  5
1DB
100
AcDbEntity
  8
Frei
  6
CONTINUOUS
 62
           3
100
AcDbLine
 10
-14172.195144480567
 20
-8685.218971621674
 30
0.0
 11
-14190.153204694136
 21
-8683.990935235459
 31
0.0
  0
LINE
  5
1DC
100
AcDbEntity
  8
Frei
  6
CONTINUOUS
 62
           3
100
AcDbLine
 10
-14172.752811941478
 20
-8684.579435068346
 30
0.0
 11
-14172.195144480567
 21
-8685.218971621674
 31
0.0
  0
LINE
  5
1DD
100
AcDbEntity
  8
Frei
  6
CONTINUOUS
 62
           3
100
AcDbLine
 10
-14172.113275388154
 20
-8684.021767607435
 30
0.0
 11
-14172.752811941478
 21
-8684.579435068346
 31
0.0
  0
LINE
  5
1DE
100
AcDbEntity
  8
Frei
  6
CONTINUOUS
 62
           3
100
AcDbLine
 10
-14190.071335601722
 20
-8682.79373122122
 30
0.0
 11
-14172.113275388154
 21
-8684.021767607435
 31
0.0
  0
LINE
  5
1DF
100
AcDbEntity
  8
Frei
  6
CONTINUOUS
 62
           3
100
AcDbLine
 10
-14189.513668140809
 20
-8683.433267774544
 30
0.0
 11
-14190.071335601722
 21
-8682.79373122122
 31
0.0
  0
LINE
  5
1E0
100
AcDbEntity
  8
Frei
  6
CONTINUOUS
 62
           3
100
AcDbLine
 10
-14189.377219653452
 20
-8681.437927750816
 30
0.0
 11
-14172.616363454121
 21
-8682.584095044618
 31
0.0
  0
LINE
  5
1E1
100
AcDbEntity
  8
Frei
  6
CONTINUOUS
 62
           3
100
AcDbLine
 10
-14189.377219653452
 20
-8681.437927750816
 30
0.0
 11
-14190.016756206778
 21
-8681.995595211727
 31
0.0
  0
LINE
  5
1E2
100
AcDbEntity
  8
Frei
  6
CONTINUOUS
 62
           3
100
AcDbLine
 10
-14189.934887114365
 20
-8680.798391197492
 30
0.0
 11
-14189.377219653452
 21
-8681.437927750816
 31
0.0
  0
LINE
  5
1E3
100
AcDbEntity
  8
Frei
  6
CONTINUOUS
 62
           3
100
AcDbLine
 10
-14171.976826900796
 20
-8682.026427583707
 30
0.0
 11
-14189.934887114365
 21
-8680.798391197492
 31
0.0
  0
LINE
  5
1E4
100
AcDbEntity
  8
Frei
  6
CONTINUOUS
 62
           3
100
AcDbLine
 10
-14172.616363454121
 20
-8682.584095044618
 30
0.0
 11
-14171.976826900796
 21
-8682.026427583707
 31
0.0
  0
LINE
  5
1E5
100
AcDbEntity
  8
Frei
  6
CONTINUOUS
 62
           3
100
AcDbLine
 10
-14172.05869599321
 20
-8683.223631597943
 30
0.0
 11
-14172.616363454121
 21
-8682.584095044618
 31
0.0
  0
LINE
  5
1E6
100
AcDbEntity
  8
Frei
  6
CONTINUOUS
 62
           3
100
AcDbLine
 10
-14190.016756206778
 20
-8681.995595211727
 30
0.0
 11
-14172.05869599321
 21
-8683.223631597943
 31
0.0
  0
LINE
  5
1E7
100
AcDbEntity
  8
Frei
  6
CONTINUOUS
 62
           3
100
AcDbLine
 10
-13999.461783940584
 20
-8695.02642575436
 30
0.0
 11
-13981.503723727015
 21
-8696.25446214058
 31
0.0
  0
LINE
  5
1E8
100
AcDbEntity
  8
Frei
  6
CONTINUOUS
 62
           3
100
AcDbLine
 10
-13998.822247387259
 20
-8694.468758293449
 30
0.0
 11
-13999.461783940584
 21
-8695.02642575436
 31
0.0
  0
LINE
  5
1E9
100
AcDbEntity
  8
Frei
  6
CONTINUOUS
 62
           3
100
AcDbLine
 10
-13999.37991484817
 20
-8693.829221740125
 30
0.0
 11
-13998.822247387259
 21
-8694.468758293449
 31
0.0
  0
LINE
  5
1EA
100
AcDbEntity
  8
Frei
  6
CONTINUOUS
 62
           3
100
AcDbLine
 10
-13981.421854634602
 20
-8695.057258126341
 30
0.0
 11
-13999.37991484817
 21
-8693.829221740125
 31
0.0
  0
LINE
  5
1EB
100
AcDbEntity
  8
Frei
  6
CONTINUOUS
 62
           3
100
AcDbLine
 10
-13982.061391187928
 20
-8695.614925587252
 30
0.0
 11
-13981.421854634602
 21
-8695.057258126341
 31
0.0
  0
LINE
  5
1EC
100
AcDbEntity
  8
Frei
  6
CONTINUOUS
 62
           3
100
AcDbLine
 10
-13981.503723727015
 20
-8696.25446214058
 30
0.0
 11
-13982.061391187928
 21
-8695.614925587252
 31
0.0
  0
LINE
  5
1ED
100
AcDbEntity
  8
Frei
  6
CONTINUOUS
 62
           3
100
AcDbLine
 10
-13998.822247387259
 20
-8694.468758293449
 30
0.0
 11
-13982.061391187928
 21
-8695.614925587252
 31
0.0
  0
LINE
  5
1EE
100
AcDbEntity
  8
Frei
  6
CONTINUOUS
 62
           3
100
AcDbLine
 10
-13981.558303121958
 20
-8697.052598150069
 30
0.0
 11
-13982.197839675286
 21
-8697.61026561098
 31
0.0
  0
LINE
  5
1EF
100
AcDbEntity
  8
Frei
  6
CONTINUOUS
 62
           3
100
AcDbLine
 10
-13999.516363335526
 20
-8695.824561763853
 30
0.0
 11
-13981.558303121958
 21
-8697.052598150069
 31
0.0
  0
LINE
  5
1F0
100
AcDbEntity
  8
Frei
  6
CONTINUOUS
 62
           3
100
AcDbLine
 10
-13998.958695874617
 20
-8696.464098317178
 30
0.0
 11
-13999.516363335526
 21
-8695.824561763853
 31
0.0
  0
LINE
  5
1F1
100
AcDbEntity
  8
Frei
  6
CONTINUOUS
 62
           3
100
AcDbLine
 10
-13999.598232427941
 20
-8697.021765778092
 30
0.0
 11
-13998.958695874617
 21
-8696.464098317178
 31
0.0
  0
LINE
  5
1F2
100
AcDbEntity
  8
Frei
  6
CONTINUOUS
 62
           3
100
AcDbLine
 10
-13981.640172214373
 20
-8698.249802164308
 30
0.0
 11
-13999.598232427941
 21
-8697.021765778092
 31
0.0
  0
LINE
  5
1F3
100
AcDbEntity
  8
Frei
  6
CONTINUOUS
 62
           3
100
AcDbLine
 10
-13982.197839675286
 20
-8697.61026561098
 30
0.0
 11
-13981.640172214373
 21
-8698.249802164308
 31
0.0
  0
LINE
  5
1F4
100
AcDbEntity
  8
Frei
  6
CONTINUOUS
 62
           3
100
AcDbLine
 10
-13982.197839675286
 20
-8697.61026561098
 30
0.0
 11
-13998.958695874617
 21
-8696.464098317178
 31
0.0
  0
LINE
  5
1F5
100
AcDbEntity
  8
Frei
  6
CONTINUOUS
 62
           3
100
AcDbLine
 10
-13981.694751609315
 20
-8699.047938173801
 30
0.0
 11
-13982.334288162643
 21
-8699.605605634712
 31
0.0
  0
LINE
  5
1F6
100
AcDbEntity
  8
Frei
  6
CONTINUOUS
 62
           3
100
AcDbLine
 10
-13999.652811822883
 20
-8697.819901787581
 30
0.0
 11
-13981.694751609315
 21
-8699.047938173801
 31
0.0
  0
LINE
  5
1F7
100
AcDbEntity
  8
Frei
  6
CONTINUOUS
 62
           3
100
AcDbLine
 10
-13999.095144361974
 20
-8698.459438340909
 30
0.0
 11
-13999.652811822883
 21
-8697.819901787581
 31
0.0
  0
LINE
  5
1F8
100
AcDbEntity
  8
Frei
  6
CONTINUOUS
 62
           3
100
AcDbLine
 10
-13999.734680915299
 20
-8699.01710580182
 30
0.0
 11
-13999.095144361974
 21
-8698.459438340909
 31
0.0
  0
LINE
  5
1F9
100
AcDbEntity
  8
Frei
  6
CONTINUOUS
 62
           3
100
AcDbLine
 10
-13981.77662070173
 20
-8700.245142188036
 30
0.0
 11
-13999.734680915299
 21
-8699.01710580182
 31
0.0
  0
LINE
  5
1FA
100
AcDbEntity
  8
Frei
  6
CONTINUOUS
 62
           3
100
AcDbLine
 10
-13982.334288162643
 20
-8699.605605634712
 30
0.0
 11
-13981.77662070173
 21
-8700.245142188036
 31
0.0
  0
LINE
  5
1FB
100
AcDbEntity
  8
Frei
  6
CONTINUOUS
 62
           3
100
AcDbLine
 10
-13981.831200096673
 20
-8701.043278197529
 30
0.0
 11
-13982.470736650001
 21
-8701.60094565844
 31
0.0
  0
LINE
  5
1FC
100
AcDbEntity
  8
Frei
  6
CONTINUOUS
 62
           3
100
AcDbLine
 10
-13987.909922955032
 20
-8700.627593387311
 30
0.0
 11
-13981.831200096673
 21
-8701.043278197529
 31
0.0
  0
LINE
  5
1FD
100
AcDbEntity
  8
Frei
  6
CONTINUOUS
 62
           3
100
AcDbLine
 10
-13999.231592849332
 20
-8700.454778364638
 30
0.0
 11
-13999.789260310241
 21
-8699.815241811313
 31
0.0
  0
LINE
  5
1FE
100
AcDbEntity
  8
Frei
  6
CONTINUOUS
 62
           3
100
AcDbLine
 10
-13999.871129402656
 20
-8701.012445825549
 30
0.0
 11
-13999.231592849332
 21
-8700.454778364638
 31
0.0
  0
LINE
  5
1FF
100
AcDbEntity
  8
Frei
  6
CONTINUOUS
 62
           3
100
AcDbLine
 10
-13993.792406544299
 20
-8701.42813063577
 30
0.0
 11
-13999.871129402656
 21
-8701.012445825549
 31
0.0
  0
LINE
  5
200
100
AcDbEntity
  8
Frei
  6
CONTINUOUS
 62
           3
100
AcDbLine
 10
-13982.470736650001
 20
-8701.60094565844
 30
0.0
 11
-13981.913069189088
 21
-8702.240482211768
 31
0.0
  0
LINE
  5
201
100
AcDbEntity
  8
Frei
  6
CONTINUOUS
 62
           3
100
AcDbLine
 10
-13981.96764858403
 20
-8703.038618221261
 30
0.0
 11
-13982.607185137358
 21
-8703.596285682172
 31
0.0
  0
LINE
  5
202
100
AcDbEntity
  8
Frei
  6
CONTINUOUS
 62
           3
100
AcDbLine
 10
-13987.301894018761
 20
-8702.673843439967
 30
0.0
 11
-13981.96764858403
 21
-8703.038618221261
 31
0.0
  0
LINE
  5
203
100
AcDbEntity
  8
Frei
  6
CONTINUOUS
 62
           3
100
AcDbLine
 10
-13999.368041336689
 20
-8702.450118388369
 30
0.0
 11
-13999.925708797598
 21
-8701.810581835041
 31
0.0
  0
LINE
  5
204
100
AcDbEntity
  8
Frei
  6
CONTINUOUS
 62
           3
100
AcDbLine
 10
-13988.549459508358
 20
-8701.185260848222
 30
0.0
 11
-13982.470736650001
 21
-8701.60094565844
 31
0.0
  0
LINE
  5
205
100
AcDbEntity
  8
Frei
  6
CONTINUOUS
 62
           3
100
AcDbLine
 10
-13999.095144361974
 20
-8698.459438340909
 30
0.0
 11
-13982.334288162643
 21
-8699.605605634712
 31
0.0
  0
LINE
  5
206
100
AcDbEntity
  8
Frei
  6
CONTINUOUS
 62
           3
100
AcDbLine
 10
-13988.549459508358
 20
-8701.185260848222
 30
0.0
 11
-13987.991792047447
 21
-8701.824797401547
 31
0.0
  0
LINE
  5
207
100
AcDbEntity
  8
Frei
  6
CONTINUOUS
 62
           3
100
AcDbLine
 10
-13981.913069189088
 20
-8702.240482211768
 30
0.0
 11
-13987.991792047447
 21
-8701.824797401547
 31
0.0
  0
LINE
  5
208
100
AcDbEntity
  8
Frei
  6
CONTINUOUS
 62
           3
100
AcDbLine
 10
-13987.909922955032
 20
-8700.627593387311
 30
0.0
 11
-13988.549459508358
 21
-8701.185260848222
 31
0.0
  0
LINE
  5
209
100
AcDbEntity
  8
Frei
  6
CONTINUOUS
 62
           3
100
AcDbLine
 10
-13987.941430572087
 20
-8703.231510900878
 30
0.0
 11
-13987.301894018761
 21
-8702.673843439967
 31
0.0
  0
LINE
  5
20A
100
AcDbEntity
  8
Frei
  6
CONTINUOUS
 62
           3
100
AcDbLine
 10
-13994.591463362871
 20
-8702.175356616335
 30
0.0
 11
-13994.03379590196
 21
-8702.81489316966
 31
0.0
  0
LINE
  5
20B
100
AcDbEntity
  8
Frei
  6
CONTINUOUS
 62
           3
100
AcDbLine
 10
-13999.925708797598
 20
-8701.810581835041
 30
0.0
 11
-13994.591463362871
 21
-8702.175356616335
 31
0.0
  0
LINE
  5
20C
100
AcDbEntity
  8
Frei
  6
CONTINUOUS
 62
           3
100
AcDbLine
 10
-13993.152869990972
 20
-8700.870463174859
 30
0.0
 11
-13993.792406544299
 21
-8701.42813063577
 31
0.0
  0
LINE
  5
20D
100
AcDbEntity
  8
Frei
  6
CONTINUOUS
 62
           3
100
AcDbLine
 10
-13999.231592849332
 20
-8700.454778364638
 30
0.0
 11
-13993.152869990972
 21
-8700.870463174859
 31
0.0
  0
LINE
  5
20E
100
AcDbEntity
  8
Frei
  6
CONTINUOUS
 62
           3
100
AcDbLine
 10
-13993.710537451883
 20
-8700.230926621534
 30
0.0
 11
-13993.152869990972
 21
-8700.870463174859
 31
0.0
  0
LINE
  5
20F
100
AcDbEntity
  8
Frei
  6
CONTINUOUS
 62
           3
100
AcDbLine
 10
-13999.789260310241
 20
-8699.815241811313
 30
0.0
 11
-13993.710537451883
 21
-8700.230926621534
 31
0.0
  0
LINE
  5
210
100
AcDbEntity
  8
Frei
  6
CONTINUOUS
 62
           3
100
AcDbLine
 10
-13981.913069189088
 20
-8702.240482211768
 30
0.0
 11
-13981.831200096673
 21
-8701.043278197529
 31
0.0
  0
LINE
  5
211
100
AcDbEntity
  8
Frei
  6
CONTINUOUS
 62
           3
100
AcDbLine
 10
-13981.694751609315
 20
-8699.047938173801
 30
0.0
 11
-13981.77662070173
 21
-8700.245142188036
 31
0.0
  0
LINE
  5
212
100
AcDbEntity
  8
Frei
  6
CONTINUOUS
 62
           3
100
AcDbLine
 10
-13981.558303121958
 20
-8697.052598150069
 30
0.0
 11
-13981.640172214373
 21
-8698.249802164308
 31
0.0
  0
LINE
  5
213
100
AcDbEntity
  8
Frei
  6
CONTINUOUS
 62
           3
100
AcDbLine
 10
-13981.421854634602
 20
-8695.057258126341
 30
0.0
 11
-13981.503723727015
 21
-8696.25446214058
 31
0.0
  0
LINE
  5
214
100
AcDbEntity
  8
Frei
  6
CONTINUOUS
 62
           3
100
AcDbLine
 10
-13982.008583130239
 20
-8703.637220228378
 30
0.0
 11
-13981.96764858403
 21
-8703.038618221261
 31
0.0
  0
LINE
  5
215
100
AcDbEntity
  8
Frei
  6
CONTINUOUS
 62
           3
100
AcDbLine
 10
-13999.925708797598
 20
-8701.810581835041
 30
0.0
 11
-13999.966643343807
 21
-8702.409183842159
 31
0.0
  0
LINE
  5
216
100
AcDbEntity
  8
Frei
  6
CONTINUOUS
 62
           3
100
AcDbLine
 10
-13999.789260310241
 20
-8699.815241811313
 30
0.0
 11
-13999.871129402656
 21
-8701.012445825549
 31
0.0
  0
LINE
  5
217
100
AcDbEntity
  8
Frei
  6
CONTINUOUS
 62
           3
100
AcDbLine
 10
-13999.652811822883
 20
-8697.819901787581
 30
0.0
 11
-13999.734680915299
 21
-8699.01710580182
 31
0.0
  0
LINE
  5
218
100
AcDbEntity
  8
Frei
  6
CONTINUOUS
 62
           3
100
AcDbLine
 10
-13999.516363335526
 20
-8695.824561763853
 30
0.0
 11
-13999.598232427941
 21
-8697.021765778092
 31
0.0
  0
LINE
  5
219
100
AcDbEntity
  8
Frei
  6
CONTINUOUS
 62
           3
100
AcDbLine
 10
-13999.37991484817
 20
-8693.829221740125
 30
0.0
 11
-13999.461783940584
 21
-8695.02642575436
 31
0.0
  0
LINE
  5
21A
100
AcDbEntity
  8
Frei
  6
CONTINUOUS
 62
           3
100
AcDbLine
 10
-14000.471502747028
 20
-8709.791941929962
 30
0.0
 11
-14000.553371839444
 21
-8710.989145944201
 31
0.0
  0
LINE
  5
21B
100
AcDbEntity
  8
Frei
  6
CONTINUOUS
 62
           3
100
AcDbLine
 10
-14000.335054259671
 20
-8707.796601906233
 30
0.0
 11
-14000.416923352086
 21
-8708.993805920469
 31
0.0
  0
LINE
  5
21C
100
AcDbEntity
  8
Frei
  6
CONTINUOUS
 62
           3
100
AcDbLine
 10
-14000.198605772313
 20
-8705.801261882501
 30
0.0
 11
-14000.280474864729
 21
-8706.998465896741
 31
0.0
  0
LINE
  5
21D
100
AcDbEntity
  8
Frei
  6
CONTINUOUS
 62
           3
100
AcDbLine
 10
-14000.062157284956
 20
-8703.805921858773
 30
0.0
 11
-14000.144026377371
 21
-8705.003125873009
 31
0.0
  0
LINE
  5
21E
100
AcDbEntity
  8
Frei
  6
CONTINUOUS
 62
           3
100
AcDbLine
 10
-13999.966643343807
 20
-8702.409183842159
 30
0.0
 11
-14000.007577890014
 21
-8703.007785849281
 31
0.0
  0
LINE
  5
21F
100
AcDbEntity
  8
Frei
  6
CONTINUOUS
 62
           3
100
AcDbLine
 10
-13982.049517676445
 20
-8704.235822235496
 30
0.0
 11
-13982.008583130239
 21
-8703.637220228378
 31
0.0
  0
LINE
  5
220
100
AcDbEntity
  8
Frei
  6
CONTINUOUS
 62
           3
100
AcDbLine
 10
-13982.51344253346
 20
-8711.019978316177
 30
0.0
 11
-13982.595311625875
 21
-8712.217182330416
 31
0.0
  0
LINE
  5
221
100
AcDbEntity
  8
Frei
  6
CONTINUOUS
 62
           3
100
AcDbLine
 10
-13982.376994046102
 20
-8709.024638292449
 30
0.0
 11
-13982.458863138518
 21
-8710.221842306688
 31
0.0
  0
LINE
  5
222
100
AcDbEntity
  8
Frei
  6
CONTINUOUS
 62
           3
100
AcDbLine
 10
-13982.240545558745
 20
-8707.029298268721
 30
0.0
 11
-13982.32241465116
 21
-8708.226502282956
 31
0.0
  0
LINE
  5
223
100
AcDbEntity
  8
Frei
  6
CONTINUOUS
 62
           3
100
AcDbLine
 10
-13982.185966163803
 20
-8706.231162259228
 30
0.0
 11
-13982.104097071388
 21
-8705.033958244989
 31
0.0
  0
LINE
  5
224
100
AcDbEntity
  8
Frei
  6
CONTINUOUS
 62
           3
100
AcDbLine
 10
-13994.065303519013
 20
-8705.41881068323
 30
0.0
 11
-14000.144026377371
 21
-8705.003125873009
 31
0.0
  0
LINE
  5
225
100
AcDbEntity
  8
Frei
  6
CONTINUOUS
 62
           3
100
AcDbLine
 10
-13993.425766965687
 20
-8704.861143222319
 30
0.0
 11
-13994.065303519013
 21
-8705.41881068323
 31
0.0
  0
LINE
  5
226
100
AcDbEntity
  8
Frei
  6
CONTINUOUS
 62
           3
100
AcDbLine
 10
-13993.425766965687
 20
-8704.861143222319
 30
0.0
 11
-13999.504489824047
 21
-8704.445458412098
 31
0.0
  0
LINE
  5
227
100
AcDbEntity
  8
Frei
  6
CONTINUOUS
 62
           3
100
AcDbLine
 10
-13993.983434426598
 20
-8704.221606668991
 30
0.0
 11
-13993.425766965687
 21
-8704.861143222319
 31
0.0
  0
LINE
  5
228
100
AcDbEntity
  8
Frei
  6
CONTINUOUS
 62
           3
100
AcDbLine
 10
-13994.673332455286
 20
-8703.372560630574
 30
0.0
 11
-14000.007577890014
 21
-8703.007785849281
 31
0.0
  0
LINE
  5
229
100
AcDbEntity
  8
Frei
  6
CONTINUOUS
 62
           3
100
AcDbLine
 10
-13994.03379590196
 20
-8702.81489316966
 30
0.0
 11
-13994.673332455286
 21
-8703.372560630574
 31
0.0
  0
LINE
  5
22A
100
AcDbEntity
  8
Frei
  6
CONTINUOUS
 62
           3
100
AcDbLine
 10
-13987.941430572087
 20
-8703.231510900878
 30
0.0
 11
-13982.607185137358
 21
-8703.596285682172
 31
0.0
  0
LINE
  5
22B
100
AcDbEntity
  8
Frei
  6
CONTINUOUS
 62
           3
100
AcDbLine
 10
-13987.383763111176
 20
-8703.871047454202
 30
0.0
 11
-13987.941430572087
 21
-8703.231510900878
 31
0.0
  0
LINE
  5
22C
100
AcDbEntity
  8
Frei
  6
CONTINUOUS
 62
           3
100
AcDbLine
 10
-13988.822356483073
 20
-8705.175940895682
 30
0.0
 11
-13988.264689022162
 21
-8705.815477449007
 31
0.0
  0
LINE
  5
22D
100
AcDbEntity
  8
Frei
  6
CONTINUOUS
 62
           3
100
AcDbLine
 10
-13988.182819929747
 20
-8704.618273434768
 30
0.0
 11
-13982.104097071388
 21
-8705.033958244989
 31
0.0
  0
LINE
  5
22E
100
AcDbEntity
  8
Frei
  6
CONTINUOUS
 62
           3
100
AcDbLine
 10
-13988.182819929747
 20
-8704.618273434768
 30
0.0
 11
-13988.822356483073
 21
-8705.175940895682
 31
0.0
  0
LINE
  5
22F
100
AcDbEntity
  8
Frei
  6
CONTINUOUS
 62
           3
100
AcDbLine
 10
-13982.880082112073
 20
-8707.586965729632
 30
0.0
 11
-13999.640938311404
 21
-8706.44079843583
 31
0.0
  0
LINE
  5
230
100
AcDbEntity
  8
Frei
  6
CONTINUOUS
 62
           3
100
AcDbLine
 10
-13982.743633624716
 20
-8705.5916257059
 30
0.0
 11
-13988.822356483073
 21
-8705.175940895682
 31
0.0
  0
LINE
  5
231
100
AcDbEntity
  8
Frei
  6
CONTINUOUS
 62
           3
100
AcDbLine
 10
-13999.368041336689
 20
-8702.450118388369
 30
0.0
 11
-13994.03379590196
 21
-8702.81489316966
 31
0.0
  0
LINE
  5
232
100
AcDbEntity
  8
Frei
  6
CONTINUOUS
 62
           3
100
AcDbLine
 10
-14000.007577890014
 20
-8703.007785849281
 30
0.0
 11
-13999.368041336689
 21
-8702.450118388369
 31
0.0
  0
LINE
  5
233
100
AcDbEntity
  8
Frei
  6
CONTINUOUS
 62
           3
100
AcDbLine
 10
-13982.049517676445
 20
-8704.235822235496
 30
0.0
 11
-13987.383763111176
 21
-8703.871047454202
 31
0.0
  0
LINE
  5
234
100
AcDbEntity
  8
Frei
  6
CONTINUOUS
 62
           3
100
AcDbLine
 10
-13982.607185137358
 20
-8703.596285682172
 30
0.0
 11
-13982.049517676445
 21
-8704.235822235496
 31
0.0
  0
LINE
  5
235
100
AcDbEntity
  8
Frei
  6
CONTINUOUS
 62
           3
100
AcDbLine
 10
-13982.104097071388
 20
-8705.033958244989
 30
0.0
 11
-13982.743633624716
 21
-8705.5916257059
 31
0.0
  0
LINE
  5
236
100
AcDbEntity
  8
Frei
  6
CONTINUOUS
 62
           3
100
AcDbLine
 10
-14000.062157284956
 20
-8703.805921858773
 30
0.0
 11
-13993.983434426598
 21
-8704.221606668991
 31
0.0
  0
LINE
  5
237
100
AcDbEntity
  8
Frei
  6
CONTINUOUS
 62
           3
100
AcDbLine
 10
-13999.504489824047
 20
-8704.445458412098
 30
0.0
 11
-14000.062157284956
 21
-8703.805921858773
 31
0.0
  0
LINE
  5
238
100
AcDbEntity
  8
Frei
  6
CONTINUOUS
 62
           3
100
AcDbLine
 10
-14000.144026377371
 20
-8705.003125873009
 30
0.0
 11
-13999.504489824047
 21
-8704.445458412098
 31
0.0
  0
LINE
  5
239
100
AcDbEntity
  8
Frei
  6
CONTINUOUS
 62
           3
100
AcDbLine
 10
-13982.185966163803
 20
-8706.231162259228
 30
0.0
 11
-13988.264689022162
 21
-8705.815477449007
 31
0.0
  0
LINE
  5
23A
100
AcDbEntity
  8
Frei
  6
CONTINUOUS
 62
           3
100
AcDbLine
 10
-13982.743633624716
 20
-8705.5916257059
 30
0.0
 11
-13982.185966163803
 21
-8706.231162259228
 31
0.0
  0
LINE
  5
23B
100
AcDbEntity
  8
Frei
  6
CONTINUOUS
 62
           3
100
AcDbLine
 10
-13982.240545558745
 20
-8707.029298268721
 30
0.0
 11
-13982.880082112073
 21
-8707.586965729632
 31
0.0
  0
LINE
  5
23C
100
AcDbEntity
  8
Frei
  6
CONTINUOUS
 62
           3
100
AcDbLine
 10
-14000.198605772313
 20
-8705.801261882501
 30
0.0
 11
-13982.240545558745
 21
-8707.029298268721
 31
0.0
  0
LINE
  5
23D
100
AcDbEntity
  8
Frei
  6
CONTINUOUS
 62
           3
100
AcDbLine
 10
-13999.640938311404
 20
-8706.44079843583
 30
0.0
 11
-14000.198605772313
 21
-8705.801261882501
 31
0.0
  0
LINE
  5
23E
100
AcDbEntity
  8
Frei
  6
CONTINUOUS
 62
           3
100
AcDbLine
 10
-14000.280474864729
 20
-8706.998465896741
 30
0.0
 11
-13999.640938311404
 21
-8706.44079843583
 31
0.0
  0
LINE
  5
23F
100
AcDbEntity
  8
Frei
  6
CONTINUOUS
 62
           3
100
AcDbLine
 10
-13982.32241465116
 20
-8708.226502282956
 30
0.0
 11
-14000.280474864729
 21
-8706.998465896741
 31
0.0
  0
LINE
  5
240
100
AcDbEntity
  8
Frei
  6
CONTINUOUS
 62
           3
100
AcDbLine
 10
-13982.880082112073
 20
-8707.586965729632
 30
0.0
 11
-13982.32241465116
 21
-8708.226502282956
 31
0.0
  0
LINE
  5
241
100
AcDbEntity
  8
Frei
  6
CONTINUOUS
 62
           3
100
AcDbLine
 10
-13999.777386798762
 20
-8708.436138459558
 30
0.0
 11
-13983.016530599431
 21
-8709.58230575336
 31
0.0
  0
LINE
  5
242
100
AcDbEntity
  8
Frei
  6
CONTINUOUS
 62
           3
100
AcDbLine
 10
-13982.376994046102
 20
-8709.024638292449
 30
0.0
 11
-13983.016530599431
 21
-8709.58230575336
 31
0.0
  0
LINE
  5
243
100
AcDbEntity
  8
Frei
  6
CONTINUOUS
 62
           3
100
AcDbLine
 10
-14000.335054259671
 20
-8707.796601906233
 30
0.0
 11
-13982.376994046102
 21
-8709.024638292449
 31
0.0
  0
LINE
  5
244
100
AcDbEntity
  8
Frei
  6
CONTINUOUS
 62
           3
100
AcDbLine
 10
-13999.777386798762
 20
-8708.436138459558
 30
0.0
 11
-14000.335054259671
 21
-8707.796601906233
 31
0.0
  0
LINE
  5
245
100
AcDbEntity
  8
Frei
  6
CONTINUOUS
 62
           3
100
AcDbLine
 10
-14000.416923352086
 20
-8708.993805920469
 30
0.0
 11
-13999.777386798762
 21
-8708.436138459558
 31
0.0
  0
LINE
  5
246
100
AcDbEntity
  8
Frei
  6
CONTINUOUS
 62
           3
100
AcDbLine
 10
-13982.458863138518
 20
-8710.221842306688
 30
0.0
 11
-14000.416923352086
 21
-8708.993805920469
 31
0.0
  0
LINE
  5
247
100
AcDbEntity
  8
Frei
  6
CONTINUOUS
 62
           3
100
AcDbLine
 10
-13983.016530599431
 20
-8709.58230575336
 30
0.0
 11
-13982.458863138518
 21
-8710.221842306688
 31
0.0
  0
LINE
  5
248
100
AcDbEntity
  8
Frei
  6
CONTINUOUS
 62
           3
100
AcDbLine
 10
-13983.152979086788
 20
-8711.577645777088
 30
0.0
 11
-13999.913835286119
 21
-8710.431478483286
 31
0.0
  0
LINE
  5
249
100
AcDbEntity
  8
Frei
  6
CONTINUOUS
 62
           3
100
AcDbLine
 10
-13983.152979086788
 20
-8711.577645777088
 30
0.0
 11
-13982.51344253346
 21
-8711.019978316177
 31
0.0
  0
LINE
  5
24A
100
AcDbEntity
  8
Frei
  6
CONTINUOUS
 62
           3
100
AcDbLine
 10
-13982.595311625875
 20
-8712.217182330416
 30
0.0
 11
-13983.152979086788
 21
-8711.577645777088
 31
0.0
  0
LINE
  5
24B
100
AcDbEntity
  8
Frei
  6
CONTINUOUS
 62
           3
100
AcDbLine
 10
-14000.553371839444
 20
-8710.989145944201
 30
0.0
 11
-13982.595311625875
 21
-8712.217182330416
 31
0.0
  0
LINE
  5
24C
100
AcDbEntity
  8
Frei
  6
CONTINUOUS
 62
           3
100
AcDbLine
 10
-13999.913835286119
 20
-8710.431478483286
 30
0.0
 11
-14000.553371839444
 21
-8710.989145944201
 31
0.0
  0
LINE
  5
24D
100
AcDbEntity
  8
Frei
  6
CONTINUOUS
 62
           3
100
AcDbLine
 10
-14000.471502747028
 20
-8709.791941929962
 30
0.0
 11
-13999.913835286119
 21
-8710.431478483286
 31
0.0
  0
LINE
  5
24E
100
AcDbEntity
  8
Frei
  6
CONTINUOUS
 62
           3
100
AcDbLine
 10
-13982.51344253346
 20
-8711.019978316177
 30
0.0
 11
-14000.471502747028
 21
-8709.791941929962
 31
0.0
  0
LINE
  5
24F
100
AcDbEntity
  8
Frei
  6
CONTINUOUS
 62
           7
100
AcDbLine
 10
-13956.652510553677
 20
-8717.518263923204
 30
0.0
 11
-13955.987621819237
 21
-8718.876190483778
 31
0.0
  0
LINE
  5
250
100
AcDbEntity
  8
Frei
  6
CONTINUOUS
 62
           7
100
AcDbLine
 10
-13956.652510553677
 20
-8717.518263923204
 30
0.0
 11
-13960.886638980426
 21
-8717.228719077597
 31
0.0
  0
LINE
  5
251
100
AcDbEntity
  8
Frei
  6
CONTINUOUS
 62
           7
100
AcDbLine
 10
-13955.719623124834
 20
-8714.957139920418
 30
0.0
 11
-13956.652510553677
 21
-8717.518263923204
 31
0.0
  0
LINE
  5
252
100
AcDbEntity
  8
Frei
  6
CONTINUOUS
 62
           7
100
AcDbLine
 10
-13956.022281986427
 20
-8708.302183124604
 30
0.0
 11
-13955.44672615012
 21
-8710.966459872961
 31
0.0
  0
LINE
  5
253
100
AcDbEntity
  8
Frei
  6
CONTINUOUS
 62
           7
100
AcDbLine
 10
-13956.022281986427
 20
-8708.302183124604
 30
0.0
 11
-13960.256410413176
 21
-8708.012638278997
 31
0.0
  0
LINE
  5
254
100
AcDbEntity
  8
Frei
  6
CONTINUOUS
 62
           7
100
AcDbLine
 10
-13955.178727455719
 20
-8707.047409309602
 30
0.0
 11
-13956.022281986427
 21
-8708.302183124604
 31
0.0
  0
LINE
  5
255
100
AcDbEntity
  8
Frei
  6
CONTINUOUS
 62
           7
100
AcDbLine
 10
-13956.124070306594
 20
-8720.871530507506
 30
0.0
 11
-13956.967624837303
 21
-8722.126304322508
 31
0.0
  0
LINE
  5
256
100
AcDbEntity
  8
Frei
  6
CONTINUOUS
 62
           7
100
AcDbLine
 10
-13955.707167702802
 20
-8703.694142725304
 30
0.0
 11
-13959.941296129551
 21
-8703.404597879693
 31
0.0
  0
LINE
  5
257
100
AcDbEntity
  8
Frei
  6
CONTINUOUS
 62
           7
100
AcDbLine
 10
-13955.707167702802
 20
-8703.694142725304
 30
0.0
 11
-13955.042278968362
 21
-8705.052069285874
 31
0.0
  0
LINE
  5
258
100
AcDbEntity
  8
Frei
  6
CONTINUOUS
 62
           7
100
AcDbLine
 10
-13961.112420365918
 20
-8720.530409289113
 30
0.0
 11
-13961.201753264053
 21
-8721.836759476897
 31
0.0
  0
LINE
  5
259
100
AcDbEntity
  8
Frei
  6
CONTINUOUS
 62
           7
100
AcDbLine
 10
-13956.124070306594
 20
-8720.871530507506
 30
0.0
 11
-13955.987621819237
 21
-8718.876190483778
 31
0.0
  0
LINE
  5
25A
100
AcDbEntity
  8
Frei
  6
CONTINUOUS
 62
           7
100
AcDbLine
 10
-13956.124070306594
 20
-8720.871530507506
 30
0.0
 11
-13961.112420365918
 21
-8720.530409289113
 31
0.0
  0
LINE
  5
25B
100
AcDbEntity
  8
Frei
  6
CONTINUOUS
 62
           7
100
AcDbLine
 10
-13960.975971878561
 20
-8718.535069265385
 30
0.0
 11
-13961.112420365918
 21
-8720.530409289113
 31
0.0
  0
LINE
  5
25C
100
AcDbEntity
  8
Frei
  6
CONTINUOUS
 62
           7
100
AcDbLine
 10
-13955.987621819237
 20
-8718.876190483778
 30
0.0
 11
-13955.719623124834
 21
-8714.957139920418
 31
0.0
  0
LINE
  5
25D
100
AcDbEntity
  8
Frei
  6
CONTINUOUS
 62
           7
100
AcDbLine
 10
-13955.987621819237
 20
-8718.876190483778
 30
0.0
 11
-13960.975971878561
 21
-8718.535069265385
 31
0.0
  0
LINE
  5
25E
100
AcDbEntity
  8
Frei
  6
CONTINUOUS
 62
           7
100
AcDbLine
 10
-13960.886638980426
 20
-8717.228719077597
 30
0.0
 11
-13960.975971878561
 21
-8718.535069265385
 31
0.0
  0
LINE
  5
25F
100
AcDbEntity
  8
Frei
  6
CONTINUOUS
 62
           7
100
AcDbLine
 10
-13960.707973184159
 20
-8714.616018702025
 30
0.0
 11
-13960.886638980426
 21
-8717.228719077597
 31
0.0
  0
LINE
  5
260
100
AcDbEntity
  8
Frei
  6
CONTINUOUS
 62
           7
100
AcDbLine
 10
-13955.719623124834
 20
-8714.957139920418
 30
0.0
 11
-13955.44672615012
 21
-8710.966459872961
 31
0.0
  0
LINE
  5
261
100
AcDbEntity
  8
Frei
  6
CONTINUOUS
 62
           7
100
AcDbLine
 10
-13955.719623124834
 20
-8714.957139920418
 30
0.0
 11
-13960.707973184159
 21
-8714.616018702025
 31
0.0
  0
LINE
  5
262
100
AcDbEntity
  8
Frei
  6
CONTINUOUS
 62
           7
100
AcDbLine
 10
-13960.435076209444
 20
-8710.625338654565
 30
0.0
 11
-13960.707973184159
 21
-8714.616018702025
 31
0.0
  0
LINE
  5
263
100
AcDbEntity
  8
Frei
  6
CONTINUOUS
 62
           7
100
AcDbLine
 10
-13955.44672615012
 20
-8710.966459872961
 30
0.0
 11
-13955.178727455719
 21
-8707.047409309602
 31
0.0
  0
LINE
  5
264
100
AcDbEntity
  8
Frei
  6
CONTINUOUS
 62
           7
100
AcDbLine
 10
-13955.44672615012
 20
-8710.966459872961
 30
0.0
 11
-13960.435076209444
 21
-8710.625338654565
 31
0.0
  0
LINE
  5
265
100
AcDbEntity
  8
Frei
  6
CONTINUOUS
 62
           7
100
AcDbLine
 10
-13960.256410413176
 20
-8708.012638278997
 30
0.0
 11
-13960.435076209444
 21
-8710.625338654565
 31
0.0
  0
LINE
  5
266
100
AcDbEntity
  8
Frei
  6
CONTINUOUS
 62
           7
100
AcDbLine
 10
-13960.167077515043
 20
-8706.706288091209
 30
0.0
 11
-13960.256410413176
 21
-8708.012638278997
 31
0.0
  0
LINE
  5
267
100
AcDbEntity
  8
Frei
  6
CONTINUOUS
 62
           7
100
AcDbLine
 10
-13955.178727455719
 20
-8707.047409309602
 30
0.0
 11
-13955.042278968362
 21
-8705.052069285874
 31
0.0
  0
LINE
  5
268
100
AcDbEntity
  8
Frei
  6
CONTINUOUS
 62
           7
100
AcDbLine
 10
-13955.178727455719
 20
-8707.047409309602
 30
0.0
 11
-13960.167077515043
 21
-8706.706288091209
 31
0.0
  0
LINE
  5
269
100
AcDbEntity
  8
Frei
  6
CONTINUOUS
 62
           7
100
AcDbLine
 10
-13960.030629027686
 20
-8704.710948067481
 30
0.0
 11
-13960.167077515043
 21
-8706.706288091209
 31
0.0
  0
LINE
  5
26A
100
AcDbEntity
  8
Frei
  6
CONTINUOUS
 62
           7
100
AcDbLine
 10
-13960.030629027686
 20
-8704.710948067481
 30
0.0
 11
-13955.042278968362
 21
-8705.052069285874
 31
0.0
  0
LINE
  5
26B
100
AcDbEntity
  8
Frei
  6
CONTINUOUS
 62
           7
100
AcDbLine
 10
-13961.201753264053
 20
-8721.836759476897
 30
0.0
 11
-13956.967624837303
 21
-8722.126304322508
 31
0.0
  0
LINE
  5
26C
100
AcDbEntity
  8
Frei
  6
CONTINUOUS
 62
           7
100
AcDbLine
 10
-13959.941296129551
 20
-8703.404597879693
 30
0.0
 11
-13960.030629027686
 21
-8704.710948067481
 31
0.0
  0
LINE
  5
26D
100
AcDbEntity
  8
Frei
  6
CONTINUOUS
 62
           7
100
AcDbLine
 10
-14004.767157629141
 20
-8670.006173756734
 30
0.0
 11
-14005.125334908455
 21
-8675.243941319022
 31
0.0
  0
LINE
  5
26E
100
AcDbEntity
  8
Frei
  6
CONTINUOUS
 62
           7
100
AcDbLine
 10
-14003.748222317097
 20
-8677.092200205305
 30
0.0
 11
-14003.509437464221
 21
-8673.600355163781
 31
0.0
  0
LINE
  5
26F
100
AcDbEntity
  8
Frei
  6
CONTINUOUS
 62
           7
100
AcDbLine
 10
-14004.502449528358
 20
-8677.04062345103
 30
0.0
 11
-14003.748222317097
 21
-8677.092200205305
 31
0.0
  0
LINE
  5
270
100
AcDbEntity
  8
Frei
  6
CONTINUOUS
 62
           7
100
AcDbLine
 10
-14003.509437464221
 20
-8673.600355163781
 30
0.0
 11
-14003.031867758471
 21
-8666.616665080725
 31
0.0
  0
LINE
  5
271
100
AcDbEntity
  8
Frei
  6
CONTINUOUS
 62
           7
100
AcDbLine
 10
-14004.263664675482
 20
-8673.548778409502
 30
0.0
 11
-14003.509437464221
 21
-8673.600355163781
 31
0.0
  0
LINE
  5
272
100
AcDbEntity
  8
Frei
  6
CONTINUOUS
 62
           7
100
AcDbLine
 10
-14003.031867758471
 20
-8666.616665080725
 30
0.0
 11
-14002.793082905595
 21
-8663.124820039197
 31
0.0
  0
LINE
  5
273
100
AcDbEntity
  8
Frei
  6
CONTINUOUS
 62
           7
100
AcDbLine
 10
-14003.786094969731
 20
-8666.56508832645
 30
0.0
 11
-14003.031867758471
 21
-8666.616665080725
 31
0.0
  0
LINE
  5
274
100
AcDbEntity
  8
Frei
  6
CONTINUOUS
 62
           7
100
AcDbLine
 10
-14002.793082905595
 20
-8663.124820039197
 30
0.0
 11
-14002.417849565361
 21
-8657.63763497394
 31
0.0
  0
LINE
  5
275
100
AcDbEntity
  8
Frei
  6
CONTINUOUS
 62
           7
100
AcDbLine
 10
-14003.547310116855
 20
-8663.073243284922
 30
0.0
 11
-14002.793082905595
 21
-8663.124820039197
 31
0.0
  0
LINE
  5
276
100
AcDbEntity
  8
Frei
  6
CONTINUOUS
 62
           7
100
AcDbLine
 10
-13965.969220218198
 20
-8718.265577531092
 30
0.0
 11
-13965.150529294053
 21
-8706.293537388712
 31
0.0
  0
LINE
  5
277
100
AcDbEntity
  8
Frei
  6
CONTINUOUS
 62
           2
100
AcDbLine
 10
-13960.980870158874
 20
-8718.606698749485
 30
0.0
 11
-13965.969220218198
 21
-8718.265577531092
 31
0.0
  0
LINE
  5
278
100
AcDbEntity
  8
Frei
  6
CONTINUOUS
 62
           7
100
AcDbLine
 10
-13965.150529294053
 20
-8706.293537388712
 30
0.0
 11
-13965.082305050375
 21
-8705.295867376848
 31
0.0
  0
LINE
  5
279
100
AcDbEntity
  8
Frei
  6
CONTINUOUS
 62
           2
100
AcDbLine
 10
-13960.162179234729
 20
-8706.634658607105
 30
0.0
 11
-13965.150529294053
 21
-8706.293537388712
 31
0.0
  0
LINE
  5
27A
100
AcDbEntity
  8
Frei
  6
CONTINUOUS
 62
           7
100
AcDbLine
 10
-13966.037444461877
 20
-8719.263247542956
 30
0.0
 11
-13965.969220218198
 21
-8718.265577531092
 31
0.0
  0
LINE
  5
27B
100
AcDbEntity
  8
Frei
  6
CONTINUOUS
 62
           7
100
AcDbLine
 10
-13966.037444461877
 20
-8719.263247542956
 30
0.0
 11
-13961.049094402553
 21
-8719.604368761349
 31
0.0
  0
LINE
  5
27C
100
AcDbEntity
  8
Frei
  6
CONTINUOUS
 62
           7
100
AcDbLine
 10
-13965.082305050375
 20
-8705.295867376848
 30
0.0
 11
-13965.048192928536
 21
-8704.797032370916
 31
0.0
  0
LINE
  5
27D
100
AcDbEntity
  8
Frei
  6
CONTINUOUS
 62
           7
100
AcDbLine
 10
-13965.082305050375
 20
-8705.295867376848
 30
0.0
 11
-13960.093954991051
 21
-8705.636988595241
 31
0.0
  0
LINE
  5
27E
100
AcDbEntity
  8
Frei
  6
CONTINUOUS
 62
           7
100
AcDbLine
 10
-13985.456194951192
 20
-8717.935323931379
 30
0.0
 11
-14004.447739918676
 21
-8716.636614161325
 31
0.0
  0
LINE
  5
27F
100
AcDbEntity
  8
Frei
  6
CONTINUOUS
 62
           7
100
AcDbLine
 10
-13978.145933091613
 20
-8720.43989664254
 30
0.0
 11
-13985.456194951192
 21
-8717.935323931379
 31
0.0
  0
LINE
  5
280
100
AcDbEntity
  8
Frei
  6
CONTINUOUS
 62
           7
100
AcDbLine
 10
-14003.96574186979
 20
-8687.601847451726
 30
0.0
 11
-14004.464576875724
 21
-8687.567735329889
 31
0.0
  0
LINE
  5
281
100
AcDbEntity
  8
Frei
  6
CONTINUOUS
 62
           7
100
AcDbLine
 10
-14003.96574186979
 20
-8687.601847451726
 30
0.0
 11
-14005.841908570954
 21
-8715.037772778011
 31
0.0
  0
LINE
  5
282
100
AcDbEntity
  8
Frei
  6
CONTINUOUS
 62
           7
100
AcDbLine
 10
-13985.456194951192
 20
-8717.935323931379
 30
0.0
 11
-13979.505989622054
 21
-8718.342220253293
 31
0.0
  0
LINE
  5
283
100
AcDbEntity
  8
Frei
  6
CONTINUOUS
 62
           7
100
AcDbLine
 10
-13976.030981537573
 20
-8689.512126274731
 30
0.0
 11
-14003.96574186979
 21
-8687.601847451726
 31
0.0
  0
LINE
  5
284
100
AcDbEntity
  8
Frei
  6
CONTINUOUS
 62
           7
100
AcDbLine
 10
-13976.030981537573
 20
-8689.512126274731
 30
0.0
 11
-13977.907148238737
 21
-8716.948051601015
 31
0.0
  0
LINE
  5
285
100
AcDbEntity
  8
Frei
  6
CONTINUOUS
 62
           7
100
AcDbLine
 10
-13978.145933091613
 20
-8720.43989664254
 30
0.0
 11
-13967.670397967033
 21
-8721.15625120117
 31
0.0
  0
LINE
  5
286
100
AcDbEntity
  8
Frei
  6
CONTINUOUS
 62
           7
100
AcDbLine
 10
-13966.071556583716
 20
-8719.762082548888
 30
0.0
 11
-13966.037444461877
 21
-8719.263247542956
 31
0.0
  0
LINE
  5
287
100
AcDbEntity
  8
Frei
  6
CONTINUOUS
 62
           7
100
AcDbLine
 10
-13976.917896705396
 20
-8702.481836428975
 30
0.0
 11
-13966.442361580815
 21
-8703.198190987601
 31
0.0
  0
LINE
  5
288
100
AcDbEntity
  8
Frei
  6
CONTINUOUS
 62
           7
100
AcDbLine
 10
-14004.464576875724
 20
-8687.567735329889
 30
0.0
 11
-14004.396352632044
 21
-8686.570065318021
 31
0.0
  0
LINE
  5
289
100
AcDbEntity
  8
Frei
  6
CONTINUOUS
 62
           7
100
AcDbLine
 10
-13975.532146531641
 20
-8689.546238396571
 30
0.0
 11
-13976.030981537573
 21
-8689.512126274731
 31
0.0
  0
LINE
  5
28A
100
AcDbEntity
  8
Frei
  6
CONTINUOUS
 62
           7
100
AcDbLine
 10
-13975.463922287961
 20
-8688.548568384704
 30
0.0
 11
-13975.532146531641
 21
-8689.546238396571
 31
0.0
  0
LINE
  5
28B
100
AcDbEntity
  8
Frei
  6
CONTINUOUS
 62
           7
100
AcDbLine
 10
-13975.463922287961
 20
-8688.548568384704
 30
0.0
 11
-14004.396352632044
 21
-8686.570065318021
 31
0.0
  0
LINE
  5
28C
100
AcDbEntity
  8
Frei
  6
CONTINUOUS
 62
           7
100
AcDbLine
 10
-13973.724204074155
 20
-8663.107983082151
 30
0.0
 11
-13973.686276843389
 21
-8662.553358234345
 31
0.0
  0
LINE
  5
28D
100
AcDbEntity
  8
Frei
  6
CONTINUOUS
 62
           7
100
AcDbLine
 10
-14002.417849565361
 20
-8657.63763497394
 30
0.0
 11
-13975.475615137915
 21
-8660.427547214022
 31
0.0
  0
LINE
  5
28E
100
AcDbEntity
  8
Frei
  6
CONTINUOUS
 62
           7
100
AcDbLine
 10
-13969.486320695296
 20
-8674.42347443106
 30
0.0
 11
-13969.520432817135
 21
-8674.922309436992
 31
0.0
  0
LINE
  5
28F
100
AcDbEntity
  8
Frei
  6
CONTINUOUS
 62
           1
100
AcDbLine
 10
-13969.486320695296
 20
-8674.42347443106
 30
0.0
 11
-13971.968873810038
 21
-8674.25370856997
 31
0.0
  0
LINE
  5
290
100
AcDbEntity
  8
Frei
  6
CONTINUOUS
 62
           7
100
AcDbLine
 10
-13969.213423720581
 20
-8670.4327943836
 30
0.0
 11
-13969.486320695296
 21
-8674.42347443106
 31
0.0
  0
LINE
  5
291
100
AcDbEntity
  8
Frei
  6
CONTINUOUS
 62
           1
100
AcDbLine
 10
-13969.213423720581
 20
-8670.4327943836
 30
0.0
 11
-13971.695976835323
 21
-8670.26302852251
 31
0.0
  0
LINE
  5
292
100
AcDbEntity
  8
Frei
  6
CONTINUOUS
 62
           7
100
AcDbLine
 10
-13969.520432817135
 20
-8674.922309436992
 30
0.0
 11
-13969.554544938976
 21
-8675.421144442924
 31
0.0
  0
LINE
  5
293
100
AcDbEntity
  8
Frei
  6
CONTINUOUS
 62
           1
100
AcDbLine
 10
-13969.520432817135
 20
-8674.922309436992
 30
0.0
 11
-13972.002985931877
 21
-8674.752543575902
 31
0.0
  0
LINE
  5
294
100
AcDbEntity
  8
Frei
  6
CONTINUOUS
 62
           7
100
AcDbLine
 10
-13969.179311598742
 20
-8669.933959377668
 30
0.0
 11
-13969.213423720581
 21
-8670.4327943836
 31
0.0
  0
LINE
  5
295
100
AcDbEntity
  8
Frei
  6
CONTINUOUS
 62
           1
100
AcDbLine
 10
-13969.179311598742
 20
-8669.933959377668
 30
0.0
 11
-13971.661864713484
 21
-8669.764193516578
 31
0.0
  0
LINE
  5
296
100
AcDbEntity
  8
Frei
  6
CONTINUOUS
 62
           7
100
AcDbLine
 10
-13970.55221495084
 20
-8675.352920199242
 30
0.0
 11
-13970.142869488767
 21
-8669.366900128054
 31
0.0
  0
LINE
  5
297
100
AcDbEntity
  8
Frei
  6
CONTINUOUS
 62
           2
100
AcDbLine
 10
-13969.554544938976
 20
-8675.421144442924
 30
0.0
 11
-13970.55221495084
 21
-8675.352920199242
 31
0.0
  0
LINE
  5
298
100
AcDbEntity
  8
Frei
  6
CONTINUOUS
 62
           7
100
AcDbLine
 10
-13970.142869488767
 20
-8669.366900128054
 30
0.0
 11
-13970.074645245088
 21
-8668.36923011619
 31
0.0
  0
LINE
  5
299
100
AcDbEntity
  8
Frei
  6
CONTINUOUS
 62
           2
100
AcDbLine
 10
-13969.145199476903
 20
-8669.435124371732
 30
0.0
 11
-13970.142869488767
 21
-8669.366900128054
 31
0.0
  0
LINE
  5
29A
100
AcDbEntity
  8
Frei
  6
CONTINUOUS
 62
           7
100
AcDbLine
 10
-13970.620439194518
 20
-8676.35059021111
 30
0.0
 11
-13970.55221495084
 21
-8675.352920199242
 31
0.0
  0
LINE
  5
29B
100
AcDbEntity
  8
Frei
  6
CONTINUOUS
 62
           7
100
AcDbLine
 10
-13969.554544938976
 20
-8675.421144442924
 30
0.0
 11
-13970.620439194518
 21
-8676.35059021111
 31
0.0
  0
LINE
  5
29C
100
AcDbEntity
  8
Frei
  6
CONTINUOUS
 62
           7
100
AcDbLine
 10
-13969.145199476903
 20
-8669.435124371732
 30
0.0
 11
-13969.179311598742
 21
-8669.933959377668
 31
0.0
  0
LINE
  5
29D
100
AcDbEntity
  8
Frei
  6
CONTINUOUS
 62
           7
100
AcDbLine
 10
-13970.074645245088
 20
-8668.36923011619
 30
0.0
 11
-13969.733524026695
 21
-8663.380880056866
 31
0.0
  0
LINE
  5
29E
100
AcDbEntity
  8
Frei
  6
CONTINUOUS
 62
           7
100
AcDbLine
 10
-13970.074645245088
 20
-8668.36923011619
 30
0.0
 11
-13969.145199476903
 21
-8669.435124371732
 31
0.0
  0
LINE
  5
29F
100
AcDbEntity
  8
Frei
  6
CONTINUOUS
 62
           7
100
AcDbLine
 10
-14004.396352632044
 20
-8686.570065318021
 30
0.0
 11
-14003.748222317097
 21
-8677.092200205305
 31
0.0
  0
LINE
  5
2A0
100
AcDbEntity
  8
Frei
  6
CONTINUOUS
 62
           7
100
AcDbLine
 10
-13974.952240460372
 20
-8681.066043295719
 30
0.0
 11
-13975.463922287961
 21
-8688.548568384704
 31
0.0
  0
LINE
  5
2A1
100
AcDbEntity
  8
Frei
  6
CONTINUOUS
 62
           7
100
AcDbLine
 10
-13972.658309818611
 20
-8662.178537313965
 30
0.0
 11
-13974.022794692186
 21
-8682.131937551261
 31
0.0
  0
LINE
  5
2A2
100
AcDbEntity
  8
Frei
  6
CONTINUOUS
 62
           7
100
AcDbLine
 10
-13970.662969794881
 20
-8662.31498580132
 30
0.0
 11
-13972.027454668456
 21
-8682.268386038621
 31
0.0
  0
LINE
  5
2A3
100
AcDbEntity
  8
Frei
  6
CONTINUOUS
 62
           7
100
AcDbLine
 10
-13970.961560412912
 20
-8681.338940270434
 30
0.0
 11
-13972.027454668456
 21
-8682.268386038621
 31
0.0
  0
LINE
  5
2A4
100
AcDbEntity
  8
Frei
  6
CONTINUOUS
 62
           7
100
AcDbLine
 10
-13974.022794692186
 20
-8682.131937551261
 30
0.0
 11
-13974.952240460372
 21
-8681.066043295719
 31
0.0
  0
LINE
  5
2A5
100
AcDbEntity
  8
Frei
  6
CONTINUOUS
 62
           7
100
AcDbLine
 10
-13973.724204074155
 20
-8663.107983082151
 30
0.0
 11
-13972.658309818611
 21
-8662.178537313965
 31
0.0
  0
LINE
  5
2A6
100
AcDbEntity
  8
Frei
  6
CONTINUOUS
 62
           7
100
AcDbLine
 10
-13969.733524026695
 20
-8663.380880056866
 30
0.0
 11
-13970.662969794881
 21
-8662.31498580132
 31
0.0
  0
LINE
  5
2A7
100
AcDbEntity
  8
Frei
  6
CONTINUOUS
 62
           7
100
AcDbLine
 10
-13970.961560412912
 20
-8681.338940270434
 30
0.0
 11
-13970.620439194518
 21
-8676.35059021111
 31
0.0
  0
LINE
  5
2A8
100
AcDbEntity
  8
Frei
  6
CONTINUOUS
 62
           7
100
AcDbLine
 10
-13974.022794692186
 20
-8682.131937551261
 30
0.0
 11
-13972.027454668456
 21
-8682.268386038621
 31
0.0
  0
LINE
  5
2A9
100
AcDbEntity
  8
Frei
  6
CONTINUOUS
 62
           7
100
AcDbLine
 10
-13973.724204074155
 20
-8663.107983082151
 30
0.0
 11
-13974.952240460372
 21
-8681.066043295719
 31
0.0
  0
LINE
  5
2AA
100
AcDbEntity
  8
Frei
  6
CONTINUOUS
 62
           7
100
AcDbLine
 10
-13970.662969794881
 20
-8662.31498580132
 30
0.0
 11
-13972.658309818611
 21
-8662.178537313965
 31
0.0
  0
LINE
  5
2AB
100
AcDbEntity
  8
Frei
  6
CONTINUOUS
 62
           7
100
AcDbLine
 10
-14020.857907827814
 20
-8685.444365297324
 30
0.0
 11
-14010.382372703232
 21
-8686.16071985595
 31
0.0
  0
LINE
  5
2AC
100
AcDbEntity
  8
Frei
  6
CONTINUOUS
 62
           7
100
AcDbLine
 10
-14004.639127620308
 20
-8653.476394317284
 30
0.0
 11
-14018.606507786417
 21
-8652.521254905783
 31
0.0
  0
LINE
  5
2AD
100
AcDbEntity
  8
Frei
  6
CONTINUOUS
 62
           7
100
AcDbLine
 10
-14003.709681852122
 20
-8654.542288572829
 30
0.0
 11
-14005.244727334893
 21
-8676.989863839786
 31
0.0
  0
LINE
  5
2AE
100
AcDbEntity
  8
Frei
  6
CONTINUOUS
 62
           7
100
AcDbLine
 10
-14164.45416529268
 20
-8674.622404195725
 30
0.0
 11
-14162.919119809909
 21
-8652.174828928764
 31
0.0
  0
LINE
  5
2AF
100
AcDbEntity
  8
Frei
  6
CONTINUOUS
 62
           7
100
AcDbLine
 10
-14163.754866794972
 20
-8664.396286574109
 30
0.0
 11
-14163.396689515659
 21
-8659.15851901182
 31
0.0
  0
LINE
  5
2B0
100
AcDbEntity
  8
Frei
  6
CONTINUOUS
 62
           7
100
AcDbLine
 10
-14004.408980349828
 20
-8664.768406194442
 30
0.0
 11
-14004.767157629141
 21
-8670.006173756734
 31
0.0
  0
ARC
  5
2B1
100
AcDbEntity
  8
Frei
  6
CONTINUOUS
 62
           7
100
AcDbCircle
 10
-14171.981048379612
 20
-8658.571489849877
 30
0.0
 40
8.604407030244
100
AcDbArc
 50
332.086014671726
 51
356.087999999999
  0
ARC
  5
2B2
100
AcDbEntity
  8
Frei
  6
CONTINUOUS
 62
           7
100
AcDbCircle
 10
-14165.462956129784
 20
-8653.754959304828
 30
0.0
 40
2.430106011614
100
AcDbArc
 50
310.022521857266
 51
356.087999999999
  0
ARC
  5
2B3
100
AcDbEntity
  8
Frei
  6
CONTINUOUS
 62
           7
100
AcDbCircle
 10
-14166.179310688411
 20
-8664.230494429408
 30
0.0
 40
2.430106011614
100
AcDbArc
 50
310.022521857266
 51
356.087999999999
  0
ARC
  5
2B4
100
AcDbEntity
  8
Frei
  6
CONTINUOUS
 62
           7
100
AcDbCircle
 10
-14165.462956129784
 20
-8653.754959304828
 30
0.0
 40
2.430106011614
100
AcDbArc
 50
356.087999999999
 51
42.153478142733
  0
ARC
  5
2B5
100
AcDbEntity
  8
Frei
  6
CONTINUOUS
 62
           7
100
AcDbCircle
 10
-14166.179310688411
 20
-8664.230494429408
 30
0.0
 40
2.430106011614
100
AcDbArc
 50
356.087999999999
 51
42.153478142733
  0
ARC
  5
2B6
100
AcDbEntity
  8
Frei
  6
CONTINUOUS
 62
           7
100
AcDbCircle
 10
-14002.700891015014
 20
-8675.409733463726
 30
0.0
 40
2.430106011614
100
AcDbArc
 50
130.022521857263
 51
176.088
  0
ARC
  5
2B7
100
AcDbEntity
  8
Frei
  6
CONTINUOUS
 62
           7
100
AcDbCircle
 10
-14001.984536456388
 20
-8664.934198339146
 30
0.0
 40
2.430106011614
100
AcDbArc
 50
130.022521857263
 51
176.088
  0
ARC
  5
2B8
100
AcDbEntity
  8
Frei
  6
CONTINUOUS
 62
           7
100
AcDbCircle
 10
-14002.700891015014
 20
-8675.409733463726
 30
0.0
 40
2.430106011614
100
AcDbArc
 50
176.088
 51
222.153478142737
  0
ARC
  5
2B9
100
AcDbEntity
  8
Frei
  6
CONTINUOUS
 62
           7
100
AcDbCircle
 10
-14001.984536456388
 20
-8664.934198339146
 30
0.0
 40
2.430106011614
100
AcDbArc
 50
176.088
 51
222.153478142737
  0
ARC
  5
2BA
100
AcDbEntity
  8
Frei
  6
CONTINUOUS
 62
           7
100
AcDbCircle
 10
-13996.182798765189
 20
-8670.593202918677
 30
0.0
 40
8.604407030244
100
AcDbArc
 50
152.086014671724
 51
176.088
  0
ARC
  5
2BB
100
AcDbEntity
  8
Frei
  6
CONTINUOUS
 62
           7
100
AcDbCircle
 10
-14140.632589879973
 20
-8668.496255564445
 30
0.0
 40
4.481959213903
100
AcDbArc
 50
184.466955885586
 51
347.709044114414
  0
ARC
  5
2BC
100
AcDbEntity
  8
Frei
  6
CONTINUOUS
 62
           7
100
AcDbCircle
 10
-14171.981048379612
 20
-8658.571489849877
 30
0.0
 40
8.604407030244
100
AcDbArc
 50
356.087999999999
 51
20.089985328274
  0
ARC
  5
2BD
100
AcDbEntity
  8
Frei
  6
CONTINUOUS
 62
           7
100
AcDbCircle
 10
-13996.182798765189
 20
-8670.593202918677
 30
0.0
 40
8.604407030244
100
AcDbArc
 50
176.088
 51
200.089985328276
  0
POLYLINE
  5
2BE
100
AcDbEntity
  8
Frei
  6
CONTINUOUS
 62
           7
100
AcDb2dPolyline
 66
           1
 10
0.0
 20
0.0
 30
0.0
  0
VERTEX
  5
2BF
100
AcDbEntity
  8
Frei
  6
CONTINUOUS
 62
           7
100
AcDbVertex
100
AcDb2dVertex
 10
-14144.793410015149
 20
-8668.512752246083
 30
0.0
 42
0.046286845788
  0
VERTEX
  5
2C0
100
AcDbEntity
  8
Frei
  6
CONTINUOUS
 62
           7
100
AcDbVertex
100
AcDb2dVertex
 10
-14144.776709186306
 20
-8669.19265584616
 30
0.0
  0
VERTEX
  5
2C1
100
AcDbEntity
  8
Frei
  6
CONTINUOUS
 62
           7
100
AcDbVertex
100
AcDb2dVertex
 10
-14144.721076028358
 20
-8669.529844739122
 30
0.0
  0
VERTEX
  5
2C2
100
AcDbEntity
  8
Frei
  6
CONTINUOUS
 62
           7
100
AcDbVertex
100
AcDb2dVertex
 10
-14144.634713955067
 20
-8669.860503699754
 30
0.0
 42
0.045273723548
  0
VERTEX
  5
2C3
100
AcDbEntity
  8
Frei
  6
CONTINUOUS
 62
           7
100
AcDbVertex
100
AcDb2dVertex
 10
-14144.371738774678
 20
-8670.49600358777
 30
0.0
  0
VERTEX
  5
2C4
100
AcDbEntity
  8
Frei
  6
CONTINUOUS
 62
           7
100
AcDbVertex
100
AcDb2dVertex
 10
-14144.196745741576
 20
-8670.796285956207
 30
0.0
  0
VERTEX
  5
2C5
100
AcDbEntity
  8
Frei
  6
CONTINUOUS
 62
           7
100
AcDbVertex
100
AcDb2dVertex
 10
-14143.995774012925
 20
-8671.079846167697
 30
0.0
 42
0.04348253534
  0
VERTEX
  5
2C6
100
AcDbEntity
  8
Frei
  6
CONTINUOUS
 62
           7
100
AcDbVertex
100
AcDb2dVertex
 10
-14143.518243168844
 20
-8671.594291678182
 30
0.0
  0
VERTEX
  5
2C7
100
AcDbEntity
  8
Frei
  6
CONTINUOUS
 62
           7
100
AcDbVertex
100
AcDb2dVertex
 10
-14143.245108593514
 20
-8671.821038461661
 30
0.0
  0
VERTEX
  5
2C8
100
AcDbEntity
  8
Frei
  6
CONTINUOUS
 62
           7
100
AcDbVertex
100
AcDb2dVertex
 10
-14142.953655775496
 20
-8672.023708952707
 30
0.0
 42
0.041825507476
  0
VERTEX
  5
2C9
100
AcDbEntity
  8
Frei
  6
CONTINUOUS
 62
           7
100
AcDbVertex
100
AcDb2dVertex
 10
-14142.319166535128
 20
-8672.355050364684
 30
0.0
  0
VERTEX
  5
2CA
100
AcDbEntity
  8
Frei
  6
CONTINUOUS
 62
           7
100
AcDbVertex
100
AcDb2dVertex
 10
-14141.981224623572
 20
-8672.480809323566
 30
0.0
  0
VERTEX
  5
2CB
100
AcDbEntity
  8
Frei
  6
CONTINUOUS
 62
           7
100
AcDbVertex
100
AcDb2dVertex
 10
-14141.63405408224
 20
-8672.578248272977
 30
0.0
 42
0.040993490696
  0
VERTEX
  5
2CC
100
AcDbEntity
  8
Frei
  6
CONTINUOUS
 62
           7
100
AcDbVertex
100
AcDb2dVertex
 10
-14140.919135212036
 20
-8672.686520922085
 30
0.0
  0
VERTEX
  5
2CD
100
AcDbEntity
  8
Frei
  6
CONTINUOUS
 62
           7
100
AcDbVertex
100
AcDb2dVertex
 10
-14140.557429323531
 20
-8672.696389690551
 30
0.0
  0
VERTEX
  5
2CE
100
AcDbEntity
  8
Frei
  6
CONTINUOUS
 62
           7
100
AcDbVertex
100
AcDb2dVertex
 10
-14140.196132372614
 20
-8672.676578502353
 30
0.0
 42
0.041278481646
  0
VERTEX
  5
2CF
100
AcDbEntity
  8
Frei
  6
CONTINUOUS
 62
           7
100
AcDbVertex
100
AcDb2dVertex
 10
-14139.487013639395
 20
-8672.548723109176
 30
0.0
  0
VERTEX
  5
2D0
100
AcDbEntity
  8
Frei
  6
CONTINUOUS
 62
           7
100
AcDbVertex
100
AcDb2dVertex
 10
-14139.145101856122
 20
-8672.44188989211
 30
0.0
  0
VERTEX
  5
2D1
100
AcDbEntity
  8
Frei
  6
CONTINUOUS
 62
           7
100
AcDbVertex
100
AcDb2dVertex
 10
-14138.813325226256
 20
-8672.306839563975
 30
0.0
 42
0.042584509173
  0
VERTEX
  5
2D2
100
AcDbEntity
  8
Frei
  6
CONTINUOUS
 62
           7
100
AcDbVertex
100
AcDb2dVertex
 10
-14138.19553681473
 20
-8671.95827737587
 30
0.0
  0
VERTEX
  5
2D3
100
AcDbEntity
  8
Frei
  6
CONTINUOUS
 62
           7
100
AcDbVertex
100
AcDb2dVertex
 10
-14137.914293587473
 20
-8671.747777233384
 30
0.0
  0
VERTEX
  5
2D4
100
AcDbEntity
  8
Frei
  6
CONTINUOUS
 62
           7
100
AcDbVertex
100
AcDb2dVertex
 10
-14137.652419593085
 20
-8671.513627430573
 30
0.0
 42
0.044417198743
  0
VERTEX
  5
2D5
100
AcDbEntity
  8
Frei
  6
CONTINUOUS
 62
           7
100
AcDbVertex
100
AcDb2dVertex
 10
-14137.200475903264
 20
-8670.986400191665
 30
0.0
  0
VERTEX
  5
2D6
100
AcDbEntity
  8
Frei
  6
CONTINUOUS
 62
           7
100
AcDbVertex
100
AcDb2dVertex
 10
-14137.013491254269
 20
-8670.697374778603
 30
0.0
  0
VERTEX
  5
2D7
100
AcDbEntity
  8
Frei
  6
CONTINUOUS
 62
           7
100
AcDbVertex
100
AcDb2dVertex
 10
-14136.853437825597
 20
-8670.392615192006
 30
0.0
 42
0.045929593742
  0
VERTEX
  5
2D8
100
AcDbEntity
  8
Frei
  6
CONTINUOUS
 62
           7
100
AcDbVertex
100
AcDb2dVertex
 10
-14136.621849936457
 20
-8669.750314288343
 30
0.0
  0
VERTEX
  5
2D9
100
AcDbEntity
  8
Frei
  6
CONTINUOUS
 62
           7
100
AcDbVertex
100
AcDb2dVertex
 10
-14136.551735346589
 20
-8669.417192754558
 30
0.0
  0
VERTEX
  5
2DA
100
AcDbEntity
  8
Frei
  6
CONTINUOUS
 62
           7
100
AcDbVertex
100
AcDb2dVertex
 10
-14136.51274891667
 20
-8669.079013468614
 30
0.0
 42
0.046286845788
  0
VERTEX
  5
2DB
100
AcDbEntity
  8
Frei
  6
CONTINUOUS
 62
           7
100
AcDbVertex
100
AcDb2dVertex
 10
-14136.529449745511
 20
-8668.399109868537
 30
0.0
  0
VERTEX
  5
2DC
100
AcDbEntity
  8
Frei
  6
CONTINUOUS
 62
           7
100
AcDbVertex
100
AcDb2dVertex
 10
-14136.585082903463
 20
-8668.061920975579
 30
0.0
  0
VERTEX
  5
2DD
100
AcDbEntity
  8
Frei
  6
CONTINUOUS
 62
           7
100
AcDbVertex
100
AcDb2dVertex
 10
-14136.671444976751
 20
-8667.731262014946
 30
0.0
 42
0.045273723548
  0
VERTEX
  5
2DE
100
AcDbEntity
  8
Frei
  6
CONTINUOUS
 62
           7
100
AcDbVertex
100
AcDb2dVertex
 10
-14136.934420157138
 20
-8667.095762126926
 30
0.0
  0
VERTEX
  5
2DF
100
AcDbEntity
  8
Frei
  6
CONTINUOUS
 62
           7
100
AcDbVertex
100
AcDb2dVertex
 10
-14137.109413190241
 20
-8666.795479758494
 30
0.0
  0
VERTEX
  5
2E0
100
AcDbEntity
  8
Frei
  6
CONTINUOUS
 62
           7
100
AcDbVertex
100
AcDb2dVertex
 10
-14137.310384918894
 20
-8666.511919547
 30
0.0
 42
0.04348253534
  0
VERTEX
  5
2E1
100
AcDbEntity
  8
Frei
  6
CONTINUOUS
 62
           7
100
AcDbVertex
100
AcDb2dVertex
 10
-14137.787915762972
 20
-8665.997474036518
 30
0.0
  0
VERTEX
  5
2E2
100
AcDbEntity
  8
Frei
  6
CONTINUOUS
 62
           7
100
AcDbVertex
100
AcDb2dVertex
 10
-14138.061050338303
 20
-8665.770727253035
 30
0.0
  0
VERTEX
  5
2E3
100
AcDbEntity
  8
Frei
  6
CONTINUOUS
 62
           7
100
AcDbVertex
100
AcDb2dVertex
 10
-14138.35250315632
 20
-8665.568056761993
 30
0.0
 42
0.041825507476
  0
VERTEX
  5
2E4
100
AcDbEntity
  8
Frei
  6
CONTINUOUS
 62
           7
100
AcDbVertex
100
AcDb2dVertex
 10
-14138.986992396689
 20
-8665.236715350016
 30
0.0
  0
VERTEX
  5
2E5
100
AcDbEntity
  8
Frei
  6
CONTINUOUS
 62
           7
100
AcDbVertex
100
AcDb2dVertex
 10
-14139.324934308246
 20
-8665.110956391134
 30
0.0
  0
VERTEX
  5
2E6
100
AcDbEntity
  8
Frei
  6
CONTINUOUS
 62
           7
100
AcDbVertex
100
AcDb2dVertex
 10
-14139.672104849576
 20
-8665.013517441723
 30
0.0
 42
0.040993490695
  0
VERTEX
  5
2E7
100
AcDbEntity
  8
Frei
  6
CONTINUOUS
 62
           7
100
AcDbVertex
100
AcDb2dVertex
 10
-14140.387023719784
 20
-8664.905244792615
 30
0.0
  0
VERTEX
  5
2E8
100
AcDbEntity
  8
Frei
  6
CONTINUOUS
 62
           7
100
AcDbVertex
100
AcDb2dVertex
 10
-14140.748729608285
 20
-8664.895376024149
 30
0.0
  0
VERTEX
  5
2E9
100
AcDbEntity
  8
Frei
  6
CONTINUOUS
 62
           7
100
AcDbVertex
100
AcDb2dVertex
 10
-14141.110026559203
 20
-8664.915187212348
 30
0.0
 42
0.041278481646
  0
VERTEX
  5
2EA
100
AcDbEntity
  8
Frei
  6
CONTINUOUS
 62
           7
100
AcDbVertex
100
AcDb2dVertex
 10
-14141.819145292422
 20
-8665.043042605525
 30
0.0
  0
VERTEX
  5
2EB
100
AcDbEntity
  8
Frei
  6
CONTINUOUS
 62
           7
100
AcDbVertex
100
AcDb2dVertex
 10
-14142.161057075695
 20
-8665.14987582259
 30
0.0
  0
VERTEX
  5
2EC
100
AcDbEntity
  8
Frei
  6
CONTINUOUS
 62
           7
100
AcDbVertex
100
AcDb2dVertex
 10
-14142.492833705561
 20
-8665.284926150725
 30
0.0
 42
0.042584509172
  0
VERTEX
  5
2ED
100
AcDbEntity
  8
Frei
  6
CONTINUOUS
 62
           7
100
AcDbVertex
100
AcDb2dVertex
 10
-14143.110622117087
 20
-8665.63348833883
 30
0.0
  0
VERTEX
  5
2EE
100
AcDbEntity
  8
Frei
  6
CONTINUOUS
 62
           7
100
AcDbVertex
100
AcDb2dVertex
 10
-14143.391865344343
 20
-8665.843988481312
 30
0.0
  0
VERTEX
  5
2EF
100
AcDbEntity
  8
Frei
  6
CONTINUOUS
 62
           7
100
AcDbVertex
100
AcDb2dVertex
 10
-14143.653739338733
 20
-8666.078138284127
 30
0.0
 42
0.044417198743
  0
VERTEX
  5
2F0
100
AcDbEntity
  8
Frei
  6
CONTINUOUS
 62
           7
100
AcDbVertex
100
AcDb2dVertex
 10
-14144.105683028552
 20
-8666.605365523035
 30
0.0
  0
VERTEX
  5
2F1
100
AcDbEntity
  8
Frei
  6
CONTINUOUS
 62
           7
100
AcDbVertex
100
AcDb2dVertex
 10
-14144.292667677548
 20
-8666.894390936097
 30
0.0
  0
VERTEX
  5
2F2
100
AcDbEntity
  8
Frei
  6
CONTINUOUS
 62
           7
100
AcDbVertex
100
AcDb2dVertex
 10
-14144.452721106221
 20
-8667.199150522694
 30
0.0
 42
0.045929593741
  0
VERTEX
  5
2F3
100
AcDbEntity
  8
Frei
  6
CONTINUOUS
 62
           7
100
AcDbVertex
100
AcDb2dVertex
 10
-14144.68430899536
 20
-8667.841451426357
 30
0.0
  0
VERTEX
  5
2F4
100
AcDbEntity
  8
Frei
  6
CONTINUOUS
 62
           7
100
AcDbVertex
100
AcDb2dVertex
 10
-14144.754423585227
 20
-8668.174572960139
 30
0.0
  0
VERTEX
  5
2F5
100
AcDbEntity
  8
Frei
  6
CONTINUOUS
 62
           7
100
AcDbVertex
100
AcDb2dVertex
 10
-14144.793410015149
 20
-8668.512752246083
 30
0.0
  0
SEQEND
  5
2F6
100
AcDbEntity
  8
Frei
  6
CONTINUOUS
 62
           7
  0
POLYLINE
  5
2F7
100
AcDbEntity
  8
Frei
  6
CONTINUOUS
 62
           7
100
AcDb2dPolyline
 66
           1
 10
0.0
 20
0.0
 30
0.0
  0
VERTEX
  5
2F8
100
AcDbEntity
  8
Frei
  6
CONTINUOUS
 62
           7
100
AcDbVertex
100
AcDb2dVertex
 10
-14140.381332289915
 20
-8664.822016769867
 30
0.0
 42
0.046286845788
  0
VERTEX
  5
2F9
100
AcDbEntity
  8
Frei
  6
CONTINUOUS
 62
           7
100
AcDbVertex
100
AcDb2dVertex
 10
-14141.157174561939
 20
-8664.841074190645
 30
0.0
  0
VERTEX
  5
2FA
100
AcDbEntity
  8
Frei
  6
CONTINUOUS
 62
           7
100
AcDbVertex
100
AcDb2dVertex
 10
-14141.541942927313
 20
-8664.904557536898
 30
0.0
  0
VERTEX
  5
2FB
100
AcDbEntity
  8
Frei
  6
CONTINUOUS
 62
           7
100
AcDbVertex
100
AcDb2dVertex
 10
-14141.919259945862
 20
-8665.003105841613
 30
0.0
 42
0.045273723548
  0
VERTEX
  5
2FC
100
AcDbEntity
  8
Frei
  6
CONTINUOUS
 62
           7
100
AcDbVertex
100
AcDb2dVertex
 10
-14142.644432862928
 20
-8665.303188473059
 30
0.0
  0
VERTEX
  5
2FD
100
AcDbEntity
  8
Frei
  6
CONTINUOUS
 62
           7
100
AcDbVertex
100
AcDb2dVertex
 10
-14142.987086961168
 20
-8665.502874123158
 30
0.0
  0
VERTEX
  5
2FE
100
AcDbEntity
  8
Frei
  6
CONTINUOUS
 62
           7
100
AcDbVertex
100
AcDb2dVertex
 10
-14143.310659301005
 20
-8665.732204226064
 30
0.0
 42
0.04348253534
  0
VERTEX
  5
2FF
100
AcDbEntity
  8
Frei
  6
CONTINUOUS
 62
           7
100
AcDbVertex
100
AcDb2dVertex
 10
-14143.897696306898
 20
-8666.277117674072
 30
0.0
  0
VERTEX
  5
300
100
AcDbEntity
  8
Frei
  6
CONTINUOUS
 62
           7
100
AcDbVertex
100
AcDb2dVertex
 10
-14144.156438486893
 20
-8666.588793254949
 30
0.0
  0
VERTEX
  5
301
100
AcDbEntity
  8
Frei
  6
CONTINUOUS
 62
           7
100
AcDbVertex
100
AcDb2dVertex
 10
-14144.38770705824
 20
-8666.921371897704
 30
0.0
 42
0.041825507476
  0
VERTEX
  5
302
100
AcDbEntity
  8
Frei
  6
CONTINUOUS
 62
           7
100
AcDbVertex
100
AcDb2dVertex
 10
-14144.765802826309
 20
-8667.645391558381
 30
0.0
  0
VERTEX
  5
303
100
AcDbEntity
  8
Frei
  6
CONTINUOUS
 62
           7
100
AcDbVertex
100
AcDb2dVertex
 10
-14144.909307164829
 20
-8668.03101919801
 30
0.0
  0
VERTEX
  5
304
100
AcDbEntity
  8
Frei
  6
CONTINUOUS
 62
           7
100
AcDbVertex
100
AcDb2dVertex
 10
-14145.020495362514
 20
-8668.427177685087
 30
0.0
 42
0.040993490695
  0
VERTEX
  5
305
100
AcDbEntity
  8
Frei
  6
CONTINUOUS
 62
           7
100
AcDbVertex
100
AcDb2dVertex
 10
-14145.144045963032
 20
-8669.24297610197
 30
0.0
  0
VERTEX
  5
306
100
AcDbEntity
  8
Frei
  6
CONTINUOUS
 62
           7
100
AcDbVertex
100
AcDb2dVertex
 10
-14145.155307276764
 20
-8669.655720965078
 30
0.0
  0
VERTEX
  5
307
100
AcDbEntity
  8
Frei
  6
CONTINUOUS
 62
           7
100
AcDbVertex
100
AcDb2dVertex
 10
-14145.132700605374
 20
-8670.067999186937
 30
0.0
 42
0.041278481646
  0
VERTEX
  5
308
100
AcDbEntity
  8
Frei
  6
CONTINUOUS
 62
           7
100
AcDbVertex
100
AcDb2dVertex
 10
-14144.986804012502
 20
-8670.877179031038
 30
0.0
  0
VERTEX
  5
309
100
AcDbEntity
  8
Frei
  6
CONTINUOUS
 62
           7
100
AcDbVertex
100
AcDb2dVertex
 10
-14144.86489595694
 20
-8671.267336716239
 30
0.0
  0
VERTEX
  5
30A
100
AcDbEntity
  8
Frei
  6
CONTINUOUS
 62
           7
100
AcDbVertex
100
AcDb2dVertex
 10
-14144.710789178558
 20
-8671.645929114176
 30
0.0
 42
0.042584509173
  0
VERTEX
  5
30B
100
AcDbEntity
  8
Frei
  6
CONTINUOUS
 62
           7
100
AcDbVertex
100
AcDb2dVertex
 10
-14144.313042674601
 20
-8672.350891354075
 30
0.0
  0
VERTEX
  5
30C
100
AcDbEntity
  8
Frei
  6
CONTINUOUS
 62
           7
100
AcDbVertex
100
AcDb2dVertex
 10
-14144.072839638775
 20
-8672.671819768635
 30
0.0
  0
VERTEX
  5
30D
100
AcDbEntity
  8
Frei
  6
CONTINUOUS
 62
           7
100
AcDbVertex
100
AcDb2dVertex
 10
-14143.805649826885
 20
-8672.970645829813
 30
0.0
 42
0.044417198743
  0
VERTEX
  5
30E
100
AcDbEntity
  8
Frei
  6
CONTINUOUS
 62
           7
100
AcDbVertex
100
AcDb2dVertex
 10
-14143.204027510335
 20
-8673.486361615251
 30
0.0
  0
VERTEX
  5
30F
100
AcDbEntity
  8
Frei
  6
CONTINUOUS
 62
           7
100
AcDbVertex
100
AcDb2dVertex
 10
-14142.874218794635
 20
-8673.699730973633
 30
0.0
  0
VERTEX
  5
310
100
AcDbEntity
  8
Frei
  6
CONTINUOUS
 62
           7
100
AcDbVertex
100
AcDb2dVertex
 10
-14142.526455714602
 20
-8673.882368947212
 30
0.0
 42
0.045929593742
  0
VERTEX
  5
311
100
AcDbEntity
  8
Frei
  6
CONTINUOUS
 62
           7
100
AcDbVertex
100
AcDb2dVertex
 10
-14141.793522115835
 20
-8674.146635343306
 30
0.0
  0
VERTEX
  5
312
100
AcDbEntity
  8
Frei
  6
CONTINUOUS
 62
           7
100
AcDbVertex
100
AcDb2dVertex
 10
-14141.413395039583
 20
-8674.226643542552
 30
0.0
  0
VERTEX
  5
313
100
AcDbEntity
  8
Frei
  6
CONTINUOUS
 62
           7
100
AcDbVertex
100
AcDb2dVertex
 10
-14141.027496530551
 20
-8674.271131202808
 30
0.0
 42
0.046286845788
  0
VERTEX
  5
314
100
AcDbEntity
  8
Frei
  6
CONTINUOUS
 62
           7
100
AcDbVertex
100
AcDb2dVertex
 10
-14140.251654258525
 20
-8674.252073782034
 30
0.0
  0
VERTEX
  5
315
100
AcDbEntity
  8
Frei
  6
CONTINUOUS
 62
           7
100
AcDbVertex
100
AcDb2dVertex
 10
-14139.866885893149
 20
-8674.188590435781
 30
0.0
  0
VERTEX
  5
316
100
AcDbEntity
  8
Frei
  6
CONTINUOUS
 62
           7
100
AcDbVertex
100
AcDb2dVertex
 10
-14139.4895688746
 20
-8674.090042131062
 30
0.0
 42
0.045273723548
  0
VERTEX
  5
317
100
AcDbEntity
  8
Frei
  6
CONTINUOUS
 62
           7
100
AcDbVertex
100
AcDb2dVertex
 10
-14138.764395957534
 20
-8673.78995949962
 30
0.0
  0
VERTEX
  5
318
100
AcDbEntity
  8
Frei
  6
CONTINUOUS
 62
           7
100
AcDbVertex
100
AcDb2dVertex
 10
-14138.421741859294
 20
-8673.590273849517
 30
0.0
  0
VERTEX
  5
319
100
AcDbEntity
  8
Frei
  6
CONTINUOUS
 62
           7
100
AcDbVertex
100
AcDb2dVertex
 10
-14138.09816951946
 20
-8673.360943746615
 30
0.0
 42
0.04348253534
  0
VERTEX
  5
31A
100
AcDbEntity
  8
Frei
  6
CONTINUOUS
 62
           7
100
AcDbVertex
100
AcDb2dVertex
 10
-14137.511132513566
 20
-8672.816030298607
 30
0.0
  0
VERTEX
  5
31B
100
AcDbEntity
  8
Frei
  6
CONTINUOUS
 62
           7
100
AcDbVertex
100
AcDb2dVertex
 10
-14137.252390333571
 20
-8672.50435471773
 30
0.0
  0
VERTEX
  5
31C
100
AcDbEntity
  8
Frei
  6
CONTINUOUS
 62
           7
100
AcDbVertex
100
AcDb2dVertex
 10
-14137.021121762225
 20
-8672.171776074974
 30
0.0
 42
0.041825507476
  0
VERTEX
  5
31D
100
AcDbEntity
  8
Frei
  6
CONTINUOUS
 62
           7
100
AcDbVertex
100
AcDb2dVertex
 10
-14136.643025994155
 20
-8671.447756414294
 30
0.0
  0
VERTEX
  5
31E
100
AcDbEntity
  8
Frei
  6
CONTINUOUS
 62
           7
100
AcDbVertex
100
AcDb2dVertex
 10
-14136.499521655636
 20
-8671.062128774665
 30
0.0
  0
VERTEX
  5
31F
100
AcDbEntity
  8
Frei
  6
CONTINUOUS
 62
           7
100
AcDbVertex
100
AcDb2dVertex
 10
-14136.388333457948
 20
-8670.665970287588
 30
0.0
 42
0.040993490695
  0
VERTEX
  5
320
100
AcDbEntity
  8
Frei
  6
CONTINUOUS
 62
           7
100
AcDbVertex
100
AcDb2dVertex
 10
-14136.264782857432
 20
-8669.850171870708
 30
0.0
  0
VERTEX
  5
321
100
AcDbEntity
  8
Frei
  6
CONTINUOUS
 62
           7
100
AcDbVertex
100
AcDb2dVertex
 10
-14136.2535215437
 20
-8669.437427007601
 30
0.0
  0
VERTEX
  5
322
100
AcDbEntity
  8
Frei
  6
CONTINUOUS
 62
           7
100
AcDbVertex
100
AcDb2dVertex
 10
-14136.276128215088
 20
-8669.025148785742
 30
0.0
 42
0.041278481646
  0
VERTEX
  5
323
100
AcDbEntity
  8
Frei
  6
CONTINUOUS
 62
           7
100
AcDbVertex
100
AcDb2dVertex
 10
-14136.422024807962
 20
-8668.21596894164
 30
0.0
  0
VERTEX
  5
324
100
AcDbEntity
  8
Frei
  6
CONTINUOUS
 62
           7
100
AcDbVertex
100
AcDb2dVertex
 10
-14136.543932863522
 20
-8667.82581125644
 30
0.0
  0
VERTEX
  5
325
100
AcDbEntity
  8
Frei
  6
CONTINUOUS
 62
           7
100
AcDbVertex
100
AcDb2dVertex
 10
-14136.698039641908
 20
-8667.447218858502
 30
0.0
 42
0.042584509173
  0
VERTEX
  5
326
100
AcDbEntity
  8
Frei
  6
CONTINUOUS
 62
           7
100
AcDbVertex
100
AcDb2dVertex
 10
-14137.095786145863
 20
-8666.7422566186
 30
0.0
  0
VERTEX
  5
327
100
AcDbEntity
  8
Frei
  6
CONTINUOUS
 62
           7
100
AcDbVertex
100
AcDb2dVertex
 10
-14137.335989181689
 20
-8666.42132820404
 30
0.0
  0
VERTEX
  5
328
100
AcDbEntity
  8
Frei
  6
CONTINUOUS
 62
           7
100
AcDbVertex
100
AcDb2dVertex
 10
-14137.603178993581
 20
-8666.122502142865
 30
0.0
 42
0.044417198743
  0
VERTEX
  5
329
100
AcDbEntity
  8
Frei
  6
CONTINUOUS
 62
           7
100
AcDbVertex
100
AcDb2dVertex
 10
-14138.204801310127
 20
-8665.606786357428
 30
0.0
  0
VERTEX
  5
32A
100
AcDbEntity
  8
Frei
  6
CONTINUOUS
 62
           7
100
AcDbVertex
100
AcDb2dVertex
 10
-14138.534610025828
 20
-8665.393416999043
 30
0.0
  0
VERTEX
  5
32B
100
AcDbEntity
  8
Frei
  6
CONTINUOUS
 62
           7
100
AcDbVertex
100
AcDb2dVertex
 10
-14138.88237310586
 20
-8665.210779025467
 30
0.0
 42
0.045929593741
  0
VERTEX
  5
32C
100
AcDbEntity
  8
Frei
  6
CONTINUOUS
 62
           7
100
AcDbVertex
100
AcDb2dVertex
 10
-14139.615306704629
 20
-8664.946512629373
 30
0.0
  0
VERTEX
  5
32D
100
AcDbEntity
  8
Frei
  6
CONTINUOUS
 62
           7
100
AcDbVertex
100
AcDb2dVertex
 10
-14139.995433780879
 20
-8664.866504430123
 30
0.0
  0
VERTEX
  5
32E
100
AcDbEntity
  8
Frei
  6
CONTINUOUS
 62
           7
100
AcDbVertex
100
AcDb2dVertex
 10
-14140.381332289915
 20
-8664.822016769867
 30
0.0
  0
SEQEND
  5
32F
100
AcDbEntity
  8
Frei
  6
CONTINUOUS
 62
           7
  0
ARC
  5
330
100
AcDbEntity
  8
Frei
  6
CONTINUOUS
 62
           7
100
AcDbCircle
 10
-14006.703855927999
 20
-8683.46420246422
 30
0.0
 40
0.5
100
AcDbArc
 50
273.237821982568
 51
356.087999999999
  0
ARC
  5
331
100
AcDbEntity
  8
Frei
  6
CONTINUOUS
 62
           7
100
AcDbCircle
 10
-14006.354711342479
 20
-8678.358523544299
 30
0.0
 40
0.5
100
AcDbArc
 50
356.087999999999
 51
78.938178017423
  0
ARC
  5
332
100
AcDbEntity
  8
Frei
  6
CONTINUOUS
 62
           7
100
AcDbCircle
 10
-14160.961156210869
 20
-8645.734602426172
 30
0.0
 40
0.5
100
AcDbArc
 50
93.237821982565
 51
176.088
  0
ARC
  5
333
100
AcDbEntity
  8
Frei
  6
CONTINUOUS
 62
           7
100
AcDbCircle
 10
-14161.310300796389
 20
-8650.840281346093
 30
0.0
 40
0.5
100
AcDbArc
 50
176.088
 51
258.938178017419
  0
ARC
  5
334
100
AcDbEntity
  8
Frei
  6
CONTINUOUS
 62
           7
100
AcDbCircle
 10
-14191.178339429935
 20
-8647.680473112385
 30
0.0
 40
2.0
100
AcDbArc
 50
88.088
 51
176.088
  0
ARC
  5
335
100
AcDbEntity
  8
Frei
  6
CONTINUOUS
 62
           7
100
AcDbCircle
 10
-14207.008864449086
 20
-8703.285927700479
 30
0.0
 40
1.5
100
AcDbArc
 50
176.088
 51
266.088
  0
ARC
  5
336
100
AcDbEntity
  8
Frei
  6
CONTINUOUS
 62
           7
100
AcDbCircle
 10
-14205.985500793906
 20
-8688.320877522507
 30
0.0
 40
1.5
100
AcDbArc
 50
86.088
 51
176.088
  0
ARC
  5
337
100
AcDbEntity
  8
Frei
  6
CONTINUOUS
 62
           7
100
AcDbCircle
 10
-14194.90037581935
 20
-8702.109278600896
 30
0.0
 40
1.5
100
AcDbArc
 50
176.088
 51
266.088
  0
ARC
  5
338
100
AcDbEntity
  8
Frei
  6
CONTINUOUS
 62
           7
100
AcDbCircle
 10
-14169.95862552273
 20
-8703.814884692863
 30
0.0
 40
1.5
100
AcDbArc
 50
266.088
 51
356.087999999999
  0
ARC
  5
339
100
AcDbEntity
  8
Frei
  6
CONTINUOUS
 62
           7
100
AcDbCircle
 10
-14004.345403553158
 20
-8715.140109143529
 30
0.0
 40
1.5
100
AcDbArc
 50
176.088
 51
266.088
  0
ARC
  5
33A
100
AcDbEntity
  8
Frei
  6
CONTINUOUS
 62
           7
100
AcDbCircle
 10
-13979.403653256535
 20
-8716.845715235497
 30
0.0
 40
1.5
100
AcDbArc
 50
266.088
 51
356.087999999999
  0
ARC
  5
33B
100
AcDbEntity
  8
Frei
  6
CONTINUOUS
 62
           7
100
AcDbCircle
 10
-13966.544697946334
 20
-8704.694696005397
 30
0.0
 40
1.5
100
AcDbArc
 50
356.087999999999
 51
86.088
  0
ARC
  5
33C
100
AcDbEntity
  8
Frei
  6
CONTINUOUS
 62
           7
100
AcDbCircle
 10
-13967.568061601514
 20
-8719.65974618337
 30
0.0
 40
1.5
100
AcDbArc
 50
266.088
 51
356.087999999999
  0
ARC
  5
33D
100
AcDbEntity
  8
Frei
  6
CONTINUOUS
 62
           7
100
AcDbCircle
 10
-13975.681616867119
 20
-8662.416909746986
 30
0.0
 40
2.0
100
AcDbArc
 50
356.087999999999
 51
84.088
  0
ARC
  5
33E
100
AcDbEntity
  8
Frei
  6
CONTINUOUS
 62
           7
100
AcDbCircle
 10
-14004.707351863988
 20
-8654.474064329148
 30
0.0
 40
1.0
100
AcDbArc
 50
356.087999999999
 51
86.088
  0
ARC
  5
33F
100
AcDbEntity
  8
Frei
  6
CONTINUOUS
 62
           7
100
AcDbCircle
 10
-14006.822303418028
 20
-8685.401834696961
 30
0.0
 40
1.0
100
AcDbArc
 50
266.087999999999
 51
356.087999999999
  0
ARC
  5
340
100
AcDbEntity
  8
Frei
  6
CONTINUOUS
 62
           7
100
AcDbCircle
 10
-14163.456495280816
 20
-8674.690628439403
 30
0.0
 40
1.0
100
AcDbArc
 50
176.088
 51
266.088
  0
ARC
  5
341
100
AcDbEntity
  8
Frei
  6
CONTINUOUS
 62
           7
100
AcDbCircle
 10
-14161.341543726776
 20
-8643.762858071594
 30
0.0
 40
1.0
100
AcDbArc
 50
86.088
 51
176.088
  0
LINE
  5
342
100
AcDbEntity
  8
Frei
  6
CONTINUOUS
 62
           7
100
AcDbLine
 10
-14416.750938130956
 20
-8627.673383232075
 30
0.0
 11
-14416.750938130957
 21
-8697.673383232075
 31
0.0
  0
LINE
  5
343
100
AcDbEntity
  8
Frei
  6
CONTINUOUS
 62
           7
100
AcDbLine
 10
-13898.862053130957
 20
-8697.673383232086
 30
0.0
 11
-13898.862053130955
 21
-8627.673383232086
 31
0.0
  0
LINE
  5
344
100
AcDbEntity
  8
Frei
  6
CONTINUOUS
 62
          15
100
AcDbLine
 10
-14225.680737862303
 20
-8627.673383232079
 30
0.0
 11
-14416.750938130956
 21
-8627.673383232075
 31
0.0
  0
LINE
  5
345
100
AcDbEntity
  8
Frei
  6
GESTRICHELT
 62
          15
100
AcDbLine
 10
-14188.489585649244
 20
-8627.673383232079
 30
0.0
 11
-14225.680737862303
 21
-8627.673383232079
 31
0.0
  0
LINE
  5
346
100
AcDbEntity
  8
Frei
  6
CONTINUOUS
 62
          15
100
AcDbLine
 10
-13898.861991130956
 20
-8627.673383232086
 30
0.0
 11
-14188.489585649246
 21
-8627.673383232079
 31
0.0
  0
LINE
  5
347
100
AcDbEntity
  8
Frei
  6
CONTINUOUS
 62
          15
100
AcDbLine
 10
-14218.151916025578
 20
-8697.673383232079
 30
0.0
 11
-14416.750938130957
 21
-8697.673383232075
 31
0.0
  0
LINE
  5
348
100
AcDbEntity
  8
Frei
  6
GESTRICHELT
 62
          15
100
AcDbLine
 10
-14168.035144542653
 20
-8697.673383232081
 30
0.0
 11
-14218.151916025578
 21
-8697.673383232079
 31
0.0
  0
LINE
  5
349
100
AcDbEntity
  8
Frei
  6
CONTINUOUS
 62
          15
100
AcDbLine
 10
-14004.654469508314
 20
-8697.673383232084
 30
0.0
 11
-14168.035144542653
 21
-8697.673383232081
 31
0.0
  0
LINE
  5
34A
100
AcDbEntity
  8
Frei
  6
GESTRICHELT
 62
          15
100
AcDbLine
 10
-13976.589077477875
 20
-8697.673383232086
 30
0.0
 11
-14004.654469508314
 21
-8697.673383232084
 31
0.0
  0
LINE
  5
34B
100
AcDbEntity
  8
Frei
  6
CONTINUOUS
 62
          15
100
AcDbLine
 10
-13949.025607456229
 20
-8697.673383232086
 30
0.0
 11
-13976.589077477875
 21
-8697.673383232086
 31
0.0
  0
LINE
  5
34C
100
AcDbEntity
  8
Frei
  6
GESTRICHELT
 62
          15
100
AcDbLine
 10
-13942.222025826606
 20
-8697.673383232086
 30
0.0
 11
-13949.025607456229
 21
-8697.673383232086
 31
0.0
  0
LINE
  5
34D
100
AcDbEntity
  8
Frei
  6
CONTINUOUS
 62
          15
100
AcDbLine
 10
-13898.861991130958
 20
-8697.673383232086
 30
0.0
 11
-13942.222025826606
 21
-8697.673383232086
 31
0.0
  0
TEXT
  5
34E
100
AcDbEntity
  8
FREI
  6
CONTINUOUS
 62
          15
100
AcDbText
 10
-14513.341773720775
 20
-8769.451334052179
 30
0.0
 40
3.527777671814
  1
160-701
 41
0.899999979725
  7
GOTHICG
100
AcDbText
  0
ENDSEC
  0
SECTION
  2
OBJECTS
  0
DICTIONARY
  5
19
100
AcDbDictionary
  3
ACAD_GROUP
350
1A
  3
ACAD_MLINESTYLE
350
1B
  0
DICTIONARY
  5
1A
102
{ACAD_REACTORS
330
19
102
}
100
AcDbDictionary
  0
DICTIONARY
  5
1B
102
{ACAD_REACTORS
330
19
102
}
100
AcDbDictionary
  3
STANDARD
350
1C
  0
MLINESTYLE
  5
1C
102
{ACAD_REACTORS
330
1B
102
}
100
AcDbMlineStyle
  2
STANDARD
 70
           0
  3

 62
           0
 51
90.0
 52
90.0
 71
           2
 49
0.5
 62
         256
  6
BYLAYER
 49
-0.5
 62
         256
  6
BYLAYER
  0
ENDSEC
  0
EOF
