  0
SECTION
  2
HEADER
  9
$ACADVER
  1
AC1012
  9
$DWGCODEPAGE
  3
dos850
  9
$INSBASE
 10
0.0
 20
0.0
 30
0.0
  9
$EXTMIN
 10
-14603.314787631216
 20
-9503.142739211486
 30
0.0
  9
$EXTMAX
 10
-13933.952155966625
 20
-9129.379475657042
 30
0.0
  9
$LIMMIN
 10
-14603.314787631216
 20
-9503.142739211486
  9
$LIMMAX
 10
-13933.952155966625
 20
-9129.379475657042
  9
$ORTHOMODE
 70
           0
  9
$REGENMODE
 70
           1
  9
$FILLMODE
 70
           1
  9
$QTEXTMODE
 70
           0
  9
$MIRRTEXT
 70
           1
  9
$DRAGMODE
 70
           2
  9
$LTSCALE
 40
5.0
  9
$OSMODE
 70
           0
  9
$ATTMODE
 70
           1
  9
$TEXTSIZE
 40
0.2
  9
$TRACEWID
 40
0.05
  9
$TEXTSTYLE
  7
TXT
  9
$CLAYER
  8
0
  9
$CELTYPE
  6
CONTINUOUS
  9
$CECOLOR
 62
         256
  9
$CELTSCALE
 40
1.0
  9
$DELOBJ
 70
           1
  9
$DISPSILH
 70
           0
  9
$DIMSCALE
 40
1.0
  9
$DIMASZ
 40
3.5
  9
$DIMEXO
 40
0.0625
  9
$DIMDLI
 40
0.38
  9
$DIMRND
 40
0.0
  9
$DIMDLE
 40
0.0
  9
$DIMEXE
 40
0.18
  9
$DIMTP
 40
0.0
  9
$DIMTM
 40
0.0
  9
$DIMTXT
 40
3.5
  9
$DIMCEN
 40
0.09
  9
$DIMTSZ
 40
0.0
  9
$DIMTOL
 70
           0
  9
$DIMLIM
 70
           0
  9
$DIMTIH
 70
           1
  9
$DIMTOH
 70
           1
  9
$DIMSE1
 70
           0
  9
$DIMSE2
 70
           0
  9
$DIMTAD
 70
           0
  9
$DIMZIN
 70
           0
  9
$DIMBLK
  1

  9
$DIMASO
 70
           1
  9
$DIMSHO
 70
           1
  9
$DIMPOST
  1

  9
$DIMAPOST
  1

  9
$DIMALT
 70
           0
  9
$DIMALTD
 70
           2
  9
$DIMALTF
 40
25.4
  9
$DIMLFAC
 40
1.0
  9
$DIMTOFL
 70
           0
  9
$DIMTVP
 40
0.0
  9
$DIMTIX
 70
           0
  9
$DIMSOXD
 70
           0
  9
$DIMSAH
 70
           0
  9
$DIMBLK1
  1

  9
$DIMBLK2
  1

  9
$DIMSTYLE
  2
STANDARD
  9
$DIMCLRD
 70
           0
  9
$DIMCLRE
 70
           0
  9
$DIMCLRT
 70
           0
  9
$DIMTFAC
 40
1.0
  9
$DIMGAP
 40
0.09
  9
$DIMJUST
 70
           0
  9
$DIMSD1
 70
           0
  9
$DIMSD2
 70
           0
  9
$DIMTOLJ
 70
           1
  9
$DIMTZIN
 70
           0
  9
$DIMALTZ
 70
           0
  9
$DIMALTTZ
 70
           0
  9
$DIMFIT
 70
           3
  9
$DIMUPT
 70
           0
  9
$DIMUNIT
 70
           2
  9
$DIMDEC
 70
           4
  9
$DIMTDEC
 70
           4
  9
$DIMALTU
 70
           2
  9
$DIMALTTD
 70
           2
  9
$DIMTXSTY
  7
TXT
  9
$DIMAUNIT
 70
           0
  9
$LUNITS
 70
           2
  9
$LUPREC
 70
           3
  9
$SKETCHINC
 40
0.1
  9
$FILLETRAD
 40
0.0
  9
$AUNITS
 70
           0
  9
$AUPREC
 70
           3
  9
$MENU
  1
acad
  9
$ELEVATION
 40
0.0
  9
$PELEVATION
 40
0.0
  9
$THICKNESS
 40
0.0
  9
$LIMCHECK
 70
           0
  9
$BLIPMODE
 70
           1
  9
$CHAMFERA
 40
0.0
  9
$CHAMFERB
 40
0.0
  9
$CHAMFERC
 40
0.0
  9
$CHAMFERD
 40
0.0
  9
$SKPOLY
 70
           0
  9
$TDCREATE
 40
0.000000000
  9
$TDUPDATE
 40
0.000000000
  9
$TDINDWG
 40
0.0000000000
  9
$TDUSRTIMER
 40
0.0000000000
  9
$USRTIMER
 70
           1
  9
$ANGBASE
 50
0.0
  9
$ANGDIR
 70
           0
  9
$PDMODE
 70
           2
  9
$PDSIZE
 40
0.5
  9
$PLINEWID
 40
0.0
  9
$COORDS
 70
           0
  9
$SPLFRAME
 70
           0
  9
$SPLINETYPE
 70
           6
  9
$SPLINESEGS
 70
           8
  9
$ATTDIA
 70
           0
  9
$ATTREQ
 70
           1
  9
$HANDLING
 70
           1
  9
$HANDSEED
  5
3AB
  9
$SURFTAB1
 70
           6
  9
$SURFTAB2
 70
           6
  9
$SURFTYPE
 70
           6
  9
$SURFU
 70
           6
  9
$SURFV
 70
           6
  9
$UCSNAME
  2

  9
$UCSORG
 10
0.0
 20
0.0
 30
0.0
  9
$UCSXDIR
 10
1.0
 20
0.0
 30
0.0
  9
$UCSYDIR
 10
0.0
 20
1.0
 30
0.0
  9
$PUCSNAME
  2

  9
$PUCSORG
 10
0.0
 20
0.0
 30
0.0
  9
$PUCSXDIR
 10
1.0
 20
0.0
 30
0.0
  9
$PUCSYDIR
 10
0.0
 20
1.0
 30
0.0
  9
$USERI1
 70
           0
  9
$USERI2
 70
           0
  9
$USERI3
 70
           0
  9
$USERI4
 70
           0
  9
$USERI5
 70
           0
  9
$USERR1
 40
0.0
  9
$USERR2
 40
0.0
  9
$USERR3
 40
0.0
  9
$USERR4
 40
0.0
  9
$USERR5
 40
0.0
  9
$WORLDVIEW
 70
           1
  9
$SHADEDGE
 70
           3
  9
$SHADEDIF
 70
          70
  9
$TILEMODE
 70
           1
  9
$MAXACTVP
 70
          16
  9
$PINSBASE
 10
0.0
 20
0.0
 30
0.0
  9
$PLIMCHECK
 70
           0
  9
$PEXTMIN
 10
1.000000000000E+20
 20
1.000000000000E+20
 30
1.000000000000E+20
  9
$PEXTMAX
 10
-1.000000000000E+20
 20
-1.000000000000E+20
 30
-1.000000000000E+20
  9
$PLIMMIN
 10
0.0
 20
0.0
  9
$PLIMMAX
 10
12.0
 20
9.0
  9
$UNITMODE
 70
           0
  9
$VISRETAIN
 70
           0
  9
$PLINEGEN
 70
           1
  9
$PSLTSCALE
 70
           0
  9
$TREEDEPTH
 70
        3020
  9
$PICKSTYLE
 70
           1
  9
$CMLSTYLE
  2
STANDARD
  9
$CMLJUST
 70
           0
  9
$CMLSCALE
 40
1.0
  9
$SAVEIMAGES
 70
           0
  0
ENDSEC
  0
SECTION
  2
CLASSES
  0
CLASS
  1
LWPOLYLINE
  2
AcDbPolyline
  3
"AutoCAD"
 90
        0
280
           0
281
           1
  0
CLASS
  1
IMAGE
  2
AcDbRasterImage
  3
ISM
 90
      127
280
           0
281
           1
  0
CLASS
  1
OLE2FRAME
  2
AcDbOle2Frame
  3
""
 90
        0
280
           0
281
           1
  0
CLASS
  1
HATCH
  2
AcDbHatch
  3
"ACAD_SEDONA"
 90
        0
280
           0
281
           1
  0
CLASS
  1
DICTIONARYVAR
  2
AcDbDictionaryVar
  3
"AutoCAD"
 90
        0
280
           0
281
           0
  0
CLASS
  1
RASTERVARIABLES
  2
AcDbRasterVariables
  3
ISM
 90
        0
280
           0
281
           0
  0
CLASS
  1
IMAGEDEF
  2
AcDbRasterImageDef
  3
ISM
 90
        0
280
           0
281
           0
  0
CLASS
  1
IMAGEDEF_REACTOR
  2
AcDbRasterImageDefReactor
  3
ISM
 90
        1
280
           0
281
           0
  0
CLASS
  1
IDBUFFER
  2
AcDbIdBuffer
  3
"Acad"
 90
        0
280
           0
281
           0
  0
CLASS
  1
SPATIAL_FILTER
  2
AcDbSpatialFilter
  3
"Acad"
 90
        0
280
           0
281
           0
  0
CLASS
  1
XRECORD
  2
AcDbXrecord
  3
"<Built In>"
 90
        0
280
           0
281
           0
  0
ENDSEC
  0
SECTION
  2
TABLES
  0
TABLE
  2
VPORT
  5
7
100
AcDbSymbolTable
 70
           1
  0
VPORT
  5
15
100
AcDbSymbolTableRecord
100
AcDbViewportTableRecord
  2
*ACTIVE
 70
           0
 10
0.0
 20
0.0
 11
1.0
 21
1.0
 12
6.591288
 22
4.579184
 13
0.0
 23
0.0
 14
1.0
 24
1.0
 15
0.0
 25
0.0
 16
0.0
 26
0.0
 36
1.0
 17
0.0
 27
0.0
 37
0.0
 40
9.158369
 41
0.688564
 42
50.0
 43
0.0
 44
0.0
 50
0.0
 51
0.0
 71
           0
 72
         100
 73
           1
 74
           1
 75
           0
 76
           0
 77
           0
 78
           0
  0
ENDTAB
  0
TABLE
  2
LTYPE
  5
4
100
AcDbSymbolTable
 70
           5
  0
LTYPE
  5
11
100
AcDbSymbolTableRecord
100
AcDbLinetypeTableRecord
  2
BYBLOCK
 70
           0
  3

 72
          65
 73
           0
 40
0.0
  0
LTYPE
  5
12
100
AcDbSymbolTableRecord
100
AcDbLinetypeTableRecord
  2
BYLAYER
 70
           0
  3

 72
          65
 73
           0
 40
0.0
  0
LTYPE
  5
13
100
AcDbSymbolTableRecord
100
AcDbLinetypeTableRecord
  2
CONTINUOUS
 70
           0
  3
Solid line
 72
          65
 73
           0
 40
0.0
  0
LTYPE
  5
1D
100
AcDbSymbolTableRecord
100
AcDbLinetypeTableRecord
  2
GESTRICHELT
 70
           0
  3

 72
          65
 73
           2
 40
0.75
 49
0.5
 74
           0
 49
-0.25
 74
           0
  0
LTYPE
  5
1E
100
AcDbSymbolTableRecord
100
AcDbLinetypeTableRecord
  2
STRICHPUNKT
 70
           0
  3

 72
          65
 73
           4
 40
1.0
 49
0.5
 74
           0
 49
-0.25
 74
           0
 49
0.0
 74
           0
 49
-0.25
 74
           0
  0
ENDTAB
  0
TABLE
  2
LAYER
  5
2
100
AcDbSymbolTable
 70
           3
  0
LAYER
  5
14
100
AcDbSymbolTableRecord
100
AcDbLayerTableRecord
  2
0
 70
           0
 62
           7
  6
CONTINUOUS
  0
LAYER
  5
20
100
AcDbSymbolTableRecord
100
AcDbLayerTableRecord
  2
FREI
 70
           0
 62
           7
  6
CONTINUOUS
  0
LAYER
  5
21
100
AcDbSymbolTableRecord
100
AcDbLayerTableRecord
  2
Frei
 70
           0
 62
           7
  6
CONTINUOUS
  0
ENDTAB
  0
TABLE
  2
STYLE
  5
3
100
AcDbSymbolTable
 70
           2
  0
STYLE
  5
17
100
AcDbSymbolTableRecord
100
AcDbTextStyleTableRecord
  2
TXT
 70
           0
 40
3.5
 41
1.0
 50
0.0
 71
           0
 42
3.5
  3
TXT
  4

  0
STYLE
  5
1F
100
AcDbSymbolTableRecord
100
AcDbTextStyleTableRecord
  2
GOTHICG
 70
           0
 40
3.5
 41
1.0
 50
0.0
 71
           0
 42
3.5
  3
GOTHICG
  4

  0
ENDTAB
  0
TABLE
  2
VIEW
  5
5
100
AcDbSymbolTable
 70
           0
  0
ENDTAB
  0
TABLE
  2
UCS
  5
6
100
AcDbSymbolTable
 70
           0
  0
ENDTAB
  0
TABLE
  2
APPID
  5
8
100
AcDbSymbolTable
 70
           2
  0
APPID
  5
16
100
AcDbSymbolTableRecord
100
AcDbRegAppTableRecord
  2
ACAD
 70
           0
  0
APPID
  5
22
100
AcDbSymbolTableRecord
100
AcDbRegAppTableRecord
  2
MegaCADPntStyle
 70
           0
  0
ENDTAB
  0
TABLE
  2
DIMSTYLE
  5
9
100
AcDbSymbolTable
 70
           1
  0
DIMSTYLE
105
18
100
AcDbSymbolTableRecord
100
AcDbDimStyleTableRecord
  2
STANDARD
 70
           0
  3

  4

  5

  6

  7

 40
1.0
 41
0.18
 42
0.0625
 43
0.38
 44
0.18
 45
0.0
 46
0.0
 47
0.0
 48
0.0
140
0.18
141
0.09
142
0.0
143
25.4
144
1.0
145
0.0
146
1.0
147
0.09
 71
           0
 72
           0
 73
           1
 74
           1
 75
           0
 76
           0
 77
           0
 78
           0
170
           0
171
           2
172
           0
173
           0
174
           0
175
           0
176
           0
177
           0
178
           0
270
           2
271
           4
272
           4
273
           2
274
           2
340
17
275
           0
280
           0
281
           0
282
           0
283
           1
284
           0
285
           0
286
           0
287
           0
288
           0
  0
ENDTAB
  0
TABLE
  2
BLOCK_RECORD
  5
1
100
AcDbSymbolTable
 70
           3
  0
BLOCK_RECORD
  5
A
100
AcDbSymbolTableRecord
100
AcDbBlockTableRecord
  2
*MODEL_SPACE
  0
BLOCK_RECORD
  5
B
100
AcDbSymbolTableRecord
100
AcDbBlockTableRecord
  2
*PAPER_SPACE
  0
BLOCK_RECORD
  5
23
100
AcDbSymbolTableRecord
100
AcDbBlockTableRecord
  2
ELIPPSE
  0
BLOCK_RECORD
  5
24
100
AcDbSymbolTableRecord
100
AcDbBlockTableRecord
  2
MAK1
  0
BLOCK_RECORD
  5
25
100
AcDbSymbolTableRecord
100
AcDbBlockTableRecord
  2
MAK2
  0
ENDTAB
  0
ENDSEC
  0
SECTION
  2
BLOCKS
  0
BLOCK
  5
D
100
AcDbEntity
  8
0
100
AcDbBlockBegin
  2
*MODEL_SPACE
 70
           0
 10
0.0
 20
0.0
 30
0.0
  3
*MODEL_SPACE
  1

  0
ENDBLK
  5
E
100
AcDbEntity
  8
0
100
AcDbBlockEnd
  0
BLOCK
  5
F
100
AcDbEntity
 67
           1
  8
0
100
AcDbBlockBegin
  2
*PAPER_SPACE
 70
           0
 10
0.0
 20
0.0
 30
0.0
  3
*PAPER_SPACE
  1

  0
ENDBLK
  5
10
100
AcDbEntity
 67
           1
  8
0
100
AcDbBlockEnd
  0
BLOCK
  5
34F
100
AcDbEntity
  8
0
100
AcDbBlockBegin
  2
ELIPPSE
 70
          64
 10
0.0
 20
0.0
 30
0.0
  3
ELIPPSE
  1

  0
CIRCLE
  5
350
100
AcDbEntity
  8
0
  6
BYBLOCK
 62
           0
100
AcDbCircle
 10
0.0
 20
0.0
 30
0.0
 40
1.0
  0
ENDBLK
  5
351
100
AcDbEntity
  8
0
  6
BYBLOCK
 62
           0
100
AcDbBlockEnd
  0
BLOCK
  5
352
100
AcDbEntity
  8
0
100
AcDbBlockBegin
  2
MAK1
 70
          64
 10
0.0
 20
0.0
 30
0.0
  3
MAK1
  1

  0
LINE
  5
353
100
AcDbEntity
  8
Frei
  6
CONTINUOUS
 62
           2
100
AcDbLine
 10
191.903508353413
 20
615.106916893557
 30
0.0
 11
192.293358480831
 21
615.496767020979
 31
0.0
  0
LINE
  5
354
100
AcDbEntity
  8
Frei
  6
CONTINUOUS
 62
           2
100
AcDbLine
 10
191.903508353411
 20
614.046256721778
 30
0.0
 11
193.35401865261
 21
615.496767020977
 31
0.0
  0
LINE
  5
355
100
AcDbEntity
  8
Frei
  6
CONTINUOUS
 62
           2
100
AcDbLine
 10
191.903508353411
 20
612.985596549999
 30
0.0
 11
193.903508353411
 21
614.985596549999
 31
0.0
  0
LINE
  5
356
100
AcDbEntity
  8
Frei
  6
CONTINUOUS
 62
           2
100
AcDbLine
 10
191.903508353413
 20
611.92493637822
 30
0.0
 11
193.903508353413
 21
613.92493637822
 31
0.0
  0
LINE
  5
357
100
AcDbEntity
  8
Frei
  6
CONTINUOUS
 62
           2
100
AcDbLine
 10
191.903508353413
 20
610.864276206441
 30
0.0
 11
193.903508353413
 21
612.864276206441
 31
0.0
  0
LINE
  5
358
100
AcDbEntity
  8
Frei
  6
CONTINUOUS
 62
           2
100
AcDbLine
 10
191.903508353411
 20
609.80361603466
 30
0.0
 11
193.903508353411
 21
611.803616034662
 31
0.0
  0
LINE
  5
359
100
AcDbEntity
  8
Frei
  6
CONTINUOUS
 62
           2
100
AcDbLine
 10
191.903508353411
 20
608.742955862881
 30
0.0
 11
193.903508353411
 21
610.742955862881
 31
0.0
  0
LINE
  5
35A
100
AcDbEntity
  8
Frei
  6
CONTINUOUS
 62
           2
100
AcDbLine
 10
191.903508353413
 20
607.682295691102
 30
0.0
 11
193.903508353413
 21
609.682295691102
 31
0.0
  0
LINE
  5
35B
100
AcDbEntity
  8
Frei
  6
CONTINUOUS
 62
           2
100
AcDbLine
 10
191.903508353411
 20
606.621635519321
 30
0.0
 11
193.903508353411
 21
608.621635519319
 31
0.0
  0
LINE
  5
35C
100
AcDbEntity
  8
Frei
  6
CONTINUOUS
 62
           2
100
AcDbLine
 10
191.903508353413
 20
605.560975347544
 30
0.0
 11
193.903508353411
 21
607.560975347542
 31
0.0
  0
LINE
  5
35D
100
AcDbEntity
  8
Frei
  6
CONTINUOUS
 62
           2
100
AcDbLine
 10
191.903508353411
 20
604.500315175761
 30
0.0
 11
193.903508353411
 21
606.500315175759
 31
0.0
  0
LINE
  5
35E
100
AcDbEntity
  8
Frei
  6
CONTINUOUS
 62
           2
100
AcDbLine
 10
191.903508353413
 20
603.43965500398
 30
0.0
 11
193.903508353413
 21
605.439655003982
 31
0.0
  0
LINE
  5
35F
100
AcDbEntity
  8
Frei
  6
CONTINUOUS
 62
           2
100
AcDbLine
 10
191.903508353411
 20
602.378994832201
 30
0.0
 11
193.903508353411
 21
604.378994832201
 31
0.0
  0
LINE
  5
360
100
AcDbEntity
  8
Frei
  6
CONTINUOUS
 62
           2
100
AcDbLine
 10
191.903508353413
 20
601.31833466042
 30
0.0
 11
193.903508353411
 21
603.318334660422
 31
0.0
  0
LINE
  5
361
100
AcDbEntity
  8
Frei
  6
CONTINUOUS
 62
           2
100
AcDbLine
 10
191.903508353411
 20
600.257674488641
 30
0.0
 11
193.903508353411
 21
602.257674488641
 31
0.0
  0
LINE
  5
362
100
AcDbEntity
  8
Frei
  6
CONTINUOUS
 62
           2
100
AcDbLine
 10
191.903508353411
 20
599.197014316864
 30
0.0
 11
193.903508353413
 21
601.197014316862
 31
0.0
  0
LINE
  5
363
100
AcDbEntity
  8
Frei
  6
CONTINUOUS
 62
           2
100
AcDbLine
 10
191.903508353411
 20
598.136354145083
 30
0.0
 11
193.903508353411
 21
600.136354145085
 31
0.0
  0
LINE
  5
364
100
AcDbEntity
  8
Frei
  6
CONTINUOUS
 62
           2
100
AcDbLine
 10
191.903508353413
 20
597.075693973304
 30
0.0
 11
193.903508353413
 21
599.075693973304
 31
0.0
  0
LINE
  5
365
100
AcDbEntity
  8
Frei
  6
CONTINUOUS
 62
           2
100
AcDbLine
 10
191.903508353411
 20
596.015033801523
 30
0.0
 11
193.903508353411
 21
598.015033801525
 31
0.0
  0
LINE
  5
366
100
AcDbEntity
  8
Frei
  6
CONTINUOUS
 62
           2
100
AcDbLine
 10
192.445901744646
 20
595.496767020975
 30
0.0
 11
193.903508353411
 21
596.954373629746
 31
0.0
  0
LINE
  5
367
100
AcDbEntity
  8
Frei
  6
CONTINUOUS
 62
           2
100
AcDbLine
 10
193.506561916425
 20
595.496767020979
 30
0.0
 11
193.903508353413
 21
595.893713457961
 31
0.0
  0
LINE
  5
368
100
AcDbEntity
  8
Frei
  6
CONTINUOUS
 62
           2
100
AcDbLine
 10
192.573740611429
 20
595.496767020979
 30
0.0
 11
191.903508353411
 21
596.166999278998
 31
0.0
  0
LINE
  5
369
100
AcDbEntity
  8
Frei
  6
CONTINUOUS
 62
           2
100
AcDbLine
 10
193.634400783209
 20
595.496767020975
 30
0.0
 11
191.903508353413
 21
597.227659450777
 31
0.0
  0
LINE
  5
36A
100
AcDbEntity
  8
Frei
  6
CONTINUOUS
 62
           2
100
AcDbLine
 10
193.903508353411
 20
596.288319622554
 30
0.0
 11
191.903508353411
 21
598.288319622556
 31
0.0
  0
LINE
  5
36B
100
AcDbEntity
  8
Frei
  6
CONTINUOUS
 62
           2
100
AcDbLine
 10
193.903508353413
 20
597.348979794335
 30
0.0
 11
191.903508353413
 21
599.348979794335
 31
0.0
  0
LINE
  5
36C
100
AcDbEntity
  8
Frei
  6
CONTINUOUS
 62
           2
100
AcDbLine
 10
193.903508353413
 20
598.409639966114
 30
0.0
 11
191.903508353411
 21
600.409639966114
 31
0.0
  0
LINE
  5
36D
100
AcDbEntity
  8
Frei
  6
CONTINUOUS
 62
           2
100
AcDbLine
 10
193.903508353411
 20
599.470300137893
 30
0.0
 11
191.903508353413
 21
601.470300137893
 31
0.0
  0
LINE
  5
36E
100
AcDbEntity
  8
Frei
  6
CONTINUOUS
 62
           2
100
AcDbLine
 10
193.903508353411
 20
600.530960309674
 30
0.0
 11
191.903508353411
 21
602.530960309674
 31
0.0
  0
LINE
  5
36F
100
AcDbEntity
  8
Frei
  6
CONTINUOUS
 62
           2
100
AcDbLine
 10
193.903508353413
 20
601.591620481453
 30
0.0
 11
191.903508353413
 21
603.591620481453
 31
0.0
  0
LINE
  5
370
100
AcDbEntity
  8
Frei
  6
CONTINUOUS
 62
           2
100
AcDbLine
 10
193.903508353413
 20
602.652280653234
 30
0.0
 11
191.903508353413
 21
604.652280653238
 31
0.0
  0
LINE
  5
371
100
AcDbEntity
  8
Frei
  6
CONTINUOUS
 62
           2
100
AcDbLine
 10
193.903508353411
 20
603.712940825015
 30
0.0
 11
191.903508353411
 21
605.712940825015
 31
0.0
  0
LINE
  5
372
100
AcDbEntity
  8
Frei
  6
CONTINUOUS
 62
           2
100
AcDbLine
 10
193.903508353413
 20
604.773600996794
 30
0.0
 11
191.903508353411
 21
606.773600996794
 31
0.0
  0
LINE
  5
373
100
AcDbEntity
  8
Frei
  6
CONTINUOUS
 62
           2
100
AcDbLine
 10
193.903508353413
 20
605.834261168575
 30
0.0
 11
191.903508353411
 21
607.834261168575
 31
0.0
  0
LINE
  5
374
100
AcDbEntity
  8
Frei
  6
CONTINUOUS
 62
           2
100
AcDbLine
 10
193.903508353413
 20
606.894921340354
 30
0.0
 11
191.903508353413
 21
608.894921340354
 31
0.0
  0
LINE
  5
375
100
AcDbEntity
  8
Frei
  6
CONTINUOUS
 62
           2
100
AcDbLine
 10
193.903508353411
 20
607.955581512133
 30
0.0
 11
191.903508353411
 21
609.955581512133
 31
0.0
  0
LINE
  5
376
100
AcDbEntity
  8
Frei
  6
CONTINUOUS
 62
           2
100
AcDbLine
 10
193.903508353413
 20
609.016241683912
 30
0.0
 11
191.903508353411
 21
611.016241683912
 31
0.0
  0
LINE
  5
377
100
AcDbEntity
  8
Frei
  6
CONTINUOUS
 62
           2
100
AcDbLine
 10
193.903508353413
 20
610.076901855691
 30
0.0
 11
191.903508353411
 21
612.076901855691
 31
0.0
  0
LINE
  5
378
100
AcDbEntity
  8
Frei
  6
CONTINUOUS
 62
           2
100
AcDbLine
 10
193.903508353413
 20
611.137562027472
 30
0.0
 11
191.903508353413
 21
613.137562027472
 31
0.0
  0
LINE
  5
379
100
AcDbEntity
  8
Frei
  6
CONTINUOUS
 62
           2
100
AcDbLine
 10
193.903508353411
 20
612.198222199251
 30
0.0
 11
191.903508353411
 21
614.198222199251
 31
0.0
  0
LINE
  5
37A
100
AcDbEntity
  8
Frei
  6
CONTINUOUS
 62
           2
100
AcDbLine
 10
193.903508353413
 20
613.25888237103
 30
0.0
 11
191.903508353411
 21
615.25888237103
 31
0.0
  0
LINE
  5
37B
100
AcDbEntity
  8
Frei
  6
CONTINUOUS
 62
           2
100
AcDbLine
 10
193.903508353413
 20
614.319542542811
 30
0.0
 11
192.726283875247
 21
615.496767020977
 31
0.0
  0
LINE
  5
37C
100
AcDbEntity
  8
Frei
  6
CONTINUOUS
 62
           2
100
AcDbLine
 10
193.903508353411
 20
615.380202714592
 30
0.0
 11
193.786944047026
 21
615.496767020979
 31
0.0
  0
ENDBLK
  5
37D
100
AcDbEntity
  8
0
  6
BYBLOCK
 62
           0
100
AcDbBlockEnd
  0
BLOCK
  5
37E
100
AcDbEntity
  8
0
100
AcDbBlockBegin
  2
MAK2
 70
          64
 10
0.0
 20
0.0
 30
0.0
  3
MAK2
  1

  0
LINE
  5
37F
100
AcDbEntity
  8
Frei
  6
CONTINUOUS
 62
           2
100
AcDbLine
 10
-32.096491646589
 20
614.906213139102
 30
0.0
 11
-31.505937764712
 21
615.496767020977
 31
0.0
  0
LINE
  5
380
100
AcDbEntity
  8
Frei
  6
CONTINUOUS
 62
           2
100
AcDbLine
 10
-32.096491646589
 20
613.845552967323
 30
0.0
 11
-30.445277592933
 21
615.496767020977
 31
0.0
  0
LINE
  5
381
100
AcDbEntity
  8
Frei
  6
CONTINUOUS
 62
           2
100
AcDbLine
 10
-32.096491646589
 20
612.784892795542
 30
0.0
 11
-30.096491646591
 21
614.784892795544
 31
0.0
  0
LINE
  5
382
100
AcDbEntity
  8
Frei
  6
CONTINUOUS
 62
           2
100
AcDbLine
 10
-32.096491646589
 20
611.724232623763
 30
0.0
 11
-30.096491646591
 21
613.724232623759
 31
0.0
  0
LINE
  5
383
100
AcDbEntity
  8
Frei
  6
CONTINUOUS
 62
           2
100
AcDbLine
 10
-32.096491646591
 20
610.663572451982
 30
0.0
 11
-30.096491646591
 21
612.66357245198
 31
0.0
  0
LINE
  5
384
100
AcDbEntity
  8
Frei
  6
CONTINUOUS
 62
           2
100
AcDbLine
 10
-32.096491646589
 20
609.602912280201
 30
0.0
 11
-30.096491646591
 21
611.602912280201
 31
0.0
  0
LINE
  5
385
100
AcDbEntity
  8
Frei
  6
CONTINUOUS
 62
           2
100
AcDbLine
 10
-32.096491646587
 20
608.542252108422
 30
0.0
 11
-30.096491646589
 21
610.542252108422
 31
0.0
  0
LINE
  5
386
100
AcDbEntity
  8
Frei
  6
CONTINUOUS
 62
           2
100
AcDbLine
 10
-32.096491646589
 20
607.481591936643
 30
0.0
 11
-30.096491646591
 21
609.481591936643
 31
0.0
  0
LINE
  5
387
100
AcDbEntity
  8
Frei
  6
CONTINUOUS
 62
           2
100
AcDbLine
 10
-32.096491646589
 20
606.420931764862
 30
0.0
 11
-30.096491646591
 21
608.420931764864
 31
0.0
  0
LINE
  5
388
100
AcDbEntity
  8
Frei
  6
CONTINUOUS
 62
           2
100
AcDbLine
 10
-32.096491646589
 20
605.360271593083
 30
0.0
 11
-30.096491646591
 21
607.360271593083
 31
0.0
  0
LINE
  5
389
100
AcDbEntity
  8
Frei
  6
CONTINUOUS
 62
           2
100
AcDbLine
 10
-32.096491646587
 20
604.299611421304
 30
0.0
 11
-30.096491646589
 21
606.299611421304
 31
0.0
  0
LINE
  5
38A
100
AcDbEntity
  8
Frei
  6
CONTINUOUS
 62
           2
100
AcDbLine
 10
-32.096491646591
 20
603.238951249525
 30
0.0
 11
-30.096491646591
 21
605.238951249523
 31
0.0
  0
LINE
  5
38B
100
AcDbEntity
  8
Frei
  6
CONTINUOUS
 62
           2
100
AcDbLine
 10
-32.096491646589
 20
602.178291077746
 30
0.0
 11
-30.096491646591
 21
604.178291077746
 31
0.0
  0
LINE
  5
38C
100
AcDbEntity
  8
Frei
  6
CONTINUOUS
 62
           2
100
AcDbLine
 10
-32.096491646589
 20
601.117630905965
 30
0.0
 11
-30.096491646591
 21
603.117630905967
 31
0.0
  0
LINE
  5
38D
100
AcDbEntity
  8
Frei
  6
CONTINUOUS
 62
           2
100
AcDbLine
 10
-32.096491646587
 20
600.056970734186
 30
0.0
 11
-30.096491646589
 21
602.056970734186
 31
0.0
  0
LINE
  5
38E
100
AcDbEntity
  8
Frei
  6
CONTINUOUS
 62
           2
100
AcDbLine
 10
-32.096491646591
 20
598.996310562407
 30
0.0
 11
-30.096491646593
 21
600.996310562403
 31
0.0
  0
LINE
  5
38F
100
AcDbEntity
  8
Frei
  6
CONTINUOUS
 62
           2
100
AcDbLine
 10
-32.096491646589
 20
597.935650390627
 30
0.0
 11
-30.096491646591
 21
599.935650390627
 31
0.0
  0
LINE
  5
390
100
AcDbEntity
  8
Frei
  6
CONTINUOUS
 62
           2
100
AcDbLine
 10
-32.096491646589
 20
596.874990218845
 30
0.0
 11
-30.096491646591
 21
598.874990218843
 31
0.0
  0
LINE
  5
391
100
AcDbEntity
  8
Frei
  6
CONTINUOUS
 62
           2
100
AcDbLine
 10
-32.096491646587
 20
595.814330047064
 30
0.0
 11
-30.096491646589
 21
597.814330047066
 31
0.0
  0
LINE
  5
392
100
AcDbEntity
  8
Frei
  6
CONTINUOUS
 62
           2
100
AcDbLine
 10
-31.353394500899
 20
595.496767020979
 30
0.0
 11
-30.096491646593
 21
596.753669875285
 31
0.0
  0
LINE
  5
393
100
AcDbEntity
  8
Frei
  6
CONTINUOUS
 62
           2
100
AcDbLine
 10
-30.292734329116
 20
595.496767020977
 30
0.0
 11
-30.096491646591
 21
595.693009703506
 31
0.0
  0
LINE
  5
394
100
AcDbEntity
  8
Frei
  6
CONTINUOUS
 62
           2
100
AcDbLine
 10
-31.225555634113
 20
595.496767020977
 30
0.0
 11
-32.096491646591
 21
596.367703033457
 31
0.0
  0
LINE
  5
395
100
AcDbEntity
  8
Frei
  6
CONTINUOUS
 62
           2
100
AcDbLine
 10
-30.164895462332
 20
595.496767020979
 30
0.0
 11
-32.096491646589
 21
597.428363205234
 31
0.0
  0
LINE
  5
396
100
AcDbEntity
  8
Frei
  6
CONTINUOUS
 62
           2
100
AcDbLine
 10
-30.096491646591
 20
596.489023377013
 30
0.0
 11
-32.096491646589
 21
598.489023377013
 31
0.0
  0
LINE
  5
397
100
AcDbEntity
  8
Frei
  6
CONTINUOUS
 62
           2
100
AcDbLine
 10
-30.096491646591
 20
597.549683548794
 30
0.0
 11
-32.096491646589
 21
599.549683548794
 31
0.0
  0
LINE
  5
398
100
AcDbEntity
  8
Frei
  6
CONTINUOUS
 62
           2
100
AcDbLine
 10
-30.096491646591
 20
598.610343720573
 30
0.0
 11
-32.096491646591
 21
600.610343720573
 31
0.0
  0
LINE
  5
399
100
AcDbEntity
  8
Frei
  6
CONTINUOUS
 62
           2
100
AcDbLine
 10
-30.096491646589
 20
599.671003892352
 30
0.0
 11
-32.096491646587
 21
601.671003892354
 31
0.0
  0
LINE
  5
39A
100
AcDbEntity
  8
Frei
  6
CONTINUOUS
 62
           2
100
AcDbLine
 10
-30.096491646591
 20
600.731664064131
 30
0.0
 11
-32.096491646589
 21
602.731664064133
 31
0.0
  0
LINE
  5
39B
100
AcDbEntity
  8
Frei
  6
CONTINUOUS
 62
           2
100
AcDbLine
 10
-30.096491646591
 20
601.79232423591
 30
0.0
 11
-32.096491646589
 21
603.79232423591
 31
0.0
  0
LINE
  5
39C
100
AcDbEntity
  8
Frei
  6
CONTINUOUS
 62
           2
100
AcDbLine
 10
-30.096491646591
 20
602.852984407695
 30
0.0
 11
-32.096491646591
 21
604.852984407695
 31
0.0
  0
LINE
  5
39D
100
AcDbEntity
  8
Frei
  6
CONTINUOUS
 62
           2
100
AcDbLine
 10
-30.096491646591
 20
603.91364457947
 30
0.0
 11
-32.096491646587
 21
605.91364457947
 31
0.0
  0
LINE
  5
39E
100
AcDbEntity
  8
Frei
  6
CONTINUOUS
 62
           2
100
AcDbLine
 10
-30.096491646591
 20
604.974304751253
 30
0.0
 11
-32.096491646589
 21
606.974304751253
 31
0.0
  0
LINE
  5
39F
100
AcDbEntity
  8
Frei
  6
CONTINUOUS
 62
           2
100
AcDbLine
 10
-30.096491646591
 20
606.034964923034
 30
0.0
 11
-32.096491646589
 21
608.034964923034
 31
0.0
  0
LINE
  5
3A0
100
AcDbEntity
  8
Frei
  6
CONTINUOUS
 62
           2
100
AcDbLine
 10
-30.096491646591
 20
607.095625094811
 30
0.0
 11
-32.096491646591
 21
609.095625094813
 31
0.0
  0
LINE
  5
3A1
100
AcDbEntity
  8
Frei
  6
CONTINUOUS
 62
           2
100
AcDbLine
 10
-30.096491646591
 20
608.156285266592
 30
0.0
 11
-32.096491646587
 21
610.156285266592
 31
0.0
  0
LINE
  5
3A2
100
AcDbEntity
  8
Frei
  6
CONTINUOUS
 62
           2
100
AcDbLine
 10
-30.096491646591
 20
609.216945438371
 30
0.0
 11
-32.096491646589
 21
611.216945438371
 31
0.0
  0
LINE
  5
3A3
100
AcDbEntity
  8
Frei
  6
CONTINUOUS
 62
           2
100
AcDbLine
 10
-30.096491646591
 20
610.27760561015
 30
0.0
 11
-32.096491646589
 21
612.27760561015
 31
0.0
  0
LINE
  5
3A4
100
AcDbEntity
  8
Frei
  6
CONTINUOUS
 62
           2
100
AcDbLine
 10
-30.096491646591
 20
611.338265781931
 30
0.0
 11
-32.096491646589
 21
613.338265781931
 31
0.0
  0
LINE
  5
3A5
100
AcDbEntity
  8
Frei
  6
CONTINUOUS
 62
           2
100
AcDbLine
 10
-30.096491646591
 20
612.39892595371
 30
0.0
 11
-32.096491646587
 21
614.39892595371
 31
0.0
  0
LINE
  5
3A6
100
AcDbEntity
  8
Frei
  6
CONTINUOUS
 62
           2
100
AcDbLine
 10
-30.096491646589
 20
613.459586125487
 30
0.0
 11
-32.096491646589
 21
615.459586125489
 31
0.0
  0
LINE
  5
3A7
100
AcDbEntity
  8
Frei
  6
CONTINUOUS
 62
           2
100
AcDbLine
 10
-30.096491646591
 20
614.520246297268
 30
0.0
 11
-31.073012370296
 21
615.496767020981
 31
0.0
  0
ENDBLK
  5
3A8
100
AcDbEntity
  8
0
  6
BYBLOCK
 62
           0
100
AcDbBlockEnd
  0
ENDSEC
  0
SECTION
  2
ENTITIES
  0
INSERT
  5
26
100
AcDbEntity
  8
FREI
  6
CONTINUOUS
 62
           7
100
AcDbBlockReference
  2
MAK1
 10
-14241.196651526838
 20
-9907.144403768692
 30
0.0
 50
356.087999999999
  0
INSERT
  5
27
100
AcDbEntity
  8
FREI
  6
CONTINUOUS
 62
           7
100
AcDbBlockReference
  2
MAK2
 10
-14241.196651526838
 20
-9907.144403768692
 30
0.0
 50
356.087999999999
  0
LINE
  5
28
100
AcDbEntity
  8
FREI
  6
CONTINUOUS
 62
          15
100
AcDbLine
 10
-14356.652950982516
 20
-9129.379475657042
 30
0.0
 11
-14522.951266834549
 21
-9198.262493482758
 31
0.0
  0
LINE
  5
29
100
AcDbEntity
  8
FREI
  6
CONTINUOUS
 62
          15
100
AcDbLine
 10
-14416.841102966626
 20
-9454.435090198327
 30
0.0
 11
-14396.665734154069
 21
-9503.142739211486
 31
0.0
  0
LINE
  5
2A
100
AcDbEntity
  8
FREI
  6
CONTINUOUS
 62
          15
100
AcDbLine
 10
-14522.951266834549
 20
-9198.262493482758
 30
0.0
 11
-14514.256400992943
 21
-9219.253756520579
 31
0.0
  0
LINE
  5
2B
100
AcDbEntity
  8
FREI
  6
CONTINUOUS
 62
          15
100
AcDbLine
 10
-14396.665734154069
 20
-9503.142739211486
 30
0.0
 11
-14230.367418302036
 21
-9434.25972138577
 31
0.0
  0
LINE
  5
2C
100
AcDbEntity
  8
FREI
  6
CONTINUOUS
 62
          15
100
AcDbLine
 10
-14297.714677621982
 20
-9271.669054546897
 30
0.0
 11
-14356.652950982516
 21
-9129.379475657042
 31
0.0
  0
LINE
  5
2D
100
AcDbEntity
  8
FREI
  6
GESTRICHELT
 62
          15
100
AcDbLine
 10
-14268.719728255865
 20
-9341.669054546899
 30
0.0
 11
-14297.714677621982
 21
-9271.669054546897
 31
0.0
  0
LINE
  5
2E
100
AcDbEntity
  8
FREI
  6
CONTINUOUS
 62
          15
100
AcDbLine
 10
-14230.367418302036
 20
-9434.25972138577
 30
0.0
 11
-14268.719728255865
 21
-9341.669054546899
 31
0.0
  0
LINE
  5
2F
100
AcDbEntity
  8
FREI
  6
STRICHPUNKT
 62
          15
100
AcDbLine
 10
-14313.516576228052
 20
-9468.70123029863
 30
0.0
 11
-14439.802108908532
 21
-9163.820984569898
 31
0.0
  0
LINE
  5
30
100
AcDbEntity
  8
FREI
  6
STRICHPUNKT
 62
          15
100
AcDbLine
 10
-14416.841102966628
 20
-9219.253756520579
 30
0.0
 11
-14520.165629705201
 21
-9468.701230298626
 31
0.0
  0
LINE
  5
31
100
AcDbEntity
  8
FREI
  6
CONTINUOUS
 62
          15
100
AcDbLine
 10
-14514.256400992943
 20
-9219.253756520579
 30
0.0
 11
-14603.314787631216
 21
-9434.25972138577
 31
0.0
  0
LINE
  5
32
100
AcDbEntity
  8
FREI
  6
CONTINUOUS
 62
          15
100
AcDbLine
 10
-14416.841102966626
 20
-9454.435090198327
 30
0.0
 11
-14437.016471779185
 21
-9503.142739211486
 31
0.0
  0
LINE
  5
33
100
AcDbEntity
  8
FREI
  6
CONTINUOUS
 62
          15
100
AcDbLine
 10
-14319.425804940312
 20
-9219.253756520579
 30
0.0
 11
-14514.256400992943
 21
-9219.253756520579
 31
0.0
  0
LINE
  5
34
100
AcDbEntity
  8
FREI
  6
CONTINUOUS
 62
          15
100
AcDbLine
 10
-14416.841102966626
 20
-9341.669054546896
 30
0.0
 11
-14416.841102966626
 21
-9454.435090198327
 31
0.0
  0
LINE
  5
35
100
AcDbEntity
  8
FREI
  6
GESTRICHELT
 62
          15
100
AcDbLine
 10
-14416.841102966626
 20
-9323.669054546896
 30
0.0
 11
-14416.841102966626
 21
-9341.669054546896
 31
0.0
  0
LINE
  5
36
100
AcDbEntity
  8
FREI
  6
GESTRICHELT
 62
          15
100
AcDbLine
 10
-14416.841102966626
 20
-9271.669054546894
 30
0.0
 11
-14416.841102966626
 21
-9309.669054546896
 31
0.0
  0
LINE
  5
37
100
AcDbEntity
  8
FREI
  6
CONTINUOUS
 62
          15
100
AcDbLine
 10
-14416.841102966628
 20
-9219.253756520579
 30
0.0
 11
-14416.841102966626
 21
-9271.669054546894
 31
0.0
  0
LINE
  5
38
100
AcDbEntity
  8
FREI
  6
CONTINUOUS
 62
          15
100
AcDbLine
 10
-14437.016471779185
 20
-9503.142739211486
 30
0.0
 11
-14603.314787631216
 21
-9434.25972138577
 31
0.0
  0
CIRCLE
  5
39
100
AcDbEntity
  8
FREI
  6
CONTINUOUS
 62
          15
100
AcDbCircle
 10
-14416.841102966626
 20
-9316.669054546896
 30
0.0
 40
7.0
  0
CIRCLE
  5
3A
100
AcDbEntity
  8
Frei
  6
CONTINUOUS
 62
           7
100
AcDbCircle
 10
-13953.952155966626
 20
-9316.669054546896
 30
0.0
 40
6.25
  0
CIRCLE
  5
3B
100
AcDbEntity
  8
FREI
  6
CONTINUOUS
 62
          15
100
AcDbCircle
 10
-14351.245656158326
 20
-9289.498530848974
 30
0.0
 40
6.25
  0
ARC
  5
3C
100
AcDbEntity
  8
FREI
  6
CONTINUOUS
 62
          15
100
AcDbCircle
 10
-14416.841102966626
 20
-9316.669054546896
 30
0.0
 40
17.25
100
AcDbArc
 50
111.69299050693
 51
293.307009493072
  0
LINE
  5
3D
100
AcDbEntity
  8
FREI
  6
CONTINUOUS
 62
          15
100
AcDbLine
 10
-14357.252193799417
 20
-9274.399391616351
 30
0.0
 11
-14423.217273693321
 21
-9300.640737515343
 31
0.0
  0
LINE
  5
3E
100
AcDbEntity
  8
FREI
  6
CONTINUOUS
 62
          15
100
AcDbLine
 10
-14405.692744728656
 20
-9330.648902770226
 30
0.0
 11
-14410.016004861454
 21
-9332.511419769768
 31
0.0
  0
ARC
  5
3F
100
AcDbEntity
  8
FREI
  6
CONTINUOUS
 62
          15
100
AcDbCircle
 10
-14351.245656158326
 20
-9289.498530848974
 30
0.0
 40
16.25
100
AcDbArc
 50
43.677190698584
 51
111.692990506929
  0
ARC
  5
40
100
AcDbEntity
  8
FREI
  6
GESTRICHELT
 62
          15
100
AcDbCircle
 10
-14351.245656158326
 20
-9289.498530848974
 30
0.0
 40
16.25
100
AcDbArc
 50
308.476134970704
 51
43.677190698584
  0
ARC
  5
41
100
AcDbEntity
  8
FREI
  6
CONTINUOUS
 62
          15
100
AcDbCircle
 10
-14351.245656158326
 20
-9289.498530848974
 30
0.0
 40
16.25
100
AcDbArc
 50
223.699865029297
 51
308.476134970704
  0
ARC
  5
42
100
AcDbEntity
  8
FREI
  6
GESTRICHELT
 62
          15
100
AcDbCircle
 10
-14351.245656158326
 20
-9289.498530848974
 30
0.0
 40
16.25
100
AcDbArc
 50
216.333732352792
 51
223.699865029297
  0
ARC
  5
43
100
AcDbEntity
  8
FREI
  6
CONTINUOUS
 62
          15
100
AcDbCircle
 10
-14351.245656158326
 20
-9289.498530848974
 30
0.0
 40
16.25
100
AcDbArc
 50
210.049825852107
 51
216.333732352792
  0
LINE
  5
44
100
AcDbEntity
  8
FREI
  6
CONTINUOUS
 62
          15
100
AcDbLine
 10
-14373.318628670811
 20
-9296.753730981995
 30
0.0
 11
-14402.290964526379
 21
-9328.236522119025
 31
0.0
  0
ARC
  5
45
100
AcDbEntity
  8
FREI
  6
CONTINUOUS
 62
          15
100
AcDbCircle
 10
-14369.639449263828
 20
-9300.139530576067
 30
0.0
 40
5.0
100
AcDbArc
 50
30.049825852111
 51
137.377894256055
  0
ARC
  5
46
100
AcDbEntity
  8
FREI
  6
CONTINUOUS
 62
          15
100
AcDbCircle
 10
-14409.649323340347
 20
-9321.464922930882
 30
0.0
 40
10.0
100
AcDbArc
 50
293.30700949307
 51
317.377894256059
  0
LINE
  5
47
100
AcDbEntity
  8
Frei
  6
GESTRICHELT
 62
           7
100
AcDbLine
 10
-13971.51112362885
 20
-9315.467948903501
 30
0.0
 11
-13970.317199364472
 21
-9298.008723695864
 31
0.0
  0
LINE
  5
48
100
AcDbEntity
  8
Frei
  6
GESTRICHELT
 62
           7
100
AcDbLine
 10
-13970.317199364472
 20
-9298.008723695864
 30
0.0
 11
-13974.30787941193
 21
-9297.735826721149
 31
0.0
  0
LINE
  5
49
100
AcDbEntity
  8
Frei
  6
CONTINUOUS
 62
           7
100
AcDbLine
 10
-13974.30787941193
 20
-9297.735826721149
 30
0.0
 11
-13973.659749096983
 21
-9288.257961608433
 31
0.0
  0
LINE
  5
4A
100
AcDbEntity
  8
Frei
  6
CONTINUOUS
 62
           7
100
AcDbLine
 10
-13973.659749096983
 20
-9288.257961608433
 30
0.0
 11
-14003.190781448186
 21
-9286.238523995544
 31
0.0
  0
LINE
  5
4B
100
AcDbEntity
  8
Frei
  6
CONTINUOUS
 62
           7
100
AcDbLine
 10
-14003.190781448186
 20
-9286.238523995544
 30
0.0
 11
-14003.224893570025
 21
-9286.737359001476
 31
0.0
  0
LINE
  5
4C
100
AcDbEntity
  8
Frei
  6
CONTINUOUS
 62
           7
100
AcDbLine
 10
-14003.224893570025
 20
-9286.737359001476
 30
0.0
 11
-14231.066763171601
 21
-9271.15707769194
 31
0.0
  0
LINE
  5
4D
100
AcDbEntity
  8
Frei
  6
CONTINUOUS
 62
           7
100
AcDbLine
 10
-14231.066763171601
 20
-9271.15707769194
 30
0.0
 11
-14231.032651049762
 21
-9270.658242686008
 31
0.0
  0
LINE
  5
4E
100
AcDbEntity
  8
Frei
  6
CONTINUOUS
 62
           7
100
AcDbLine
 10
-14231.032651049762
 20
-9270.658242686008
 30
0.0
 11
-14260.563683400962
 21
-9268.638805073118
 31
0.0
  0
LINE
  5
4F
100
AcDbEntity
  8
Frei
  6
CONTINUOUS
 62
           7
100
AcDbLine
 10
-14260.563683400962
 20
-9268.638805073118
 30
0.0
 11
-14261.211813715909
 21
-9278.116670185835
 31
0.0
  0
LINE
  5
50
100
AcDbEntity
  8
Frei
  6
CONTINUOUS
 62
           7
100
AcDbLine
 10
-14261.211813715909
 20
-9278.116670185835
 30
0.0
 11
-14271.687348840489
 21
-9277.400315627208
 31
0.0
  0
LINE
  5
51
100
AcDbEntity
  8
Frei
  6
CONTINUOUS
 62
           7
100
AcDbLine
 10
-14271.687348840489
 20
-9277.400315627208
 30
0.0
 11
-14271.721460962328
 21
-9277.89915063314
 31
0.0
  0
LINE
  5
52
100
AcDbEntity
  8
Frei
  6
CONTINUOUS
 62
           7
100
AcDbLine
 10
-14271.721460962328
 20
-9277.89915063314
 30
0.0
 11
-14282.695831092842
 21
-9277.148683952673
 31
0.0
  0
LINE
  5
53
100
AcDbEntity
  8
Frei
  6
CONTINUOUS
 62
           7
100
AcDbLine
 10
-14282.695831092842
 20
-9277.148683952673
 30
0.0
 11
-14285.015455377919
 21
-9311.069464356082
 31
0.0
  0
LINE
  5
54
100
AcDbEntity
  8
Frei
  6
CONTINUOUS
 62
           7
100
AcDbLine
 10
-14285.015455377919
 20
-9311.069464356082
 30
0.0
 11
-14274.041085247405
 21
-9311.819931036545
 31
0.0
  0
LINE
  5
55
100
AcDbEntity
  8
Frei
  6
CONTINUOUS
 62
           7
100
AcDbLine
 10
-14274.041085247405
 20
-9311.819931036545
 30
0.0
 11
-14274.075197369244
 21
-9312.318766042477
 31
0.0
  0
LINE
  5
56
100
AcDbEntity
  8
Frei
  6
CONTINUOUS
 62
           7
100
AcDbLine
 10
-14274.075197369244
 20
-9312.318766042477
 30
0.0
 11
-14263.599662244664
 21
-9313.035120601104
 31
0.0
  0
LINE
  5
57
100
AcDbEntity
  8
Frei
  6
CONTINUOUS
 62
           7
100
AcDbLine
 10
-14263.599662244664
 20
-9313.035120601104
 30
0.0
 11
-14264.247792559612
 21
-9322.51298571382
 31
0.0
  0
LINE
  5
58
100
AcDbEntity
  8
Frei
  6
CONTINUOUS
 62
           7
100
AcDbLine
 10
-14264.247792559612
 20
-9322.51298571382
 30
0.0
 11
-14234.716760208412
 21
-9324.532423326709
 31
0.0
  0
LINE
  5
59
100
AcDbEntity
  8
Frei
  6
CONTINUOUS
 62
           7
100
AcDbLine
 10
-14234.716760208412
 20
-9324.532423326709
 30
0.0
 11
-14234.682648086571
 21
-9324.033588320777
 31
0.0
  0
LINE
  5
5A
100
AcDbEntity
  8
Frei
  6
CONTINUOUS
 62
           7
100
AcDbLine
 10
-14011.516835217051
 20
-9339.294111547955
 30
0.0
 11
-14006.840778484997
 21
-9339.613869630313
 31
0.0
  0
LINE
  5
5B
100
AcDbEntity
  8
Frei
  6
GESTRICHELT
 62
           7
100
AcDbLine
 10
-14039.451598558828
 20
-9337.383876734919
 30
0.0
 11
-14011.516835217051
 21
-9339.294111547955
 31
0.0
  0
LINE
  5
5C
100
AcDbEntity
  8
Frei
  6
CONTINUOUS
 62
           7
100
AcDbLine
 10
-14202.071828012738
 20
-9326.263581216175
 30
0.0
 11
-14039.451598558828
 21
-9337.383876734919
 31
0.0
  0
LINE
  5
5D
100
AcDbEntity
  8
Frei
  6
GESTRICHELT
 62
           7
100
AcDbLine
 10
-14230.006591354513
 20
-9324.353346403139
 30
0.0
 11
-14202.071828012738
 21
-9326.263581216175
 31
0.0
  0
LINE
  5
5E
100
AcDbEntity
  8
Frei
  6
CONTINUOUS
 62
           7
100
AcDbLine
 10
-14234.682648086571
 20
-9324.033588320777
 30
0.0
 11
-14230.006591354513
 21
-9324.353346403139
 31
0.0
  0
LINE
  5
5F
100
AcDbEntity
  8
Frei
  6
CONTINUOUS
 62
           7
100
AcDbLine
 10
-14006.840778484997
 20
-9339.613869630313
 30
0.0
 11
-14006.874890606836
 21
-9340.112704636245
 31
0.0
  0
LINE
  5
60
100
AcDbEntity
  8
Frei
  6
CONTINUOUS
 62
           7
100
AcDbLine
 10
-14006.874890606836
 20
-9340.112704636245
 30
0.0
 11
-13977.343858255634
 21
-9342.132142249138
 31
0.0
  0
LINE
  5
61
100
AcDbEntity
  8
Frei
  6
CONTINUOUS
 62
           7
100
AcDbLine
 10
-13977.343858255634
 20
-9342.132142249138
 30
0.0
 11
-13976.695727940685
 21
-9332.654277136422
 31
0.0
  0
LINE
  5
62
100
AcDbEntity
  8
Frei
  6
GESTRICHELT
 62
           7
100
AcDbLine
 10
-13976.695727940685
 20
-9332.654277136422
 30
0.0
 11
-13972.705047893227
 21
-9332.927174111133
 31
0.0
  0
LINE
  5
63
100
AcDbEntity
  8
Frei
  6
GESTRICHELT
 62
           7
100
AcDbLine
 10
-13972.705047893227
 20
-9332.927174111133
 30
0.0
 11
-13971.51112362885
 21
-9315.467948903501
 31
0.0
  0
LINE
  5
64
100
AcDbEntity
  8
Frei
  6
CONTINUOUS
 62
           7
100
AcDbLine
 10
-13974.30787941193
 20
-9297.735826721149
 30
0.0
 11
-13976.695727940685
 21
-9332.654277136422
 31
0.0
  0
LINE
  5
65
100
AcDbEntity
  8
Frei
  6
CONTINUOUS
 62
           7
100
AcDbLine
 10
-14005.511306502576
 20
-9320.17247670376
 30
0.0
 11
-14006.840778484997
 21
-9339.613869630313
 31
0.0
  0
LINE
  5
66
100
AcDbEntity
  8
Frei
  6
GESTRICHELT
 62
           7
100
AcDbLine
 10
-14004.991025258591
 20
-9312.564198958618
 30
0.0
 11
-14005.511306502576
 21
-9320.17247670376
 31
0.0
  0
LINE
  5
67
100
AcDbEntity
  8
Frei
  6
CONTINUOUS
 62
           7
100
AcDbLine
 10
-14003.224893570025
 20
-9286.737359001476
 30
0.0
 11
-14004.991025258591
 21
-9312.564198958618
 31
0.0
  0
LINE
  5
68
100
AcDbEntity
  8
Frei
  6
CONTINUOUS
 62
           7
100
AcDbLine
 10
-14233.353151557549
 20
-9304.591836439569
 30
0.0
 11
-14234.682648086571
 21
-9324.033588320777
 31
0.0
  0
LINE
  5
69
100
AcDbEntity
  8
Frei
  6
CONTINUOUS
 62
           7
100
AcDbLine
 10
-14232.832870313563
 20
-9296.983558694428
 30
0.0
 11
-14233.353151557549
 21
-9304.591836439569
 31
0.0
  0
LINE
  5
6A
100
AcDbEntity
  8
Frei
  6
CONTINUOUS
 62
           7
100
AcDbLine
 10
-14231.066763171601
 20
-9271.15707769194
 30
0.0
 11
-14232.832870313563
 21
-9296.983558694428
 31
0.0
  0
LINE
  5
6B
100
AcDbEntity
  8
Frei
  6
CONTINUOUS
 62
           7
100
AcDbLine
 10
-14261.211813715909
 20
-9278.116670185835
 30
0.0
 11
-14263.599662244664
 21
-9313.035120601104
 31
0.0
  0
LINE
  5
6C
100
AcDbEntity
  8
Frei
  6
CONTINUOUS
 62
           7
100
AcDbLine
 10
-14271.687348840489
 20
-9277.400315627208
 30
0.0
 11
-14274.075197369244
 21
-9312.318766042477
 31
0.0
  0
LINE
  5
6D
100
AcDbEntity
  8
Frei
  6
GESTRICHELT
 62
           7
100
AcDbLine
 10
-14296.969761018794
 20
-9287.198271298432
 30
0.0
 11
-14315.105559793821
 21
-9285.958080513683
 31
0.0
  0
LINE
  5
6E
100
AcDbEntity
  8
Frei
  6
CONTINUOUS
 62
           7
100
AcDbLine
 10
-14291.926492874161
 20
-9287.543148011919
 30
0.0
 11
-14296.969761018794
 21
-9287.198271298432
 31
0.0
  0
LINE
  5
6F
100
AcDbEntity
  8
Frei
  6
GESTRICHELT
 62
           7
100
AcDbLine
 10
-14297.788451942937
 20
-9299.170311440812
 30
0.0
 11
-14315.924250717964
 21
-9297.930120656059
 31
0.0
  0
LINE
  5
70
100
AcDbEntity
  8
Frei
  6
CONTINUOUS
 62
           7
100
AcDbLine
 10
-14292.745183798304
 20
-9299.515188154299
 30
0.0
 11
-14297.788451942937
 21
-9299.170311440812
 31
0.0
  0
LINE
  5
71
100
AcDbEntity
  8
Frei
  6
GESTRICHELT
 62
           7
100
AcDbLine
 10
-14315.922886826727
 20
-9286.670769552027
 30
0.0
 11
-14315.105559793821
 21
-9285.958080513683
 31
0.0
  0
LINE
  5
72
100
AcDbEntity
  8
Frei
  6
GESTRICHELT
 62
           7
100
AcDbLine
 10
-14316.636950415252
 20
-9297.112802917611
 30
0.0
 11
-14315.924250717964
 21
-9297.930120656059
 31
0.0
  0
LINE
  5
73
100
AcDbEntity
  8
Frei
  6
GESTRICHELT
 62
           7
100
AcDbLine
 10
-14315.922886826727
 20
-9286.670769552027
 30
0.0
 11
-14316.636950415252
 21
-9297.112802917611
 31
0.0
  0
LINE
  5
74
100
AcDbEntity
  8
Frei
  6
CONTINUOUS
 62
           7
100
AcDbLine
 10
-14297.022074686603
 20
-9287.96327468683
 30
0.0
 11
-14291.978806541971
 21
-9288.308151400317
 31
0.0
  0
LINE
  5
75
100
AcDbEntity
  8
Frei
  6
GESTRICHELT
 62
           7
100
AcDbLine
 10
-14315.922886826727
 20
-9286.670769552027
 30
0.0
 11
-14297.022074686603
 21
-9287.96327468683
 31
0.0
  0
LINE
  5
76
100
AcDbEntity
  8
Frei
  6
CONTINUOUS
 62
           7
100
AcDbLine
 10
-14297.736138275128
 20
-9298.405308052414
 30
0.0
 11
-14292.692870130495
 21
-9298.750184765901
 31
0.0
  0
LINE
  5
77
100
AcDbEntity
  8
Frei
  6
GESTRICHELT
 62
           7
100
AcDbLine
 10
-14316.636950415252
 20
-9297.112802917611
 30
0.0
 11
-14297.736138275128
 21
-9298.405308052414
 31
0.0
  0
LINE
  5
78
100
AcDbEntity
  8
Frei
  6
GESTRICHELT
 62
           7
100
AcDbLine
 10
-14315.105559793821
 20
-9285.958080513683
 30
0.0
 11
-14315.924250717964
 21
-9297.930120656059
 31
0.0
  0
LINE
  5
79
100
AcDbEntity
  8
Frei
  6
CONTINUOUS
 62
           7
100
AcDbLine
 10
-14283.309849285952
 20
-9286.127714059458
 30
0.0
 11
-14291.790044386804
 21
-9285.547807988191
 31
0.0
  0
LINE
  5
7A
100
AcDbEntity
  8
Frei
  6
CONTINUOUS
 62
           7
100
AcDbLine
 10
-14291.790044386804
 20
-9285.547807988191
 30
0.0
 11
-14292.881632285662
 21
-9301.510528178027
 31
0.0
  0
LINE
  5
7B
100
AcDbEntity
  8
Frei
  6
CONTINUOUS
 62
           7
100
AcDbLine
 10
-14292.881632285662
 20
-9301.510528178027
 30
0.0
 11
-14284.40143718481
 21
-9302.090434249298
 31
0.0
  0
LINE
  5
7C
100
AcDbEntity
  8
Frei
  6
CONTINUOUS
 62
           7
100
AcDbLine
 10
-14292.01766161323
 20
-9288.876344425473
 30
0.0
 11
-14286.696758208851
 21
-9289.240206831011
 31
0.0
  0
LINE
  5
7D
100
AcDbEntity
  8
Frei
  6
CONTINUOUS
 62
           7
100
AcDbLine
 10
-14292.654015059235
 20
-9298.181991740741
 30
0.0
 11
-14287.333111654856
 21
-9298.54585414628
 31
0.0
  0
LINE
  5
7E
100
AcDbEntity
  8
Frei
  6
CONTINUOUS
 62
           7
100
AcDbLine
 10
-14286.696758208851
 20
-9289.240206831011
 30
0.0
 11
-14287.333111654856
 21
-9298.54585414628
 31
0.0
  0
LINE
  5
7F
100
AcDbEntity
  8
Frei
  6
CONTINUOUS
 62
           7
100
AcDbLine
 10
-14292.01766161323
 20
-9288.876344425473
 30
0.0
 11
-14287.333111654856
 21
-9298.54585414628
 31
0.0
  0
LINE
  5
80
100
AcDbEntity
  8
Frei
  6
CONTINUOUS
 62
           7
100
AcDbLine
 10
-14286.696758208851
 20
-9289.240206831011
 30
0.0
 11
-14292.654015059235
 21
-9298.181991740741
 31
0.0
  0
CIRCLE
  5
81
100
AcDbEntity
  8
Frei
  6
CONTINUOUS
 62
           7
100
AcDbCircle
 10
-14248.847703276249
 20
-9302.51705487616
 30
0.0
 40
5.7225
  0
ARC
  5
82
100
AcDbEntity
  8
Frei
  6
CONTINUOUS
 62
           7
100
AcDbCircle
 10
-14248.847703276249
 20
-9302.51705487616
 30
0.0
 40
6.5785
100
AcDbArc
 50
106.088
 51
16.088
  0
CIRCLE
  5
83
100
AcDbEntity
  8
Frei
  6
CONTINUOUS
 62
           7
100
AcDbCircle
 10
-13989.059838380344
 20
-9308.253892446093
 30
0.0
 40
5.7225
  0
ARC
  5
84
100
AcDbEntity
  8
Frei
  6
CONTINUOUS
 62
           7
100
AcDbCircle
 10
-13989.059838380344
 20
-9308.253892446093
 30
0.0
 40
6.57849
100
AcDbArc
 50
106.087999999994
 51
16.088000000002
  0
LINE
  5
85
100
AcDbEntity
  8
Frei
  6
CONTINUOUS
 62
           7
100
AcDbLine
 10
-14240.151285867478
 20
-9286.005990793179
 30
0.0
 11
-14247.62917701788
 21
-9292.526660407963
 31
0.0
  0
LINE
  5
86
100
AcDbEntity
  8
Frei
  6
CONTINUOUS
 62
           7
100
AcDbLine
 10
-14240.972730037402
 20
-9285.063953450128
 30
0.0
 11
-14248.450615047623
 21
-9291.584533274614
 31
0.0
  0
CIRCLE
  5
87
100
AcDbEntity
  8
Frei
  6
CONTINUOUS
 62
           7
100
AcDbCircle
 10
-14244.300951822035
 20
-9288.795281987295
 30
0.0
 40
5.0
  0
LINE
  5
88
100
AcDbEntity
  8
Frei
  6
CONTINUOUS
 62
           7
100
AcDbLine
 10
-13989.456627307969
 20
-9319.186434514915
 30
0.0
 11
-13996.934911386195
 21
-9325.706987049704
 31
0.0
  0
LINE
  5
89
100
AcDbEntity
  8
Frei
  6
CONTINUOUS
 62
           7
100
AcDbLine
 10
-13990.278264871713
 20
-9318.244293736716
 30
0.0
 11
-13997.75655509012
 21
-9324.764936061805
 31
0.0
  0
CIRCLE
  5
8A
100
AcDbEntity
  8
Frei
  6
CONTINUOUS
 62
           7
100
AcDbCircle
 10
-13993.606589834562
 20
-9321.975665334958
 30
0.0
 40
5.0
  0
LINE
  5
8B
100
AcDbEntity
  8
Frei
  6
CONTINUOUS
 62
           7
100
AcDbLine
 10
-14297.019658111934
 20
-9282.213252071339
 30
0.0
 11
-14299.619705883257
 21
-9282.035451505402
 31
0.0
  0
LINE
  5
8C
100
AcDbEntity
  8
Frei
  6
CONTINUOUS
 62
           7
100
AcDbLine
 10
-14302.219733701178
 20
-9281.857652303952
 30
0.0
 11
-14299.619705883257
 21
-9282.035451505402
 31
0.0
  0
LINE
  5
8D
100
AcDbEntity
  8
Frei
  6
CONTINUOUS
 62
           7
100
AcDbLine
 10
-14303.716573607489
 20
-9303.746532364268
 30
0.0
 11
-14301.116545789568
 21
-9303.924331565719
 31
0.0
  0
LINE
  5
8E
100
AcDbEntity
  8
Frei
  6
CONTINUOUS
 62
           7
100
AcDbLine
 10
-14298.516498018245
 20
-9304.102132131655
 30
0.0
 11
-14301.116545789568
 21
-9303.924331565719
 31
0.0
  0
LINE
  5
8F
100
AcDbEntity
  8
Frei
  6
CONTINUOUS
 62
           7
100
AcDbLine
 10
-14297.393868770754
 20
-9287.685482063116
 30
0.0
 11
-14299.993916542076
 21
-9287.50768149718
 31
0.0
  0
LINE
  5
90
100
AcDbEntity
  8
Frei
  6
CONTINUOUS
 62
           7
100
AcDbLine
 10
-14302.593944359998
 20
-9287.32988229573
 30
0.0
 11
-14299.993916542076
 21
-9287.50768149718
 31
0.0
  0
LINE
  5
91
100
AcDbEntity
  8
Frei
  6
CONTINUOUS
 62
           7
100
AcDbLine
 10
-14303.342362948668
 20
-9298.274302372487
 30
0.0
 11
-14300.742335130746
 21
-9298.452101573937
 31
0.0
  0
LINE
  5
92
100
AcDbEntity
  8
Frei
  6
CONTINUOUS
 62
           7
100
AcDbLine
 10
-14298.142287359424
 20
-9298.629902139874
 30
0.0
 11
-14300.742335130746
 21
-9298.452101573937
 31
0.0
  0
ARC
  5
93
100
AcDbEntity
  8
Frei
  6
CONTINUOUS
 62
           7
100
AcDbCircle
 10
-14336.066355132956
 20
-9290.538718937947
 30
0.0
 40
38.7776
100
AcDbArc
 50
356.947436999999
 51
4.21961
  0
ARC
  5
94
100
AcDbEntity
  8
Frei
  6
CONTINUOUS
 62
           7
100
AcDbCircle
 10
-14264.669896539868
 20
-9295.421064133174
 30
0.0
 40
38.7776
100
AcDbArc
 50
167.956
 51
175.229
  0
ARC
  5
95
100
AcDbEntity
  8
Frei
  6
CONTINUOUS
 62
           7
100
AcDbCircle
 10
-14264.669896539868
 20
-9295.421064133174
 30
0.0
 40
38.7776
100
AcDbArc
 50
176.946999999999
 51
184.219999999999
  0
ARC
  5
96
100
AcDbEntity
  8
Frei
  6
CONTINUOUS
 62
           7
100
AcDbCircle
 10
-14336.066355132956
 20
-9290.538718937947
 30
0.0
 40
38.7776
100
AcDbArc
 50
347.956389999999
 51
355.228562999999
  0
LINE
  5
97
100
AcDbEntity
  8
Frei
  6
CONTINUOUS
 62
           7
100
AcDbLine
 10
-14297.343774236575
 20
-9292.603707130878
 30
0.0
 11
-14297.379106480867
 21
-9293.18429136962
 31
0.0
  0
LINE
  5
98
100
AcDbEntity
  8
Frei
  6
CONTINUOUS
 62
           7
100
AcDbLine
 10
-14303.313073358364
 20
-9292.195505107131
 30
0.0
 11
-14303.35714519196
 21
-9292.775491701497
 31
0.0
  0
LINE
  5
99
100
AcDbEntity
  8
Frei
  6
CONTINUOUS
 62
           7
100
AcDbLine
 10
-14303.392437529446
 20
-9293.356078669211
 30
0.0
 11
-14303.35714519196
 21
-9292.775491701497
 31
0.0
  0
LINE
  5
9A
100
AcDbEntity
  8
Frei
  6
CONTINUOUS
 62
           7
100
AcDbLine
 10
-14297.423138407657
 20
-9293.764280692962
 30
0.0
 11
-14297.379106480867
 21
-9293.18429136962
 31
0.0
  0
ARC
  5
9B
100
AcDbEntity
  8
Frei
  6
CONTINUOUS
 62
           7
100
AcDbCircle
 10
-14306.928679615727
 20
-9284.28456270284
 30
0.0
 40
10.1345
100
AcDbArc
 50
340.369499999999
 51
356.087999999999
  0
ARC
  5
9C
100
AcDbEntity
  8
Frei
  6
CONTINUOUS
 62
           7
100
AcDbCircle
 10
-14292.684934879633
 20
-9285.258600912086
 30
0.0
 40
10.1232
100
AcDbArc
 50
176.088
 51
191.806999999999
  0
ARC
  5
9D
100
AcDbEntity
  8
Frei
  6
CONTINUOUS
 62
           7
100
AcDbCircle
 10
-14293.807562080397
 20
-9301.675221050522
 30
0.0
 40
10.1345
100
AcDbArc
 50
160.369
 51
176.088
  0
ARC
  5
9E
100
AcDbEntity
  8
Frei
  6
CONTINUOUS
 62
           7
100
AcDbCircle
 10
-14308.051306816491
 20
-9300.701182841276
 30
0.0
 40
10.1232
100
AcDbArc
 50
356.087999999999
 51
11.8065
  0
ARC
  5
9F
100
AcDbEntity
  8
Frei
  6
CONTINUOUS
 62
           7
100
AcDbCircle
 10
-14306.928679615727
 20
-9284.28456270284
 30
0.0
 40
10.1232
100
AcDbArc
 50
356.087999999999
 51
11.8065
  0
ARC
  5
A0
100
AcDbEntity
  8
Frei
  6
CONTINUOUS
 62
           7
100
AcDbCircle
 10
-14292.684934879633
 20
-9285.258600912086
 30
0.0
 40
10.1345
100
AcDbArc
 50
160.369
 51
176.088
  0
ARC
  5
A1
100
AcDbEntity
  8
Frei
  6
CONTINUOUS
 62
           7
100
AcDbCircle
 10
-14293.807562080397
 20
-9301.675221050522
 30
0.0
 40
10.1232
100
AcDbArc
 50
176.088
 51
191.806999999999
  0
ARC
  5
A2
100
AcDbEntity
  8
Frei
  6
CONTINUOUS
 62
           7
100
AcDbCircle
 10
-14308.051306816491
 20
-9300.701182841276
 30
0.0
 40
10.1345
100
AcDbArc
 50
340.369499999999
 51
356.087999999999
  0
LINE
  5
A3
100
AcDbEntity
  8
Frei
  6
CONTINUOUS
 62
           7
100
AcDbLine
 10
-14296.817792880483
 20
-9284.975981300402
 30
0.0
 11
-14297.379106480867
 21
-9293.18429136962
 31
0.0
  0
LINE
  5
A4
100
AcDbEntity
  8
Frei
  6
CONTINUOUS
 62
           7
100
AcDbLine
 10
-14302.795831591577
 20
-9284.567181632279
 30
0.0
 11
-14303.35714519196
 21
-9292.775491701497
 31
0.0
  0
LINE
  5
A5
100
AcDbEntity
  8
Frei
  6
CONTINUOUS
 62
           7
100
AcDbLine
 10
-14303.918458792341
 20
-9300.983801770715
 30
0.0
 11
-14303.35714519196
 21
-9292.775491701497
 31
0.0
  0
LINE
  5
A6
100
AcDbEntity
  8
Frei
  6
CONTINUOUS
 62
           7
100
AcDbLine
 10
-14297.940420081248
 20
-9301.392601438838
 30
0.0
 11
-14297.379106480867
 21
-9293.18429136962
 31
0.0
  0
LINE
  5
A7
100
AcDbEntity
  8
Frei
  6
CONTINUOUS
 62
           7
100
AcDbLine
 10
-13968.295065273311
 20
-9327.273091826206
 30
0.0
 11
-13969.135992031808
 21
-9327.230315737212
 31
0.0
  0
LINE
  5
A8
100
AcDbEntity
  8
Frei
  6
CONTINUOUS
 62
           7
100
AcDbLine
 10
-13967.456287575613
 20
-9326.528704229855
 30
0.0
 11
-13967.946759957549
 21
-9333.701075233494
 31
0.0
  0
LINE
  5
A9
100
AcDbEntity
  8
Frei
  6
CONTINUOUS
 62
           7
100
AcDbLine
 10
-13965.988376661391
 20
-9305.062864225769
 30
0.0
 11
-13965.998401599365
 21
-9305.209462845945
 31
0.0
  0
LINE
  5
AA
100
AcDbEntity
  8
Frei
  6
CONTINUOUS
 62
           7
100
AcDbLine
 10
-13967.556933819276
 20
-9304.139124971505
 30
0.0
 11
-13966.718012194617
 21
-9304.211222923099
 31
0.0
  0
LINE
  5
AB
100
AcDbEntity
  8
Frei
  6
CONTINUOUS
 62
           7
100
AcDbLine
 10
-13965.797938280781
 20
-9305.795819783234
 30
0.0
 11
-13967.167844350524
 21
-9325.828496309357
 31
0.0
  0
LINE
  5
AC
100
AcDbEntity
  8
Frei
  6
CONTINUOUS
 62
           7
100
AcDbLine
 10
-13954.439856225112
 20
-9326.256658442446
 30
0.0
 11
-13966.607484939939
 21
-9325.637718013324
 31
0.0
  0
LINE
  5
AD
100
AcDbEntity
  8
Frei
  6
CONTINUOUS
 62
           7
100
AcDbLine
 10
-13953.130150251431
 20
-9307.104311654162
 30
0.0
 11
-13965.268766066136
 21
-9306.061104148619
 31
0.0
  0
LINE
  5
AE
100
AcDbEntity
  8
Frei
  6
CONTINUOUS
 62
           7
100
AcDbLine
 10
-13967.446262637639
 20
-9326.382105609679
 30
0.0
 11
-13967.456287575613
 21
-9326.528704229855
 31
0.0
  0
LINE
  5
AF
100
AcDbEntity
  8
Frei
  6
CONTINUOUS
 62
           7
100
AcDbLine
 10
-13968.524704372445
 20
-9295.248436592512
 30
0.0
 11
-13967.645110232885
 21
-9295.339519997746
 31
0.0
  0
LINE
  5
B0
100
AcDbEntity
  8
Frei
  6
CONTINUOUS
 62
           7
100
AcDbLine
 10
-13965.497904279455
 20
-9297.89049322213
 30
0.0
 11
-13965.988376661391
 21
-9305.062864225769
 31
0.0
  0
LINE
  5
B1
100
AcDbEntity
  8
Frei
  6
CONTINUOUS
 62
           7
100
AcDbLine
 10
-13970.421242790881
 20
-9335.936000848706
 30
0.0
 11
-13971.30504794049
 21
-9335.90649670357
 31
0.0
  0
LINE
  5
B2
100
AcDbEntity
  8
Frei
  6
CONTINUOUS
 62
           7
100
AcDbLine
 10
-13969.720467207739
 20
-9290.100939687196
 30
0.0
 11
-13973.757193539206
 21
-9289.68293010331
 31
0.0
  0
LINE
  5
B3
100
AcDbEntity
  8
Frei
  6
CONTINUOUS
 62
           7
100
AcDbLine
 10
-13973.190410963043
 20
-9340.843295202765
 30
0.0
 11
-13977.246462906616
 21
-9340.707891663569
 31
0.0
  0
LINE
  5
B4
100
AcDbEntity
  8
Frei
  6
CONTINUOUS
 62
           7
100
AcDbLine
 10
-13970.813547427206
 20
-9328.719090929917
 30
0.0
 11
-13971.30504794049
 21
-9335.90649670357
 31
0.0
  0
LINE
  5
B5
100
AcDbEntity
  8
Frei
  6
CONTINUOUS
 62
           7
100
AcDbLine
 10
-13968.524704372445
 20
-9295.248436592512
 30
0.0
 11
-13969.016204885729
 21
-9302.435842366162
 31
0.0
  0
LINE
  5
B6
100
AcDbEntity
  8
Frei
  6
CONTINUOUS
 62
           7
100
AcDbLine
 10
-13968.288996572115
 20
-9291.801588503455
 30
0.0
 11
-13968.524704372445
 21
-9295.248436592512
 31
0.0
  0
LINE
  5
B7
100
AcDbEntity
  8
Frei
  6
CONTINUOUS
 62
           7
100
AcDbLine
 10
-13971.30504794049
 20
-9335.90649670357
 30
0.0
 11
-13971.54075574082
 21
-9339.353344792628
 31
0.0
  0
ARC
  5
B8
100
AcDbEntity
  8
Frei
  6
CONTINUOUS
 62
           7
100
AcDbCircle
 10
-13953.952155966632
 20
-9316.669054546899
 30
0.0
 40
9.6
100
AcDbArc
 50
267.087999999997
 51
85.088000000002
  0
ARC
  5
B9
100
AcDbEntity
  8
Frei
  6
CONTINUOUS
 62
           7
100
AcDbCircle
 10
-13953.952155966632
 20
-9316.669054546899
 30
0.0
 40
4.799999999999
100
AcDbArc
 50
176.087999999989
 51
356.08800000001
  0
ARC
  5
BA
100
AcDbEntity
  8
Frei
  6
CONTINUOUS
 62
           7
100
AcDbCircle
 10
-13953.952155966626
 20
-9316.669054546896
 30
0.0
 40
4.799999999996
100
AcDbArc
 50
356.087999999956
 51
66.291117282785
  0
ARC
  5
BB
100
AcDbEntity
  8
Frei
  6
CONTINUOUS
 62
           7
100
AcDbCircle
 10
-13953.952155966632
 20
-9316.669054546899
 30
0.0
 40
4.8
100
AcDbArc
 50
66.291117282759
 51
176.088
  0
ARC
  5
BC
100
AcDbEntity
  8
Frei
  6
CONTINUOUS
 62
           7
100
AcDbCircle
 10
-13966.648126628148
 20
-9326.436685004614
 30
0.0
 40
0.799999999992
100
AcDbArc
 50
87.087999999855
 51
130.515004001098
  0
ARC
  5
BD
100
AcDbEntity
  8
Frei
  6
CONTINUOUS
 62
           7
100
AcDbCircle
 10
-13966.648126628159
 20
-9326.436685004614
 30
0.0
 40
0.799999999986
100
AcDbArc
 50
130.515004000449
 51
176.088000000456
  0
ARC
  5
BE
100
AcDbEntity
  8
Frei
  6
CONTINUOUS
 62
           7
100
AcDbCircle
 10
-13968.254423585104
 20
-9326.474124834913
 30
0.0
 40
0.8
100
AcDbArc
 50
267.087999999976
 51
356.087999999999
  0
ARC
  5
BF
100
AcDbEntity
  8
Frei
  6
CONTINUOUS
 62
           7
100
AcDbCircle
 10
-13969.217275408222
 20
-9328.828249719802
 30
0.0
 40
1.599999999999
100
AcDbArc
 50
87.087999999911
 51
176.088
  0
ARC
  5
C0
100
AcDbEntity
  8
Frei
  6
CONTINUOUS
 62
           7
100
AcDbCircle
 10
-13965.200265589881
 20
-9305.264042240895
 30
0.0
 40
0.79999999999
100
AcDbArc
 50
176.087999999609
 51
221.660995999455
  0
ARC
  5
C1
100
AcDbEntity
  8
Frei
  6
CONTINUOUS
 62
           7
100
AcDbCircle
 10
-13965.200265589874
 20
-9305.264042240899
 30
0.0
 40
0.799999999992
100
AcDbArc
 50
221.660995998901
 51
265.088000000144
  0
ARC
  5
C2
100
AcDbEntity
  8
Frei
  6
CONTINUOUS
 62
           7
100
AcDbCircle
 10
-13967.419932866746
 20
-9302.54500115605
 30
0.0
 40
1.600000000001
100
AcDbArc
 50
176.088000000032
 51
265.088000000024
  0
ARC
  5
C3
100
AcDbEntity
  8
Frei
  6
CONTINUOUS
 62
           7
100
AcDbCircle
 10
-13966.786512670884
 20
-9305.008284830827
 30
0.0
 40
0.800000000001
100
AcDbArc
 50
356.088000000064
 51
85.087999999895
  0
ARC
  5
C4
100
AcDbEntity
  8
Frei
  6
CONTINUOUS
 62
           7
100
AcDbCircle
 10
-13973.137027759803
 20
-9339.244186002743
 30
0.0
 40
1.599999999998
100
AcDbArc
 50
268.087999999915
 51
356.088000000064
  0
ARC
  5
C5
100
AcDbEntity
  8
Frei
  6
CONTINUOUS
 62
           7
100
AcDbCircle
 10
-13970.341167986024
 20
-9333.537337048667
 30
0.0
 40
2.400000000001
100
AcDbArc
 50
268.087999999977
 51
356.087999999999
  0
ARC
  5
C6
100
AcDbEntity
  8
Frei
  6
CONTINUOUS
 62
           7
100
AcDbCircle
 10
-13967.892312307929
 20
-9297.726755037304
 30
0.0
 40
2.399999999999
100
AcDbArc
 50
356.087999999999
 51
84.087999999979
  0
ARC
  5
C7
100
AcDbEntity
  8
Frei
  6
CONTINUOUS
 62
           7
100
AcDbCircle
 10
-13969.885268591099
 20
-9291.692429713567
 30
0.0
 40
1.599999999998
100
AcDbArc
 50
356.087999999934
 51
84.088000000085
  0
LINE
  5
C8
100
AcDbEntity
  8
Frei
  6
CONTINUOUS
 62
           7
100
AcDbLine
 10
-14303.76649065403
 20
-9298.761511772686
 30
0.0
 11
-14303.725556107824
 21
-9298.162909765568
 31
0.0
  0
LINE
  5
C9
100
AcDbEntity
  8
Frei
  6
CONTINUOUS
 62
           7
100
AcDbLine
 10
-14303.725556107824
 20
-9298.162909765568
 30
0.0
 11
-14302.988734276094
 21
-9287.388073637427
 31
0.0
  0
LINE
  5
CA
100
AcDbEntity
  8
Frei
  6
CONTINUOUS
 62
           7
100
AcDbLine
 10
-14302.988734276094
 20
-9287.388073637427
 30
0.0
 11
-14302.947799729887
 21
-9286.789471630309
 31
0.0
  0
LINE
  5
CB
100
AcDbEntity
  8
Frei
  6
CONTINUOUS
 62
           7
100
AcDbLine
 10
-14302.947799729887
 20
-9286.789471630309
 30
0.0
 11
-14302.722659725747
 21
-9283.497160591156
 31
0.0
  0
LINE
  5
CC
100
AcDbEntity
  8
Frei
  6
CONTINUOUS
 62
           7
100
AcDbLine
 10
-14328.119916400861
 20
-9303.110149995588
 30
0.0
 11
-14326.81878314813
 21
-9303.199126141044
 31
0.0
  0
LINE
  5
CD
100
AcDbEntity
  8
Frei
  6
CONTINUOUS
 62
           7
100
AcDbLine
 10
-14325.181401299842
 20
-9279.255045856287
 30
0.0
 11
-14326.482534552573
 21
-9279.166069710831
 31
0.0
  0
LINE
  5
CE
100
AcDbEntity
  8
Frei
  6
CONTINUOUS
 62
           7
100
AcDbLine
 10
-14326.81878314813
 20
-9303.199126141044
 30
0.0
 11
-14323.03179934035
 21
-9303.45809363835
 31
0.0
  0
LINE
  5
CF
100
AcDbEntity
  8
Frei
  6
CONTINUOUS
 62
           7
100
AcDbLine
 10
-14321.394417492062
 20
-9279.514013353593
 30
0.0
 11
-14325.181401299842
 21
-9279.255045856287
 31
0.0
  0
LINE
  5
D0
100
AcDbEntity
  8
Frei
  6
CONTINUOUS
 62
           7
100
AcDbLine
 10
-14361.935634715826
 20
-9276.741659920081
 30
0.0
 11
-14326.482534552573
 21
-9279.166069710831
 31
0.0
  0
LINE
  5
D1
100
AcDbEntity
  8
Frei
  6
CONTINUOUS
 62
           7
100
AcDbLine
 10
-14363.573016564114
 20
-9300.685740204837
 30
0.0
 11
-14328.119916400861
 21
-9303.110149995588
 31
0.0
  0
LINE
  5
D2
100
AcDbEntity
  8
Frei
  6
CONTINUOUS
 62
           7
100
AcDbLine
 10
-14320.619318120005
 20
-9281.371221194258
 30
0.0
 11
-14322.011092691049
 21
-9301.723689436301
 31
0.0
  0
LINE
  5
D3
100
AcDbEntity
  8
Frei
  6
CONTINUOUS
 62
           7
100
AcDbLine
 10
-14303.559160917115
 20
-9282.537855761166
 30
0.0
 11
-14306.273202013264
 21
-9282.35225992397
 31
0.0
  0
LINE
  5
D4
100
AcDbEntity
  8
Frei
  6
CONTINUOUS
 62
           7
100
AcDbLine
 10
-14303.991630658171
 20
-9302.053822811842
 30
0.0
 11
-14303.76649065403
 21
-9298.761511772686
 31
0.0
  0
LINE
  5
D5
100
AcDbEntity
  8
Frei
  6
CONTINUOUS
 62
           7
100
AcDbLine
 10
-14321.113189680369
 20
-9301.785091255613
 30
0.0
 11
-14319.276939231258
 21
-9301.910660628859
 31
0.0
  0
LINE
  5
D6
100
AcDbEntity
  8
Frei
  6
CONTINUOUS
 62
           7
100
AcDbLine
 10
-14317.803295567799
 20
-9280.36098837258
 30
0.0
 11
-14317.885164660214
 21
-9281.558192386816
 31
0.0
  0
LINE
  5
D7
100
AcDbEntity
  8
Frei
  6
CONTINUOUS
 62
           7
100
AcDbLine
 10
-14317.885164660214
 20
-9281.558192386816
 30
0.0
 11
-14319.721415109325
 21
-9281.43262301357
 31
0.0
  0
LINE
  5
D8
100
AcDbEntity
  8
Frei
  6
CONTINUOUS
 62
           7
100
AcDbLine
 10
-14317.885164660214
 20
-9281.558192386816
 30
0.0
 11
-14319.276939231258
 21
-9301.910660628859
 31
0.0
  0
LINE
  5
D9
100
AcDbEntity
  8
Frei
  6
CONTINUOUS
 62
           7
100
AcDbLine
 10
-14319.276939231258
 20
-9301.910660628859
 30
0.0
 11
-14319.358808323674
 21
-9303.107864643098
 31
0.0
  0
LINE
  5
DA
100
AcDbEntity
  8
Frei
  6
CONTINUOUS
 62
           7
100
AcDbLine
 10
-14307.746845676724
 20
-9303.901932180252
 30
0.0
 11
-14307.664976584309
 21
-9302.704728166013
 31
0.0
  0
LINE
  5
DB
100
AcDbEntity
  8
Frei
  6
CONTINUOUS
 62
           7
100
AcDbLine
 10
-14307.664976584309
 20
-9302.704728166013
 30
0.0
 11
-14304.950935488159
 21
-9302.890324003209
 31
0.0
  0
LINE
  5
DC
100
AcDbEntity
  8
Frei
  6
CONTINUOUS
 62
           7
100
AcDbLine
 10
-14307.664976584309
 20
-9302.704728166013
 30
0.0
 11
-14306.273202013264
 21
-9282.35225992397
 31
0.0
  0
LINE
  5
DD
100
AcDbEntity
  8
Frei
  6
CONTINUOUS
 62
           7
100
AcDbLine
 10
-14306.273202013264
 20
-9282.35225992397
 30
0.0
 11
-14306.191332920849
 21
-9281.15505590973
 31
0.0
  0
LINE
  5
DE
100
AcDbEntity
  8
Frei
  6
CONTINUOUS
 62
           7
100
AcDbLine
 10
-14317.803295567799
 20
-9280.36098837258
 30
0.0
 11
-14306.191332920849
 21
-9281.15505590973
 31
0.0
  0
LINE
  5
DF
100
AcDbEntity
  8
Frei
  6
CONTINUOUS
 62
           7
100
AcDbLine
 10
-14319.358808323674
 20
-9303.107864643098
 30
0.0
 11
-14307.746845676724
 21
-9303.901932180252
 31
0.0
  0
ARC
  5
E0
100
AcDbEntity
  8
Frei
  6
CONTINUOUS
 62
           7
100
AcDbCircle
 10
-14343.030597945359
 20
-9290.062479106116
 30
0.0
 40
20.866107311614
100
AcDbArc
 50
320.981694434247
 51
31.194305565753
  0
ARC
  5
E1
100
AcDbEntity
  8
Frei
  6
CONTINUOUS
 62
           7
100
AcDbCircle
 10
-14333.163179642121
 20
-9290.737248461508
 30
0.0
 40
29.660254037844
100
AcDbArc
 50
152.22307458395
 51
199.95292541605
  0
ARC
  5
E2
100
AcDbEntity
  8
Frei
  6
CONTINUOUS
 62
           7
100
AcDbCircle
 10
-14343.746158992857
 20
-9290.013546482413
 30
0.0
 40
22.516660498395
100
AcDbArc
 50
143.883772496028
 51
208.292227503973
  0
CIRCLE
  5
E3
100
AcDbEntity
  8
Frei
  6
CONTINUOUS
 62
           7
100
AcDbCircle
 10
-14351.245305761475
 20
-9289.500728004921
 30
0.0
 40
5.1
  0
ARC
  5
E4
100
AcDbEntity
  8
Frei
  6
CONTINUOUS
 62
           7
100
AcDbCircle
 10
-14321.455819311372
 20
-9280.411916364268
 30
0.0
 40
0.9
100
AcDbArc
 50
356.087999999999
 51
86.088
  0
ARC
  5
E5
100
AcDbEntity
  8
Frei
  6
CONTINUOUS
 62
           7
100
AcDbCircle
 10
-14319.660013290013
 20
-9280.534720002892
 30
0.0
 40
0.9
100
AcDbArc
 50
176.088
 51
266.087999999999
  0
ARC
  5
E6
100
AcDbEntity
  8
Frei
  6
CONTINUOUS
 62
           7
100
AcDbCircle
 10
-14303.620562736425
 20
-9283.435758771844
 30
0.0
 40
0.9
100
AcDbArc
 50
356.087999999999
 51
86.088
  0
ARC
  5
E7
100
AcDbEntity
  8
Frei
  6
CONTINUOUS
 62
           7
100
AcDbCircle
 10
-14304.889533668849
 20
-9301.99242099253
 30
0.0
 40
0.9
100
AcDbArc
 50
266.087999999999
 51
356.087999999999
  0
ARC
  5
E8
100
AcDbEntity
  8
Frei
  6
CONTINUOUS
 62
           7
100
AcDbCircle
 10
-14321.174591499681
 20
-9302.682994266292
 30
0.0
 40
0.9
100
AcDbArc
 50
86.088
 51
176.088
  0
ARC
  5
E9
100
AcDbEntity
  8
Frei
  6
CONTINUOUS
 62
           7
100
AcDbCircle
 10
-14322.97039752104
 20
-9302.560190627672
 30
0.0
 40
0.9
100
AcDbArc
 50
266.087999999999
 51
356.087999999999
  0
LINE
  5
EA
100
AcDbEntity
  8
Frei
  6
CONTINUOUS
 62
           7
100
AcDbLine
 10
-14045.472537538901
 20
-9330.156391170767
 30
0.0
 11
-14041.980692497375
 21
-9330.395176023645
 31
0.0
  0
LINE
  5
EB
100
AcDbEntity
  8
Frei
  6
CONTINUOUS
 62
           7
100
AcDbLine
 10
-14045.336089051543
 20
-9328.161051147039
 30
0.0
 11
-14045.472537538901
 21
-9330.156391170767
 31
0.0
  0
LINE
  5
EC
100
AcDbEntity
  8
Frei
  6
CONTINUOUS
 62
           7
100
AcDbLine
 10
-14040.334892170562
 20
-9320.985535154607
 30
0.0
 11
-14040.914798241831
 21
-9329.465730255459
 31
0.0
  0
LINE
  5
ED
100
AcDbEntity
  8
Frei
  6
CONTINUOUS
 62
           7
100
AcDbLine
 10
-14044.824407223954
 20
-9320.678526058051
 30
0.0
 11
-14040.334892170562
 21
-9320.985535154607
 31
0.0
  0
LINE
  5
EE
100
AcDbEntity
  8
Frei
  6
CONTINUOUS
 62
           7
100
AcDbLine
 10
-14044.858519345793
 20
-9321.177361063983
 30
0.0
 11
-14044.824407223954
 21
-9320.678526058051
 31
0.0
  0
LINE
  5
EF
100
AcDbEntity
  8
Frei
  6
CONTINUOUS
 62
           7
100
AcDbLine
 10
-14041.348942149634
 20
-9321.863484494268
 30
0.0
 11
-14044.858519345793
 21
-9321.177361063983
 31
0.0
  0
LINE
  5
F0
100
AcDbEntity
  8
Frei
  6
CONTINUOUS
 62
           7
100
AcDbLine
 10
-14041.086501343136
 20
-9324.442311434985
 30
0.0
 11
-14040.946041172216
 21
-9322.388306980956
 31
0.0
  0
LINE
  5
F1
100
AcDbEntity
  8
Frei
  6
CONTINUOUS
 62
           7
100
AcDbLine
 10
-14045.336089051543
 20
-9328.161051147039
 30
0.0
 11
-14044.858519345793
 21
-9321.177361063983
 31
0.0
  0
LINE
  5
F2
100
AcDbEntity
  8
Frei
  6
CONTINUOUS
 62
           7
100
AcDbLine
 10
-14041.765780472853
 20
-9327.959075627969
 30
0.0
 11
-14045.336089051543
 21
-9328.161051147039
 31
0.0
  0
LINE
  5
F3
100
AcDbEntity
  8
Frei
  6
CONTINUOUS
 62
           7
100
AcDbLine
 10
-14041.154725586815
 20
-9325.439981446849
 30
0.0
 11
-14041.295185757735
 21
-9327.493985900877
 31
0.0
  0
LINE
  5
F4
100
AcDbEntity
  8
Frei
  6
CONTINUOUS
 62
           2
100
AcDbLine
 10
-14042.703234581233
 20
-9324.832921148583
 30
0.0
 11
-14039.932850292918
 21
-9325.022369934777
 31
0.0
  0
LINE
  5
F5
100
AcDbEntity
  8
Frei
  6
CONTINUOUS
 62
           7
100
AcDbLine
 10
-14042.669122459392
 20
-9324.334086142651
 30
0.0
 11
-14041.086501343136
 21
-9324.442311434985
 31
0.0
  0
LINE
  5
F6
100
AcDbEntity
  8
Frei
  6
CONTINUOUS
 62
           7
100
AcDbLine
 10
-14042.703234581233
 20
-9324.832921148583
 30
0.0
 11
-14042.669122459392
 21
-9324.334086142651
 31
0.0
  0
LINE
  5
F7
100
AcDbEntity
  8
Frei
  6
CONTINUOUS
 62
           7
100
AcDbLine
 10
-14042.737346703072
 20
-9325.331756154516
 30
0.0
 11
-14042.703234581233
 21
-9324.832921148583
 31
0.0
  0
LINE
  5
F8
100
AcDbEntity
  8
Frei
  6
CONTINUOUS
 62
           7
100
AcDbLine
 10
-14041.154725586815
 20
-9325.439981446849
 30
0.0
 11
-14042.737346703072
 21
-9325.331756154516
 31
0.0
  0
LINE
  5
F9
100
AcDbEntity
  8
Frei
  6
CONTINUOUS
 62
           7
100
AcDbLine
 10
-14184.647504194054
 20
-9320.639109177588
 30
0.0
 11
-14182.396104152656
 21
-9287.715998786047
 31
0.0
  0
LINE
  5
FA
100
AcDbEntity
  8
Frei
  6
CONTINUOUS
 62
           7
100
AcDbLine
 10
-14198.614884360162
 20
-9319.683969766087
 30
0.0
 11
-14184.647504194054
 21
-9320.639109177588
 31
0.0
  0
LINE
  5
FB
100
AcDbEntity
  8
Frei
  6
CONTINUOUS
 62
           7
100
AcDbLine
 10
-14192.372804271305
 20
-9287.033756349261
 30
0.0
 11
-14182.894939158588
 21
-9287.68188666421
 31
0.0
  0
LINE
  5
FC
100
AcDbEntity
  8
Frei
  6
CONTINUOUS
 62
           7
100
AcDbLine
 10
-14192.509252758662
 20
-9289.029096372989
 30
0.0
 11
-14192.372804271305
 21
-9287.033756349261
 31
0.0
  0
LINE
  5
FD
100
AcDbEntity
  8
Frei
  6
CONTINUOUS
 62
           7
100
AcDbLine
 10
-14192.986822464414
 20
-9296.012786456045
 30
0.0
 11
-14193.020934586253
 21
-9296.511621461978
 31
0.0
  0
LINE
  5
FE
100
AcDbEntity
  8
Frei
  6
CONTINUOUS
 62
           7
100
AcDbLine
 10
-14198.009284645577
 20
-9296.170500243585
 30
0.0
 11
-14197.429378574308
 21
-9287.690305142733
 31
0.0
  0
LINE
  5
FF
100
AcDbEntity
  8
Frei
  6
CONTINUOUS
 62
           7
100
AcDbLine
 10
-14193.020934586253
 20
-9296.511621461978
 30
0.0
 11
-14198.009284645577
 21
-9296.170500243585
 31
0.0
  0
LINE
  5
100
100
AcDbEntity
  8
Frei
  6
CONTINUOUS
 62
           7
100
AcDbLine
 10
-14196.363484318765
 20
-9286.760859374546
 30
0.0
 11
-14192.372804271305
 21
-9287.033756349261
 31
0.0
  0
LINE
  5
101
100
AcDbEntity
  8
Frei
  6
CONTINUOUS
 62
           7
100
AcDbLine
 10
-14196.496399660571
 20
-9295.32666302576
 30
0.0
 11
-14192.986822464414
 21
-9296.012786456045
 31
0.0
  0
LINE
  5
102
100
AcDbEntity
  8
Frei
  6
CONTINUOUS
 62
           7
100
AcDbLine
 10
-14196.75884046707
 20
-9292.747836085044
 30
0.0
 11
-14196.89930063799
 21
-9294.801840539072
 31
0.0
  0
LINE
  5
103
100
AcDbEntity
  8
Frei
  6
CONTINUOUS
 62
           7
100
AcDbLine
 10
-14192.509252758662
 20
-9289.029096372989
 30
0.0
 11
-14192.986822464414
 21
-9296.012786456045
 31
0.0
  0
LINE
  5
104
100
AcDbEntity
  8
Frei
  6
CONTINUOUS
 62
           7
100
AcDbLine
 10
-14196.079561337352
 20
-9289.23107189206
 30
0.0
 11
-14192.509252758662
 21
-9289.029096372989
 31
0.0
  0
LINE
  5
105
100
AcDbEntity
  8
Frei
  6
CONTINUOUS
 62
           7
100
AcDbLine
 10
-14196.690616223392
 20
-9291.75016607318
 30
0.0
 11
-14196.55015605247
 21
-9289.696161619151
 31
0.0
  0
LINE
  5
106
100
AcDbEntity
  8
Frei
  6
CONTINUOUS
 62
           2
100
AcDbLine
 10
-14195.142107228974
 20
-9292.357226371445
 30
0.0
 11
-14197.912491517289
 21
-9292.167777585251
 31
0.0
  0
LINE
  5
107
100
AcDbEntity
  8
Frei
  6
CONTINUOUS
 62
           7
100
AcDbLine
 10
-14195.176219350813
 20
-9292.856061377377
 30
0.0
 11
-14196.75884046707
 21
-9292.747836085044
 31
0.0
  0
LINE
  5
108
100
AcDbEntity
  8
Frei
  6
CONTINUOUS
 62
           7
100
AcDbLine
 10
-14195.142107228974
 20
-9292.357226371445
 30
0.0
 11
-14195.176219350813
 21
-9292.856061377377
 31
0.0
  0
LINE
  5
109
100
AcDbEntity
  8
Frei
  6
CONTINUOUS
 62
           7
100
AcDbLine
 10
-14195.107995107135
 20
-9291.858391365513
 30
0.0
 11
-14195.142107228974
 21
-9292.357226371445
 31
0.0
  0
LINE
  5
10A
100
AcDbEntity
  8
Frei
  6
CONTINUOUS
 62
           7
100
AcDbLine
 10
-14196.690616223392
 20
-9291.75016607318
 30
0.0
 11
-14195.107995107135
 21
-9291.858391365513
 31
0.0
  0
LINE
  5
10B
100
AcDbEntity
  8
Frei
  6
CONTINUOUS
 62
           7
100
AcDbLine
 10
-14158.933223889708
 20
-9325.70525055239
 30
0.0
 11
-14158.967336011547
 21
-9326.204085558322
 31
0.0
  0
LINE
  5
10C
100
AcDbEntity
  8
Frei
  6
CONTINUOUS
 62
           7
100
AcDbLine
 10
-14158.967336011547
 20
-9326.204085558322
 30
0.0
 11
-14082.146745097949
 21
-9331.457352321584
 31
0.0
  0
LINE
  5
10D
100
AcDbEntity
  8
Frei
  6
CONTINUOUS
 62
           7
100
AcDbLine
 10
-14082.146745097949
 20
-9331.457352321584
 30
0.0
 11
-14078.940205645049
 21
-9284.566861763935
 31
0.0
  0
LINE
  5
10E
100
AcDbEntity
  8
Frei
  6
CONTINUOUS
 62
           7
100
AcDbLine
 10
-14078.940205645049
 20
-9284.566861763935
 30
0.0
 11
-14155.760796558647
 21
-9279.313595000673
 31
0.0
  0
LINE
  5
10F
100
AcDbEntity
  8
Frei
  6
CONTINUOUS
 62
           7
100
AcDbLine
 10
-14182.894939158588
 20
-9287.68188666421
 30
0.0
 11
-14182.396104152656
 21
-9287.715998786047
 31
0.0
  0
LINE
  5
110
100
AcDbEntity
  8
Frei
  6
CONTINUOUS
 62
           7
100
AcDbLine
 10
-14156.758466570511
 20
-9279.245370756995
 30
0.0
 11
-14182.199051873065
 21
-9277.505652543186
 31
0.0
  0
LINE
  5
111
100
AcDbEntity
  8
Frei
  6
CONTINUOUS
 62
           7
100
AcDbLine
 10
-14184.906756320033
 20
-9324.430255222676
 30
0.0
 11
-14184.647504194054
 21
-9320.639109177588
 31
0.0
  0
LINE
  5
112
100
AcDbEntity
  8
Frei
  6
CONTINUOUS
 62
           7
100
AcDbLine
 10
-14182.894939158588
 20
-9287.68188666421
 30
0.0
 11
-14182.199051873065
 21
-9277.505652543186
 31
0.0
  0
LINE
  5
113
100
AcDbEntity
  8
Frei
  6
CONTINUOUS
 62
           7
100
AcDbLine
 10
-14158.933223889708
 20
-9325.70525055239
 30
0.0
 11
-14159.930893901572
 21
-9325.637026308708
 31
0.0
  0
LINE
  5
114
100
AcDbEntity
  8
Frei
  6
CONTINUOUS
 62
           7
100
AcDbLine
 10
-14155.794908680487
 20
-9279.812430006605
 30
0.0
 11
-14158.933223889708
 21
-9325.70525055239
 31
0.0
  0
LINE
  5
115
100
AcDbEntity
  8
Frei
  6
CONTINUOUS
 62
           7
100
AcDbLine
 10
-14155.794908680487
 20
-9279.812430006605
 30
0.0
 11
-14156.792578692352
 21
-9279.744205762927
 31
0.0
  0
LINE
  5
116
100
AcDbEntity
  8
Frei
  6
CONTINUOUS
 62
           7
100
AcDbLine
 10
-14155.760796558647
 20
-9279.313595000673
 30
0.0
 11
-14155.794908680487
 21
-9279.812430006605
 31
0.0
  0
LINE
  5
117
100
AcDbEntity
  8
Frei
  6
CONTINUOUS
 62
           7
100
AcDbLine
 10
-14159.930893901572
 20
-9325.637026308708
 30
0.0
 11
-14156.758466570511
 21
-9279.245370756995
 31
0.0
  0
LINE
  5
118
100
AcDbEntity
  8
Frei
  6
CONTINUOUS
 62
           7
100
AcDbLine
 10
-14159.965006023411
 20
-9326.135861314644
 30
0.0
 11
-14159.930893901572
 21
-9325.637026308708
 31
0.0
  0
LINE
  5
119
100
AcDbEntity
  8
Frei
  6
CONTINUOUS
 62
           7
100
AcDbLine
 10
-14184.906756320033
 20
-9324.430255222676
 30
0.0
 11
-14159.965006023411
 21
-9326.135861314644
 31
0.0
  0
LINE
  5
11A
100
AcDbEntity
  8
Frei
  6
CONTINUOUS
 62
           7
100
AcDbLine
 10
-14081.149075086083
 20
-9331.525576565262
 30
0.0
 11
-14056.207324789462
 21
-9333.23118265723
 31
0.0
  0
LINE
  5
11B
100
AcDbEntity
  8
Frei
  6
CONTINUOUS
 62
           7
100
AcDbLine
 10
-14081.114962964244
 20
-9331.02674155933
 30
0.0
 11
-14081.149075086083
 21
-9331.525576565262
 31
0.0
  0
LINE
  5
11C
100
AcDbEntity
  8
Frei
  6
CONTINUOUS
 62
           7
100
AcDbLine
 10
-14077.942535633183
 20
-9284.635086007613
 30
0.0
 11
-14081.114962964244
 21
-9331.02674155933
 31
0.0
  0
LINE
  5
11D
100
AcDbEntity
  8
Frei
  6
CONTINUOUS
 62
           7
100
AcDbLine
 10
-14077.976647755024
 20
-9285.133921013545
 30
0.0
 11
-14078.97431776689
 21
-9285.065696769867
 31
0.0
  0
LINE
  5
11E
100
AcDbEntity
  8
Frei
  6
CONTINUOUS
 62
           7
100
AcDbLine
 10
-14081.114962964244
 20
-9331.02674155933
 30
0.0
 11
-14082.11263297611
 21
-9330.958517315648
 31
0.0
  0
LINE
  5
11F
100
AcDbEntity
  8
Frei
  6
CONTINUOUS
 62
           7
100
AcDbLine
 10
-14052.501950330628
 20
-9286.374804221421
 30
0.0
 11
-14053.197837616151
 21
-9296.551038342441
 31
0.0
  0
LINE
  5
120
100
AcDbEntity
  8
Frei
  6
CONTINUOUS
 62
           7
100
AcDbLine
 10
-14052.501950330628
 20
-9286.374804221421
 30
0.0
 11
-14077.942535633183
 21
-9284.635086007613
 31
0.0
  0
LINE
  5
121
100
AcDbEntity
  8
Frei
  6
CONTINUOUS
 62
           7
100
AcDbLine
 10
-14053.696672622085
 20
-9296.5169262206
 30
0.0
 11
-14053.197837616151
 21
-9296.551038342441
 31
0.0
  0
LINE
  5
122
100
AcDbEntity
  8
Frei
  6
CONTINUOUS
 62
           7
100
AcDbLine
 10
-14053.696672622085
 20
-9296.5169262206
 30
0.0
 11
-14056.207324789462
 21
-9333.23118265723
 31
0.0
  0
LINE
  5
123
100
AcDbEntity
  8
Frei
  6
CONTINUOUS
 62
           7
100
AcDbLine
 10
-14229.231217288285
 20
-9291.02842653211
 30
0.0
 11
-14231.226557312013
 21
-9290.89197804475
 31
0.0
  0
LINE
  5
124
100
AcDbEntity
  8
Frei
  6
CONTINUOUS
 62
           7
100
AcDbLine
 10
-14229.529807906316
 20
-9310.05238100122
 30
0.0
 11
-14228.301771520099
 21
-9292.094320787652
 31
0.0
  0
LINE
  5
125
100
AcDbEntity
  8
Frei
  6
CONTINUOUS
 62
           7
100
AcDbLine
 10
-14232.591042185588
 20
-9310.845378282047
 30
0.0
 11
-14230.59570216186
 21
-9310.981826769406
 31
0.0
  0
LINE
  5
126
100
AcDbEntity
  8
Frei
  6
CONTINUOUS
 62
           7
100
AcDbLine
 10
-14233.179366735381
 20
-9304.791133967181
 30
0.0
 11
-14233.520487953776
 21
-9309.779484026505
 31
0.0
  0
LINE
  5
127
100
AcDbEntity
  8
Frei
  6
CONTINUOUS
 62
           7
100
AcDbLine
 10
-14231.226557312013
 20
-9290.89197804475
 30
0.0
 11
-14232.292451567559
 21
-9291.821423812937
 31
0.0
  0
LINE
  5
128
100
AcDbEntity
  8
Frei
  6
CONTINUOUS
 62
           7
100
AcDbLine
 10
-14229.231217288285
 20
-9291.02842653211
 30
0.0
 11
-14228.301771520099
 21
-9292.094320787652
 31
0.0
  0
LINE
  5
129
100
AcDbEntity
  8
Frei
  6
CONTINUOUS
 62
           7
100
AcDbLine
 10
-14229.529807906316
 20
-9310.05238100122
 30
0.0
 11
-14230.59570216186
 21
-9310.981826769406
 31
0.0
  0
LINE
  5
12A
100
AcDbEntity
  8
Frei
  6
CONTINUOUS
 62
           7
100
AcDbLine
 10
-14232.591042185588
 20
-9310.845378282047
 30
0.0
 11
-14233.520487953776
 21
-9309.779484026505
 31
0.0
  0
LINE
  5
12B
100
AcDbEntity
  8
Frei
  6
CONTINUOUS
 62
           7
100
AcDbLine
 10
-14232.591042185588
 20
-9310.845378282047
 30
0.0
 11
-14231.226557312013
 21
-9290.89197804475
 31
0.0
  0
LINE
  5
12C
100
AcDbEntity
  8
Frei
  6
CONTINUOUS
 62
           7
100
AcDbLine
 10
-14230.59570216186
 20
-9310.981826769406
 30
0.0
 11
-14229.231217288285
 21
-9291.02842653211
 31
0.0
  0
LINE
  5
12D
100
AcDbEntity
  8
Frei
  6
CONTINUOUS
 62
           7
100
AcDbLine
 10
-14230.041489733905
 20
-9317.534906090208
 30
0.0
 11
-14229.529807906316
 21
-9310.05238100122
 31
0.0
  0
LINE
  5
12E
100
AcDbEntity
  8
Frei
  6
CONTINUOUS
 62
           7
100
AcDbLine
 10
-14200.460929074878
 20
-9310.035544044175
 30
0.0
 11
-14201.109059389824
 21
-9319.513409156891
 31
0.0
  0
LINE
  5
12F
100
AcDbEntity
  8
Frei
  6
CONTINUOUS
 62
           7
100
AcDbLine
 10
-14233.699467041495
 20
-9297.739219640447
 30
0.0
 11
-14232.633572785951
 21
-9296.809773872261
 31
0.0
  0
LINE
  5
130
100
AcDbEntity
  8
Frei
  6
CONTINUOUS
 62
           7
100
AcDbLine
 10
-14232.292451567559
 20
-9291.821423812937
 30
0.0
 11
-14232.633572785951
 21
-9296.809773872261
 31
0.0
  0
LINE
  5
131
100
AcDbEntity
  8
Frei
  6
CONTINUOUS
 62
           7
100
AcDbLine
 10
-14233.733579163334
 20
-9298.238054646379
 30
0.0
 11
-14233.699467041495
 21
-9297.739219640447
 31
0.0
  0
LINE
  5
132
100
AcDbEntity
  8
Frei
  6
CONTINUOUS
 62
           7
100
AcDbLine
 10
-14233.179366735381
 20
-9304.791133967181
 30
0.0
 11
-14234.108812503568
 21
-9303.725239711635
 31
0.0
  0
LINE
  5
133
100
AcDbEntity
  8
Frei
  6
CONTINUOUS
 62
           7
100
AcDbLine
 10
-14233.111142491704
 20
-9303.793463955317
 30
0.0
 11
-14233.179366735381
 21
-9304.791133967181
 31
0.0
  0
LINE
  5
134
100
AcDbEntity
  8
Frei
  6
CONTINUOUS
 62
           2
100
AcDbLine
 10
-14232.701797029631
 20
-9297.807443884125
 30
0.0
 11
-14233.699467041495
 21
-9297.739219640447
 31
0.0
  0
LINE
  5
135
100
AcDbEntity
  8
Frei
  6
CONTINUOUS
 62
           7
100
AcDbLine
 10
-14232.633572785951
 20
-9296.809773872261
 30
0.0
 11
-14232.701797029631
 21
-9297.807443884125
 31
0.0
  0
LINE
  5
136
100
AcDbEntity
  8
Frei
  6
CONTINUOUS
 62
           2
100
AcDbLine
 10
-14233.111142491704
 20
-9303.793463955317
 30
0.0
 11
-14234.108812503568
 21
-9303.725239711635
 31
0.0
  0
LINE
  5
137
100
AcDbEntity
  8
Frei
  6
CONTINUOUS
 62
           7
100
AcDbLine
 10
-14232.701797029631
 20
-9297.807443884125
 30
0.0
 11
-14233.111142491704
 21
-9303.793463955317
 31
0.0
  0
LINE
  5
138
100
AcDbEntity
  8
Frei
  6
CONTINUOUS
 62
           1
100
AcDbLine
 10
-14231.251026048592
 20
-9298.407820507469
 30
0.0
 11
-14233.733579163334
 21
-9298.238054646379
 31
0.0
  0
LINE
  5
139
100
AcDbEntity
  8
Frei
  6
CONTINUOUS
 62
           7
100
AcDbLine
 10
-14233.767691285173
 20
-9298.736889652311
 30
0.0
 11
-14233.733579163334
 21
-9298.238054646379
 31
0.0
  0
LINE
  5
13A
100
AcDbEntity
  8
Frei
  6
CONTINUOUS
 62
           1
100
AcDbLine
 10
-14231.592147266985
 20
-9303.396170566793
 30
0.0
 11
-14234.074700381727
 21
-9303.226404705703
 31
0.0
  0
LINE
  5
13B
100
AcDbEntity
  8
Frei
  6
CONTINUOUS
 62
           7
100
AcDbLine
 10
-14234.108812503568
 20
-9303.725239711635
 30
0.0
 11
-14234.074700381727
 21
-9303.226404705703
 31
0.0
  0
LINE
  5
13C
100
AcDbEntity
  8
Frei
  6
CONTINUOUS
 62
           1
100
AcDbLine
 10
-14231.285138170431
 20
-9298.906655513401
 30
0.0
 11
-14233.767691285173
 21
-9298.736889652311
 31
0.0
  0
LINE
  5
13D
100
AcDbEntity
  8
Frei
  6
CONTINUOUS
 62
           7
100
AcDbLine
 10
-14234.040588259888
 20
-9302.727569699771
 30
0.0
 11
-14233.767691285173
 21
-9298.736889652311
 31
0.0
  0
LINE
  5
13E
100
AcDbEntity
  8
Frei
  6
CONTINUOUS
 62
           1
100
AcDbLine
 10
-14231.558035145146
 20
-9302.897335560861
 30
0.0
 11
-14234.040588259888
 21
-9302.727569699771
 31
0.0
  0
LINE
  5
13F
100
AcDbEntity
  8
Frei
  6
CONTINUOUS
 62
           7
100
AcDbLine
 10
-14234.074700381727
 20
-9303.226404705703
 30
0.0
 11
-14234.040588259888
 21
-9302.727569699771
 31
0.0
  0
LINE
  5
140
100
AcDbEntity
  8
Frei
  6
CONTINUOUS
 62
           7
100
AcDbLine
 10
-14226.201775261556
 20
-9289.677257927171
 30
0.0
 11
-14199.130556323142
 21
-9290.580978812806
 31
0.0
  0
LINE
  5
141
100
AcDbEntity
  8
Frei
  6
CONTINUOUS
 62
           7
100
AcDbLine
 10
-14228.263844289333
 20
-9291.539695939846
 30
0.0
 11
-14228.301771520099
 21
-9292.094320787652
 31
0.0
  0
LINE
  5
142
100
AcDbEntity
  8
Frei
  6
CONTINUOUS
 62
           7
100
AcDbLine
 10
-14201.109059389824
 20
-9319.513409156891
 30
0.0
 11
-14230.041489733905
 21
-9317.534906090208
 31
0.0
  0
LINE
  5
143
100
AcDbEntity
  8
Frei
  6
CONTINUOUS
 62
           7
100
AcDbLine
 10
-14230.109713977585
 20
-9318.532576102072
 30
0.0
 11
-14230.041489733905
 21
-9317.534906090208
 31
0.0
  0
LINE
  5
144
100
AcDbEntity
  8
Frei
  6
CONTINUOUS
 62
           7
100
AcDbLine
 10
-14229.610878971653
 20
-9318.566688223913
 30
0.0
 11
-14230.109713977585
 21
-9318.532576102072
 31
0.0
  0
LINE
  5
145
100
AcDbEntity
  8
Frei
  6
CONTINUOUS
 62
           7
100
AcDbLine
 10
-14201.109059389824
 20
-9319.513409156891
 30
0.0
 11
-14201.177283633504
 21
-9320.511079168755
 31
0.0
  0
LINE
  5
146
100
AcDbEntity
  8
Frei
  6
CONTINUOUS
 62
           7
100
AcDbLine
 10
-14240.973329264056
 20
-9330.820043819527
 30
0.0
 11
-14230.497794139475
 21
-9331.536398378154
 31
0.0
  0
LINE
  5
147
100
AcDbEntity
  8
Frei
  6
CONTINUOUS
 62
           7
100
AcDbLine
 10
-14243.561422180714
 20
-9346.680427643849
 30
0.0
 11
-14243.595534302553
 21
-9347.179262649781
 31
0.0
  0
LINE
  5
148
100
AcDbEntity
  8
Frei
  6
CONTINUOUS
 62
           7
100
AcDbLine
 10
-14242.201365650273
 20
-9348.778104033096
 30
0.0
 11
-14231.725830525693
 21
-9349.494458591722
 31
0.0
  0
LINE
  5
149
100
AcDbEntity
  8
Frei
  6
CONTINUOUS
 62
           7
100
AcDbLine
 10
-14231.487045672817
 20
-9346.002613550194
 30
0.0
 11
-14229.610878971653
 21
-9318.566688223913
 31
0.0
  0
LINE
  5
14A
100
AcDbEntity
  8
Frei
  6
CONTINUOUS
 62
           7
100
AcDbLine
 10
-14201.676118639436
 20
-9320.476967046914
 30
0.0
 11
-14229.610878971653
 21
-9318.566688223913
 31
0.0
  0
LINE
  5
14B
100
AcDbEntity
  8
Frei
  6
CONTINUOUS
 62
           7
100
AcDbLine
 10
-14230.092877020537
 20
-9347.601454933512
 30
0.0
 11
-14224.142671691399
 21
-9348.008351255427
 31
0.0
  0
LINE
  5
14C
100
AcDbEntity
  8
Frei
  6
CONTINUOUS
 62
           7
100
AcDbLine
 10
-14203.5522853406
 20
-9347.912892373199
 30
0.0
 11
-14201.676118639436
 21
-9320.476967046914
 31
0.0
  0
LINE
  5
14D
100
AcDbEntity
  8
Frei
  6
CONTINUOUS
 62
           7
100
AcDbLine
 10
-14201.177283633504
 20
-9320.511079168755
 30
0.0
 11
-14201.676118639436
 21
-9320.476967046914
 31
0.0
  0
LINE
  5
14E
100
AcDbEntity
  8
Frei
  6
CONTINUOUS
 62
           7
100
AcDbLine
 10
-14224.142671691399
 20
-9348.008351255427
 30
0.0
 11
-14231.725830525693
 21
-9349.494458591722
 31
0.0
  0
LINE
  5
14F
100
AcDbEntity
  8
Frei
  6
CONTINUOUS
 62
           7
100
AcDbLine
 10
-14205.151126723917
 20
-9349.30706102548
 30
0.0
 11
-14224.142671691399
 21
-9348.008351255427
 31
0.0
  0
LINE
  5
150
100
AcDbEntity
  8
Frei
  6
CONTINUOUS
 62
           7
100
AcDbLine
 10
-14247.594632828535
 20
-9332.371926259348
 30
0.0
 11
-14242.606282769211
 21
-9332.713047477741
 31
0.0
  0
LINE
  5
151
100
AcDbEntity
  8
Frei
  6
CONTINUOUS
 62
           7
100
AcDbLine
 10
-14242.572170647372
 20
-9332.214212471808
 30
0.0
 11
-14242.606282769211
 21
-9332.713047477741
 31
0.0
  0
LINE
  5
152
100
AcDbEntity
  8
Frei
  6
CONTINUOUS
 62
           7
100
AcDbLine
 10
-14248.549772240038
 20
-9346.339306425456
 30
0.0
 11
-14243.561422180714
 21
-9346.680427643849
 31
0.0
  0
LINE
  5
153
100
AcDbEntity
  8
Frei
  6
CONTINUOUS
 62
           7
100
AcDbLine
 10
-14243.493197937034
 20
-9345.682757631985
 30
0.0
 11
-14243.561422180714
 21
-9346.680427643849
 31
0.0
  0
LINE
  5
154
100
AcDbEntity
  8
Frei
  6
CONTINUOUS
 62
           2
100
AcDbLine
 10
-14242.674507012889
 20
-9333.710717489605
 30
0.0
 11
-14247.662857072213
 21
-9333.369596271212
 31
0.0
  0
LINE
  5
155
100
AcDbEntity
  8
Frei
  6
CONTINUOUS
 62
           7
100
AcDbLine
 10
-14242.606282769211
 20
-9332.713047477741
 30
0.0
 11
-14242.674507012889
 21
-9333.710717489605
 31
0.0
  0
LINE
  5
156
100
AcDbEntity
  8
Frei
  6
CONTINUOUS
 62
           2
100
AcDbLine
 10
-14243.493197937034
 20
-9345.682757631985
 30
0.0
 11
-14248.481547996358
 21
-9345.341636413588
 31
0.0
  0
LINE
  5
157
100
AcDbEntity
  8
Frei
  6
CONTINUOUS
 62
           7
100
AcDbLine
 10
-14242.674507012889
 20
-9333.710717489605
 30
0.0
 11
-14243.493197937034
 21
-9345.682757631985
 31
0.0
  0
LINE
  5
158
100
AcDbEntity
  8
Frei
  6
CONTINUOUS
 62
           7
100
AcDbLine
 10
-14199.505789663375
 20
-9296.068163878066
 30
0.0
 11
-14198.751562452113
 21
-9296.119740632341
 31
0.0
  0
LINE
  5
159
100
AcDbEntity
  8
Frei
  6
CONTINUOUS
 62
           7
100
AcDbLine
 10
-14199.130556323142
 20
-9290.580978812806
 30
0.0
 11
-14199.505789663375
 21
-9296.068163878066
 31
0.0
  0
LINE
  5
15A
100
AcDbEntity
  8
Frei
  6
CONTINUOUS
 62
           7
100
AcDbLine
 10
-14199.744574516251
 20
-9299.560008919591
 30
0.0
 11
-14198.990347304989
 21
-9299.611585673869
 31
0.0
  0
LINE
  5
15B
100
AcDbEntity
  8
Frei
  6
CONTINUOUS
 62
           7
100
AcDbLine
 10
-14199.505789663375
 20
-9296.068163878066
 30
0.0
 11
-14199.744574516251
 21
-9299.560008919591
 31
0.0
  0
LINE
  5
15C
100
AcDbEntity
  8
Frei
  6
CONTINUOUS
 62
           7
100
AcDbLine
 10
-14200.222144222002
 20
-9306.543699002647
 30
0.0
 11
-14199.467917010739
 21
-9306.595275756921
 31
0.0
  0
LINE
  5
15D
100
AcDbEntity
  8
Frei
  6
CONTINUOUS
 62
           7
100
AcDbLine
 10
-14199.744574516251
 20
-9299.560008919591
 30
0.0
 11
-14200.222144222002
 21
-9306.543699002647
 31
0.0
  0
LINE
  5
15E
100
AcDbEntity
  8
Frei
  6
CONTINUOUS
 62
           7
100
AcDbLine
 10
-14200.460929074878
 20
-9310.035544044175
 30
0.0
 11
-14199.706701863615
 21
-9310.087120798449
 31
0.0
  0
LINE
  5
15F
100
AcDbEntity
  8
Frei
  6
CONTINUOUS
 62
           7
100
AcDbLine
 10
-14200.222144222002
 20
-9306.543699002647
 30
0.0
 11
-14200.460929074878
 21
-9310.035544044175
 31
0.0
  0
LINE
  5
160
100
AcDbEntity
  8
Frei
  6
CONTINUOUS
 62
           7
100
AcDbLine
 10
-14198.486854351328
 20
-9303.154190326637
 30
0.0
 11
-14198.128677072014
 21
-9297.916422764345
 31
0.0
  0
LINE
  5
161
100
AcDbEntity
  8
Frei
  6
CONTINUOUS
 62
           7
100
AcDbLine
 10
-14247.53130686517
 20
-9331.445885731584
 30
0.0
 11
-14247.441973967036
 21
-9330.1395355438
 31
0.0
  0
LINE
  5
162
100
AcDbEntity
  8
Frei
  6
CONTINUOUS
 62
           7
100
AcDbLine
 10
-14252.936559528289
 20
-9348.282152295393
 30
0.0
 11
-14248.702431101538
 21
-9348.571697141004
 31
0.0
  0
LINE
  5
163
100
AcDbEntity
  8
Frei
  6
CONTINUOUS
 62
           7
100
AcDbLine
 10
-14252.519656924494
 20
-9331.104764513191
 30
0.0
 11
-14247.53130686517
 21
-9331.445885731584
 31
0.0
  0
LINE
  5
164
100
AcDbEntity
  8
Frei
  6
CONTINUOUS
 62
           7
100
AcDbLine
 10
-14247.667755352528
 20
-9333.441225755312
 30
0.0
 11
-14247.53130686517
 21
-9331.445885731584
 31
0.0
  0
LINE
  5
165
100
AcDbEntity
  8
Frei
  6
CONTINUOUS
 62
           7
100
AcDbLine
 10
-14247.667755352528
 20
-9333.441225755312
 30
0.0
 11
-14252.656105411852
 21
-9333.100104536919
 31
0.0
  0
LINE
  5
166
100
AcDbEntity
  8
Frei
  6
CONTINUOUS
 62
           7
100
AcDbLine
 10
-14252.519656924494
 20
-9331.104764513191
 30
0.0
 11
-14252.656105411852
 21
-9333.100104536919
 31
0.0
  0
LINE
  5
167
100
AcDbEntity
  8
Frei
  6
CONTINUOUS
 62
           7
100
AcDbLine
 10
-14247.757088250661
 20
-9334.7475759431
 30
0.0
 11
-14247.667755352528
 21
-9333.441225755312
 31
0.0
  0
LINE
  5
168
100
AcDbEntity
  8
Frei
  6
CONTINUOUS
 62
           7
100
AcDbLine
 10
-14247.935754046928
 20
-9337.360276318672
 30
0.0
 11
-14247.757088250661
 21
-9334.7475759431
 31
0.0
  0
LINE
  5
169
100
AcDbEntity
  8
Frei
  6
CONTINUOUS
 62
           7
100
AcDbLine
 10
-14247.935754046928
 20
-9337.360276318672
 30
0.0
 11
-14252.924104106252
 21
-9337.019155100275
 31
0.0
  0
LINE
  5
16A
100
AcDbEntity
  8
Frei
  6
CONTINUOUS
 62
           7
100
AcDbLine
 10
-14252.656105411852
 20
-9333.100104536919
 30
0.0
 11
-14252.924104106252
 21
-9337.019155100275
 31
0.0
  0
LINE
  5
16B
100
AcDbEntity
  8
Frei
  6
CONTINUOUS
 62
           7
100
AcDbLine
 10
-14248.208651021643
 20
-9341.350956366128
 30
0.0
 11
-14247.935754046928
 21
-9337.360276318672
 31
0.0
  0
LINE
  5
16C
100
AcDbEntity
  8
Frei
  6
CONTINUOUS
 62
           7
100
AcDbLine
 10
-14248.208651021643
 20
-9341.350956366128
 30
0.0
 11
-14253.197001080967
 21
-9341.009835147735
 31
0.0
  0
LINE
  5
16D
100
AcDbEntity
  8
Frei
  6
CONTINUOUS
 62
           7
100
AcDbLine
 10
-14252.924104106252
 20
-9337.019155100275
 30
0.0
 11
-14253.197001080967
 21
-9341.009835147735
 31
0.0
  0
LINE
  5
16E
100
AcDbEntity
  8
Frei
  6
CONTINUOUS
 62
           7
100
AcDbLine
 10
-14248.387316817911
 20
-9343.9636567417
 30
0.0
 11
-14248.208651021643
 21
-9341.350956366128
 31
0.0
  0
LINE
  5
16F
100
AcDbEntity
  8
Frei
  6
CONTINUOUS
 62
           7
100
AcDbLine
 10
-14248.476649716045
 20
-9345.270006929488
 30
0.0
 11
-14248.387316817911
 21
-9343.9636567417
 31
0.0
  0
LINE
  5
170
100
AcDbEntity
  8
Frei
  6
CONTINUOUS
 62
           7
100
AcDbLine
 10
-14248.476649716045
 20
-9345.270006929488
 30
0.0
 11
-14253.46499977537
 21
-9344.928885711095
 31
0.0
  0
LINE
  5
171
100
AcDbEntity
  8
Frei
  6
CONTINUOUS
 62
           7
100
AcDbLine
 10
-14253.197001080967
 20
-9341.009835147735
 30
0.0
 11
-14253.46499977537
 21
-9344.928885711095
 31
0.0
  0
LINE
  5
172
100
AcDbEntity
  8
Frei
  6
CONTINUOUS
 62
           7
100
AcDbLine
 10
-14248.613098203403
 20
-9347.265346953216
 30
0.0
 11
-14248.476649716045
 21
-9345.270006929488
 31
0.0
  0
LINE
  5
173
100
AcDbEntity
  8
Frei
  6
CONTINUOUS
 62
           7
100
AcDbLine
 10
-14248.613098203403
 20
-9347.265346953216
 30
0.0
 11
-14253.601448262727
 21
-9346.924225734823
 31
0.0
  0
LINE
  5
174
100
AcDbEntity
  8
Frei
  6
CONTINUOUS
 62
           7
100
AcDbLine
 10
-14253.46499977537
 20
-9344.928885711095
 30
0.0
 11
-14253.601448262727
 21
-9346.924225734823
 31
0.0
  0
LINE
  5
175
100
AcDbEntity
  8
Frei
  6
CONTINUOUS
 62
           7
100
AcDbLine
 10
-14248.702431101538
 20
-9348.571697141004
 30
0.0
 11
-14248.613098203403
 21
-9347.265346953216
 31
0.0
  0
LINE
  5
176
100
AcDbEntity
  8
Frei
  6
CONTINUOUS
 62
           7
100
AcDbLine
 10
-14252.519656924494
 20
-9331.104764513191
 30
0.0
 11
-14251.676102393787
 21
-9329.849990698189
 31
0.0
  0
LINE
  5
177
100
AcDbEntity
  8
Frei
  6
CONTINUOUS
 62
           7
100
AcDbLine
 10
-14247.441973967036
 20
-9330.1395355438
 30
0.0
 11
-14251.676102393787
 21
-9329.849990698189
 31
0.0
  0
LINE
  5
178
100
AcDbEntity
  8
Frei
  6
CONTINUOUS
 62
           7
100
AcDbLine
 10
-14252.936559528289
 20
-9348.282152295393
 30
0.0
 11
-14253.601448262727
 21
-9346.924225734823
 31
0.0
  0
LINE
  5
179
100
AcDbEntity
  8
Frei
  6
CONTINUOUS
 62
           7
100
AcDbLine
 10
-14251.991216677412
 20
-9334.458031097493
 30
0.0
 11
-14252.656105411852
 21
-9333.100104536919
 31
0.0
  0
LINE
  5
17A
100
AcDbEntity
  8
Frei
  6
CONTINUOUS
 62
           7
100
AcDbLine
 10
-14247.757088250661
 20
-9334.7475759431
 30
0.0
 11
-14251.991216677412
 21
-9334.458031097493
 31
0.0
  0
LINE
  5
17B
100
AcDbEntity
  8
Frei
  6
CONTINUOUS
 62
           7
100
AcDbLine
 10
-14252.924104106252
 20
-9337.019155100275
 30
0.0
 11
-14251.991216677412
 21
-9334.458031097493
 31
0.0
  0
LINE
  5
17C
100
AcDbEntity
  8
Frei
  6
CONTINUOUS
 62
           7
100
AcDbLine
 10
-14252.621445244662
 20
-9343.674111896093
 30
0.0
 11
-14253.197001080967
 21
-9341.009835147735
 31
0.0
  0
LINE
  5
17D
100
AcDbEntity
  8
Frei
  6
CONTINUOUS
 62
           7
100
AcDbLine
 10
-14248.387316817911
 20
-9343.9636567417
 30
0.0
 11
-14252.621445244662
 21
-9343.674111896093
 31
0.0
  0
LINE
  5
17E
100
AcDbEntity
  8
Frei
  6
CONTINUOUS
 62
           7
100
AcDbLine
 10
-14253.46499977537
 20
-9344.928885711095
 30
0.0
 11
-14252.621445244662
 21
-9343.674111896093
 31
0.0
  0
LINE
  5
17F
100
AcDbEntity
  8
Frei
  6
CONTINUOUS
 62
           3
100
AcDbLine
 10
-14208.158579635323
 20
-9341.984819088364
 30
0.0
 11
-14226.116639848891
 21
-9340.756782702145
 31
0.0
  0
LINE
  5
180
100
AcDbEntity
  8
Frei
  6
CONTINUOUS
 62
           3
100
AcDbLine
 10
-14208.798116188649
 20
-9342.542486549275
 30
0.0
 11
-14208.158579635323
 21
-9341.984819088364
 31
0.0
  0
LINE
  5
181
100
AcDbEntity
  8
Frei
  6
CONTINUOUS
 62
           3
100
AcDbLine
 10
-14208.240448727738
 20
-9343.1820231026
 30
0.0
 11
-14208.798116188649
 21
-9342.542486549275
 31
0.0
  0
LINE
  5
182
100
AcDbEntity
  8
Frei
  6
CONTINUOUS
 62
           3
100
AcDbLine
 10
-14226.198508941306
 20
-9341.953986716384
 30
0.0
 11
-14208.240448727738
 21
-9343.1820231026
 31
0.0
  0
LINE
  5
183
100
AcDbEntity
  8
Frei
  6
CONTINUOUS
 62
           3
100
AcDbLine
 10
-14225.55897238798
 20
-9341.396319255473
 30
0.0
 11
-14226.198508941306
 21
-9341.953986716384
 31
0.0
  0
LINE
  5
184
100
AcDbEntity
  8
Frei
  6
CONTINUOUS
 62
           3
100
AcDbLine
 10
-14226.116639848891
 20
-9340.756782702145
 30
0.0
 11
-14225.55897238798
 21
-9341.396319255473
 31
0.0
  0
LINE
  5
185
100
AcDbEntity
  8
Frei
  6
CONTINUOUS
 62
           3
100
AcDbLine
 10
-14208.798116188649
 20
-9342.542486549275
 30
0.0
 11
-14225.55897238798
 21
-9341.396319255473
 31
0.0
  0
LINE
  5
186
100
AcDbEntity
  8
Frei
  6
CONTINUOUS
 62
           3
100
AcDbLine
 10
-14226.062060453949
 20
-9339.958646692656
 30
0.0
 11
-14225.422523900623
 21
-9339.400979231741
 31
0.0
  0
LINE
  5
187
100
AcDbEntity
  8
Frei
  6
CONTINUOUS
 62
           3
100
AcDbLine
 10
-14208.104000240381
 20
-9341.186683078871
 30
0.0
 11
-14226.062060453949
 21
-9339.958646692656
 31
0.0
  0
LINE
  5
188
100
AcDbEntity
  8
Frei
  6
CONTINUOUS
 62
           3
100
AcDbLine
 10
-14208.661667701292
 20
-9340.547146525543
 30
0.0
 11
-14208.104000240381
 21
-9341.186683078871
 31
0.0
  0
LINE
  5
189
100
AcDbEntity
  8
Frei
  6
CONTINUOUS
 62
           3
100
AcDbLine
 10
-14208.022131147965
 20
-9339.989479064632
 30
0.0
 11
-14208.661667701292
 21
-9340.547146525543
 31
0.0
  0
LINE
  5
18A
100
AcDbEntity
  8
Frei
  6
CONTINUOUS
 62
           3
100
AcDbLine
 10
-14225.980191361534
 20
-9338.761442678417
 30
0.0
 11
-14208.022131147965
 21
-9339.989479064632
 31
0.0
  0
LINE
  5
18B
100
AcDbEntity
  8
Frei
  6
CONTINUOUS
 62
           3
100
AcDbLine
 10
-14225.422523900623
 20
-9339.400979231741
 30
0.0
 11
-14225.980191361534
 21
-9338.761442678417
 31
0.0
  0
LINE
  5
18C
100
AcDbEntity
  8
Frei
  6
CONTINUOUS
 62
           3
100
AcDbLine
 10
-14225.422523900623
 20
-9339.400979231741
 30
0.0
 11
-14208.661667701292
 21
-9340.547146525543
 31
0.0
  0
LINE
  5
18D
100
AcDbEntity
  8
Frei
  6
CONTINUOUS
 62
           3
100
AcDbLine
 10
-14225.925611966592
 20
-9337.963306668924
 30
0.0
 11
-14225.286075413265
 21
-9337.405639208013
 31
0.0
  0
LINE
  5
18E
100
AcDbEntity
  8
Frei
  6
CONTINUOUS
 62
           3
100
AcDbLine
 10
-14207.967551753023
 20
-9339.191343055139
 30
0.0
 11
-14225.925611966592
 21
-9337.963306668924
 31
0.0
  0
LINE
  5
18F
100
AcDbEntity
  8
Frei
  6
CONTINUOUS
 62
           3
100
AcDbLine
 10
-14208.525219213934
 20
-9338.551806501815
 30
0.0
 11
-14207.967551753023
 21
-9339.191343055139
 31
0.0
  0
LINE
  5
190
100
AcDbEntity
  8
Frei
  6
CONTINUOUS
 62
           3
100
AcDbLine
 10
-14207.885682660608
 20
-9337.994139040904
 30
0.0
 11
-14208.525219213934
 21
-9338.551806501815
 31
0.0
  0
LINE
  5
191
100
AcDbEntity
  8
Frei
  6
CONTINUOUS
 62
           3
100
AcDbLine
 10
-14225.843742874176
 20
-9336.766102654688
 30
0.0
 11
-14207.885682660608
 21
-9337.994139040904
 31
0.0
  0
LINE
  5
192
100
AcDbEntity
  8
Frei
  6
CONTINUOUS
 62
           3
100
AcDbLine
 10
-14225.286075413265
 20
-9337.405639208013
 30
0.0
 11
-14225.843742874176
 21
-9336.766102654688
 31
0.0
  0
LINE
  5
193
100
AcDbEntity
  8
Frei
  6
CONTINUOUS
 62
           3
100
AcDbLine
 10
-14225.789163479234
 20
-9335.967966645196
 30
0.0
 11
-14225.149626925908
 21
-9335.410299184281
 31
0.0
  0
LINE
  5
194
100
AcDbEntity
  8
Frei
  6
CONTINUOUS
 62
           3
100
AcDbLine
 10
-14219.710440620875
 20
-9336.383651455413
 30
0.0
 11
-14225.789163479234
 21
-9335.967966645196
 31
0.0
  0
LINE
  5
195
100
AcDbEntity
  8
Frei
  6
CONTINUOUS
 62
           3
100
AcDbLine
 10
-14208.388770726577
 20
-9336.556466478083
 30
0.0
 11
-14207.831103265666
 21
-9337.196003031411
 31
0.0
  0
LINE
  5
196
100
AcDbEntity
  8
Frei
  6
CONTINUOUS
 62
           3
100
AcDbLine
 10
-14207.74923417325
 20
-9335.998799017172
 30
0.0
 11
-14208.388770726577
 21
-9336.556466478083
 31
0.0
  0
LINE
  5
197
100
AcDbEntity
  8
Frei
  6
CONTINUOUS
 62
           3
100
AcDbLine
 10
-14213.827957031608
 20
-9335.583114206955
 30
0.0
 11
-14207.74923417325
 21
-9335.998799017172
 31
0.0
  0
LINE
  5
198
100
AcDbEntity
  8
Frei
  6
CONTINUOUS
 62
           3
100
AcDbLine
 10
-14225.149626925908
 20
-9335.410299184281
 30
0.0
 11
-14225.707294386819
 21
-9334.770762630957
 31
0.0
  0
LINE
  5
199
100
AcDbEntity
  8
Frei
  6
CONTINUOUS
 62
           3
100
AcDbLine
 10
-14225.652714991877
 20
-9333.972626621464
 30
0.0
 11
-14225.01317843855
 21
-9333.414959160553
 31
0.0
  0
LINE
  5
19A
100
AcDbEntity
  8
Frei
  6
CONTINUOUS
 62
           3
100
AcDbLine
 10
-14220.318469557147
 20
-9334.337401402758
 30
0.0
 11
-14225.652714991877
 21
-9333.972626621464
 31
0.0
  0
LINE
  5
19B
100
AcDbEntity
  8
Frei
  6
CONTINUOUS
 62
           3
100
AcDbLine
 10
-14208.252322239219
 20
-9334.561126454355
 30
0.0
 11
-14207.694654778308
 21
-9335.200663007683
 31
0.0
  0
LINE
  5
19C
100
AcDbEntity
  8
Frei
  6
CONTINUOUS
 62
           3
100
AcDbLine
 10
-14213.586567673949
 20
-9334.196351673061
 30
0.0
 11
-14208.252322239219
 21
-9334.561126454355
 31
0.0
  0
LINE
  5
19D
100
AcDbEntity
  8
Frei
  6
CONTINUOUS
 62
           3
100
AcDbLine
 10
-14219.07090406755
 20
-9335.825983994502
 30
0.0
 11
-14225.149626925908
 21
-9335.410299184281
 31
0.0
  0
LINE
  5
19E
100
AcDbEntity
  8
Frei
  6
CONTINUOUS
 62
           3
100
AcDbLine
 10
-14208.525219213934
 20
-9338.551806501815
 30
0.0
 11
-14225.286075413265
 21
-9337.405639208013
 31
0.0
  0
LINE
  5
19F
100
AcDbEntity
  8
Frei
  6
CONTINUOUS
 62
           3
100
AcDbLine
 10
-14219.07090406755
 20
-9335.825983994502
 30
0.0
 11
-14219.628571528459
 21
-9335.186447441178
 31
0.0
  0
LINE
  5
1A0
100
AcDbEntity
  8
Frei
  6
CONTINUOUS
 62
           3
100
AcDbLine
 10
-14225.707294386819
 20
-9334.770762630957
 30
0.0
 11
-14219.628571528459
 21
-9335.186447441178
 31
0.0
  0
LINE
  5
1A1
100
AcDbEntity
  8
Frei
  6
CONTINUOUS
 62
           3
100
AcDbLine
 10
-14219.710440620875
 20
-9336.383651455413
 30
0.0
 11
-14219.07090406755
 21
-9335.825983994502
 31
0.0
  0
LINE
  5
1A2
100
AcDbEntity
  8
Frei
  6
CONTINUOUS
 62
           3
100
AcDbLine
 10
-14219.678933003821
 20
-9333.779733941847
 30
0.0
 11
-14220.318469557147
 21
-9334.337401402758
 31
0.0
  0
LINE
  5
1A3
100
AcDbEntity
  8
Frei
  6
CONTINUOUS
 62
           3
100
AcDbLine
 10
-14225.01317843855
 20
-9333.414959160553
 30
0.0
 11
-14219.678933003821
 21
-9333.779733941847
 31
0.0
  0
LINE
  5
1A4
100
AcDbEntity
  8
Frei
  6
CONTINUOUS
 62
           3
100
AcDbLine
 10
-14213.028900213036
 20
-9334.835888226389
 30
0.0
 11
-14213.586567673949
 21
-9334.196351673061
 31
0.0
  0
LINE
  5
1A5
100
AcDbEntity
  8
Frei
  6
CONTINUOUS
 62
           3
100
AcDbLine
 10
-14207.694654778308
 20
-9335.200663007683
 30
0.0
 11
-14213.028900213036
 21
-9334.835888226389
 31
0.0
  0
LINE
  5
1A6
100
AcDbEntity
  8
Frei
  6
CONTINUOUS
 62
           3
100
AcDbLine
 10
-14214.467493584936
 20
-9336.140781667866
 30
0.0
 11
-14213.827957031608
 21
-9335.583114206955
 31
0.0
  0
LINE
  5
1A7
100
AcDbEntity
  8
Frei
  6
CONTINUOUS
 62
           3
100
AcDbLine
 10
-14208.388770726577
 20
-9336.556466478083
 30
0.0
 11
-14214.467493584936
 21
-9336.140781667866
 31
0.0
  0
LINE
  5
1A8
100
AcDbEntity
  8
Frei
  6
CONTINUOUS
 62
           3
100
AcDbLine
 10
-14213.909826124023
 20
-9336.780318221194
 30
0.0
 11
-14214.467493584936
 21
-9336.140781667866
 31
0.0
  0
LINE
  5
1A9
100
AcDbEntity
  8
Frei
  6
CONTINUOUS
 62
           3
100
AcDbLine
 10
-14207.831103265666
 20
-9337.196003031411
 30
0.0
 11
-14213.909826124023
 21
-9336.780318221194
 31
0.0
  0
LINE
  5
1AA
100
AcDbEntity
  8
Frei
  6
CONTINUOUS
 62
           3
100
AcDbLine
 10
-14225.707294386819
 20
-9334.770762630957
 30
0.0
 11
-14225.789163479234
 21
-9335.967966645196
 31
0.0
  0
LINE
  5
1AB
100
AcDbEntity
  8
Frei
  6
CONTINUOUS
 62
           3
100
AcDbLine
 10
-14225.925611966592
 20
-9337.963306668924
 30
0.0
 11
-14225.843742874176
 21
-9336.766102654688
 31
0.0
  0
LINE
  5
1AC
100
AcDbEntity
  8
Frei
  6
CONTINUOUS
 62
           3
100
AcDbLine
 10
-14226.062060453949
 20
-9339.958646692656
 30
0.0
 11
-14225.980191361534
 21
-9338.761442678417
 31
0.0
  0
LINE
  5
1AD
100
AcDbEntity
  8
Frei
  6
CONTINUOUS
 62
           3
100
AcDbLine
 10
-14226.198508941306
 20
-9341.953986716384
 30
0.0
 11
-14226.116639848891
 21
-9340.756782702145
 31
0.0
  0
LINE
  5
1AE
100
AcDbEntity
  8
Frei
  6
CONTINUOUS
 62
           3
100
AcDbLine
 10
-14225.61178044567
 20
-9333.374024614346
 30
0.0
 11
-14225.652714991877
 21
-9333.972626621464
 31
0.0
  0
LINE
  5
1AF
100
AcDbEntity
  8
Frei
  6
CONTINUOUS
 62
           3
100
AcDbLine
 10
-14207.694654778308
 20
-9335.200663007683
 30
0.0
 11
-14207.653720232101
 21
-9334.602061000562
 31
0.0
  0
LINE
  5
1B0
100
AcDbEntity
  8
Frei
  6
CONTINUOUS
 62
           3
100
AcDbLine
 10
-14207.831103265666
 20
-9337.196003031411
 30
0.0
 11
-14207.74923417325
 21
-9335.998799017172
 31
0.0
  0
LINE
  5
1B1
100
AcDbEntity
  8
Frei
  6
CONTINUOUS
 62
           3
100
AcDbLine
 10
-14207.967551753023
 20
-9339.191343055139
 30
0.0
 11
-14207.885682660608
 21
-9337.994139040904
 31
0.0
  0
LINE
  5
1B2
100
AcDbEntity
  8
Frei
  6
CONTINUOUS
 62
           3
100
AcDbLine
 10
-14208.104000240381
 20
-9341.186683078871
 30
0.0
 11
-14208.022131147965
 21
-9339.989479064632
 31
0.0
  0
LINE
  5
1B3
100
AcDbEntity
  8
Frei
  6
CONTINUOUS
 62
           3
100
AcDbLine
 10
-14208.240448727738
 20
-9343.1820231026
 30
0.0
 11
-14208.158579635323
 21
-9341.984819088364
 31
0.0
  0
LINE
  5
1B4
100
AcDbEntity
  8
Frei
  6
CONTINUOUS
 62
           3
100
AcDbLine
 10
-14207.148860828878
 20
-9327.219302912763
 30
0.0
 11
-14207.066991736465
 21
-9326.022098898524
 31
0.0
  0
LINE
  5
1B5
100
AcDbEntity
  8
Frei
  6
CONTINUOUS
 62
           3
100
AcDbLine
 10
-14207.285309316236
 20
-9329.214642936491
 30
0.0
 11
-14207.203440223822
 21
-9328.017438922256
 31
0.0
  0
LINE
  5
1B6
100
AcDbEntity
  8
Frei
  6
CONTINUOUS
 62
           3
100
AcDbLine
 10
-14207.421757803593
 20
-9331.209982960223
 30
0.0
 11
-14207.339888711178
 21
-9330.012778945984
 31
0.0
  0
LINE
  5
1B7
100
AcDbEntity
  8
Frei
  6
CONTINUOUS
 62
           3
100
AcDbLine
 10
-14207.558206290951
 20
-9333.205322983951
 30
0.0
 11
-14207.476337198535
 21
-9332.008118969716
 31
0.0
  0
LINE
  5
1B8
100
AcDbEntity
  8
Frei
  6
CONTINUOUS
 62
           3
100
AcDbLine
 10
-14207.653720232101
 20
-9334.602061000562
 30
0.0
 11
-14207.612785685893
 21
-9334.003458993444
 31
0.0
  0
LINE
  5
1B9
100
AcDbEntity
  8
Frei
  6
CONTINUOUS
 62
           3
100
AcDbLine
 10
-14225.570845899461
 20
-9332.775422607228
 30
0.0
 11
-14225.61178044567
 21
-9333.374024614346
 31
0.0
  0
LINE
  5
1BA
100
AcDbEntity
  8
Frei
  6
CONTINUOUS
 62
           3
100
AcDbLine
 10
-14225.106921042447
 20
-9325.991266526547
 30
0.0
 11
-14225.025051950033
 21
-9324.794062512308
 31
0.0
  0
LINE
  5
1BB
100
AcDbEntity
  8
Frei
  6
CONTINUOUS
 62
           3
100
AcDbLine
 10
-14225.243369529804
 20
-9327.986606550276
 30
0.0
 11
-14225.161500437391
 21
-9326.789402536037
 31
0.0
  0
LINE
  5
1BC
100
AcDbEntity
  8
Frei
  6
CONTINUOUS
 62
           3
100
AcDbLine
 10
-14225.379818017162
 20
-9329.981946574004
 30
0.0
 11
-14225.297948924746
 21
-9328.784742559768
 31
0.0
  0
LINE
  5
1BD
100
AcDbEntity
  8
Frei
  6
CONTINUOUS
 62
           3
100
AcDbLine
 10
-14225.434397412104
 20
-9330.780082583497
 30
0.0
 11
-14225.516266504519
 21
-9331.977286597736
 31
0.0
  0
LINE
  5
1BE
100
AcDbEntity
  8
Frei
  6
CONTINUOUS
 62
           3
100
AcDbLine
 10
-14213.555060056893
 20
-9331.592434159495
 30
0.0
 11
-14207.476337198535
 21
-9332.008118969716
 31
0.0
  0
LINE
  5
1BF
100
AcDbEntity
  8
Frei
  6
CONTINUOUS
 62
           3
100
AcDbLine
 10
-14214.194596610221
 20
-9332.150101620406
 30
0.0
 11
-14213.555060056893
 21
-9331.592434159495
 31
0.0
  0
LINE
  5
1C0
100
AcDbEntity
  8
Frei
  6
CONTINUOUS
 62
           3
100
AcDbLine
 10
-14214.194596610221
 20
-9332.150101620406
 30
0.0
 11
-14208.115873751862
 21
-9332.565786430623
 31
0.0
  0
LINE
  5
1C1
100
AcDbEntity
  8
Frei
  6
CONTINUOUS
 62
           3
100
AcDbLine
 10
-14213.636929149308
 20
-9332.789638173734
 30
0.0
 11
-14214.194596610221
 21
-9332.150101620406
 31
0.0
  0
LINE
  5
1C2
100
AcDbEntity
  8
Frei
  6
CONTINUOUS
 62
           3
100
AcDbLine
 10
-14212.947031120621
 20
-9333.63868421215
 30
0.0
 11
-14207.612785685893
 21
-9334.003458993444
 31
0.0
  0
LINE
  5
1C3
100
AcDbEntity
  8
Frei
  6
CONTINUOUS
 62
           3
100
AcDbLine
 10
-14213.586567673949
 20
-9334.196351673061
 30
0.0
 11
-14212.947031120621
 21
-9333.63868421215
 31
0.0
  0
LINE
  5
1C4
100
AcDbEntity
  8
Frei
  6
CONTINUOUS
 62
           3
100
AcDbLine
 10
-14220.236600464732
 20
-9333.140197388519
 30
0.0
 11
-14219.678933003821
 21
-9333.779733941847
 31
0.0
  0
LINE
  5
1C5
100
AcDbEntity
  8
Frei
  6
CONTINUOUS
 62
           3
100
AcDbLine
 10
-14218.798007092835
 20
-9331.835303947042
 30
0.0
 11
-14219.355674553744
 21
-9331.195767393718
 31
0.0
  0
LINE
  5
1C6
100
AcDbEntity
  8
Frei
  6
CONTINUOUS
 62
           3
100
AcDbLine
 10
-14219.43754364616
 20
-9332.392971407953
 30
0.0
 11
-14225.516266504519
 21
-9331.977286597736
 31
0.0
  0
LINE
  5
1C7
100
AcDbEntity
  8
Frei
  6
CONTINUOUS
 62
           3
100
AcDbLine
 10
-14219.43754364616
 20
-9332.392971407953
 30
0.0
 11
-14218.798007092835
 21
-9331.835303947042
 31
0.0
  0
LINE
  5
1C8
100
AcDbEntity
  8
Frei
  6
CONTINUOUS
 62
           3
100
AcDbLine
 10
-14224.740281463835
 20
-9329.424279113093
 30
0.0
 11
-14207.979425264504
 21
-9330.570446406895
 31
0.0
  0
LINE
  5
1C9
100
AcDbEntity
  8
Frei
  6
CONTINUOUS
 62
           3
100
AcDbLine
 10
-14224.876729951193
 20
-9331.419619136821
 30
0.0
 11
-14218.798007092835
 21
-9331.835303947042
 31
0.0
  0
LINE
  5
1CA
100
AcDbEntity
  8
Frei
  6
CONTINUOUS
 62
           3
100
AcDbLine
 10
-14207.612785685893
 20
-9334.003458993444
 30
0.0
 11
-14208.252322239219
 21
-9334.561126454355
 31
0.0
  0
LINE
  5
1CB
100
AcDbEntity
  8
Frei
  6
CONTINUOUS
 62
           3
100
AcDbLine
 10
-14225.570845899461
 20
-9332.775422607228
 30
0.0
 11
-14220.236600464732
 21
-9333.140197388519
 31
0.0
  0
LINE
  5
1CC
100
AcDbEntity
  8
Frei
  6
CONTINUOUS
 62
           3
100
AcDbLine
 10
-14225.01317843855
 20
-9333.414959160553
 30
0.0
 11
-14225.570845899461
 21
-9332.775422607228
 31
0.0
  0
LINE
  5
1CD
100
AcDbEntity
  8
Frei
  6
CONTINUOUS
 62
           3
100
AcDbLine
 10
-14225.516266504519
 20
-9331.977286597736
 30
0.0
 11
-14224.876729951193
 21
-9331.419619136821
 31
0.0
  0
LINE
  5
1CE
100
AcDbEntity
  8
Frei
  6
CONTINUOUS
 62
           3
100
AcDbLine
 10
-14207.558206290951
 20
-9333.205322983951
 30
0.0
 11
-14213.636929149308
 21
-9332.789638173734
 31
0.0
  0
LINE
  5
1CF
100
AcDbEntity
  8
Frei
  6
CONTINUOUS
 62
           3
100
AcDbLine
 10
-14208.115873751862
 20
-9332.565786430623
 30
0.0
 11
-14207.558206290951
 21
-9333.205322983951
 31
0.0
  0
LINE
  5
1D0
100
AcDbEntity
  8
Frei
  6
CONTINUOUS
 62
           3
100
AcDbLine
 10
-14207.476337198535
 20
-9332.008118969716
 30
0.0
 11
-14208.115873751862
 21
-9332.565786430623
 31
0.0
  0
LINE
  5
1D1
100
AcDbEntity
  8
Frei
  6
CONTINUOUS
 62
           3
100
AcDbLine
 10
-14225.434397412104
 20
-9330.780082583497
 30
0.0
 11
-14219.355674553744
 21
-9331.195767393718
 31
0.0
  0
LINE
  5
1D2
100
AcDbEntity
  8
Frei
  6
CONTINUOUS
 62
           3
100
AcDbLine
 10
-14224.876729951193
 20
-9331.419619136821
 30
0.0
 11
-14225.434397412104
 21
-9330.780082583497
 31
0.0
  0
LINE
  5
1D3
100
AcDbEntity
  8
Frei
  6
CONTINUOUS
 62
           3
100
AcDbLine
 10
-14225.379818017162
 20
-9329.981946574004
 30
0.0
 11
-14224.740281463835
 21
-9329.424279113093
 31
0.0
  0
LINE
  5
1D4
100
AcDbEntity
  8
Frei
  6
CONTINUOUS
 62
           3
100
AcDbLine
 10
-14207.421757803593
 20
-9331.209982960223
 30
0.0
 11
-14225.379818017162
 21
-9329.981946574004
 31
0.0
  0
LINE
  5
1D5
100
AcDbEntity
  8
Frei
  6
CONTINUOUS
 62
           3
100
AcDbLine
 10
-14207.979425264504
 20
-9330.570446406895
 30
0.0
 11
-14207.421757803593
 21
-9331.209982960223
 31
0.0
  0
LINE
  5
1D6
100
AcDbEntity
  8
Frei
  6
CONTINUOUS
 62
           3
100
AcDbLine
 10
-14207.339888711178
 20
-9330.012778945984
 30
0.0
 11
-14207.979425264504
 21
-9330.570446406895
 31
0.0
  0
LINE
  5
1D7
100
AcDbEntity
  8
Frei
  6
CONTINUOUS
 62
           3
100
AcDbLine
 10
-14225.297948924746
 20
-9328.784742559768
 30
0.0
 11
-14207.339888711178
 21
-9330.012778945984
 31
0.0
  0
LINE
  5
1D8
100
AcDbEntity
  8
Frei
  6
CONTINUOUS
 62
           3
100
AcDbLine
 10
-14224.740281463835
 20
-9329.424279113093
 30
0.0
 11
-14225.297948924746
 21
-9328.784742559768
 31
0.0
  0
LINE
  5
1D9
100
AcDbEntity
  8
Frei
  6
CONTINUOUS
 62
           3
100
AcDbLine
 10
-14207.842976777147
 20
-9328.575106383167
 30
0.0
 11
-14224.603832976478
 21
-9327.428939089365
 31
0.0
  0
LINE
  5
1DA
100
AcDbEntity
  8
Frei
  6
CONTINUOUS
 62
           3
100
AcDbLine
 10
-14225.243369529804
 20
-9327.986606550276
 30
0.0
 11
-14224.603832976478
 21
-9327.428939089365
 31
0.0
  0
LINE
  5
1DB
100
AcDbEntity
  8
Frei
  6
CONTINUOUS
 62
           3
100
AcDbLine
 10
-14207.285309316236
 20
-9329.214642936491
 30
0.0
 11
-14225.243369529804
 21
-9327.986606550276
 31
0.0
  0
LINE
  5
1DC
100
AcDbEntity
  8
Frei
  6
CONTINUOUS
 62
           3
100
AcDbLine
 10
-14207.842976777147
 20
-9328.575106383167
 30
0.0
 11
-14207.285309316236
 21
-9329.214642936491
 31
0.0
  0
LINE
  5
1DD
100
AcDbEntity
  8
Frei
  6
CONTINUOUS
 62
           3
100
AcDbLine
 10
-14207.203440223822
 20
-9328.017438922256
 30
0.0
 11
-14207.842976777147
 21
-9328.575106383167
 31
0.0
  0
LINE
  5
1DE
100
AcDbEntity
  8
Frei
  6
CONTINUOUS
 62
           3
100
AcDbLine
 10
-14225.161500437391
 20
-9326.789402536037
 30
0.0
 11
-14207.203440223822
 21
-9328.017438922256
 31
0.0
  0
LINE
  5
1DF
100
AcDbEntity
  8
Frei
  6
CONTINUOUS
 62
           3
100
AcDbLine
 10
-14224.603832976478
 20
-9327.428939089365
 30
0.0
 11
-14225.161500437391
 21
-9326.789402536037
 31
0.0
  0
LINE
  5
1E0
100
AcDbEntity
  8
Frei
  6
CONTINUOUS
 62
           3
100
AcDbLine
 10
-14224.46738448912
 20
-9325.433599065633
 30
0.0
 11
-14207.706528289789
 21
-9326.579766359435
 31
0.0
  0
LINE
  5
1E1
100
AcDbEntity
  8
Frei
  6
CONTINUOUS
 62
           3
100
AcDbLine
 10
-14224.46738448912
 20
-9325.433599065633
 30
0.0
 11
-14225.106921042447
 21
-9325.991266526547
 31
0.0
  0
LINE
  5
1E2
100
AcDbEntity
  8
Frei
  6
CONTINUOUS
 62
           3
100
AcDbLine
 10
-14225.025051950033
 20
-9324.794062512308
 30
0.0
 11
-14224.46738448912
 21
-9325.433599065633
 31
0.0
  0
LINE
  5
1E3
100
AcDbEntity
  8
Frei
  6
CONTINUOUS
 62
           3
100
AcDbLine
 10
-14207.066991736465
 20
-9326.022098898524
 30
0.0
 11
-14225.025051950033
 21
-9324.794062512308
 31
0.0
  0
LINE
  5
1E4
100
AcDbEntity
  8
Frei
  6
CONTINUOUS
 62
           3
100
AcDbLine
 10
-14207.706528289789
 20
-9326.579766359435
 30
0.0
 11
-14207.066991736465
 21
-9326.022098898524
 31
0.0
  0
LINE
  5
1E5
100
AcDbEntity
  8
Frei
  6
CONTINUOUS
 62
           3
100
AcDbLine
 10
-14207.148860828878
 20
-9327.219302912763
 30
0.0
 11
-14207.706528289789
 21
-9326.579766359435
 31
0.0
  0
LINE
  5
1E6
100
AcDbEntity
  8
Frei
  6
CONTINUOUS
 62
           3
100
AcDbLine
 10
-14225.106921042447
 20
-9325.991266526547
 30
0.0
 11
-14207.148860828878
 21
-9327.219302912763
 31
0.0
  0
LINE
  5
1E7
100
AcDbEntity
  8
Frei
  6
CONTINUOUS
 62
           3
100
AcDbLine
 10
-14034.551948776252
 20
-9339.022097069181
 30
0.0
 11
-14016.593888562684
 21
-9340.250133455396
 31
0.0
  0
LINE
  5
1E8
100
AcDbEntity
  8
Frei
  6
CONTINUOUS
 62
           3
100
AcDbLine
 10
-14033.912412222928
 20
-9338.464429608266
 30
0.0
 11
-14034.551948776252
 21
-9339.022097069181
 31
0.0
  0
LINE
  5
1E9
100
AcDbEntity
  8
Frei
  6
CONTINUOUS
 62
           3
100
AcDbLine
 10
-14034.470079683839
 20
-9337.824893054942
 30
0.0
 11
-14033.912412222928
 21
-9338.464429608266
 31
0.0
  0
LINE
  5
1EA
100
AcDbEntity
  8
Frei
  6
CONTINUOUS
 62
           3
100
AcDbLine
 10
-14016.51201947027
 20
-9339.052929441161
 30
0.0
 11
-14034.470079683839
 21
-9337.824893054942
 31
0.0
  0
LINE
  5
1EB
100
AcDbEntity
  8
Frei
  6
CONTINUOUS
 62
           3
100
AcDbLine
 10
-14017.151556023597
 20
-9339.610596902068
 30
0.0
 11
-14016.51201947027
 21
-9339.052929441161
 31
0.0
  0
LINE
  5
1EC
100
AcDbEntity
  8
Frei
  6
CONTINUOUS
 62
           3
100
AcDbLine
 10
-14016.593888562684
 20
-9340.250133455396
 30
0.0
 11
-14017.151556023597
 21
-9339.610596902068
 31
0.0
  0
LINE
  5
1ED
100
AcDbEntity
  8
Frei
  6
CONTINUOUS
 62
           3
100
AcDbLine
 10
-14033.912412222928
 20
-9338.464429608266
 30
0.0
 11
-14017.151556023597
 21
-9339.610596902068
 31
0.0
  0
LINE
  5
1EE
100
AcDbEntity
  8
Frei
  6
CONTINUOUS
 62
           3
100
AcDbLine
 10
-14016.648467957626
 20
-9341.048269464889
 30
0.0
 11
-14017.288004510954
 21
-9341.6059369258
 31
0.0
  0
LINE
  5
1EF
100
AcDbEntity
  8
Frei
  6
CONTINUOUS
 62
           3
100
AcDbLine
 10
-14034.606528171194
 20
-9339.82023307867
 30
0.0
 11
-14016.648467957626
 21
-9341.048269464889
 31
0.0
  0
LINE
  5
1F0
100
AcDbEntity
  8
Frei
  6
CONTINUOUS
 62
           3
100
AcDbLine
 10
-14034.048860710285
 20
-9340.459769631998
 30
0.0
 11
-14034.606528171194
 21
-9339.82023307867
 31
0.0
  0
LINE
  5
1F1
100
AcDbEntity
  8
Frei
  6
CONTINUOUS
 62
           3
100
AcDbLine
 10
-14034.68839726361
 20
-9341.017437092909
 30
0.0
 11
-14034.048860710285
 21
-9340.459769631998
 31
0.0
  0
LINE
  5
1F2
100
AcDbEntity
  8
Frei
  6
CONTINUOUS
 62
           3
100
AcDbLine
 10
-14016.730337050041
 20
-9342.245473479128
 30
0.0
 11
-14034.68839726361
 21
-9341.017437092909
 31
0.0
  0
LINE
  5
1F3
100
AcDbEntity
  8
Frei
  6
CONTINUOUS
 62
           3
100
AcDbLine
 10
-14017.288004510954
 20
-9341.6059369258
 30
0.0
 11
-14016.730337050041
 21
-9342.245473479128
 31
0.0
  0
LINE
  5
1F4
100
AcDbEntity
  8
Frei
  6
CONTINUOUS
 62
           3
100
AcDbLine
 10
-14017.288004510954
 20
-9341.6059369258
 30
0.0
 11
-14034.048860710285
 21
-9340.459769631998
 31
0.0
  0
LINE
  5
1F5
100
AcDbEntity
  8
Frei
  6
CONTINUOUS
 62
           3
100
AcDbLine
 10
-14016.784916444984
 20
-9343.043609488617
 30
0.0
 11
-14017.424452998312
 21
-9343.601276949528
 31
0.0
  0
LINE
  5
1F6
100
AcDbEntity
  8
Frei
  6
CONTINUOUS
 62
           3
100
AcDbLine
 10
-14034.742976658552
 20
-9341.815573102402
 30
0.0
 11
-14016.784916444984
 21
-9343.043609488617
 31
0.0
  0
LINE
  5
1F7
100
AcDbEntity
  8
Frei
  6
CONTINUOUS
 62
           3
100
AcDbLine
 10
-14034.185309197643
 20
-9342.455109655726
 30
0.0
 11
-14034.742976658552
 21
-9341.815573102402
 31
0.0
  0
LINE
  5
1F8
100
AcDbEntity
  8
Frei
  6
CONTINUOUS
 62
           3
100
AcDbLine
 10
-14034.824845750967
 20
-9343.012777116637
 30
0.0
 11
-14034.185309197643
 21
-9342.455109655726
 31
0.0
  0
LINE
  5
1F9
100
AcDbEntity
  8
Frei
  6
CONTINUOUS
 62
           3
100
AcDbLine
 10
-14016.866785537399
 20
-9344.240813502856
 30
0.0
 11
-14034.824845750967
 21
-9343.012777116637
 31
0.0
  0
LINE
  5
1FA
100
AcDbEntity
  8
Frei
  6
CONTINUOUS
 62
           3
100
AcDbLine
 10
-14017.424452998312
 20
-9343.601276949528
 30
0.0
 11
-14016.866785537399
 21
-9344.240813502856
 31
0.0
  0
LINE
  5
1FB
100
AcDbEntity
  8
Frei
  6
CONTINUOUS
 62
           3
100
AcDbLine
 10
-14016.921364932341
 20
-9345.038949512349
 30
0.0
 11
-14017.560901485669
 21
-9345.59661697326
 31
0.0
  0
LINE
  5
1FC
100
AcDbEntity
  8
Frei
  6
CONTINUOUS
 62
           3
100
AcDbLine
 10
-14023.0000877907
 20
-9344.623264702128
 30
0.0
 11
-14016.921364932341
 21
-9345.038949512349
 31
0.0
  0
LINE
  5
1FD
100
AcDbEntity
  8
Frei
  6
CONTINUOUS
 62
           3
100
AcDbLine
 10
-14034.321757685
 20
-9344.450449679458
 30
0.0
 11
-14034.879425145909
 21
-9343.81091312613
 31
0.0
  0
LINE
  5
1FE
100
AcDbEntity
  8
Frei
  6
CONTINUOUS
 62
           3
100
AcDbLine
 10
-14034.961294238325
 20
-9345.008117140369
 30
0.0
 11
-14034.321757685
 21
-9344.450449679458
 31
0.0
  0
LINE
  5
1FF
100
AcDbEntity
  8
Frei
  6
CONTINUOUS
 62
           3
100
AcDbLine
 10
-14028.882571379967
 20
-9345.42380195059
 30
0.0
 11
-14034.961294238325
 21
-9345.008117140369
 31
0.0
  0
LINE
  5
200
100
AcDbEntity
  8
Frei
  6
CONTINUOUS
 62
           3
100
AcDbLine
 10
-14017.560901485669
 20
-9345.59661697326
 30
0.0
 11
-14017.003234024756
 21
-9346.236153526585
 31
0.0
  0
LINE
  5
201
100
AcDbEntity
  8
Frei
  6
CONTINUOUS
 62
           3
100
AcDbLine
 10
-14017.057813419699
 20
-9347.034289536077
 30
0.0
 11
-14017.697349973027
 21
-9347.591956996988
 31
0.0
  0
LINE
  5
202
100
AcDbEntity
  8
Frei
  6
CONTINUOUS
 62
           3
100
AcDbLine
 10
-14022.39205885443
 20
-9346.669514754783
 30
0.0
 11
-14017.057813419699
 21
-9347.034289536077
 31
0.0
  0
LINE
  5
203
100
AcDbEntity
  8
Frei
  6
CONTINUOUS
 62
           3
100
AcDbLine
 10
-14034.458206172358
 20
-9346.445789703186
 30
0.0
 11
-14035.015873633267
 21
-9345.806253149862
 31
0.0
  0
LINE
  5
204
100
AcDbEntity
  8
Frei
  6
CONTINUOUS
 62
           3
100
AcDbLine
 10
-14023.639624344027
 20
-9345.180932163039
 30
0.0
 11
-14017.560901485669
 21
-9345.59661697326
 31
0.0
  0
LINE
  5
205
100
AcDbEntity
  8
Frei
  6
CONTINUOUS
 62
           3
100
AcDbLine
 10
-14034.185309197643
 20
-9342.455109655726
 30
0.0
 11
-14017.424452998312
 21
-9343.601276949528
 31
0.0
  0
LINE
  5
206
100
AcDbEntity
  8
Frei
  6
CONTINUOUS
 62
           3
100
AcDbLine
 10
-14023.639624344027
 20
-9345.180932163039
 30
0.0
 11
-14023.081956883116
 21
-9345.820468716367
 31
0.0
  0
LINE
  5
207
100
AcDbEntity
  8
Frei
  6
CONTINUOUS
 62
           3
100
AcDbLine
 10
-14017.003234024756
 20
-9346.236153526585
 30
0.0
 11
-14023.081956883116
 21
-9345.820468716367
 31
0.0
  0
LINE
  5
208
100
AcDbEntity
  8
Frei
  6
CONTINUOUS
 62
           3
100
AcDbLine
 10
-14023.0000877907
 20
-9344.623264702128
 30
0.0
 11
-14023.639624344027
 21
-9345.180932163039
 31
0.0
  0
LINE
  5
209
100
AcDbEntity
  8
Frei
  6
CONTINUOUS
 62
           3
100
AcDbLine
 10
-14023.031595407756
 20
-9347.227182215695
 30
0.0
 11
-14022.39205885443
 21
-9346.669514754783
 31
0.0
  0
LINE
  5
20A
100
AcDbEntity
  8
Frei
  6
CONTINUOUS
 62
           3
100
AcDbLine
 10
-14029.681628198539
 20
-9346.171027931156
 30
0.0
 11
-14029.123960737628
 21
-9346.81056448448
 31
0.0
  0
LINE
  5
20B
100
AcDbEntity
  8
Frei
  6
CONTINUOUS
 62
           3
100
AcDbLine
 10
-14035.015873633267
 20
-9345.806253149862
 30
0.0
 11
-14029.681628198539
 21
-9346.171027931156
 31
0.0
  0
LINE
  5
20C
100
AcDbEntity
  8
Frei
  6
CONTINUOUS
 62
           3
100
AcDbLine
 10
-14028.243034826641
 20
-9344.866134489676
 30
0.0
 11
-14028.882571379967
 21
-9345.42380195059
 31
0.0
  0
LINE
  5
20D
100
AcDbEntity
  8
Frei
  6
CONTINUOUS
 62
           3
100
AcDbLine
 10
-14034.321757685
 20
-9344.450449679458
 30
0.0
 11
-14028.243034826641
 21
-9344.866134489676
 31
0.0
  0
LINE
  5
20E
100
AcDbEntity
  8
Frei
  6
CONTINUOUS
 62
           3
100
AcDbLine
 10
-14028.800702287552
 20
-9344.226597936351
 30
0.0
 11
-14028.243034826641
 21
-9344.866134489676
 31
0.0
  0
LINE
  5
20F
100
AcDbEntity
  8
Frei
  6
CONTINUOUS
 62
           3
100
AcDbLine
 10
-14034.879425145909
 20
-9343.81091312613
 30
0.0
 11
-14028.800702287552
 21
-9344.226597936351
 31
0.0
  0
LINE
  5
210
100
AcDbEntity
  8
Frei
  6
CONTINUOUS
 62
           3
100
AcDbLine
 10
-14017.003234024756
 20
-9346.236153526585
 30
0.0
 11
-14016.921364932341
 21
-9345.038949512349
 31
0.0
  0
LINE
  5
211
100
AcDbEntity
  8
Frei
  6
CONTINUOUS
 62
           3
100
AcDbLine
 10
-14016.784916444984
 20
-9343.043609488617
 30
0.0
 11
-14016.866785537399
 21
-9344.240813502856
 31
0.0
  0
LINE
  5
212
100
AcDbEntity
  8
Frei
  6
CONTINUOUS
 62
           3
100
AcDbLine
 10
-14016.648467957626
 20
-9341.048269464889
 30
0.0
 11
-14016.730337050041
 21
-9342.245473479128
 31
0.0
  0
LINE
  5
213
100
AcDbEntity
  8
Frei
  6
CONTINUOUS
 62
           3
100
AcDbLine
 10
-14016.51201947027
 20
-9339.052929441161
 30
0.0
 11
-14016.593888562684
 21
-9340.250133455396
 31
0.0
  0
LINE
  5
214
100
AcDbEntity
  8
Frei
  6
CONTINUOUS
 62
           3
100
AcDbLine
 10
-14017.098747965907
 20
-9347.632891543195
 30
0.0
 11
-14017.057813419699
 21
-9347.034289536077
 31
0.0
  0
LINE
  5
215
100
AcDbEntity
  8
Frei
  6
CONTINUOUS
 62
           3
100
AcDbLine
 10
-14035.015873633267
 20
-9345.806253149862
 30
0.0
 11
-14035.056808179475
 21
-9346.40485515698
 31
0.0
  0
LINE
  5
216
100
AcDbEntity
  8
Frei
  6
CONTINUOUS
 62
           3
100
AcDbLine
 10
-14034.879425145909
 20
-9343.81091312613
 30
0.0
 11
-14034.961294238325
 21
-9345.008117140369
 31
0.0
  0
LINE
  5
217
100
AcDbEntity
  8
Frei
  6
CONTINUOUS
 62
           3
100
AcDbLine
 10
-14034.742976658552
 20
-9341.815573102402
 30
0.0
 11
-14034.824845750967
 21
-9343.012777116637
 31
0.0
  0
LINE
  5
218
100
AcDbEntity
  8
Frei
  6
CONTINUOUS
 62
           3
100
AcDbLine
 10
-14034.606528171194
 20
-9339.82023307867
 30
0.0
 11
-14034.68839726361
 21
-9341.017437092909
 31
0.0
  0
LINE
  5
219
100
AcDbEntity
  8
Frei
  6
CONTINUOUS
 62
           3
100
AcDbLine
 10
-14034.470079683839
 20
-9337.824893054942
 30
0.0
 11
-14034.551948776252
 21
-9339.022097069181
 31
0.0
  0
LINE
  5
21A
100
AcDbEntity
  8
Frei
  6
CONTINUOUS
 62
           3
100
AcDbLine
 10
-14035.561667582697
 20
-9353.787613244778
 30
0.0
 11
-14035.643536675112
 21
-9354.984817259017
 31
0.0
  0
LINE
  5
21B
100
AcDbEntity
  8
Frei
  6
CONTINUOUS
 62
           3
100
AcDbLine
 10
-14035.425219095339
 20
-9351.79227322105
 30
0.0
 11
-14035.507088187755
 21
-9352.989477235289
 31
0.0
  0
LINE
  5
21C
100
AcDbEntity
  8
Frei
  6
CONTINUOUS
 62
           3
100
AcDbLine
 10
-14035.288770607982
 20
-9349.796933197322
 30
0.0
 11
-14035.370639700397
 21
-9350.994137211557
 31
0.0
  0
LINE
  5
21D
100
AcDbEntity
  8
Frei
  6
CONTINUOUS
 62
           3
100
AcDbLine
 10
-14035.152322120624
 20
-9347.80159317359
 30
0.0
 11
-14035.23419121304
 21
-9348.998797187829
 31
0.0
  0
LINE
  5
21E
100
AcDbEntity
  8
Frei
  6
CONTINUOUS
 62
           3
100
AcDbLine
 10
-14035.056808179475
 20
-9346.40485515698
 30
0.0
 11
-14035.097742725682
 21
-9347.003457164097
 31
0.0
  0
LINE
  5
21F
100
AcDbEntity
  8
Frei
  6
CONTINUOUS
 62
           3
100
AcDbLine
 10
-14017.139682512114
 20
-9348.231493550316
 30
0.0
 11
-14017.098747965907
 21
-9347.632891543195
 31
0.0
  0
LINE
  5
220
100
AcDbEntity
  8
Frei
  6
CONTINUOUS
 62
           3
100
AcDbLine
 10
-14017.603607369128
 20
-9355.015649630997
 30
0.0
 11
-14017.685476461544
 21
-9356.212853645237
 31
0.0
  0
LINE
  5
221
100
AcDbEntity
  8
Frei
  6
CONTINUOUS
 62
           3
100
AcDbLine
 10
-14017.467158881771
 20
-9353.020309607269
 30
0.0
 11
-14017.549027974186
 21
-9354.217513621505
 31
0.0
  0
LINE
  5
222
100
AcDbEntity
  8
Frei
  6
CONTINUOUS
 62
           3
100
AcDbLine
 10
-14017.330710394413
 20
-9351.024969583537
 30
0.0
 11
-14017.412579486829
 21
-9352.222173597776
 31
0.0
  0
LINE
  5
223
100
AcDbEntity
  8
Frei
  6
CONTINUOUS
 62
           3
100
AcDbLine
 10
-14017.276130999471
 20
-9350.226833574045
 30
0.0
 11
-14017.194261907056
 21
-9349.029629559809
 31
0.0
  0
LINE
  5
224
100
AcDbEntity
  8
Frei
  6
CONTINUOUS
 62
           3
100
AcDbLine
 10
-14029.155468354682
 20
-9349.41448199805
 30
0.0
 11
-14035.23419121304
 21
-9348.998797187829
 31
0.0
  0
LINE
  5
225
100
AcDbEntity
  8
Frei
  6
CONTINUOUS
 62
           3
100
AcDbLine
 10
-14028.515931801356
 20
-9348.856814537136
 30
0.0
 11
-14029.155468354682
 21
-9349.41448199805
 31
0.0
  0
LINE
  5
226
100
AcDbEntity
  8
Frei
  6
CONTINUOUS
 62
           3
100
AcDbLine
 10
-14028.515931801356
 20
-9348.856814537136
 30
0.0
 11
-14034.594654659715
 21
-9348.441129726918
 31
0.0
  0
LINE
  5
227
100
AcDbEntity
  8
Frei
  6
CONTINUOUS
 62
           3
100
AcDbLine
 10
-14029.073599262267
 20
-9348.217277983811
 30
0.0
 11
-14028.515931801356
 21
-9348.856814537136
 31
0.0
  0
LINE
  5
228
100
AcDbEntity
  8
Frei
  6
CONTINUOUS
 62
           3
100
AcDbLine
 10
-14029.763497290955
 20
-9347.368231945391
 30
0.0
 11
-14035.097742725682
 21
-9347.003457164097
 31
0.0
  0
LINE
  5
229
100
AcDbEntity
  8
Frei
  6
CONTINUOUS
 62
           3
100
AcDbLine
 10
-14029.123960737628
 20
-9346.81056448448
 30
0.0
 11
-14029.763497290955
 21
-9347.368231945391
 31
0.0
  0
LINE
  5
22A
100
AcDbEntity
  8
Frei
  6
CONTINUOUS
 62
           3
100
AcDbLine
 10
-14023.031595407756
 20
-9347.227182215695
 30
0.0
 11
-14017.697349973027
 21
-9347.591956996988
 31
0.0
  0
LINE
  5
22B
100
AcDbEntity
  8
Frei
  6
CONTINUOUS
 62
           3
100
AcDbLine
 10
-14022.473927946845
 20
-9347.866718769023
 30
0.0
 11
-14023.031595407756
 21
-9347.227182215695
 31
0.0
  0
LINE
  5
22C
100
AcDbEntity
  8
Frei
  6
CONTINUOUS
 62
           3
100
AcDbLine
 10
-14023.912521318742
 20
-9349.171612210499
 30
0.0
 11
-14023.354853857831
 21
-9349.811148763827
 31
0.0
  0
LINE
  5
22D
100
AcDbEntity
  8
Frei
  6
CONTINUOUS
 62
           3
100
AcDbLine
 10
-14023.272984765415
 20
-9348.613944749588
 30
0.0
 11
-14017.194261907056
 21
-9349.029629559809
 31
0.0
  0
LINE
  5
22E
100
AcDbEntity
  8
Frei
  6
CONTINUOUS
 62
           3
100
AcDbLine
 10
-14023.272984765415
 20
-9348.613944749588
 30
0.0
 11
-14023.912521318742
 21
-9349.171612210499
 31
0.0
  0
LINE
  5
22F
100
AcDbEntity
  8
Frei
  6
CONTINUOUS
 62
           3
100
AcDbLine
 10
-14017.970246947742
 20
-9351.582637044448
 30
0.0
 11
-14034.731103147073
 21
-9350.436469750646
 31
0.0
  0
LINE
  5
230
100
AcDbEntity
  8
Frei
  6
CONTINUOUS
 62
           3
100
AcDbLine
 10
-14017.833798460384
 20
-9349.58729702072
 30
0.0
 11
-14023.912521318742
 21
-9349.171612210499
 31
0.0
  0
LINE
  5
231
100
AcDbEntity
  8
Frei
  6
CONTINUOUS
 62
           3
100
AcDbLine
 10
-14034.458206172358
 20
-9346.445789703186
 30
0.0
 11
-14029.123960737628
 21
-9346.81056448448
 31
0.0
  0
LINE
  5
232
100
AcDbEntity
  8
Frei
  6
CONTINUOUS
 62
           3
100
AcDbLine
 10
-14035.097742725682
 20
-9347.003457164097
 30
0.0
 11
-14034.458206172358
 21
-9346.445789703186
 31
0.0
  0
LINE
  5
233
100
AcDbEntity
  8
Frei
  6
CONTINUOUS
 62
           3
100
AcDbLine
 10
-14017.139682512114
 20
-9348.231493550316
 30
0.0
 11
-14022.473927946845
 21
-9347.866718769023
 31
0.0
  0
LINE
  5
234
100
AcDbEntity
  8
Frei
  6
CONTINUOUS
 62
           3
100
AcDbLine
 10
-14017.697349973027
 20
-9347.591956996988
 30
0.0
 11
-14017.139682512114
 21
-9348.231493550316
 31
0.0
  0
LINE
  5
235
100
AcDbEntity
  8
Frei
  6
CONTINUOUS
 62
           3
100
AcDbLine
 10
-14017.194261907056
 20
-9349.029629559809
 30
0.0
 11
-14017.833798460384
 21
-9349.58729702072
 31
0.0
  0
LINE
  5
236
100
AcDbEntity
  8
Frei
  6
CONTINUOUS
 62
           3
100
AcDbLine
 10
-14035.152322120624
 20
-9347.80159317359
 30
0.0
 11
-14029.073599262267
 21
-9348.217277983811
 31
0.0
  0
LINE
  5
237
100
AcDbEntity
  8
Frei
  6
CONTINUOUS
 62
           3
100
AcDbLine
 10
-14034.594654659715
 20
-9348.441129726918
 30
0.0
 11
-14035.152322120624
 21
-9347.80159317359
 31
0.0
  0
LINE
  5
238
100
AcDbEntity
  8
Frei
  6
CONTINUOUS
 62
           3
100
AcDbLine
 10
-14035.23419121304
 20
-9348.998797187829
 30
0.0
 11
-14034.594654659715
 21
-9348.441129726918
 31
0.0
  0
LINE
  5
239
100
AcDbEntity
  8
Frei
  6
CONTINUOUS
 62
           3
100
AcDbLine
 10
-14017.276130999471
 20
-9350.226833574045
 30
0.0
 11
-14023.354853857831
 21
-9349.811148763827
 31
0.0
  0
LINE
  5
23A
100
AcDbEntity
  8
Frei
  6
CONTINUOUS
 62
           3
100
AcDbLine
 10
-14017.833798460384
 20
-9349.58729702072
 30
0.0
 11
-14017.276130999471
 21
-9350.226833574045
 31
0.0
  0
LINE
  5
23B
100
AcDbEntity
  8
Frei
  6
CONTINUOUS
 62
           3
100
AcDbLine
 10
-14017.330710394413
 20
-9351.024969583537
 30
0.0
 11
-14017.970246947742
 21
-9351.582637044448
 31
0.0
  0
LINE
  5
23C
100
AcDbEntity
  8
Frei
  6
CONTINUOUS
 62
           3
100
AcDbLine
 10
-14035.288770607982
 20
-9349.796933197322
 30
0.0
 11
-14017.330710394413
 21
-9351.024969583537
 31
0.0
  0
LINE
  5
23D
100
AcDbEntity
  8
Frei
  6
CONTINUOUS
 62
           3
100
AcDbLine
 10
-14034.731103147073
 20
-9350.436469750646
 30
0.0
 11
-14035.288770607982
 21
-9349.796933197322
 31
0.0
  0
LINE
  5
23E
100
AcDbEntity
  8
Frei
  6
CONTINUOUS
 62
           3
100
AcDbLine
 10
-14035.370639700397
 20
-9350.994137211557
 30
0.0
 11
-14034.731103147073
 21
-9350.436469750646
 31
0.0
  0
LINE
  5
23F
100
AcDbEntity
  8
Frei
  6
CONTINUOUS
 62
           3
100
AcDbLine
 10
-14017.412579486829
 20
-9352.222173597776
 30
0.0
 11
-14035.370639700397
 21
-9350.994137211557
 31
0.0
  0
LINE
  5
240
100
AcDbEntity
  8
Frei
  6
CONTINUOUS
 62
           3
100
AcDbLine
 10
-14017.970246947742
 20
-9351.582637044448
 30
0.0
 11
-14017.412579486829
 21
-9352.222173597776
 31
0.0
  0
LINE
  5
241
100
AcDbEntity
  8
Frei
  6
CONTINUOUS
 62
           3
100
AcDbLine
 10
-14034.86755163443
 20
-9352.431809774374
 30
0.0
 11
-14018.106695435099
 21
-9353.577977068177
 31
0.0
  0
LINE
  5
242
100
AcDbEntity
  8
Frei
  6
CONTINUOUS
 62
           3
100
AcDbLine
 10
-14017.467158881771
 20
-9353.020309607269
 30
0.0
 11
-14018.106695435099
 21
-9353.577977068177
 31
0.0
  0
LINE
  5
243
100
AcDbEntity
  8
Frei
  6
CONTINUOUS
 62
           3
100
AcDbLine
 10
-14035.425219095339
 20
-9351.79227322105
 30
0.0
 11
-14017.467158881771
 21
-9353.020309607269
 31
0.0
  0
LINE
  5
244
100
AcDbEntity
  8
Frei
  6
CONTINUOUS
 62
           3
100
AcDbLine
 10
-14034.86755163443
 20
-9352.431809774374
 30
0.0
 11
-14035.425219095339
 21
-9351.79227322105
 31
0.0
  0
LINE
  5
245
100
AcDbEntity
  8
Frei
  6
CONTINUOUS
 62
           3
100
AcDbLine
 10
-14035.507088187755
 20
-9352.989477235289
 30
0.0
 11
-14034.86755163443
 21
-9352.431809774374
 31
0.0
  0
LINE
  5
246
100
AcDbEntity
  8
Frei
  6
CONTINUOUS
 62
           3
100
AcDbLine
 10
-14017.549027974186
 20
-9354.217513621505
 30
0.0
 11
-14035.507088187755
 21
-9352.989477235289
 31
0.0
  0
LINE
  5
247
100
AcDbEntity
  8
Frei
  6
CONTINUOUS
 62
           3
100
AcDbLine
 10
-14018.106695435099
 20
-9353.577977068177
 30
0.0
 11
-14017.549027974186
 21
-9354.217513621505
 31
0.0
  0
LINE
  5
248
100
AcDbEntity
  8
Frei
  6
CONTINUOUS
 62
           3
100
AcDbLine
 10
-14018.243143922457
 20
-9355.573317091908
 30
0.0
 11
-14035.004000121788
 21
-9354.427149798106
 31
0.0
  0
LINE
  5
249
100
AcDbEntity
  8
Frei
  6
CONTINUOUS
 62
           3
100
AcDbLine
 10
-14018.243143922457
 20
-9355.573317091908
 30
0.0
 11
-14017.603607369128
 21
-9355.015649630997
 31
0.0
  0
LINE
  5
24A
100
AcDbEntity
  8
Frei
  6
CONTINUOUS
 62
           3
100
AcDbLine
 10
-14017.685476461544
 20
-9356.212853645237
 30
0.0
 11
-14018.243143922457
 21
-9355.573317091908
 31
0.0
  0
LINE
  5
24B
100
AcDbEntity
  8
Frei
  6
CONTINUOUS
 62
           3
100
AcDbLine
 10
-14035.643536675112
 20
-9354.984817259017
 30
0.0
 11
-14017.685476461544
 21
-9356.212853645237
 31
0.0
  0
LINE
  5
24C
100
AcDbEntity
  8
Frei
  6
CONTINUOUS
 62
           3
100
AcDbLine
 10
-14035.004000121788
 20
-9354.427149798106
 30
0.0
 11
-14035.643536675112
 21
-9354.984817259017
 31
0.0
  0
LINE
  5
24D
100
AcDbEntity
  8
Frei
  6
CONTINUOUS
 62
           3
100
AcDbLine
 10
-14035.561667582697
 20
-9353.787613244778
 30
0.0
 11
-14035.004000121788
 21
-9354.427149798106
 31
0.0
  0
LINE
  5
24E
100
AcDbEntity
  8
Frei
  6
CONTINUOUS
 62
           3
100
AcDbLine
 10
-14017.603607369128
 20
-9355.015649630997
 30
0.0
 11
-14035.561667582697
 21
-9353.787613244778
 31
0.0
  0
LINE
  5
24F
100
AcDbEntity
  8
Frei
  6
CONTINUOUS
 62
           7
100
AcDbLine
 10
-13991.742675389345
 20
-9361.513935238025
 30
0.0
 11
-13991.077786654905
 21
-9362.871861798594
 31
0.0
  0
LINE
  5
250
100
AcDbEntity
  8
Frei
  6
CONTINUOUS
 62
           7
100
AcDbLine
 10
-13991.742675389345
 20
-9361.513935238025
 30
0.0
 11
-13995.976803816095
 21
-9361.224390392417
 31
0.0
  0
LINE
  5
251
100
AcDbEntity
  8
Frei
  6
CONTINUOUS
 62
           7
100
AcDbLine
 10
-13990.809787960503
 20
-9358.952811235238
 30
0.0
 11
-13991.742675389345
 21
-9361.513935238025
 31
0.0
  0
LINE
  5
252
100
AcDbEntity
  8
Frei
  6
CONTINUOUS
 62
           7
100
AcDbLine
 10
-13991.112446822095
 20
-9352.297854439421
 30
0.0
 11
-13990.536890985788
 21
-9354.962131187778
 31
0.0
  0
LINE
  5
253
100
AcDbEntity
  8
Frei
  6
CONTINUOUS
 62
           7
100
AcDbLine
 10
-13991.112446822095
 20
-9352.297854439421
 30
0.0
 11
-13995.346575248845
 21
-9352.008309593814
 31
0.0
  0
LINE
  5
254
100
AcDbEntity
  8
Frei
  6
CONTINUOUS
 62
           7
100
AcDbLine
 10
-13990.268892291388
 20
-9351.043080624422
 30
0.0
 11
-13991.112446822095
 21
-9352.297854439421
 31
0.0
  0
LINE
  5
255
100
AcDbEntity
  8
Frei
  6
CONTINUOUS
 62
           7
100
AcDbLine
 10
-13991.214235142263
 20
-9364.867201822326
 30
0.0
 11
-13992.057789672972
 21
-9366.121975637325
 31
0.0
  0
LINE
  5
256
100
AcDbEntity
  8
Frei
  6
CONTINUOUS
 62
           7
100
AcDbLine
 10
-13990.79733253847
 20
-9347.689814040121
 30
0.0
 11
-13995.03146096522
 21
-9347.400269194513
 31
0.0
  0
LINE
  5
257
100
AcDbEntity
  8
Frei
  6
CONTINUOUS
 62
           7
100
AcDbLine
 10
-13990.79733253847
 20
-9347.689814040121
 30
0.0
 11
-13990.13244380403
 21
-9349.047740600694
 31
0.0
  0
LINE
  5
258
100
AcDbEntity
  8
Frei
  6
CONTINUOUS
 62
           7
100
AcDbLine
 10
-13996.202585201587
 20
-9364.526080603933
 30
0.0
 11
-13996.291918099721
 21
-9365.832430791717
 31
0.0
  0
LINE
  5
259
100
AcDbEntity
  8
Frei
  6
CONTINUOUS
 62
           7
100
AcDbLine
 10
-13991.214235142263
 20
-9364.867201822326
 30
0.0
 11
-13991.077786654905
 21
-9362.871861798594
 31
0.0
  0
LINE
  5
25A
100
AcDbEntity
  8
Frei
  6
CONTINUOUS
 62
           7
100
AcDbLine
 10
-13991.214235142263
 20
-9364.867201822326
 30
0.0
 11
-13996.202585201587
 21
-9364.526080603933
 31
0.0
  0
LINE
  5
25B
100
AcDbEntity
  8
Frei
  6
CONTINUOUS
 62
           7
100
AcDbLine
 10
-13996.066136714229
 20
-9362.530740580201
 30
0.0
 11
-13996.202585201587
 21
-9364.526080603933
 31
0.0
  0
LINE
  5
25C
100
AcDbEntity
  8
Frei
  6
CONTINUOUS
 62
           7
100
AcDbLine
 10
-13991.077786654905
 20
-9362.871861798594
 30
0.0
 11
-13990.809787960503
 21
-9358.952811235238
 31
0.0
  0
LINE
  5
25D
100
AcDbEntity
  8
Frei
  6
CONTINUOUS
 62
           7
100
AcDbLine
 10
-13991.077786654905
 20
-9362.871861798594
 30
0.0
 11
-13996.066136714229
 21
-9362.530740580201
 31
0.0
  0
LINE
  5
25E
100
AcDbEntity
  8
Frei
  6
CONTINUOUS
 62
           7
100
AcDbLine
 10
-13995.976803816095
 20
-9361.224390392417
 30
0.0
 11
-13996.066136714229
 21
-9362.530740580201
 31
0.0
  0
LINE
  5
25F
100
AcDbEntity
  8
Frei
  6
CONTINUOUS
 62
           7
100
AcDbLine
 10
-13995.798138019827
 20
-9358.611690016845
 30
0.0
 11
-13995.976803816095
 21
-9361.224390392417
 31
0.0
  0
LINE
  5
260
100
AcDbEntity
  8
Frei
  6
CONTINUOUS
 62
           7
100
AcDbLine
 10
-13990.809787960503
 20
-9358.952811235238
 30
0.0
 11
-13990.536890985788
 21
-9354.962131187778
 31
0.0
  0
LINE
  5
261
100
AcDbEntity
  8
Frei
  6
CONTINUOUS
 62
           7
100
AcDbLine
 10
-13990.809787960503
 20
-9358.952811235238
 30
0.0
 11
-13995.798138019827
 21
-9358.611690016845
 31
0.0
  0
LINE
  5
262
100
AcDbEntity
  8
Frei
  6
CONTINUOUS
 62
           7
100
AcDbLine
 10
-13995.525241045112
 20
-9354.621009969385
 30
0.0
 11
-13995.798138019827
 21
-9358.611690016845
 31
0.0
  0
LINE
  5
263
100
AcDbEntity
  8
Frei
  6
CONTINUOUS
 62
           7
100
AcDbLine
 10
-13990.536890985788
 20
-9354.962131187778
 30
0.0
 11
-13990.268892291388
 21
-9351.043080624422
 31
0.0
  0
LINE
  5
264
100
AcDbEntity
  8
Frei
  6
CONTINUOUS
 62
           7
100
AcDbLine
 10
-13990.536890985788
 20
-9354.962131187778
 30
0.0
 11
-13995.525241045112
 21
-9354.621009969385
 31
0.0
  0
LINE
  5
265
100
AcDbEntity
  8
Frei
  6
CONTINUOUS
 62
           7
100
AcDbLine
 10
-13995.346575248845
 20
-9352.008309593814
 30
0.0
 11
-13995.525241045112
 21
-9354.621009969385
 31
0.0
  0
LINE
  5
266
100
AcDbEntity
  8
Frei
  6
CONTINUOUS
 62
           7
100
AcDbLine
 10
-13995.257242350712
 20
-9350.701959406029
 30
0.0
 11
-13995.346575248845
 21
-9352.008309593814
 31
0.0
  0
LINE
  5
267
100
AcDbEntity
  8
Frei
  6
CONTINUOUS
 62
           7
100
AcDbLine
 10
-13990.268892291388
 20
-9351.043080624422
 30
0.0
 11
-13990.13244380403
 21
-9349.047740600694
 31
0.0
  0
LINE
  5
268
100
AcDbEntity
  8
Frei
  6
CONTINUOUS
 62
           7
100
AcDbLine
 10
-13990.268892291388
 20
-9351.043080624422
 30
0.0
 11
-13995.257242350712
 21
-9350.701959406029
 31
0.0
  0
LINE
  5
269
100
AcDbEntity
  8
Frei
  6
CONTINUOUS
 62
           7
100
AcDbLine
 10
-13995.120793863354
 20
-9348.706619382298
 30
0.0
 11
-13995.257242350712
 21
-9350.701959406029
 31
0.0
  0
LINE
  5
26A
100
AcDbEntity
  8
Frei
  6
CONTINUOUS
 62
           7
100
AcDbLine
 10
-13995.120793863354
 20
-9348.706619382298
 30
0.0
 11
-13990.13244380403
 21
-9349.047740600694
 31
0.0
  0
LINE
  5
26B
100
AcDbEntity
  8
Frei
  6
CONTINUOUS
 62
           7
100
AcDbLine
 10
-13996.291918099721
 20
-9365.832430791717
 30
0.0
 11
-13992.057789672972
 21
-9366.121975637325
 31
0.0
  0
LINE
  5
26C
100
AcDbEntity
  8
Frei
  6
CONTINUOUS
 62
           7
100
AcDbLine
 10
-13995.03146096522
 20
-9347.400269194513
 30
0.0
 11
-13995.120793863354
 21
-9348.706619382298
 31
0.0
  0
LINE
  5
26D
100
AcDbEntity
  8
Frei
  6
CONTINUOUS
 62
           7
100
AcDbLine
 10
-14039.85732246481
 20
-9314.001845071551
 30
0.0
 11
-14040.215499744123
 21
-9319.239612633843
 31
0.0
  0
LINE
  5
26E
100
AcDbEntity
  8
Frei
  6
CONTINUOUS
 62
           7
100
AcDbLine
 10
-14038.838387152766
 20
-9321.087871520125
 30
0.0
 11
-14038.59960229989
 21
-9317.596026478597
 31
0.0
  0
LINE
  5
26F
100
AcDbEntity
  8
Frei
  6
CONTINUOUS
 62
           7
100
AcDbLine
 10
-14039.592614364026
 20
-9321.036294765851
 30
0.0
 11
-14038.838387152766
 21
-9321.087871520125
 31
0.0
  0
LINE
  5
270
100
AcDbEntity
  8
Frei
  6
CONTINUOUS
 62
           7
100
AcDbLine
 10
-14038.59960229989
 20
-9317.596026478597
 30
0.0
 11
-14038.122032594139
 21
-9310.612336395545
 31
0.0
  0
LINE
  5
271
100
AcDbEntity
  8
Frei
  6
CONTINUOUS
 62
           7
100
AcDbLine
 10
-14039.35382951115
 20
-9317.544449724323
 30
0.0
 11
-14038.59960229989
 21
-9317.596026478597
 31
0.0
  0
LINE
  5
272
100
AcDbEntity
  8
Frei
  6
CONTINUOUS
 62
           7
100
AcDbLine
 10
-14038.122032594139
 20
-9310.612336395545
 30
0.0
 11
-14037.883247741263
 21
-9307.120491354017
 31
0.0
  0
LINE
  5
273
100
AcDbEntity
  8
Frei
  6
CONTINUOUS
 62
           7
100
AcDbLine
 10
-14038.8762598054
 20
-9310.560759641267
 30
0.0
 11
-14038.122032594139
 21
-9310.612336395545
 31
0.0
  0
LINE
  5
274
100
AcDbEntity
  8
Frei
  6
CONTINUOUS
 62
           7
100
AcDbLine
 10
-14037.883247741263
 20
-9307.120491354017
 30
0.0
 11
-14037.50801440103
 21
-9301.633306288761
 31
0.0
  0
LINE
  5
275
100
AcDbEntity
  8
Frei
  6
CONTINUOUS
 62
           7
100
AcDbLine
 10
-14038.637474952524
 20
-9307.068914599742
 30
0.0
 11
-14037.883247741263
 21
-9307.120491354017
 31
0.0
  0
LINE
  5
276
100
AcDbEntity
  8
Frei
  6
CONTINUOUS
 62
           7
100
AcDbLine
 10
-14001.059385053866
 20
-9362.261248845909
 30
0.0
 11
-14000.240694129721
 21
-9350.289208703533
 31
0.0
  0
LINE
  5
277
100
AcDbEntity
  8
Frei
  6
CONTINUOUS
 62
           2
100
AcDbLine
 10
-13996.071034994542
 20
-9362.602370064305
 30
0.0
 11
-14001.059385053866
 21
-9362.261248845909
 31
0.0
  0
LINE
  5
278
100
AcDbEntity
  8
Frei
  6
CONTINUOUS
 62
           7
100
AcDbLine
 10
-14000.240694129721
 20
-9350.289208703533
 30
0.0
 11
-14000.172469886043
 21
-9349.291538691668
 31
0.0
  0
LINE
  5
279
100
AcDbEntity
  8
Frei
  6
CONTINUOUS
 62
           2
100
AcDbLine
 10
-13995.252344070397
 20
-9350.630329921925
 30
0.0
 11
-14000.240694129721
 21
-9350.289208703533
 31
0.0
  0
LINE
  5
27A
100
AcDbEntity
  8
Frei
  6
CONTINUOUS
 62
           7
100
AcDbLine
 10
-14001.127609297546
 20
-9363.258918857777
 30
0.0
 11
-14001.059385053866
 21
-9362.261248845909
 31
0.0
  0
LINE
  5
27B
100
AcDbEntity
  8
Frei
  6
CONTINUOUS
 62
           7
100
AcDbLine
 10
-14001.127609297546
 20
-9363.258918857777
 30
0.0
 11
-13996.139259238222
 21
-9363.60004007617
 31
0.0
  0
LINE
  5
27C
100
AcDbEntity
  8
Frei
  6
CONTINUOUS
 62
           7
100
AcDbLine
 10
-14000.172469886043
 20
-9349.291538691668
 30
0.0
 11
-14000.138357764205
 21
-9348.792703685733
 31
0.0
  0
LINE
  5
27D
100
AcDbEntity
  8
Frei
  6
CONTINUOUS
 62
           7
100
AcDbLine
 10
-14000.172469886043
 20
-9349.291538691668
 30
0.0
 11
-13995.184119826719
 21
-9349.632659910061
 31
0.0
  0
LINE
  5
27E
100
AcDbEntity
  8
Frei
  6
CONTINUOUS
 62
           7
100
AcDbLine
 10
-14020.54635978686
 20
-9361.930995246195
 30
0.0
 11
-14039.537904754345
 21
-9360.632285476146
 31
0.0
  0
LINE
  5
27F
100
AcDbEntity
  8
Frei
  6
CONTINUOUS
 62
           7
100
AcDbLine
 10
-14013.236097927282
 20
-9364.43556795736
 30
0.0
 11
-14020.54635978686
 21
-9361.930995246195
 31
0.0
  0
LINE
  5
280
100
AcDbEntity
  8
Frei
  6
CONTINUOUS
 62
           7
100
AcDbLine
 10
-14039.055906705458
 20
-9331.597518766546
 30
0.0
 11
-14039.554741711392
 21
-9331.563406644706
 31
0.0
  0
LINE
  5
281
100
AcDbEntity
  8
Frei
  6
CONTINUOUS
 62
           7
100
AcDbLine
 10
-14039.055906705458
 20
-9331.597518766546
 30
0.0
 11
-14040.932073406622
 21
-9359.033444092827
 31
0.0
  0
LINE
  5
282
100
AcDbEntity
  8
Frei
  6
CONTINUOUS
 62
           7
100
AcDbLine
 10
-14020.54635978686
 20
-9361.930995246195
 30
0.0
 11
-14014.596154457722
 21
-9362.337891568113
 31
0.0
  0
LINE
  5
283
100
AcDbEntity
  8
Frei
  6
CONTINUOUS
 62
           7
100
AcDbLine
 10
-14011.121146373242
 20
-9333.507797589547
 30
0.0
 11
-14039.055906705458
 21
-9331.597518766546
 31
0.0
  0
LINE
  5
284
100
AcDbEntity
  8
Frei
  6
CONTINUOUS
 62
           7
100
AcDbLine
 10
-14011.121146373242
 20
-9333.507797589547
 30
0.0
 11
-14012.997313074406
 21
-9360.943722915832
 31
0.0
  0
LINE
  5
285
100
AcDbEntity
  8
Frei
  6
CONTINUOUS
 62
           7
100
AcDbLine
 10
-14013.236097927282
 20
-9364.43556795736
 30
0.0
 11
-14002.760562802701
 21
-9365.151922515986
 31
0.0
  0
LINE
  5
286
100
AcDbEntity
  8
Frei
  6
CONTINUOUS
 62
           7
100
AcDbLine
 10
-14001.161721419385
 20
-9363.757753863709
 30
0.0
 11
-14001.127609297546
 21
-9363.258918857777
 31
0.0
  0
LINE
  5
287
100
AcDbEntity
  8
Frei
  6
CONTINUOUS
 62
           7
100
AcDbLine
 10
-14012.008061541064
 20
-9346.477507743792
 30
0.0
 11
-14001.532526416484
 21
-9347.193862302418
 31
0.0
  0
LINE
  5
288
100
AcDbEntity
  8
Frei
  6
CONTINUOUS
 62
           7
100
AcDbLine
 10
-14039.554741711392
 20
-9331.563406644706
 30
0.0
 11
-14039.486517467712
 21
-9330.565736632841
 31
0.0
  0
LINE
  5
289
100
AcDbEntity
  8
Frei
  6
CONTINUOUS
 62
           7
100
AcDbLine
 10
-14010.62231136731
 20
-9333.541909711388
 30
0.0
 11
-14011.121146373242
 21
-9333.507797589547
 31
0.0
  0
LINE
  5
28A
100
AcDbEntity
  8
Frei
  6
CONTINUOUS
 62
           7
100
AcDbLine
 10
-14010.55408712363
 20
-9332.544239699524
 30
0.0
 11
-14010.62231136731
 21
-9333.541909711388
 31
0.0
  0
LINE
  5
28B
100
AcDbEntity
  8
Frei
  6
CONTINUOUS
 62
           7
100
AcDbLine
 10
-14010.55408712363
 20
-9332.544239699524
 30
0.0
 11
-14039.486517467712
 21
-9330.565736632841
 31
0.0
  0
LINE
  5
28C
100
AcDbEntity
  8
Frei
  6
CONTINUOUS
 62
           7
100
AcDbLine
 10
-14008.814368909823
 20
-9307.103654396968
 30
0.0
 11
-14008.776441679058
 21
-9306.549029549162
 31
0.0
  0
LINE
  5
28D
100
AcDbEntity
  8
Frei
  6
CONTINUOUS
 62
           7
100
AcDbLine
 10
-14037.50801440103
 20
-9301.633306288761
 30
0.0
 11
-14010.565779973584
 21
-9304.423218528842
 31
0.0
  0
LINE
  5
28E
100
AcDbEntity
  8
Frei
  6
CONTINUOUS
 62
           7
100
AcDbLine
 10
-14004.576485530964
 20
-9318.419145745876
 30
0.0
 11
-14004.610597652803
 21
-9318.917980751809
 31
0.0
  0
LINE
  5
28F
100
AcDbEntity
  8
Frei
  6
CONTINUOUS
 62
           1
100
AcDbLine
 10
-14004.576485530964
 20
-9318.419145745876
 30
0.0
 11
-14007.059038645706
 21
-9318.24937988479
 31
0.0
  0
LINE
  5
290
100
AcDbEntity
  8
Frei
  6
CONTINUOUS
 62
           7
100
AcDbLine
 10
-14004.303588556249
 20
-9314.428465698416
 30
0.0
 11
-14004.576485530964
 21
-9318.419145745876
 31
0.0
  0
LINE
  5
291
100
AcDbEntity
  8
Frei
  6
CONTINUOUS
 62
           1
100
AcDbLine
 10
-14004.303588556249
 20
-9314.428465698416
 30
0.0
 11
-14006.786141670991
 21
-9314.25869983733
 31
0.0
  0
LINE
  5
292
100
AcDbEntity
  8
Frei
  6
CONTINUOUS
 62
           7
100
AcDbLine
 10
-14004.610597652803
 20
-9318.917980751809
 30
0.0
 11
-14004.644709774644
 21
-9319.416815757741
 31
0.0
  0
LINE
  5
293
100
AcDbEntity
  8
Frei
  6
CONTINUOUS
 62
           1
100
AcDbLine
 10
-14004.610597652803
 20
-9318.917980751809
 30
0.0
 11
-14007.093150767545
 21
-9318.748214890722
 31
0.0
  0
LINE
  5
294
100
AcDbEntity
  8
Frei
  6
CONTINUOUS
 62
           7
100
AcDbLine
 10
-14004.269476434411
 20
-9313.929630692484
 30
0.0
 11
-14004.303588556249
 21
-9314.428465698416
 31
0.0
  0
LINE
  5
295
100
AcDbEntity
  8
Frei
  6
CONTINUOUS
 62
           1
100
AcDbLine
 10
-14004.269476434411
 20
-9313.929630692484
 30
0.0
 11
-14006.752029549152
 21
-9313.759864831398
 31
0.0
  0
LINE
  5
296
100
AcDbEntity
  8
Frei
  6
CONTINUOUS
 62
           7
100
AcDbLine
 10
-14005.642379786508
 20
-9319.348591514063
 30
0.0
 11
-14005.233034324436
 21
-9313.362571442875
 31
0.0
  0
LINE
  5
297
100
AcDbEntity
  8
Frei
  6
CONTINUOUS
 62
           2
100
AcDbLine
 10
-14004.644709774644
 20
-9319.416815757741
 30
0.0
 11
-14005.642379786508
 21
-9319.348591514063
 31
0.0
  0
LINE
  5
298
100
AcDbEntity
  8
Frei
  6
CONTINUOUS
 62
           7
100
AcDbLine
 10
-14005.233034324436
 20
-9313.362571442875
 30
0.0
 11
-14005.164810080756
 21
-9312.364901431007
 31
0.0
  0
LINE
  5
299
100
AcDbEntity
  8
Frei
  6
CONTINUOUS
 62
           2
100
AcDbLine
 10
-14004.235364312572
 20
-9313.430795686552
 30
0.0
 11
-14005.233034324436
 21
-9313.362571442875
 31
0.0
  0
LINE
  5
29A
100
AcDbEntity
  8
Frei
  6
CONTINUOUS
 62
           7
100
AcDbLine
 10
-14005.710604030186
 20
-9320.346261525927
 30
0.0
 11
-14005.642379786508
 21
-9319.348591514063
 31
0.0
  0
LINE
  5
29B
100
AcDbEntity
  8
Frei
  6
CONTINUOUS
 62
           7
100
AcDbLine
 10
-14004.644709774644
 20
-9319.416815757741
 30
0.0
 11
-14005.710604030186
 21
-9320.346261525927
 31
0.0
  0
LINE
  5
29C
100
AcDbEntity
  8
Frei
  6
CONTINUOUS
 62
           7
100
AcDbLine
 10
-14004.235364312572
 20
-9313.430795686552
 30
0.0
 11
-14004.269476434411
 21
-9313.929630692484
 31
0.0
  0
LINE
  5
29D
100
AcDbEntity
  8
Frei
  6
CONTINUOUS
 62
           7
100
AcDbLine
 10
-14005.164810080756
 20
-9312.364901431007
 30
0.0
 11
-14004.823688862363
 21
-9307.376551371683
 31
0.0
  0
LINE
  5
29E
100
AcDbEntity
  8
Frei
  6
CONTINUOUS
 62
           7
100
AcDbLine
 10
-14005.164810080756
 20
-9312.364901431007
 30
0.0
 11
-14004.235364312572
 21
-9313.430795686552
 31
0.0
  0
LINE
  5
29F
100
AcDbEntity
  8
Frei
  6
CONTINUOUS
 62
           7
100
AcDbLine
 10
-14039.486517467712
 20
-9330.565736632841
 30
0.0
 11
-14038.838387152766
 21
-9321.087871520125
 31
0.0
  0
LINE
  5
2A0
100
AcDbEntity
  8
Frei
  6
CONTINUOUS
 62
           7
100
AcDbLine
 10
-14010.042405296041
 20
-9325.061714610536
 30
0.0
 11
-14010.55408712363
 21
-9332.544239699524
 31
0.0
  0
LINE
  5
2A1
100
AcDbEntity
  8
Frei
  6
CONTINUOUS
 62
           7
100
AcDbLine
 10
-14007.74847465428
 20
-9306.174208628781
 30
0.0
 11
-14009.112959527854
 21
-9326.127608866082
 31
0.0
  0
LINE
  5
2A2
100
AcDbEntity
  8
Frei
  6
CONTINUOUS
 62
           7
100
AcDbLine
 10
-14005.75313463055
 20
-9306.310657116141
 30
0.0
 11
-14007.117619504124
 21
-9326.264057353437
 31
0.0
  0
LINE
  5
2A3
100
AcDbEntity
  8
Frei
  6
CONTINUOUS
 62
           7
100
AcDbLine
 10
-14006.051725248581
 20
-9325.334611585251
 30
0.0
 11
-14007.117619504124
 21
-9326.264057353437
 31
0.0
  0
LINE
  5
2A4
100
AcDbEntity
  8
Frei
  6
CONTINUOUS
 62
           7
100
AcDbLine
 10
-14009.112959527854
 20
-9326.127608866082
 30
0.0
 11
-14010.042405296041
 21
-9325.061714610536
 31
0.0
  0
LINE
  5
2A5
100
AcDbEntity
  8
Frei
  6
CONTINUOUS
 62
           7
100
AcDbLine
 10
-14008.814368909823
 20
-9307.103654396968
 30
0.0
 11
-14007.74847465428
 21
-9306.174208628781
 31
0.0
  0
LINE
  5
2A6
100
AcDbEntity
  8
Frei
  6
CONTINUOUS
 62
           7
100
AcDbLine
 10
-14004.823688862363
 20
-9307.376551371683
 30
0.0
 11
-14005.75313463055
 21
-9306.310657116141
 31
0.0
  0
LINE
  5
2A7
100
AcDbEntity
  8
Frei
  6
CONTINUOUS
 62
           7
100
AcDbLine
 10
-14006.051725248581
 20
-9325.334611585251
 30
0.0
 11
-14005.710604030186
 21
-9320.346261525927
 31
0.0
  0
LINE
  5
2A8
100
AcDbEntity
  8
Frei
  6
CONTINUOUS
 62
           7
100
AcDbLine
 10
-14009.112959527854
 20
-9326.127608866082
 30
0.0
 11
-14007.117619504124
 21
-9326.264057353437
 31
0.0
  0
LINE
  5
2A9
100
AcDbEntity
  8
Frei
  6
CONTINUOUS
 62
           7
100
AcDbLine
 10
-14008.814368909823
 20
-9307.103654396968
 30
0.0
 11
-14010.042405296041
 21
-9325.061714610536
 31
0.0
  0
LINE
  5
2AA
100
AcDbEntity
  8
Frei
  6
CONTINUOUS
 62
           7
100
AcDbLine
 10
-14005.75313463055
 20
-9306.310657116141
 30
0.0
 11
-14007.74847465428
 21
-9306.174208628781
 31
0.0
  0
LINE
  5
2AB
100
AcDbEntity
  8
Frei
  6
CONTINUOUS
 62
           7
100
AcDbLine
 10
-14055.948072663483
 20
-9329.440036612141
 30
0.0
 11
-14045.472537538901
 21
-9330.156391170767
 31
0.0
  0
LINE
  5
2AC
100
AcDbEntity
  8
Frei
  6
CONTINUOUS
 62
           7
100
AcDbLine
 10
-14039.729292455977
 20
-9297.472065632104
 30
0.0
 11
-14053.696672622085
 21
-9296.5169262206
 31
0.0
  0
LINE
  5
2AD
100
AcDbEntity
  8
Frei
  6
CONTINUOUS
 62
           7
100
AcDbLine
 10
-14038.799846687791
 20
-9298.537959887646
 30
0.0
 11
-14040.334892170562
 21
-9320.985535154607
 31
0.0
  0
LINE
  5
2AE
100
AcDbEntity
  8
Frei
  6
CONTINUOUS
 62
           7
100
AcDbLine
 10
-14199.544330128349
 20
-9318.618075510542
 30
0.0
 11
-14198.009284645577
 21
-9296.170500243585
 31
0.0
  0
LINE
  5
2AF
100
AcDbEntity
  8
Frei
  6
CONTINUOUS
 62
           7
100
AcDbLine
 10
-14198.845031630641
 20
-9308.391957888929
 30
0.0
 11
-14198.486854351328
 21
-9303.154190326637
 31
0.0
  0
LINE
  5
2B0
100
AcDbEntity
  8
Frei
  6
CONTINUOUS
 62
           7
100
AcDbLine
 10
-14039.499145185497
 20
-9308.764077509262
 30
0.0
 11
-14039.85732246481
 21
-9314.001845071551
 31
0.0
  0
ARC
  5
2B1
100
AcDbEntity
  8
Frei
  6
CONTINUOUS
 62
           7
100
AcDbCircle
 10
-14207.07121321528
 20
-9302.567161164694
 30
0.0
 40
8.604407030244
100
AcDbArc
 50
332.086014671726
 51
356.087999999999
  0
ARC
  5
2B2
100
AcDbEntity
  8
Frei
  6
CONTINUOUS
 62
           7
100
AcDbCircle
 10
-14200.553120965453
 20
-9297.750630619645
 30
0.0
 40
2.430106011614
100
AcDbArc
 50
310.022521857266
 51
356.087999999999
  0
ARC
  5
2B3
100
AcDbEntity
  8
Frei
  6
CONTINUOUS
 62
           7
100
AcDbCircle
 10
-14201.269475524079
 20
-9308.226165744225
 30
0.0
 40
2.430106011614
100
AcDbArc
 50
310.022521857266
 51
356.087999999999
  0
ARC
  5
2B4
100
AcDbEntity
  8
Frei
  6
CONTINUOUS
 62
           7
100
AcDbCircle
 10
-14200.553120965453
 20
-9297.750630619645
 30
0.0
 40
2.430106011614
100
AcDbArc
 50
356.087999999999
 51
42.153478142733
  0
ARC
  5
2B5
100
AcDbEntity
  8
Frei
  6
CONTINUOUS
 62
           7
100
AcDbCircle
 10
-14201.269475524079
 20
-9308.226165744225
 30
0.0
 40
2.430106011614
100
AcDbArc
 50
356.087999999999
 51
42.153478142733
  0
ARC
  5
2B6
100
AcDbEntity
  8
Frei
  6
CONTINUOUS
 62
           7
100
AcDbCircle
 10
-14037.791055850683
 20
-9319.405404778543
 30
0.0
 40
2.430106011614
100
AcDbArc
 50
130.022521857263
 51
176.088
  0
ARC
  5
2B7
100
AcDbEntity
  8
Frei
  6
CONTINUOUS
 62
           7
100
AcDbCircle
 10
-14037.074701292056
 20
-9308.929869653963
 30
0.0
 40
2.430106011614
100
AcDbArc
 50
130.022521857263
 51
176.088
  0
ARC
  5
2B8
100
AcDbEntity
  8
Frei
  6
CONTINUOUS
 62
           7
100
AcDbCircle
 10
-14037.791055850683
 20
-9319.405404778543
 30
0.0
 40
2.430106011614
100
AcDbArc
 50
176.088
 51
222.153478142737
  0
ARC
  5
2B9
100
AcDbEntity
  8
Frei
  6
CONTINUOUS
 62
           7
100
AcDbCircle
 10
-14037.074701292056
 20
-9308.929869653963
 30
0.0
 40
2.430106011614
100
AcDbArc
 50
176.088
 51
222.153478142737
  0
ARC
  5
2BA
100
AcDbEntity
  8
Frei
  6
CONTINUOUS
 62
           7
100
AcDbCircle
 10
-14031.272963600857
 20
-9314.588874233494
 30
0.0
 40
8.604407030244
100
AcDbArc
 50
152.086014671724
 51
176.088
  0
ARC
  5
2BB
100
AcDbEntity
  8
Frei
  6
CONTINUOUS
 62
           7
100
AcDbCircle
 10
-14175.722754715642
 20
-9312.491926879262
 30
0.0
 40
4.481959213903
100
AcDbArc
 50
184.466955885586
 51
347.709044114414
  0
ARC
  5
2BC
100
AcDbEntity
  8
Frei
  6
CONTINUOUS
 62
           7
100
AcDbCircle
 10
-14207.07121321528
 20
-9302.567161164694
 30
0.0
 40
8.604407030244
100
AcDbArc
 50
356.087999999999
 51
20.089985328274
  0
ARC
  5
2BD
100
AcDbEntity
  8
Frei
  6
CONTINUOUS
 62
           7
100
AcDbCircle
 10
-14031.272963600857
 20
-9314.588874233494
 30
0.0
 40
8.604407030244
100
AcDbArc
 50
176.088
 51
200.089985328276
  0
POLYLINE
  5
2BE
100
AcDbEntity
  8
Frei
  6
CONTINUOUS
 62
           7
100
AcDb2dPolyline
 66
           1
 10
0.0
 20
0.0
 30
0.0
  0
VERTEX
  5
2BF
100
AcDbEntity
  8
Frei
  6
CONTINUOUS
 62
           7
100
AcDbVertex
100
AcDb2dVertex
 10
-14179.883574850817
 20
-9312.508423560899
 30
0.0
 42
0.046286845788
  0
VERTEX
  5
2C0
100
AcDbEntity
  8
Frei
  6
CONTINUOUS
 62
           7
100
AcDbVertex
100
AcDb2dVertex
 10
-14179.866874021975
 20
-9313.18832716098
 30
0.0
  0
VERTEX
  5
2C1
100
AcDbEntity
  8
Frei
  6
CONTINUOUS
 62
           7
100
AcDbVertex
100
AcDb2dVertex
 10
-14179.811240864026
 20
-9313.525516053938
 30
0.0
  0
VERTEX
  5
2C2
100
AcDbEntity
  8
Frei
  6
CONTINUOUS
 62
           7
100
AcDbVertex
100
AcDb2dVertex
 10
-14179.724878790736
 20
-9313.856175014571
 30
0.0
 42
0.045273723548
  0
VERTEX
  5
2C3
100
AcDbEntity
  8
Frei
  6
CONTINUOUS
 62
           7
100
AcDbVertex
100
AcDb2dVertex
 10
-14179.461903610347
 20
-9314.491674902591
 30
0.0
  0
VERTEX
  5
2C4
100
AcDbEntity
  8
Frei
  6
CONTINUOUS
 62
           7
100
AcDbVertex
100
AcDb2dVertex
 10
-14179.286910577244
 20
-9314.791957271023
 30
0.0
  0
VERTEX
  5
2C5
100
AcDbEntity
  8
Frei
  6
CONTINUOUS
 62
           7
100
AcDbVertex
100
AcDb2dVertex
 10
-14179.085938848593
 20
-9315.075517482517
 30
0.0
 42
0.04348253534
  0
VERTEX
  5
2C6
100
AcDbEntity
  8
Frei
  6
CONTINUOUS
 62
           7
100
AcDbVertex
100
AcDb2dVertex
 10
-14178.608408004513
 20
-9315.589962992999
 30
0.0
  0
VERTEX
  5
2C7
100
AcDbEntity
  8
Frei
  6
CONTINUOUS
 62
           7
100
AcDbVertex
100
AcDb2dVertex
 10
-14178.335273429182
 20
-9315.816709776482
 30
0.0
  0
VERTEX
  5
2C8
100
AcDbEntity
  8
Frei
  6
CONTINUOUS
 62
           7
100
AcDbVertex
100
AcDb2dVertex
 10
-14178.043820611165
 20
-9316.019380267524
 30
0.0
 42
0.041825507476
  0
VERTEX
  5
2C9
100
AcDbEntity
  8
Frei
  6
CONTINUOUS
 62
           7
100
AcDbVertex
100
AcDb2dVertex
 10
-14177.409331370796
 20
-9316.350721679504
 30
0.0
  0
VERTEX
  5
2CA
100
AcDbEntity
  8
Frei
  6
CONTINUOUS
 62
           7
100
AcDbVertex
100
AcDb2dVertex
 10
-14177.071389459241
 20
-9316.476480638383
 30
0.0
  0
VERTEX
  5
2CB
100
AcDbEntity
  8
Frei
  6
CONTINUOUS
 62
           7
100
AcDbVertex
100
AcDb2dVertex
 10
-14176.724218917909
 20
-9316.573919587794
 30
0.0
 42
0.040993490696
  0
VERTEX
  5
2CC
100
AcDbEntity
  8
Frei
  6
CONTINUOUS
 62
           7
100
AcDbVertex
100
AcDb2dVertex
 10
-14176.009300047705
 20
-9316.682192236902
 30
0.0
  0
VERTEX
  5
2CD
100
AcDbEntity
  8
Frei
  6
CONTINUOUS
 62
           7
100
AcDbVertex
100
AcDb2dVertex
 10
-14175.6475941592
 20
-9316.692061005371
 30
0.0
  0
VERTEX
  5
2CE
100
AcDbEntity
  8
Frei
  6
CONTINUOUS
 62
           7
100
AcDbVertex
100
AcDb2dVertex
 10
-14175.286297208282
 20
-9316.672249817169
 30
0.0
 42
0.041278481646
  0
VERTEX
  5
2CF
100
AcDbEntity
  8
Frei
  6
CONTINUOUS
 62
           7
100
AcDbVertex
100
AcDb2dVertex
 10
-14174.577178475063
 20
-9316.544394423992
 30
0.0
  0
VERTEX
  5
2D0
100
AcDbEntity
  8
Frei
  6
CONTINUOUS
 62
           7
100
AcDbVertex
100
AcDb2dVertex
 10
-14174.23526669179
 20
-9316.437561206927
 30
0.0
  0
VERTEX
  5
2D1
100
AcDbEntity
  8
Frei
  6
CONTINUOUS
 62
           7
100
AcDbVertex
100
AcDb2dVertex
 10
-14173.903490061924
 20
-9316.302510878792
 30
0.0
 42
0.042584509173
  0
VERTEX
  5
2D2
100
AcDbEntity
  8
Frei
  6
CONTINUOUS
 62
           7
100
AcDbVertex
100
AcDb2dVertex
 10
-14173.285701650399
 20
-9315.953948690691
 30
0.0
  0
VERTEX
  5
2D3
100
AcDbEntity
  8
Frei
  6
CONTINUOUS
 62
           7
100
AcDbVertex
100
AcDb2dVertex
 10
-14173.004458423142
 20
-9315.743448548205
 30
0.0
  0
VERTEX
  5
2D4
100
AcDbEntity
  8
Frei
  6
CONTINUOUS
 62
           7
100
AcDbVertex
100
AcDb2dVertex
 10
-14172.742584428754
 20
-9315.509298745394
 30
0.0
 42
0.044417198743
  0
VERTEX
  5
2D5
100
AcDbEntity
  8
Frei
  6
CONTINUOUS
 62
           7
100
AcDbVertex
100
AcDb2dVertex
 10
-14172.290640738933
 20
-9314.982071506482
 30
0.0
  0
VERTEX
  5
2D6
100
AcDbEntity
  8
Frei
  6
CONTINUOUS
 62
           7
100
AcDbVertex
100
AcDb2dVertex
 10
-14172.103656089937
 20
-9314.69304609342
 30
0.0
  0
VERTEX
  5
2D7
100
AcDbEntity
  8
Frei
  6
CONTINUOUS
 62
           7
100
AcDbVertex
100
AcDb2dVertex
 10
-14171.943602661266
 20
-9314.388286506823
 30
0.0
 42
0.045929593742
  0
VERTEX
  5
2D8
100
AcDbEntity
  8
Frei
  6
CONTINUOUS
 62
           7
100
AcDbVertex
100
AcDb2dVertex
 10
-14171.712014772125
 20
-9313.74598560316
 30
0.0
  0
VERTEX
  5
2D9
100
AcDbEntity
  8
Frei
  6
CONTINUOUS
 62
           7
100
AcDbVertex
100
AcDb2dVertex
 10
-14171.641900182258
 20
-9313.412864069378
 30
0.0
  0
VERTEX
  5
2DA
100
AcDbEntity
  8
Frei
  6
CONTINUOUS
 62
           7
100
AcDbVertex
100
AcDb2dVertex
 10
-14171.602913752338
 20
-9313.074684783434
 30
0.0
 42
0.046286845788
  0
VERTEX
  5
2DB
100
AcDbEntity
  8
Frei
  6
CONTINUOUS
 62
           7
100
AcDbVertex
100
AcDb2dVertex
 10
-14171.619614581179
 20
-9312.394781183357
 30
0.0
  0
VERTEX
  5
2DC
100
AcDbEntity
  8
Frei
  6
CONTINUOUS
 62
           7
100
AcDbVertex
100
AcDb2dVertex
 10
-14171.675247739131
 20
-9312.057592290395
 30
0.0
  0
VERTEX
  5
2DD
100
AcDbEntity
  8
Frei
  6
CONTINUOUS
 62
           7
100
AcDbVertex
100
AcDb2dVertex
 10
-14171.76160981242
 20
-9311.726933329766
 30
0.0
 42
0.045273723548
  0
VERTEX
  5
2DE
100
AcDbEntity
  8
Frei
  6
CONTINUOUS
 62
           7
100
AcDbVertex
100
AcDb2dVertex
 10
-14172.024584992807
 20
-9311.091433441747
 30
0.0
  0
VERTEX
  5
2DF
100
AcDbEntity
  8
Frei
  6
CONTINUOUS
 62
           7
100
AcDbVertex
100
AcDb2dVertex
 10
-14172.199578025909
 20
-9310.79115107331
 30
0.0
  0
VERTEX
  5
2E0
100
AcDbEntity
  8
Frei
  6
CONTINUOUS
 62
           7
100
AcDbVertex
100
AcDb2dVertex
 10
-14172.400549754562
 20
-9310.50759086182
 30
0.0
 42
0.04348253534
  0
VERTEX
  5
2E1
100
AcDbEntity
  8
Frei
  6
CONTINUOUS
 62
           7
100
AcDbVertex
100
AcDb2dVertex
 10
-14172.878080598641
 20
-9309.993145351338
 30
0.0
  0
VERTEX
  5
2E2
100
AcDbEntity
  8
Frei
  6
CONTINUOUS
 62
           7
100
AcDbVertex
100
AcDb2dVertex
 10
-14173.151215173972
 20
-9309.766398567856
 30
0.0
  0
VERTEX
  5
2E3
100
AcDbEntity
  8
Frei
  6
CONTINUOUS
 62
           7
100
AcDbVertex
100
AcDb2dVertex
 10
-14173.442667991989
 20
-9309.56372807681
 30
0.0
 42
0.041825507476
  0
VERTEX
  5
2E4
100
AcDbEntity
  8
Frei
  6
CONTINUOUS
 62
           7
100
AcDbVertex
100
AcDb2dVertex
 10
-14174.077157232357
 20
-9309.232386664833
 30
0.0
  0
VERTEX
  5
2E5
100
AcDbEntity
  8
Frei
  6
CONTINUOUS
 62
           7
100
AcDbVertex
100
AcDb2dVertex
 10
-14174.415099143915
 20
-9309.106627705951
 30
0.0
  0
VERTEX
  5
2E6
100
AcDbEntity
  8
Frei
  6
CONTINUOUS
 62
           7
100
AcDbVertex
100
AcDb2dVertex
 10
-14174.762269685245
 20
-9309.009188756543
 30
0.0
 42
0.040993490695
  0
VERTEX
  5
2E7
100
AcDbEntity
  8
Frei
  6
CONTINUOUS
 62
           7
100
AcDbVertex
100
AcDb2dVertex
 10
-14175.477188555453
 20
-9308.900916107436
 30
0.0
  0
VERTEX
  5
2E8
100
AcDbEntity
  8
Frei
  6
CONTINUOUS
 62
           7
100
AcDbVertex
100
AcDb2dVertex
 10
-14175.838894443954
 20
-9308.891047338966
 30
0.0
  0
VERTEX
  5
2E9
100
AcDbEntity
  8
Frei
  6
CONTINUOUS
 62
           7
100
AcDbVertex
100
AcDb2dVertex
 10
-14176.200191394872
 20
-9308.910858527164
 30
0.0
 42
0.041278481646
  0
VERTEX
  5
2EA
100
AcDbEntity
  8
Frei
  6
CONTINUOUS
 62
           7
100
AcDbVertex
100
AcDb2dVertex
 10
-14176.909310128091
 20
-9309.038713920341
 30
0.0
  0
VERTEX
  5
2EB
100
AcDbEntity
  8
Frei
  6
CONTINUOUS
 62
           7
100
AcDbVertex
100
AcDb2dVertex
 10
-14177.251221911363
 20
-9309.145547137407
 30
0.0
  0
VERTEX
  5
2EC
100
AcDbEntity
  8
Frei
  6
CONTINUOUS
 62
           7
100
AcDbVertex
100
AcDb2dVertex
 10
-14177.582998541229
 20
-9309.280597465546
 30
0.0
 42
0.042584509173
  0
VERTEX
  5
2ED
100
AcDbEntity
  8
Frei
  6
CONTINUOUS
 62
           7
100
AcDbVertex
100
AcDb2dVertex
 10
-14178.200786952755
 20
-9309.629159653647
 30
0.0
  0
VERTEX
  5
2EE
100
AcDbEntity
  8
Frei
  6
CONTINUOUS
 62
           7
100
AcDbVertex
100
AcDb2dVertex
 10
-14178.482030180012
 20
-9309.839659796133
 30
0.0
  0
VERTEX
  5
2EF
100
AcDbEntity
  8
Frei
  6
CONTINUOUS
 62
           7
100
AcDbVertex
100
AcDb2dVertex
 10
-14178.743904174402
 20
-9310.073809598944
 30
0.0
 42
0.044417198743
  0
VERTEX
  5
2F0
100
AcDbEntity
  8
Frei
  6
CONTINUOUS
 62
           7
100
AcDbVertex
100
AcDb2dVertex
 10
-14179.195847864221
 20
-9310.601036837856
 30
0.0
  0
VERTEX
  5
2F1
100
AcDbEntity
  8
Frei
  6
CONTINUOUS
 62
           7
100
AcDbVertex
100
AcDb2dVertex
 10
-14179.382832513216
 20
-9310.890062250914
 30
0.0
  0
VERTEX
  5
2F2
100
AcDbEntity
  8
Frei
  6
CONTINUOUS
 62
           7
100
AcDbVertex
100
AcDb2dVertex
 10
-14179.54288594189
 20
-9311.194821837515
 30
0.0
 42
0.045929593742
  0
VERTEX
  5
2F3
100
AcDbEntity
  8
Frei
  6
CONTINUOUS
 62
           7
100
AcDbVertex
100
AcDb2dVertex
 10
-14179.774473831028
 20
-9311.837122741174
 30
0.0
  0
VERTEX
  5
2F4
100
AcDbEntity
  8
Frei
  6
CONTINUOUS
 62
           7
100
AcDbVertex
100
AcDb2dVertex
 10
-14179.844588420896
 20
-9312.170244274959
 30
0.0
  0
VERTEX
  5
2F5
100
AcDbEntity
  8
Frei
  6
CONTINUOUS
 62
           7
100
AcDbVertex
100
AcDb2dVertex
 10
-14179.883574850817
 20
-9312.508423560899
 30
0.0
  0
SEQEND
  5
2F6
100
AcDbEntity
  8
Frei
  6
CONTINUOUS
 62
           7
  0
POLYLINE
  5
2F7
100
AcDbEntity
  8
Frei
  6
CONTINUOUS
 62
           7
100
AcDb2dPolyline
 66
           1
 10
0.0
 20
0.0
 30
0.0
  0
VERTEX
  5
2F8
100
AcDbEntity
  8
Frei
  6
CONTINUOUS
 62
           7
100
AcDbVertex
100
AcDb2dVertex
 10
-14175.471497125583
 20
-9308.817688084684
 30
0.0
 42
0.046286845788
  0
VERTEX
  5
2F9
100
AcDbEntity
  8
Frei
  6
CONTINUOUS
 62
           7
100
AcDbVertex
100
AcDb2dVertex
 10
-14176.247339397607
 20
-9308.836745505461
 30
0.0
  0
VERTEX
  5
2FA
100
AcDbEntity
  8
Frei
  6
CONTINUOUS
 62
           7
100
AcDbVertex
100
AcDb2dVertex
 10
-14176.632107762982
 20
-9308.900228851715
 30
0.0
  0
VERTEX
  5
2FB
100
AcDbEntity
  8
Frei
  6
CONTINUOUS
 62
           7
100
AcDbVertex
100
AcDb2dVertex
 10
-14177.00942478153
 20
-9308.998777156434
 30
0.0
 42
0.045273723548
  0
VERTEX
  5
2FC
100
AcDbEntity
  8
Frei
  6
CONTINUOUS
 62
           7
100
AcDbVertex
100
AcDb2dVertex
 10
-14177.734597698596
 20
-9309.298859787876
 30
0.0
  0
VERTEX
  5
2FD
100
AcDbEntity
  8
Frei
  6
CONTINUOUS
 62
           7
100
AcDbVertex
100
AcDb2dVertex
 10
-14178.077251796836
 20
-9309.498545437979
 30
0.0
  0
VERTEX
  5
2FE
100
AcDbEntity
  8
Frei
  6
CONTINUOUS
 62
           7
100
AcDbVertex
100
AcDb2dVertex
 10
-14178.400824136674
 20
-9309.727875540881
 30
0.0
 42
0.04348253534
  0
VERTEX
  5
2FF
100
AcDbEntity
  8
Frei
  6
CONTINUOUS
 62
           7
100
AcDbVertex
100
AcDb2dVertex
 10
-14178.987861142567
 20
-9310.272788988892
 30
0.0
  0
VERTEX
  5
300
100
AcDbEntity
  8
Frei
  6
CONTINUOUS
 62
           7
100
AcDbVertex
100
AcDb2dVertex
 10
-14179.246603322561
 20
-9310.584464569765
 30
0.0
  0
VERTEX
  5
301
100
AcDbEntity
  8
Frei
  6
CONTINUOUS
 62
           7
100
AcDbVertex
100
AcDb2dVertex
 10
-14179.477871893909
 20
-9310.917043212521
 30
0.0
 42
0.041825507476
  0
VERTEX
  5
302
100
AcDbEntity
  8
Frei
  6
CONTINUOUS
 62
           7
100
AcDbVertex
100
AcDb2dVertex
 10
-14179.855967661977
 20
-9311.641062873201
 30
0.0
  0
VERTEX
  5
303
100
AcDbEntity
  8
Frei
  6
CONTINUOUS
 62
           7
100
AcDbVertex
100
AcDb2dVertex
 10
-14179.999472000498
 20
-9312.02669051283
 30
0.0
  0
VERTEX
  5
304
100
AcDbEntity
  8
Frei
  6
CONTINUOUS
 62
           7
100
AcDbVertex
100
AcDb2dVertex
 10
-14180.110660198183
 20
-9312.422848999908
 30
0.0
 42
0.040993490695
  0
VERTEX
  5
305
100
AcDbEntity
  8
Frei
  6
CONTINUOUS
 62
           7
100
AcDbVertex
100
AcDb2dVertex
 10
-14180.234210798701
 20
-9313.238647416787
 30
0.0
  0
VERTEX
  5
306
100
AcDbEntity
  8
Frei
  6
CONTINUOUS
 62
           7
100
AcDbVertex
100
AcDb2dVertex
 10
-14180.245472112432
 20
-9313.651392279895
 30
0.0
  0
VERTEX
  5
307
100
AcDbEntity
  8
Frei
  6
CONTINUOUS
 62
           7
100
AcDbVertex
100
AcDb2dVertex
 10
-14180.222865441043
 20
-9314.063670501753
 30
0.0
 42
0.041278481646
  0
VERTEX
  5
308
100
AcDbEntity
  8
Frei
  6
CONTINUOUS
 62
           7
100
AcDbVertex
100
AcDb2dVertex
 10
-14180.076968848171
 20
-9314.872850345855
 30
0.0
  0
VERTEX
  5
309
100
AcDbEntity
  8
Frei
  6
CONTINUOUS
 62
           7
100
AcDbVertex
100
AcDb2dVertex
 10
-14179.955060792608
 20
-9315.263008031056
 30
0.0
  0
VERTEX
  5
30A
100
AcDbEntity
  8
Frei
  6
CONTINUOUS
 62
           7
100
AcDbVertex
100
AcDb2dVertex
 10
-14179.800954014227
 20
-9315.641600428993
 30
0.0
 42
0.042584509173
  0
VERTEX
  5
30B
100
AcDbEntity
  8
Frei
  6
CONTINUOUS
 62
           7
100
AcDbVertex
100
AcDb2dVertex
 10
-14179.40320751027
 20
-9316.346562668896
 30
0.0
  0
VERTEX
  5
30C
100
AcDbEntity
  8
Frei
  6
CONTINUOUS
 62
           7
100
AcDbVertex
100
AcDb2dVertex
 10
-14179.163004474443
 20
-9316.667491083455
 30
0.0
  0
VERTEX
  5
30D
100
AcDbEntity
  8
Frei
  6
CONTINUOUS
 62
           7
100
AcDbVertex
100
AcDb2dVertex
 10
-14178.895814662554
 20
-9316.966317144634
 30
0.0
 42
0.044417198743
  0
VERTEX
  5
30E
100
AcDbEntity
  8
Frei
  6
CONTINUOUS
 62
           7
100
AcDbVertex
100
AcDb2dVertex
 10
-14178.294192346004
 20
-9317.482032930071
 30
0.0
  0
VERTEX
  5
30F
100
AcDbEntity
  8
Frei
  6
CONTINUOUS
 62
           7
100
AcDbVertex
100
AcDb2dVertex
 10
-14177.964383630304
 20
-9317.695402288453
 30
0.0
  0
VERTEX
  5
310
100
AcDbEntity
  8
Frei
  6
CONTINUOUS
 62
           7
100
AcDbVertex
100
AcDb2dVertex
 10
-14177.61662055027
 20
-9317.878040262029
 30
0.0
 42
0.045929593742
  0
VERTEX
  5
311
100
AcDbEntity
  8
Frei
  6
CONTINUOUS
 62
           7
100
AcDbVertex
100
AcDb2dVertex
 10
-14176.883686951503
 20
-9318.142306658123
 30
0.0
  0
VERTEX
  5
312
100
AcDbEntity
  8
Frei
  6
CONTINUOUS
 62
           7
100
AcDbVertex
100
AcDb2dVertex
 10
-14176.503559875251
 20
-9318.222314857372
 30
0.0
  0
VERTEX
  5
313
100
AcDbEntity
  8
Frei
  6
CONTINUOUS
 62
           7
100
AcDbVertex
100
AcDb2dVertex
 10
-14176.117661366219
 20
-9318.266802517628
 30
0.0
 42
0.046286845788
  0
VERTEX
  5
314
100
AcDbEntity
  8
Frei
  6
CONTINUOUS
 62
           7
100
AcDbVertex
100
AcDb2dVertex
 10
-14175.341819094194
 20
-9318.247745096855
 30
0.0
  0
VERTEX
  5
315
100
AcDbEntity
  8
Frei
  6
CONTINUOUS
 62
           7
100
AcDbVertex
100
AcDb2dVertex
 10
-14174.957050728817
 20
-9318.184261750597
 30
0.0
  0
VERTEX
  5
316
100
AcDbEntity
  8
Frei
  6
CONTINUOUS
 62
           7
100
AcDbVertex
100
AcDb2dVertex
 10
-14174.579733710269
 20
-9318.085713445882
 30
0.0
 42
0.045273723548
  0
VERTEX
  5
317
100
AcDbEntity
  8
Frei
  6
CONTINUOUS
 62
           7
100
AcDbVertex
100
AcDb2dVertex
 10
-14173.854560793203
 20
-9317.78563081444
 30
0.0
  0
VERTEX
  5
318
100
AcDbEntity
  8
Frei
  6
CONTINUOUS
 62
           7
100
AcDbVertex
100
AcDb2dVertex
 10
-14173.511906694963
 20
-9317.585945164337
 30
0.0
  0
VERTEX
  5
319
100
AcDbEntity
  8
Frei
  6
CONTINUOUS
 62
           7
100
AcDbVertex
100
AcDb2dVertex
 10
-14173.188334355129
 20
-9317.356615061432
 30
0.0
 42
0.04348253534
  0
VERTEX
  5
31A
100
AcDbEntity
  8
Frei
  6
CONTINUOUS
 62
           7
100
AcDbVertex
100
AcDb2dVertex
 10
-14172.601297349234
 20
-9316.811701613424
 30
0.0
  0
VERTEX
  5
31B
100
AcDbEntity
  8
Frei
  6
CONTINUOUS
 62
           7
100
AcDbVertex
100
AcDb2dVertex
 10
-14172.34255516924
 20
-9316.500026032551
 30
0.0
  0
VERTEX
  5
31C
100
AcDbEntity
  8
Frei
  6
CONTINUOUS
 62
           7
100
AcDbVertex
100
AcDb2dVertex
 10
-14172.111286597894
 20
-9316.167447389795
 30
0.0
 42
0.041825507476
  0
VERTEX
  5
31D
100
AcDbEntity
  8
Frei
  6
CONTINUOUS
 62
           7
100
AcDbVertex
100
AcDb2dVertex
 10
-14171.733190829824
 20
-9315.443427729115
 30
0.0
  0
VERTEX
  5
31E
100
AcDbEntity
  8
Frei
  6
CONTINUOUS
 62
           7
100
AcDbVertex
100
AcDb2dVertex
 10
-14171.589686491305
 20
-9315.057800089486
 30
0.0
  0
VERTEX
  5
31F
100
AcDbEntity
  8
Frei
  6
CONTINUOUS
 62
           7
100
AcDbVertex
100
AcDb2dVertex
 10
-14171.478498293616
 20
-9314.661641602408
 30
0.0
 42
0.040993490695
  0
VERTEX
  5
320
100
AcDbEntity
  8
Frei
  6
CONTINUOUS
 62
           7
100
AcDbVertex
100
AcDb2dVertex
 10
-14171.3549476931
 20
-9313.845843185529
 30
0.0
  0
VERTEX
  5
321
100
AcDbEntity
  8
Frei
  6
CONTINUOUS
 62
           7
100
AcDbVertex
100
AcDb2dVertex
 10
-14171.343686379369
 20
-9313.433098322417
 30
0.0
  0
VERTEX
  5
322
100
AcDbEntity
  8
Frei
  6
CONTINUOUS
 62
           7
100
AcDbVertex
100
AcDb2dVertex
 10
-14171.366293050756
 20
-9313.020820100559
 30
0.0
 42
0.041278481646
  0
VERTEX
  5
323
100
AcDbEntity
  8
Frei
  6
CONTINUOUS
 62
           7
100
AcDbVertex
100
AcDb2dVertex
 10
-14171.51218964363
 20
-9312.211640256457
 30
0.0
  0
VERTEX
  5
324
100
AcDbEntity
  8
Frei
  6
CONTINUOUS
 62
           7
100
AcDbVertex
100
AcDb2dVertex
 10
-14171.634097699191
 20
-9311.821482571257
 30
0.0
  0
VERTEX
  5
325
100
AcDbEntity
  8
Frei
  6
CONTINUOUS
 62
           7
100
AcDbVertex
100
AcDb2dVertex
 10
-14171.788204477576
 20
-9311.442890173323
 30
0.0
 42
0.042584509173
  0
VERTEX
  5
326
100
AcDbEntity
  8
Frei
  6
CONTINUOUS
 62
           7
100
AcDbVertex
100
AcDb2dVertex
 10
-14172.185950981531
 20
-9310.73792793342
 30
0.0
  0
VERTEX
  5
327
100
AcDbEntity
  8
Frei
  6
CONTINUOUS
 62
           7
100
AcDbVertex
100
AcDb2dVertex
 10
-14172.426154017357
 20
-9310.41699951886
 30
0.0
  0
VERTEX
  5
328
100
AcDbEntity
  8
Frei
  6
CONTINUOUS
 62
           7
100
AcDbVertex
100
AcDb2dVertex
 10
-14172.693343829249
 20
-9310.118173457682
 30
0.0
 42
0.044417198743
  0
VERTEX
  5
329
100
AcDbEntity
  8
Frei
  6
CONTINUOUS
 62
           7
100
AcDbVertex
100
AcDb2dVertex
 10
-14173.294966145795
 20
-9309.602457672245
 30
0.0
  0
VERTEX
  5
32A
100
AcDbEntity
  8
Frei
  6
CONTINUOUS
 62
           7
100
AcDbVertex
100
AcDb2dVertex
 10
-14173.624774861497
 20
-9309.389088313863
 30
0.0
  0
VERTEX
  5
32B
100
AcDbEntity
  8
Frei
  6
CONTINUOUS
 62
           7
100
AcDbVertex
100
AcDb2dVertex
 10
-14173.972537941529
 20
-9309.206450340284
 30
0.0
 42
0.045929593741
  0
VERTEX
  5
32C
100
AcDbEntity
  8
Frei
  6
CONTINUOUS
 62
           7
100
AcDbVertex
100
AcDb2dVertex
 10
-14174.705471540297
 20
-9308.942183944193
 30
0.0
  0
VERTEX
  5
32D
100
AcDbEntity
  8
Frei
  6
CONTINUOUS
 62
           7
100
AcDbVertex
100
AcDb2dVertex
 10
-14175.085598616548
 20
-9308.862175744944
 30
0.0
  0
VERTEX
  5
32E
100
AcDbEntity
  8
Frei
  6
CONTINUOUS
 62
           7
100
AcDbVertex
100
AcDb2dVertex
 10
-14175.471497125583
 20
-9308.817688084684
 30
0.0
  0
SEQEND
  5
32F
100
AcDbEntity
  8
Frei
  6
CONTINUOUS
 62
           7
  0
ARC
  5
330
100
AcDbEntity
  8
Frei
  6
CONTINUOUS
 62
           7
100
AcDbCircle
 10
-14041.794020763668
 20
-9327.459873779037
 30
0.0
 40
0.5
100
AcDbArc
 50
273.237821982568
 51
356.087999999999
  0
ARC
  5
331
100
AcDbEntity
  8
Frei
  6
CONTINUOUS
 62
           7
100
AcDbCircle
 10
-14041.444876178148
 20
-9322.354194859119
 30
0.0
 40
0.5
100
AcDbArc
 50
356.087999999999
 51
78.938178017423
  0
ARC
  5
332
100
AcDbEntity
  8
Frei
  6
CONTINUOUS
 62
           7
100
AcDbCircle
 10
-14196.051321046538
 20
-9289.730273740992
 30
0.0
 40
0.5
100
AcDbArc
 50
93.237821982565
 51
176.088
  0
ARC
  5
333
100
AcDbEntity
  8
Frei
  6
CONTINUOUS
 62
           7
100
AcDbCircle
 10
-14196.400465632058
 20
-9294.835952660909
 30
0.0
 40
0.5
100
AcDbArc
 50
176.088
 51
258.938178017419
  0
ARC
  5
334
100
AcDbEntity
  8
Frei
  6
CONTINUOUS
 62
           7
100
AcDbCircle
 10
-14226.268504265603
 20
-9291.676144427205
 30
0.0
 40
2.0
100
AcDbArc
 50
88.088
 51
176.088
  0
ARC
  5
335
100
AcDbEntity
  8
Frei
  6
CONTINUOUS
 62
           7
100
AcDbCircle
 10
-14242.099029284755
 20
-9347.281599015299
 30
0.0
 40
1.5
100
AcDbArc
 50
176.088
 51
266.088
  0
ARC
  5
336
100
AcDbEntity
  8
Frei
  6
CONTINUOUS
 62
           7
100
AcDbCircle
 10
-14241.075665629574
 20
-9332.316548837327
 30
0.0
 40
1.5
100
AcDbArc
 50
86.088
 51
176.088
  0
ARC
  5
337
100
AcDbEntity
  8
Frei
  6
CONTINUOUS
 62
           7
100
AcDbCircle
 10
-14229.990540655019
 20
-9346.104949915713
 30
0.0
 40
1.5
100
AcDbArc
 50
176.088
 51
266.088
  0
ARC
  5
338
100
AcDbEntity
  8
Frei
  6
CONTINUOUS
 62
           7
100
AcDbCircle
 10
-14205.048790358398
 20
-9347.81055600768
 30
0.0
 40
1.5
100
AcDbArc
 50
266.088
 51
356.087999999999
  0
ARC
  5
339
100
AcDbEntity
  8
Frei
  6
CONTINUOUS
 62
           7
100
AcDbCircle
 10
-14039.435568388826
 20
-9359.135780458346
 30
0.0
 40
1.5
100
AcDbArc
 50
176.088
 51
266.088
  0
ARC
  5
33A
100
AcDbEntity
  8
Frei
  6
CONTINUOUS
 62
           7
100
AcDbCircle
 10
-14014.493818092204
 20
-9360.841386550314
 30
0.0
 40
1.5
100
AcDbArc
 50
266.088
 51
356.087999999999
  0
ARC
  5
33B
100
AcDbEntity
  8
Frei
  6
CONTINUOUS
 62
           7
100
AcDbCircle
 10
-14001.634862782003
 20
-9348.690367320218
 30
0.0
 40
1.5
100
AcDbArc
 50
356.087999999999
 51
86.088
  0
ARC
  5
33C
100
AcDbEntity
  8
Frei
  6
CONTINUOUS
 62
           7
100
AcDbCircle
 10
-14002.658226437183
 20
-9363.65541749819
 30
0.0
 40
1.5
100
AcDbArc
 50
266.088
 51
356.087999999999
  0
ARC
  5
33D
100
AcDbEntity
  8
Frei
  6
CONTINUOUS
 62
           7
100
AcDbCircle
 10
-14010.771781702788
 20
-9306.412581061806
 30
0.0
 40
2.0
100
AcDbArc
 50
356.087999999999
 51
84.088
  0
ARC
  5
33E
100
AcDbEntity
  8
Frei
  6
CONTINUOUS
 62
           7
100
AcDbCircle
 10
-14039.797516699657
 20
-9298.469735643968
 30
0.0
 40
1.0
100
AcDbArc
 50
356.087999999999
 51
86.088
  0
ARC
  5
33F
100
AcDbEntity
  8
Frei
  6
CONTINUOUS
 62
           7
100
AcDbCircle
 10
-14041.912468253697
 20
-9329.397506011777
 30
0.0
 40
1.0
100
AcDbArc
 50
266.087999999999
 51
356.087999999999
  0
ARC
  5
340
100
AcDbEntity
  8
Frei
  6
CONTINUOUS
 62
           7
100
AcDbCircle
 10
-14198.546660116484
 20
-9318.686299754223
 30
0.0
 40
1.0
100
AcDbArc
 50
176.088
 51
266.088
  0
ARC
  5
341
100
AcDbEntity
  8
Frei
  6
CONTINUOUS
 62
           7
100
AcDbCircle
 10
-14196.431708562444
 20
-9287.75852938641
 30
0.0
 40
1.0
100
AcDbArc
 50
86.088
 51
176.088
  0
LINE
  5
342
100
AcDbEntity
  8
Frei
  6
CONTINUOUS
 62
           7
100
AcDbLine
 10
-14451.841102966624
 20
-9271.669054546894
 30
0.0
 11
-14451.841102966626
 21
-9341.669054546894
 31
0.0
  0
LINE
  5
343
100
AcDbEntity
  8
Frei
  6
CONTINUOUS
 62
           7
100
AcDbLine
 10
-13933.952217966626
 20
-9341.669054546905
 30
0.0
 11
-13933.952217966624
 21
-9271.669054546905
 31
0.0
  0
LINE
  5
344
100
AcDbEntity
  8
Frei
  6
CONTINUOUS
 62
          15
100
AcDbLine
 10
-14260.770902697972
 20
-9271.669054546897
 30
0.0
 11
-14451.841102966624
 21
-9271.669054546894
 31
0.0
  0
LINE
  5
345
100
AcDbEntity
  8
Frei
  6
GESTRICHELT
 62
          15
100
AcDbLine
 10
-14223.579750484912
 20
-9271.669054546899
 30
0.0
 11
-14260.770902697972
 21
-9271.669054546897
 31
0.0
  0
LINE
  5
346
100
AcDbEntity
  8
Frei
  6
CONTINUOUS
 62
          15
100
AcDbLine
 10
-13933.952155966625
 20
-9271.669054546905
 30
0.0
 11
-14223.579750484914
 21
-9271.669054546899
 31
0.0
  0
LINE
  5
347
100
AcDbEntity
  8
Frei
  6
CONTINUOUS
 62
          15
100
AcDbLine
 10
-14253.242080861246
 20
-9341.669054546899
 30
0.0
 11
-14451.841102966626
 21
-9341.669054546894
 31
0.0
  0
LINE
  5
348
100
AcDbEntity
  8
Frei
  6
GESTRICHELT
 62
          15
100
AcDbLine
 10
-14203.125309378322
 20
-9341.669054546899
 30
0.0
 11
-14253.242080861246
 21
-9341.669054546899
 31
0.0
  0
LINE
  5
349
100
AcDbEntity
  8
Frei
  6
CONTINUOUS
 62
          15
100
AcDbLine
 10
-14039.744634343982
 20
-9341.669054546903
 30
0.0
 11
-14203.125309378322
 21
-9341.669054546899
 31
0.0
  0
LINE
  5
34A
100
AcDbEntity
  8
Frei
  6
GESTRICHELT
 62
          15
100
AcDbLine
 10
-14011.679242313543
 20
-9341.669054546903
 30
0.0
 11
-14039.744634343982
 21
-9341.669054546903
 31
0.0
  0
LINE
  5
34B
100
AcDbEntity
  8
Frei
  6
CONTINUOUS
 62
          15
100
AcDbLine
 10
-13984.115772291898
 20
-9341.669054546903
 30
0.0
 11
-14011.679242313543
 21
-9341.669054546903
 31
0.0
  0
LINE
  5
34C
100
AcDbEntity
  8
Frei
  6
GESTRICHELT
 62
          15
100
AcDbLine
 10
-13977.312190662275
 20
-9341.669054546903
 30
0.0
 11
-13984.115772291898
 21
-9341.669054546903
 31
0.0
  0
LINE
  5
34D
100
AcDbEntity
  8
Frei
  6
CONTINUOUS
 62
          15
100
AcDbLine
 10
-13933.952155966626
 20
-9341.669054546905
 30
0.0
 11
-13977.312190662275
 21
-9341.669054546903
 31
0.0
  0
TEXT
  5
34E
100
AcDbEntity
  8
FREI
  6
CONTINUOUS
 62
          15
100
AcDbText
 10
-14566.773312694435
 20
-9419.535058231726
 30
0.0
 40
3.527777671814
  1
180-701
 41
0.899999979725
  7
GOTHICG
100
AcDbText
  0
ENDSEC
  0
SECTION
  2
OBJECTS
  0
DICTIONARY
  5
19
100
AcDbDictionary
  3
ACAD_GROUP
350
1A
  3
ACAD_MLINESTYLE
350
1B
  0
DICTIONARY
  5
1A
102
{ACAD_REACTORS
330
19
102
}
100
AcDbDictionary
  0
DICTIONARY
  5
1B
102
{ACAD_REACTORS
330
19
102
}
100
AcDbDictionary
  3
STANDARD
350
1C
  0
MLINESTYLE
  5
1C
102
{ACAD_REACTORS
330
1B
102
}
100
AcDbMlineStyle
  2
STANDARD
 70
           0
  3

 62
           0
 51
90.0
 52
90.0
 71
           2
 49
0.5
 62
         256
  6
BYLAYER
 49
-0.5
 62
         256
  6
BYLAYER
  0
ENDSEC
  0
EOF
