  0
SECTION
  2
HEADER
  9
$ACADVER
  1
AC1012
  9
$DWGCODEPAGE
  3
dos850
  9
$INSBASE
 10
0.0
 20
0.0
 30
0.0
  9
$EXTMIN
 10
-14631.553828619815
 20
-10227.996729551207
 30
0.0
  9
$EXTMAX
 10
-13913.010020892905
 20
-9813.861330279204
 30
0.0
  9
$LIMMIN
 10
-14631.553828619815
 20
-10227.996729551207
  9
$LIMMAX
 10
-13913.010020892905
 20
-9813.861330279204
  9
$ORTHOMODE
 70
           0
  9
$REGENMODE
 70
           1
  9
$FILLMODE
 70
           1
  9
$QTEXTMODE
 70
           0
  9
$MIRRTEXT
 70
           1
  9
$DRAGMODE
 70
           2
  9
$LTSCALE
 40
5.0
  9
$OSMODE
 70
           0
  9
$ATTMODE
 70
           1
  9
$TEXTSIZE
 40
0.2
  9
$TRACEWID
 40
0.05
  9
$TEXTSTYLE
  7
TXT
  9
$CLAYER
  8
0
  9
$CELTYPE
  6
CONTINUOUS
  9
$CECOLOR
 62
         256
  9
$CELTSCALE
 40
1.0
  9
$DELOBJ
 70
           1
  9
$DISPSILH
 70
           0
  9
$DIMSCALE
 40
1.0
  9
$DIMASZ
 40
3.5
  9
$DIMEXO
 40
0.0625
  9
$DIMDLI
 40
0.38
  9
$DIMRND
 40
0.0
  9
$DIMDLE
 40
0.0
  9
$DIMEXE
 40
0.18
  9
$DIMTP
 40
0.0
  9
$DIMTM
 40
0.0
  9
$DIMTXT
 40
3.5
  9
$DIMCEN
 40
0.09
  9
$DIMTSZ
 40
0.0
  9
$DIMTOL
 70
           0
  9
$DIMLIM
 70
           0
  9
$DIMTIH
 70
           1
  9
$DIMTOH
 70
           1
  9
$DIMSE1
 70
           0
  9
$DIMSE2
 70
           0
  9
$DIMTAD
 70
           0
  9
$DIMZIN
 70
           0
  9
$DIMBLK
  1

  9
$DIMASO
 70
           1
  9
$DIMSHO
 70
           1
  9
$DIMPOST
  1

  9
$DIMAPOST
  1

  9
$DIMALT
 70
           0
  9
$DIMALTD
 70
           2
  9
$DIMALTF
 40
25.4
  9
$DIMLFAC
 40
1.0
  9
$DIMTOFL
 70
           0
  9
$DIMTVP
 40
0.0
  9
$DIMTIX
 70
           0
  9
$DIMSOXD
 70
           0
  9
$DIMSAH
 70
           0
  9
$DIMBLK1
  1

  9
$DIMBLK2
  1

  9
$DIMSTYLE
  2
STANDARD
  9
$DIMCLRD
 70
           0
  9
$DIMCLRE
 70
           0
  9
$DIMCLRT
 70
           0
  9
$DIMTFAC
 40
1.0
  9
$DIMGAP
 40
0.09
  9
$DIMJUST
 70
           0
  9
$DIMSD1
 70
           0
  9
$DIMSD2
 70
           0
  9
$DIMTOLJ
 70
           1
  9
$DIMTZIN
 70
           0
  9
$DIMALTZ
 70
           0
  9
$DIMALTTZ
 70
           0
  9
$DIMFIT
 70
           3
  9
$DIMUPT
 70
           0
  9
$DIMUNIT
 70
           2
  9
$DIMDEC
 70
           4
  9
$DIMTDEC
 70
           4
  9
$DIMALTU
 70
           2
  9
$DIMALTTD
 70
           2
  9
$DIMTXSTY
  7
TXT
  9
$DIMAUNIT
 70
           0
  9
$LUNITS
 70
           2
  9
$LUPREC
 70
           3
  9
$SKETCHINC
 40
0.1
  9
$FILLETRAD
 40
0.0
  9
$AUNITS
 70
           0
  9
$AUPREC
 70
           3
  9
$MENU
  1
acad
  9
$ELEVATION
 40
0.0
  9
$PELEVATION
 40
0.0
  9
$THICKNESS
 40
0.0
  9
$LIMCHECK
 70
           0
  9
$BLIPMODE
 70
           1
  9
$CHAMFERA
 40
0.0
  9
$CHAMFERB
 40
0.0
  9
$CHAMFERC
 40
0.0
  9
$CHAMFERD
 40
0.0
  9
$SKPOLY
 70
           0
  9
$TDCREATE
 40
0.000000000
  9
$TDUPDATE
 40
0.000000000
  9
$TDINDWG
 40
0.0000000000
  9
$TDUSRTIMER
 40
0.0000000000
  9
$USRTIMER
 70
           1
  9
$ANGBASE
 50
0.0
  9
$ANGDIR
 70
           0
  9
$PDMODE
 70
           2
  9
$PDSIZE
 40
0.5
  9
$PLINEWID
 40
0.0
  9
$COORDS
 70
           0
  9
$SPLFRAME
 70
           0
  9
$SPLINETYPE
 70
           6
  9
$SPLINESEGS
 70
           8
  9
$ATTDIA
 70
           0
  9
$ATTREQ
 70
           1
  9
$HANDLING
 70
           1
  9
$HANDSEED
  5
3A4
  9
$SURFTAB1
 70
           6
  9
$SURFTAB2
 70
           6
  9
$SURFTYPE
 70
           6
  9
$SURFU
 70
           6
  9
$SURFV
 70
           6
  9
$UCSNAME
  2

  9
$UCSORG
 10
0.0
 20
0.0
 30
0.0
  9
$UCSXDIR
 10
1.0
 20
0.0
 30
0.0
  9
$UCSYDIR
 10
0.0
 20
1.0
 30
0.0
  9
$PUCSNAME
  2

  9
$PUCSORG
 10
0.0
 20
0.0
 30
0.0
  9
$PUCSXDIR
 10
1.0
 20
0.0
 30
0.0
  9
$PUCSYDIR
 10
0.0
 20
1.0
 30
0.0
  9
$USERI1
 70
           0
  9
$USERI2
 70
           0
  9
$USERI3
 70
           0
  9
$USERI4
 70
           0
  9
$USERI5
 70
           0
  9
$USERR1
 40
0.0
  9
$USERR2
 40
0.0
  9
$USERR3
 40
0.0
  9
$USERR4
 40
0.0
  9
$USERR5
 40
0.0
  9
$WORLDVIEW
 70
           1
  9
$SHADEDGE
 70
           3
  9
$SHADEDIF
 70
          70
  9
$TILEMODE
 70
           1
  9
$MAXACTVP
 70
          16
  9
$PINSBASE
 10
0.0
 20
0.0
 30
0.0
  9
$PLIMCHECK
 70
           0
  9
$PEXTMIN
 10
1.000000000000E+20
 20
1.000000000000E+20
 30
1.000000000000E+20
  9
$PEXTMAX
 10
-1.000000000000E+20
 20
-1.000000000000E+20
 30
-1.000000000000E+20
  9
$PLIMMIN
 10
0.0
 20
0.0
  9
$PLIMMAX
 10
12.0
 20
9.0
  9
$UNITMODE
 70
           0
  9
$VISRETAIN
 70
           0
  9
$PLINEGEN
 70
           1
  9
$PSLTSCALE
 70
           0
  9
$TREEDEPTH
 70
        3020
  9
$PICKSTYLE
 70
           1
  9
$CMLSTYLE
  2
STANDARD
  9
$CMLJUST
 70
           0
  9
$CMLSCALE
 40
1.0
  9
$SAVEIMAGES
 70
           0
  0
ENDSEC
  0
SECTION
  2
CLASSES
  0
CLASS
  1
LWPOLYLINE
  2
AcDbPolyline
  3
"AutoCAD"
 90
        0
280
           0
281
           1
  0
CLASS
  1
IMAGE
  2
AcDbRasterImage
  3
ISM
 90
      127
280
           0
281
           1
  0
CLASS
  1
OLE2FRAME
  2
AcDbOle2Frame
  3
""
 90
        0
280
           0
281
           1
  0
CLASS
  1
HATCH
  2
AcDbHatch
  3
"ACAD_SEDONA"
 90
        0
280
           0
281
           1
  0
CLASS
  1
DICTIONARYVAR
  2
AcDbDictionaryVar
  3
"AutoCAD"
 90
        0
280
           0
281
           0
  0
CLASS
  1
RASTERVARIABLES
  2
AcDbRasterVariables
  3
ISM
 90
        0
280
           0
281
           0
  0
CLASS
  1
IMAGEDEF
  2
AcDbRasterImageDef
  3
ISM
 90
        0
280
           0
281
           0
  0
CLASS
  1
IMAGEDEF_REACTOR
  2
AcDbRasterImageDefReactor
  3
ISM
 90
        1
280
           0
281
           0
  0
CLASS
  1
IDBUFFER
  2
AcDbIdBuffer
  3
"Acad"
 90
        0
280
           0
281
           0
  0
CLASS
  1
SPATIAL_FILTER
  2
AcDbSpatialFilter
  3
"Acad"
 90
        0
280
           0
281
           0
  0
CLASS
  1
XRECORD
  2
AcDbXrecord
  3
"<Built In>"
 90
        0
280
           0
281
           0
  0
ENDSEC
  0
SECTION
  2
TABLES
  0
TABLE
  2
VPORT
  5
7
100
AcDbSymbolTable
 70
           1
  0
VPORT
  5
15
100
AcDbSymbolTableRecord
100
AcDbViewportTableRecord
  2
*ACTIVE
 70
           0
 10
0.0
 20
0.0
 11
1.0
 21
1.0
 12
6.591288
 22
4.579184
 13
0.0
 23
0.0
 14
1.0
 24
1.0
 15
0.0
 25
0.0
 16
0.0
 26
0.0
 36
1.0
 17
0.0
 27
0.0
 37
0.0
 40
9.158369
 41
0.688564
 42
50.0
 43
0.0
 44
0.0
 50
0.0
 51
0.0
 71
           0
 72
         100
 73
           1
 74
           1
 75
           0
 76
           0
 77
           0
 78
           0
  0
ENDTAB
  0
TABLE
  2
LTYPE
  5
4
100
AcDbSymbolTable
 70
           5
  0
LTYPE
  5
11
100
AcDbSymbolTableRecord
100
AcDbLinetypeTableRecord
  2
BYBLOCK
 70
           0
  3

 72
          65
 73
           0
 40
0.0
  0
LTYPE
  5
12
100
AcDbSymbolTableRecord
100
AcDbLinetypeTableRecord
  2
BYLAYER
 70
           0
  3

 72
          65
 73
           0
 40
0.0
  0
LTYPE
  5
13
100
AcDbSymbolTableRecord
100
AcDbLinetypeTableRecord
  2
CONTINUOUS
 70
           0
  3
Solid line
 72
          65
 73
           0
 40
0.0
  0
LTYPE
  5
1D
100
AcDbSymbolTableRecord
100
AcDbLinetypeTableRecord
  2
GESTRICHELT
 70
           0
  3

 72
          65
 73
           2
 40
0.75
 49
0.5
 74
           0
 49
-0.25
 74
           0
  0
LTYPE
  5
1E
100
AcDbSymbolTableRecord
100
AcDbLinetypeTableRecord
  2
STRICHPUNKT
 70
           0
  3

 72
          65
 73
           4
 40
1.0
 49
0.5
 74
           0
 49
-0.25
 74
           0
 49
0.0
 74
           0
 49
-0.25
 74
           0
  0
ENDTAB
  0
TABLE
  2
LAYER
  5
2
100
AcDbSymbolTable
 70
           3
  0
LAYER
  5
14
100
AcDbSymbolTableRecord
100
AcDbLayerTableRecord
  2
0
 70
           0
 62
           7
  6
CONTINUOUS
  0
LAYER
  5
20
100
AcDbSymbolTableRecord
100
AcDbLayerTableRecord
  2
FREI
 70
           0
 62
           7
  6
CONTINUOUS
  0
LAYER
  5
21
100
AcDbSymbolTableRecord
100
AcDbLayerTableRecord
  2
Frei
 70
           0
 62
           7
  6
CONTINUOUS
  0
ENDTAB
  0
TABLE
  2
STYLE
  5
3
100
AcDbSymbolTable
 70
           2
  0
STYLE
  5
17
100
AcDbSymbolTableRecord
100
AcDbTextStyleTableRecord
  2
TXT
 70
           0
 40
3.5
 41
1.0
 50
0.0
 71
           0
 42
3.5
  3
TXT
  4

  0
STYLE
  5
1F
100
AcDbSymbolTableRecord
100
AcDbTextStyleTableRecord
  2
GOTHICG
 70
           0
 40
3.5
 41
1.0
 50
0.0
 71
           0
 42
3.5
  3
GOTHICG
  4

  0
ENDTAB
  0
TABLE
  2
VIEW
  5
5
100
AcDbSymbolTable
 70
           0
  0
ENDTAB
  0
TABLE
  2
UCS
  5
6
100
AcDbSymbolTable
 70
           0
  0
ENDTAB
  0
TABLE
  2
APPID
  5
8
100
AcDbSymbolTable
 70
           2
  0
APPID
  5
16
100
AcDbSymbolTableRecord
100
AcDbRegAppTableRecord
  2
ACAD
 70
           0
  0
APPID
  5
22
100
AcDbSymbolTableRecord
100
AcDbRegAppTableRecord
  2
MegaCADPntStyle
 70
           0
  0
ENDTAB
  0
TABLE
  2
DIMSTYLE
  5
9
100
AcDbSymbolTable
 70
           1
  0
DIMSTYLE
105
18
100
AcDbSymbolTableRecord
100
AcDbDimStyleTableRecord
  2
STANDARD
 70
           0
  3

  4

  5

  6

  7

 40
1.0
 41
0.18
 42
0.0625
 43
0.38
 44
0.18
 45
0.0
 46
0.0
 47
0.0
 48
0.0
140
0.18
141
0.09
142
0.0
143
25.4
144
1.0
145
0.0
146
1.0
147
0.09
 71
           0
 72
           0
 73
           1
 74
           1
 75
           0
 76
           0
 77
           0
 78
           0
170
           0
171
           2
172
           0
173
           0
174
           0
175
           0
176
           0
177
           0
178
           0
270
           2
271
           4
272
           4
273
           2
274
           2
340
17
275
           0
280
           0
281
           0
282
           0
283
           1
284
           0
285
           0
286
           0
287
           0
288
           0
  0
ENDTAB
  0
TABLE
  2
BLOCK_RECORD
  5
1
100
AcDbSymbolTable
 70
           3
  0
BLOCK_RECORD
  5
A
100
AcDbSymbolTableRecord
100
AcDbBlockTableRecord
  2
*MODEL_SPACE
  0
BLOCK_RECORD
  5
B
100
AcDbSymbolTableRecord
100
AcDbBlockTableRecord
  2
*PAPER_SPACE
  0
BLOCK_RECORD
  5
23
100
AcDbSymbolTableRecord
100
AcDbBlockTableRecord
  2
ELIPPSE
  0
BLOCK_RECORD
  5
24
100
AcDbSymbolTableRecord
100
AcDbBlockTableRecord
  2
MAK1
  0
BLOCK_RECORD
  5
25
100
AcDbSymbolTableRecord
100
AcDbBlockTableRecord
  2
MAK2
  0
ENDTAB
  0
ENDSEC
  0
SECTION
  2
BLOCKS
  0
BLOCK
  5
D
100
AcDbEntity
  8
0
100
AcDbBlockBegin
  2
*MODEL_SPACE
 70
           0
 10
0.0
 20
0.0
 30
0.0
  3
*MODEL_SPACE
  1

  0
ENDBLK
  5
E
100
AcDbEntity
  8
0
100
AcDbBlockEnd
  0
BLOCK
  5
F
100
AcDbEntity
 67
           1
  8
0
100
AcDbBlockBegin
  2
*PAPER_SPACE
 70
           0
 10
0.0
 20
0.0
 30
0.0
  3
*PAPER_SPACE
  1

  0
ENDBLK
  5
10
100
AcDbEntity
 67
           1
  8
0
100
AcDbBlockEnd
  0
BLOCK
  5
348
100
AcDbEntity
  8
0
100
AcDbBlockBegin
  2
ELIPPSE
 70
          64
 10
0.0
 20
0.0
 30
0.0
  3
ELIPPSE
  1

  0
CIRCLE
  5
349
100
AcDbEntity
  8
0
  6
BYBLOCK
 62
           0
100
AcDbCircle
 10
0.0
 20
0.0
 30
0.0
 40
1.0
  0
ENDBLK
  5
34A
100
AcDbEntity
  8
0
  6
BYBLOCK
 62
           0
100
AcDbBlockEnd
  0
BLOCK
  5
34B
100
AcDbEntity
  8
0
100
AcDbBlockBegin
  2
MAK1
 70
          64
 10
0.0
 20
0.0
 30
0.0
  3
MAK1
  1

  0
LINE
  5
34C
100
AcDbEntity
  8
Frei
  6
CONTINUOUS
 62
           2
100
AcDbLine
 10
191.903508353415
 20
615.106916893559
 30
0.0
 11
192.293358480831
 21
615.496767020979
 31
0.0
  0
LINE
  5
34D
100
AcDbEntity
  8
Frei
  6
CONTINUOUS
 62
           2
100
AcDbLine
 10
191.903508353415
 20
614.04625672178
 30
0.0
 11
193.354018652612
 21
615.496767020977
 31
0.0
  0
LINE
  5
34E
100
AcDbEntity
  8
Frei
  6
CONTINUOUS
 62
           2
100
AcDbLine
 10
191.903508353415
 20
612.985596549999
 30
0.0
 11
193.903508353415
 21
614.985596549999
 31
0.0
  0
LINE
  5
34F
100
AcDbEntity
  8
Frei
  6
CONTINUOUS
 62
           2
100
AcDbLine
 10
191.903508353415
 20
611.92493637822
 30
0.0
 11
193.903508353415
 21
613.92493637822
 31
0.0
  0
LINE
  5
350
100
AcDbEntity
  8
Frei
  6
CONTINUOUS
 62
           2
100
AcDbLine
 10
191.903508353415
 20
610.864276206441
 30
0.0
 11
193.903508353413
 21
612.864276206439
 31
0.0
  0
LINE
  5
351
100
AcDbEntity
  8
Frei
  6
CONTINUOUS
 62
           2
100
AcDbLine
 10
191.903508353415
 20
609.803616034662
 30
0.0
 11
193.903508353416
 21
611.80361603466
 31
0.0
  0
LINE
  5
352
100
AcDbEntity
  8
Frei
  6
CONTINUOUS
 62
           2
100
AcDbLine
 10
191.903508353415
 20
608.742955862881
 30
0.0
 11
193.903508353415
 21
610.742955862881
 31
0.0
  0
LINE
  5
353
100
AcDbEntity
  8
Frei
  6
CONTINUOUS
 62
           2
100
AcDbLine
 10
191.903508353415
 20
607.682295691102
 30
0.0
 11
193.903508353415
 21
609.6822956911
 31
0.0
  0
LINE
  5
354
100
AcDbEntity
  8
Frei
  6
CONTINUOUS
 62
           2
100
AcDbLine
 10
191.903508353415
 20
606.621635519321
 30
0.0
 11
193.903508353413
 21
608.621635519319
 31
0.0
  0
LINE
  5
355
100
AcDbEntity
  8
Frei
  6
CONTINUOUS
 62
           2
100
AcDbLine
 10
191.903508353415
 20
605.560975347542
 30
0.0
 11
193.903508353416
 21
607.560975347542
 31
0.0
  0
LINE
  5
356
100
AcDbEntity
  8
Frei
  6
CONTINUOUS
 62
           2
100
AcDbLine
 10
191.903508353415
 20
604.500315175761
 30
0.0
 11
193.903508353416
 21
606.500315175763
 31
0.0
  0
LINE
  5
357
100
AcDbEntity
  8
Frei
  6
CONTINUOUS
 62
           2
100
AcDbLine
 10
191.903508353415
 20
603.439655003982
 30
0.0
 11
193.903508353415
 21
605.439655003982
 31
0.0
  0
LINE
  5
358
100
AcDbEntity
  8
Frei
  6
CONTINUOUS
 62
           2
100
AcDbLine
 10
191.903508353415
 20
602.378994832203
 30
0.0
 11
193.903508353415
 21
604.378994832203
 31
0.0
  0
LINE
  5
359
100
AcDbEntity
  8
Frei
  6
CONTINUOUS
 62
           2
100
AcDbLine
 10
191.903508353415
 20
601.318334660422
 30
0.0
 11
193.903508353416
 21
603.318334660422
 31
0.0
  0
LINE
  5
35A
100
AcDbEntity
  8
Frei
  6
CONTINUOUS
 62
           2
100
AcDbLine
 10
191.903508353415
 20
600.257674488643
 30
0.0
 11
193.903508353416
 21
602.257674488643
 31
0.0
  0
LINE
  5
35B
100
AcDbEntity
  8
Frei
  6
CONTINUOUS
 62
           2
100
AcDbLine
 10
191.903508353415
 20
599.197014316862
 30
0.0
 11
193.903508353415
 21
601.197014316864
 31
0.0
  0
LINE
  5
35C
100
AcDbEntity
  8
Frei
  6
CONTINUOUS
 62
           2
100
AcDbLine
 10
191.903508353413
 20
598.136354145083
 30
0.0
 11
193.903508353415
 21
600.136354145083
 31
0.0
  0
LINE
  5
35D
100
AcDbEntity
  8
Frei
  6
CONTINUOUS
 62
           2
100
AcDbLine
 10
191.903508353415
 20
597.075693973304
 30
0.0
 11
193.903508353415
 21
599.075693973304
 31
0.0
  0
LINE
  5
35E
100
AcDbEntity
  8
Frei
  6
CONTINUOUS
 62
           2
100
AcDbLine
 10
191.903508353415
 20
596.015033801525
 30
0.0
 11
193.903508353416
 21
598.015033801523
 31
0.0
  0
LINE
  5
35F
100
AcDbEntity
  8
Frei
  6
CONTINUOUS
 62
           2
100
AcDbLine
 10
192.445901744648
 20
595.496767020979
 30
0.0
 11
193.903508353415
 21
596.954373629744
 31
0.0
  0
LINE
  5
360
100
AcDbEntity
  8
Frei
  6
CONTINUOUS
 62
           2
100
AcDbLine
 10
193.506561916425
 20
595.496767020977
 30
0.0
 11
193.903508353415
 21
595.893713457963
 31
0.0
  0
LINE
  5
361
100
AcDbEntity
  8
Frei
  6
CONTINUOUS
 62
           2
100
AcDbLine
 10
192.573740611433
 20
595.496767020979
 30
0.0
 11
191.903508353415
 21
596.166999278998
 31
0.0
  0
LINE
  5
362
100
AcDbEntity
  8
Frei
  6
CONTINUOUS
 62
           2
100
AcDbLine
 10
193.63440078321
 20
595.496767020977
 30
0.0
 11
191.903508353415
 21
597.227659450777
 31
0.0
  0
LINE
  5
363
100
AcDbEntity
  8
Frei
  6
CONTINUOUS
 62
           2
100
AcDbLine
 10
193.903508353416
 20
596.288319622556
 30
0.0
 11
191.903508353415
 21
598.288319622556
 31
0.0
  0
LINE
  5
364
100
AcDbEntity
  8
Frei
  6
CONTINUOUS
 62
           2
100
AcDbLine
 10
193.903508353415
 20
597.348979794337
 30
0.0
 11
191.903508353415
 21
599.348979794337
 31
0.0
  0
LINE
  5
365
100
AcDbEntity
  8
Frei
  6
CONTINUOUS
 62
           2
100
AcDbLine
 10
193.903508353415
 20
598.409639966116
 30
0.0
 11
191.903508353415
 21
600.409639966114
 31
0.0
  0
LINE
  5
366
100
AcDbEntity
  8
Frei
  6
CONTINUOUS
 62
           2
100
AcDbLine
 10
193.903508353415
 20
599.470300137895
 30
0.0
 11
191.903508353415
 21
601.470300137895
 31
0.0
  0
LINE
  5
367
100
AcDbEntity
  8
Frei
  6
CONTINUOUS
 62
           2
100
AcDbLine
 10
193.903508353416
 20
600.530960309674
 30
0.0
 11
191.903508353415
 21
602.530960309674
 31
0.0
  0
LINE
  5
368
100
AcDbEntity
  8
Frei
  6
CONTINUOUS
 62
           2
100
AcDbLine
 10
193.903508353415
 20
601.591620481455
 30
0.0
 11
191.903508353416
 21
603.591620481455
 31
0.0
  0
LINE
  5
369
100
AcDbEntity
  8
Frei
  6
CONTINUOUS
 62
           2
100
AcDbLine
 10
193.903508353415
 20
602.652280653234
 30
0.0
 11
191.903508353415
 21
604.652280653236
 31
0.0
  0
LINE
  5
36A
100
AcDbEntity
  8
Frei
  6
CONTINUOUS
 62
           2
100
AcDbLine
 10
193.903508353415
 20
603.712940825017
 30
0.0
 11
191.903508353415
 21
605.712940825017
 31
0.0
  0
LINE
  5
36B
100
AcDbEntity
  8
Frei
  6
CONTINUOUS
 62
           2
100
AcDbLine
 10
193.903508353415
 20
604.773600996796
 30
0.0
 11
191.903508353415
 21
606.773600996794
 31
0.0
  0
LINE
  5
36C
100
AcDbEntity
  8
Frei
  6
CONTINUOUS
 62
           2
100
AcDbLine
 10
193.903508353415
 20
605.834261168575
 30
0.0
 11
191.903508353416
 21
607.834261168573
 31
0.0
  0
LINE
  5
36D
100
AcDbEntity
  8
Frei
  6
CONTINUOUS
 62
           2
100
AcDbLine
 10
193.903508353415
 20
606.894921340354
 30
0.0
 11
191.903508353415
 21
608.894921340354
 31
0.0
  0
LINE
  5
36E
100
AcDbEntity
  8
Frei
  6
CONTINUOUS
 62
           2
100
AcDbLine
 10
193.903508353415
 20
607.955581512135
 30
0.0
 11
191.903508353415
 21
609.955581512133
 31
0.0
  0
LINE
  5
36F
100
AcDbEntity
  8
Frei
  6
CONTINUOUS
 62
           2
100
AcDbLine
 10
193.903508353415
 20
609.016241683914
 30
0.0
 11
191.903508353415
 21
611.016241683914
 31
0.0
  0
LINE
  5
370
100
AcDbEntity
  8
Frei
  6
CONTINUOUS
 62
           2
100
AcDbLine
 10
193.903508353415
 20
610.076901855693
 30
0.0
 11
191.903508353416
 21
612.076901855693
 31
0.0
  0
LINE
  5
371
100
AcDbEntity
  8
Frei
  6
CONTINUOUS
 62
           2
100
AcDbLine
 10
193.903508353415
 20
611.137562027474
 30
0.0
 11
191.903508353415
 21
613.137562027472
 31
0.0
  0
LINE
  5
372
100
AcDbEntity
  8
Frei
  6
CONTINUOUS
 62
           2
100
AcDbLine
 10
193.903508353415
 20
612.198222199251
 30
0.0
 11
191.903508353415
 21
614.198222199253
 31
0.0
  0
LINE
  5
373
100
AcDbEntity
  8
Frei
  6
CONTINUOUS
 62
           2
100
AcDbLine
 10
193.903508353415
 20
613.258882371032
 30
0.0
 11
191.903508353415
 21
615.258882371032
 31
0.0
  0
LINE
  5
374
100
AcDbEntity
  8
Frei
  6
CONTINUOUS
 62
           2
100
AcDbLine
 10
193.903508353415
 20
614.319542542811
 30
0.0
 11
192.726283875249
 21
615.496767020979
 31
0.0
  0
LINE
  5
375
100
AcDbEntity
  8
Frei
  6
CONTINUOUS
 62
           2
100
AcDbLine
 10
193.903508353415
 20
615.380202714592
 30
0.0
 11
193.786944047028
 21
615.496767020979
 31
0.0
  0
ENDBLK
  5
376
100
AcDbEntity
  8
0
  6
BYBLOCK
 62
           0
100
AcDbBlockEnd
  0
BLOCK
  5
377
100
AcDbEntity
  8
0
100
AcDbBlockBegin
  2
MAK2
 70
          64
 10
0.0
 20
0.0
 30
0.0
  3
MAK2
  1

  0
LINE
  5
378
100
AcDbEntity
  8
Frei
  6
CONTINUOUS
 62
           2
100
AcDbLine
 10
-32.096491646587
 20
614.906213139102
 30
0.0
 11
-31.50593776471
 21
615.496767020979
 31
0.0
  0
LINE
  5
379
100
AcDbEntity
  8
Frei
  6
CONTINUOUS
 62
           2
100
AcDbLine
 10
-32.096491646587
 20
613.845552967323
 30
0.0
 11
-30.445277592931
 21
615.496767020979
 31
0.0
  0
LINE
  5
37A
100
AcDbEntity
  8
Frei
  6
CONTINUOUS
 62
           2
100
AcDbLine
 10
-32.096491646587
 20
612.78489279554
 30
0.0
 11
-30.096491646587
 21
614.784892795542
 31
0.0
  0
LINE
  5
37B
100
AcDbEntity
  8
Frei
  6
CONTINUOUS
 62
           2
100
AcDbLine
 10
-32.096491646585
 20
611.724232623761
 30
0.0
 11
-30.096491646587
 21
613.724232623763
 31
0.0
  0
LINE
  5
37C
100
AcDbEntity
  8
Frei
  6
CONTINUOUS
 62
           2
100
AcDbLine
 10
-32.096491646587
 20
610.663572451982
 30
0.0
 11
-30.096491646587
 21
612.663572451982
 31
0.0
  0
LINE
  5
37D
100
AcDbEntity
  8
Frei
  6
CONTINUOUS
 62
           2
100
AcDbLine
 10
-32.096491646587
 20
609.602912280203
 30
0.0
 11
-30.096491646587
 21
611.602912280203
 31
0.0
  0
LINE
  5
37E
100
AcDbEntity
  8
Frei
  6
CONTINUOUS
 62
           2
100
AcDbLine
 10
-32.096491646587
 20
608.542252108422
 30
0.0
 11
-30.096491646587
 21
610.542252108424
 31
0.0
  0
LINE
  5
37F
100
AcDbEntity
  8
Frei
  6
CONTINUOUS
 62
           2
100
AcDbLine
 10
-32.096491646585
 20
607.481591936643
 30
0.0
 11
-30.096491646587
 21
609.481591936645
 31
0.0
  0
LINE
  5
380
100
AcDbEntity
  8
Frei
  6
CONTINUOUS
 62
           2
100
AcDbLine
 10
-32.096491646587
 20
606.420931764864
 30
0.0
 11
-30.096491646587
 21
608.420931764864
 31
0.0
  0
LINE
  5
381
100
AcDbEntity
  8
Frei
  6
CONTINUOUS
 62
           2
100
AcDbLine
 10
-32.096491646587
 20
605.360271593085
 30
0.0
 11
-30.096491646587
 21
607.360271593083
 31
0.0
  0
LINE
  5
382
100
AcDbEntity
  8
Frei
  6
CONTINUOUS
 62
           2
100
AcDbLine
 10
-32.096491646587
 20
604.299611421304
 30
0.0
 11
-30.096491646587
 21
606.299611421304
 31
0.0
  0
LINE
  5
383
100
AcDbEntity
  8
Frei
  6
CONTINUOUS
 62
           2
100
AcDbLine
 10
-32.096491646585
 20
603.238951249525
 30
0.0
 11
-30.096491646587
 21
605.238951249523
 31
0.0
  0
LINE
  5
384
100
AcDbEntity
  8
Frei
  6
CONTINUOUS
 62
           2
100
AcDbLine
 10
-32.096491646587
 20
602.178291077744
 30
0.0
 11
-30.096491646587
 21
604.178291077742
 31
0.0
  0
LINE
  5
385
100
AcDbEntity
  8
Frei
  6
CONTINUOUS
 62
           2
100
AcDbLine
 10
-32.096491646587
 20
601.117630905965
 30
0.0
 11
-30.096491646587
 21
603.117630905965
 31
0.0
  0
LINE
  5
386
100
AcDbEntity
  8
Frei
  6
CONTINUOUS
 62
           2
100
AcDbLine
 10
-32.096491646587
 20
600.056970734184
 30
0.0
 11
-30.096491646587
 21
602.056970734186
 31
0.0
  0
LINE
  5
387
100
AcDbEntity
  8
Frei
  6
CONTINUOUS
 62
           2
100
AcDbLine
 10
-32.096491646585
 20
598.996310562405
 30
0.0
 11
-30.096491646587
 21
600.996310562405
 31
0.0
  0
LINE
  5
388
100
AcDbEntity
  8
Frei
  6
CONTINUOUS
 62
           2
100
AcDbLine
 10
-32.096491646587
 20
597.935650390626
 30
0.0
 11
-30.096491646587
 21
599.935650390626
 31
0.0
  0
LINE
  5
389
100
AcDbEntity
  8
Frei
  6
CONTINUOUS
 62
           2
100
AcDbLine
 10
-32.096491646587
 20
596.874990218845
 30
0.0
 11
-30.096491646587
 21
598.874990218847
 31
0.0
  0
LINE
  5
38A
100
AcDbEntity
  8
Frei
  6
CONTINUOUS
 62
           2
100
AcDbLine
 10
-32.096491646587
 20
595.814330047066
 30
0.0
 11
-30.096491646587
 21
597.814330047066
 31
0.0
  0
LINE
  5
38B
100
AcDbEntity
  8
Frei
  6
CONTINUOUS
 62
           2
100
AcDbLine
 10
-31.353394500895
 20
595.496767020979
 30
0.0
 11
-30.096491646587
 21
596.753669875287
 31
0.0
  0
LINE
  5
38C
100
AcDbEntity
  8
Frei
  6
CONTINUOUS
 62
           2
100
AcDbLine
 10
-30.292734329112
 20
595.496767020979
 30
0.0
 11
-30.096491646587
 21
595.693009703506
 31
0.0
  0
LINE
  5
38D
100
AcDbEntity
  8
Frei
  6
CONTINUOUS
 62
           2
100
AcDbLine
 10
-31.225555634112
 20
595.496767020977
 30
0.0
 11
-32.096491646587
 21
596.367703033455
 31
0.0
  0
LINE
  5
38E
100
AcDbEntity
  8
Frei
  6
CONTINUOUS
 62
           2
100
AcDbLine
 10
-30.164895462331
 20
595.496767020979
 30
0.0
 11
-32.096491646585
 21
597.428363205234
 31
0.0
  0
LINE
  5
38F
100
AcDbEntity
  8
Frei
  6
CONTINUOUS
 62
           2
100
AcDbLine
 10
-30.096491646585
 20
596.489023377015
 30
0.0
 11
-32.096491646589
 21
598.489023377013
 31
0.0
  0
LINE
  5
390
100
AcDbEntity
  8
Frei
  6
CONTINUOUS
 62
           2
100
AcDbLine
 10
-30.096491646587
 20
597.549683548792
 30
0.0
 11
-32.096491646587
 21
599.549683548794
 31
0.0
  0
LINE
  5
391
100
AcDbEntity
  8
Frei
  6
CONTINUOUS
 62
           2
100
AcDbLine
 10
-30.096491646587
 20
598.610343720573
 30
0.0
 11
-32.096491646587
 21
600.610343720573
 31
0.0
  0
LINE
  5
392
100
AcDbEntity
  8
Frei
  6
CONTINUOUS
 62
           2
100
AcDbLine
 10
-30.096491646587
 20
599.671003892352
 30
0.0
 11
-32.096491646585
 21
601.671003892352
 31
0.0
  0
LINE
  5
393
100
AcDbEntity
  8
Frei
  6
CONTINUOUS
 62
           2
100
AcDbLine
 10
-30.096491646585
 20
600.731664064133
 30
0.0
 11
-32.096491646589
 21
602.731664064133
 31
0.0
  0
LINE
  5
394
100
AcDbEntity
  8
Frei
  6
CONTINUOUS
 62
           2
100
AcDbLine
 10
-30.096491646587
 20
601.792324235912
 30
0.0
 11
-32.096491646587
 21
603.792324235914
 31
0.0
  0
LINE
  5
395
100
AcDbEntity
  8
Frei
  6
CONTINUOUS
 62
           2
100
AcDbLine
 10
-30.096491646587
 20
602.852984407695
 30
0.0
 11
-32.096491646587
 21
604.852984407693
 31
0.0
  0
LINE
  5
396
100
AcDbEntity
  8
Frei
  6
CONTINUOUS
 62
           2
100
AcDbLine
 10
-30.096491646587
 20
603.913644579472
 30
0.0
 11
-32.096491646585
 21
605.913644579472
 31
0.0
  0
LINE
  5
397
100
AcDbEntity
  8
Frei
  6
CONTINUOUS
 62
           2
100
AcDbLine
 10
-30.096491646585
 20
604.974304751253
 30
0.0
 11
-32.096491646587
 21
606.974304751253
 31
0.0
  0
LINE
  5
398
100
AcDbEntity
  8
Frei
  6
CONTINUOUS
 62
           2
100
AcDbLine
 10
-30.096491646587
 20
606.034964923032
 30
0.0
 11
-32.096491646587
 21
608.034964923032
 31
0.0
  0
LINE
  5
399
100
AcDbEntity
  8
Frei
  6
CONTINUOUS
 62
           2
100
AcDbLine
 10
-30.096491646587
 20
607.095625094813
 30
0.0
 11
-32.096491646587
 21
609.095625094813
 31
0.0
  0
LINE
  5
39A
100
AcDbEntity
  8
Frei
  6
CONTINUOUS
 62
           2
100
AcDbLine
 10
-30.096491646587
 20
608.156285266592
 30
0.0
 11
-32.096491646585
 21
610.156285266592
 31
0.0
  0
LINE
  5
39B
100
AcDbEntity
  8
Frei
  6
CONTINUOUS
 62
           2
100
AcDbLine
 10
-30.096491646585
 20
609.216945438371
 30
0.0
 11
-32.096491646587
 21
611.216945438369
 31
0.0
  0
LINE
  5
39C
100
AcDbEntity
  8
Frei
  6
CONTINUOUS
 62
           2
100
AcDbLine
 10
-30.096491646587
 20
610.27760561015
 30
0.0
 11
-32.096491646587
 21
612.27760561015
 31
0.0
  0
LINE
  5
39D
100
AcDbEntity
  8
Frei
  6
CONTINUOUS
 62
           2
100
AcDbLine
 10
-30.096491646587
 20
611.338265781929
 30
0.0
 11
-32.096491646587
 21
613.338265781931
 31
0.0
  0
LINE
  5
39E
100
AcDbEntity
  8
Frei
  6
CONTINUOUS
 62
           2
100
AcDbLine
 10
-30.096491646587
 20
612.39892595371
 30
0.0
 11
-32.096491646585
 21
614.39892595371
 31
0.0
  0
LINE
  5
39F
100
AcDbEntity
  8
Frei
  6
CONTINUOUS
 62
           2
100
AcDbLine
 10
-30.096491646585
 20
613.459586125489
 30
0.0
 11
-32.096491646587
 21
615.459586125489
 31
0.0
  0
LINE
  5
3A0
100
AcDbEntity
  8
Frei
  6
CONTINUOUS
 62
           2
100
AcDbLine
 10
-30.096491646587
 20
614.52024629727
 30
0.0
 11
-31.073012370294
 21
615.496767020977
 31
0.0
  0
ENDBLK
  5
3A1
100
AcDbEntity
  8
0
  6
BYBLOCK
 62
           0
100
AcDbBlockEnd
  0
ENDSEC
  0
SECTION
  2
ENTITIES
  0
INSERT
  5
26
100
AcDbEntity
  8
FREI
  6
CONTINUOUS
 62
           7
100
AcDbBlockReference
  2
MAK1
 10
-14220.186163237911
 20
-10612.746518686077
 30
0.0
 50
356.344999999999
  0
INSERT
  5
27
100
AcDbEntity
  8
FREI
  6
CONTINUOUS
 62
           7
100
AcDbBlockReference
  2
MAK2
 10
-14220.186163237911
 20
-10612.746518686077
 30
0.0
 50
356.344999999999
  0
LINE
  5
28
100
AcDbEntity
  8
FREI
  6
CONTINUOUS
 62
          15
100
AcDbLine
 10
-14355.923435979252
 20
-9813.861330279204
 30
0.0
 11
-14541.623222014021
 21
-9890.780700184587
 31
0.0
  0
LINE
  5
29
100
AcDbEntity
  8
FREI
  6
CONTINUOUS
 62
          15
100
AcDbLine
 10
-14423.898905892906
 20
-10174.992340785284
 30
0.0
 11
-14401.943769200763
 21
-10227.996729551207
 31
0.0
  0
LINE
  5
2A
100
AcDbEntity
  8
FREI
  6
CONTINUOUS
 62
          15
100
AcDbLine
 10
-14541.623222014021
 20
-9890.780700184587
 30
0.0
 11
-14532.679322022292
 21
-9912.373184845128
 31
0.0
  0
LINE
  5
2B
100
AcDbEntity
  8
FREI
  6
CONTINUOUS
 62
          15
100
AcDbLine
 10
-14401.943769200763
 20
-10227.996729551207
 30
0.0
 11
-14216.243983165994
 21
-10151.077359645824
 31
0.0
  0
LINE
  5
2C
100
AcDbEntity
  8
FREI
  6
CONTINUOUS
 62
          15
100
AcDbLine
 10
-14288.699776388929
 20
-9976.153600974514
 30
0.0
 11
-14355.923435979252
 21
-9813.861330279204
 31
0.0
  0
LINE
  5
2D
100
AcDbEntity
  8
FREI
  6
GESTRICHELT
 62
          15
100
AcDbLine
 10
-14255.562691399082
 20
-10056.153600974514
 30
0.0
 11
-14288.699776388929
 21
-9976.153600974514
 31
0.0
  0
LINE
  5
2E
100
AcDbEntity
  8
FREI
  6
CONTINUOUS
 62
          15
100
AcDbLine
 10
-14216.243983165994
 20
-10151.077359645824
 30
0.0
 11
-14255.562691399082
 21
-10056.153600974514
 31
0.0
  0
LINE
  5
2F
100
AcDbEntity
  8
FREI
  6
STRICHPUNKT
 62
          15
100
AcDbLine
 10
-14309.093876183379
 20
-10189.537044598517
 30
0.0
 11
-14448.773328996636
 21
-9852.321015231897
 31
0.0
  0
LINE
  5
30
100
AcDbEntity
  8
FREI
  6
STRICHPUNKT
 62
          15
100
AcDbLine
 10
-14423.898905892906
 20
-9912.373184845132
 30
0.0
 11
-14538.703935602432
 21
-10189.537044598514
 31
0.0
  0
LINE
  5
31
100
AcDbEntity
  8
FREI
  6
CONTINUOUS
 62
          15
100
AcDbLine
 10
-14532.679322022292
 20
-9912.373184845128
 30
0.0
 11
-14631.553828619815
 21
-10151.07735964582
 31
0.0
  0
LINE
  5
32
100
AcDbEntity
  8
FREI
  6
CONTINUOUS
 62
          15
100
AcDbLine
 10
-14423.898905892906
 20
-10174.992340785284
 30
0.0
 11
-14445.85404258505
 21
-10227.996729551207
 31
0.0
  0
LINE
  5
33
100
AcDbEntity
  8
FREI
  6
CONTINUOUS
 62
          15
100
AcDbLine
 10
-14315.118489763519
 20
-9912.373184845132
 30
0.0
 11
-14532.679322022292
 21
-9912.373184845128
 31
0.0
  0
LINE
  5
34
100
AcDbEntity
  8
FREI
  6
CONTINUOUS
 62
          15
100
AcDbLine
 10
-14631.553828619815
 20
-10151.07735964582
 30
0.0
 11
-14445.85404258505
 21
-10227.996729551207
 31
0.0
  0
LINE
  5
35
100
AcDbEntity
  8
FREI
  6
CONTINUOUS
 62
          15
100
AcDbLine
 10
-14423.898905892906
 20
-9976.153600974514
 30
0.0
 11
-14423.898905892906
 21
-9912.373184845132
 31
0.0
  0
LINE
  5
36
100
AcDbEntity
  8
FREI
  6
GESTRICHELT
 62
          15
100
AcDbLine
 10
-14423.898905892906
 20
-10011.153600974514
 30
0.0
 11
-14423.898905892906
 21
-9976.153600974514
 31
0.0
  0
LINE
  5
37
100
AcDbEntity
  8
FREI
  6
GESTRICHELT
 62
          15
100
AcDbLine
 10
-14423.898905892906
 20
-10056.153600974514
 30
0.0
 11
-14423.898905892906
 21
-10031.153600974514
 31
0.0
  0
LINE
  5
38
100
AcDbEntity
  8
FREI
  6
CONTINUOUS
 62
          15
100
AcDbLine
 10
-14423.898905892906
 20
-10174.992340785284
 30
0.0
 11
-14423.898905892906
 21
-10056.153600974514
 31
0.0
  0
CIRCLE
  5
39
100
AcDbEntity
  8
FREI
  6
CONTINUOUS
 62
          15
100
AcDbCircle
 10
-14423.898905892904
 20
-10021.153600974514
 30
0.0
 40
10.0
  0
CIRCLE
  5
3A
100
AcDbEntity
  8
Frei
  6
CONTINUOUS
 62
           7
100
AcDbCircle
 10
-13933.009958892904
 20
-10021.153600974514
 30
0.0
 40
6.25
  0
CIRCLE
  5
3B
100
AcDbEntity
  8
FREI
  6
CONTINUOUS
 62
          15
100
AcDbCircle
 10
-14358.303459084604
 20
-9993.983077276593
 30
0.0
 40
8.25
  0
ARC
  5
3C
100
AcDbEntity
  8
FREI
  6
CONTINUOUS
 62
          15
100
AcDbCircle
 10
-14423.898905892904
 20
-10021.153600974514
 30
0.0
 40
20.25
100
AcDbArc
 50
110.885820858497
 51
319.617816039371
  0
ARC
  5
3D
100
AcDbEntity
  8
FREI
  6
CONTINUOUS
 62
          15
100
AcDbCircle
 10
-14358.303459084604
 20
-9993.983077276593
 30
0.0
 40
18.25
100
AcDbArc
 50
57.570939232536
 51
110.885820858496
  0
ARC
  5
3E
100
AcDbEntity
  8
FREI
  6
GESTRICHELT
 62
          15
100
AcDbCircle
 10
-14358.303459084604
 20
-9993.983077276593
 30
0.0
 40
18.25
100
AcDbArc
 50
295.074360346149
 51
57.570939232536
  0
ARC
  5
3F
100
AcDbEntity
  8
FREI
  6
CONTINUOUS
 62
          15
100
AcDbCircle
 10
-14358.303459084604
 20
-9993.983077276593
 30
0.0
 40
18.25
100
AcDbArc
 50
237.615639653848
 51
295.074360346149
  0
ARC
  5
40
100
AcDbEntity
  8
FREI
  6
GESTRICHELT
 62
          15
100
AcDbCircle
 10
-14358.303459084604
 20
-9993.983077276593
 30
0.0
 40
18.25
100
AcDbArc
 50
211.802481262961
 51
237.615639653848
  0
LINE
  5
41
100
AcDbEntity
  8
FREI
  6
CONTINUOUS
 62
          15
100
AcDbLine
 10
-14366.170227786915
 20
-9977.451381156385
 30
0.0
 11
-14364.809708153407
 21
-9976.932234979078
 31
0.0
  0
LINE
  5
42
100
AcDbEntity
  8
FREI
  6
GESTRICHELT
 62
          15
100
AcDbLine
 10
-14374.953197287383
 20
-9980.802780819618
 30
0.0
 11
-14366.170227786915
 21
-9977.451381156385
 31
0.0
  0
LINE
  5
43
100
AcDbEntity
  8
FREI
  6
CONTINUOUS
 62
          15
100
AcDbLine
 10
-14431.118168558289
 20
-10002.234173219738
 30
0.0
 11
-14374.953197287383
 21
-9980.802780819618
 31
0.0
  0
LINE
  5
44
100
AcDbEntity
  8
FREI
  6
CONTINUOUS
 62
          15
100
AcDbLine
 10
-14381.871632615677
 20
-10002.996239888776
 30
0.0
 11
-14408.473674889068
 21
-10034.273233152217
 31
0.0
  0
ARC
  5
45
100
AcDbEntity
  8
FREI
  6
CONTINUOUS
 62
          15
100
AcDbCircle
 10
-14378.062933602385
 20
-10006.235655241297
 30
0.0
 40
5.0
100
AcDbArc
 50
84.4865011185
 51
139.617816039369
  0
ARC
  5
46
100
AcDbEntity
  8
FREI
  6
GESTRICHELT
 62
          15
100
AcDbCircle
 10
-14378.062933602385
 20
-10006.235655241297
 30
0.0
 40
5.0
100
AcDbArc
 50
31.802481262955
 51
84.4865011185
  0
LINE
  5
47
100
AcDbEntity
  8
Frei
  6
GESTRICHELT
 62
           7
100
AcDbLine
 10
-13955.992668452162
 20
-10019.685315151306
 30
0.0
 11
-13954.717697905435
 21
-9999.725995270483
 31
0.0
  0
LINE
  5
48
100
AcDbEntity
  8
Frei
  6
GESTRICHELT
 62
           7
100
AcDbLine
 10
-13954.717697905435
 20
-9999.725995270483
 30
0.0
 11
-13958.709561881598
 21
-9999.471001161139
 31
0.0
  0
LINE
  5
49
100
AcDbEntity
  8
Frei
  6
CONTINUOUS
 62
           7
100
AcDbLine
 10
-13957.944579553563
 20
-9987.495409232644
 30
0.0
 11
-13987.48437297718
 21
-9985.60845282349
 31
0.0
  0
LINE
  5
4A
100
AcDbEntity
  8
Frei
  6
CONTINUOUS
 62
           7
100
AcDbLine
 10
-13987.48437297718
 20
-9985.60845282349
 30
0.0
 11
-13987.516247240848
 21
-9986.10743582051
 31
0.0
  0
LINE
  5
4B
100
AcDbEntity
  8
Frei
  6
CONTINUOUS
 62
           7
100
AcDbLine
 10
-13987.516247240848
 20
-9986.10743582051
 30
0.0
 11
-14209.754976758184
 21
-9971.911354615411
 31
0.0
  0
LINE
  5
4C
100
AcDbEntity
  8
Frei
  6
CONTINUOUS
 62
           7
100
AcDbLine
 10
-14209.754976758184
 20
-9971.911354615411
 30
0.0
 11
-14209.723102494516
 21
-9971.412371618391
 31
0.0
  0
LINE
  5
4D
100
AcDbEntity
  8
Frei
  6
CONTINUOUS
 62
           7
100
AcDbLine
 10
-14209.723102494516
 20
-9971.412371618391
 30
0.0
 11
-14239.262895918133
 21
-9969.525415209235
 31
0.0
  0
LINE
  5
4E
100
AcDbEntity
  8
Frei
  6
CONTINUOUS
 62
           7
100
AcDbLine
 10
-14239.262895918133
 20
-9969.525415209235
 30
0.0
 11
-14240.027878246168
 21
-9981.501007137729
 31
0.0
  0
LINE
  5
4F
100
AcDbEntity
  8
Frei
  6
CONTINUOUS
 62
           7
100
AcDbLine
 10
-14240.027878246168
 20
-9981.501007137729
 30
0.0
 11
-14251.504487177643
 21
-9980.76789907336
 31
0.0
  0
LINE
  5
50
100
AcDbEntity
  8
Frei
  6
CONTINUOUS
 62
           7
100
AcDbLine
 10
-14251.504487177643
 20
-9980.76789907336
 30
0.0
 11
-14251.568235704977
 21
-9981.765865067402
 31
0.0
  0
LINE
  5
51
100
AcDbEntity
  8
Frei
  6
CONTINUOUS
 62
           7
100
AcDbLine
 10
-14251.568235704977
 20
-9981.765865067402
 30
0.0
 11
-14268.034674606657
 21
-9980.714014366353
 31
0.0
  0
LINE
  5
52
100
AcDbEntity
  8
Frei
  6
CONTINUOUS
 62
           7
100
AcDbLine
 10
-14268.034674606657
 20
-9980.714014366353
 30
0.0
 11
-14270.457118645438
 21
-10018.636722139914
 31
0.0
  0
LINE
  5
53
100
AcDbEntity
  8
Frei
  6
CONTINUOUS
 62
           7
100
AcDbLine
 10
-14270.457118645438
 20
-10018.636722139914
 30
0.0
 11
-14253.990679743758
 21
-10019.688572840963
 31
0.0
  0
LINE
  5
54
100
AcDbEntity
  8
Frei
  6
CONTINUOUS
 62
           7
100
AcDbLine
 10
-14253.990679743758
 20
-10019.688572840963
 30
0.0
 11
-14254.054428271094
 21
-10020.686538835005
 31
0.0
  0
LINE
  5
55
100
AcDbEntity
  8
Frei
  6
CONTINUOUS
 62
           7
100
AcDbLine
 10
-14254.054428271094
 20
-10020.686538835005
 30
0.0
 11
-14242.577819339622
 21
-10021.419646899372
 31
0.0
  0
LINE
  5
56
100
AcDbEntity
  8
Frei
  6
CONTINUOUS
 62
           7
100
AcDbLine
 10
-14242.577819339622
 20
-10021.419646899372
 30
0.0
 11
-14243.342801667659
 21
-10033.395238827867
 31
0.0
  0
LINE
  5
57
100
AcDbEntity
  8
Frei
  6
CONTINUOUS
 62
           7
100
AcDbLine
 10
-14243.342801667659
 20
-10033.395238827867
 30
0.0
 11
-14213.803008244042
 21
-10035.282195237021
 31
0.0
  0
LINE
  5
58
100
AcDbEntity
  8
Frei
  6
CONTINUOUS
 62
           7
100
AcDbLine
 10
-14213.803008244042
 20
-10035.282195237021
 30
0.0
 11
-14213.771133980374
 21
-10034.783212240001
 31
0.0
  0
LINE
  5
59
100
AcDbEntity
  8
Frei
  6
CONTINUOUS
 62
           7
100
AcDbLine
 10
-13993.374487061661
 20
-10048.861625592095
 30
0.0
 11
-13991.532404463036
 21
-10048.9792934451
 31
0.0
  0
LINE
  5
5A
100
AcDbEntity
  8
Frei
  6
GESTRICHELT
 62
           7
100
AcDbLine
 10
-14021.317536381124
 20
-10047.076690094495
 30
0.0
 11
-13993.374487061661
 21
-10048.861625592095
 31
0.0
  0
LINE
  5
5B
100
AcDbEntity
  8
Frei
  6
CONTINUOUS
 62
           7
100
AcDbLine
 10
-14183.986002062285
 20
-10036.685815590605
 30
0.0
 11
-14021.317536381124
 21
-10047.076690094495
 31
0.0
  0
LINE
  5
5C
100
AcDbEntity
  8
Frei
  6
GESTRICHELT
 62
           7
100
AcDbLine
 10
-14211.929051381749
 20
-10034.900880093004
 30
0.0
 11
-14183.986002062285
 21
-10036.685815590605
 31
0.0
  0
LINE
  5
5D
100
AcDbEntity
  8
Frei
  6
CONTINUOUS
 62
           7
100
AcDbLine
 10
-14213.771133980374
 20
-10034.783212240001
 30
0.0
 11
-14211.929051381749
 21
-10034.900880093004
 31
0.0
  0
LINE
  5
5E
100
AcDbEntity
  8
Frei
  6
CONTINUOUS
 62
           7
100
AcDbLine
 10
-13991.532404463036
 20
-10048.9792934451
 30
0.0
 11
-13991.564278726704
 21
-10049.47827644212
 31
0.0
  0
LINE
  5
5F
100
AcDbEntity
  8
Frei
  6
CONTINUOUS
 62
           7
100
AcDbLine
 10
-13991.564278726704
 20
-10049.47827644212
 30
0.0
 11
-13962.024485303089
 21
-10051.365232851274
 31
0.0
  0
LINE
  5
60
100
AcDbEntity
  8
Frei
  6
GESTRICHELT
 62
           7
100
AcDbLine
 10
-13961.259502975052
 20
-10039.389640922782
 30
0.0
 11
-13957.267638998888
 21
-10039.644635032128
 31
0.0
  0
LINE
  5
61
100
AcDbEntity
  8
Frei
  6
GESTRICHELT
 62
           7
100
AcDbLine
 10
-13957.267638998888
 20
-10039.644635032128
 30
0.0
 11
-13955.992668452162
 21
-10019.685315151306
 31
0.0
  0
LINE
  5
62
100
AcDbEntity
  8
Frei
  6
CONTINUOUS
 62
           7
100
AcDbLine
 10
-13990.365812323305
 20
-10030.716608281808
 30
0.0
 11
-13991.532404463036
 21
-10048.9792934451
 31
0.0
  0
LINE
  5
63
100
AcDbEntity
  8
Frei
  6
GESTRICHELT
 62
           7
100
AcDbLine
 10
-13989.09084177658
 20
-10010.757288400986
 30
0.0
 11
-13990.365812323305
 21
-10030.716608281808
 31
0.0
  0
LINE
  5
64
100
AcDbEntity
  8
Frei
  6
CONTINUOUS
 62
           7
100
AcDbLine
 10
-13987.516247240848
 20
-9986.10743582051
 30
0.0
 11
-13989.09084177658
 21
-10010.757288400986
 31
0.0
  0
LINE
  5
65
100
AcDbEntity
  8
Frei
  6
CONTINUOUS
 62
           7
100
AcDbLine
 10
-14212.604530019595
 20
-10016.520342021386
 30
0.0
 11
-14213.771133980374
 21
-10034.783212240001
 31
0.0
  0
LINE
  5
66
100
AcDbEntity
  8
Frei
  6
GESTRICHELT
 62
           7
100
AcDbLine
 10
-14211.329559472868
 20
-9996.561022140564
 30
0.0
 11
-14212.604530019595
 21
-10016.520342021386
 31
0.0
  0
LINE
  5
67
100
AcDbEntity
  8
Frei
  6
CONTINUOUS
 62
           7
100
AcDbLine
 10
-14209.754976758184
 20
-9971.911354615411
 30
0.0
 11
-14211.329559472868
 21
-9996.561022140564
 31
0.0
  0
LINE
  5
68
100
AcDbEntity
  8
Frei
  6
CONTINUOUS
 62
           7
100
AcDbLine
 10
-14240.027878246168
 20
-9981.501007137729
 30
0.0
 11
-14242.577819339622
 21
-10021.419646899372
 31
0.0
  0
LINE
  5
69
100
AcDbEntity
  8
Frei
  6
CONTINUOUS
 62
           7
100
AcDbLine
 10
-14251.504487177643
 20
-9980.76789907336
 30
0.0
 11
-14254.054428271094
 21
-10020.686538835005
 31
0.0
  0
LINE
  5
6A
100
AcDbEntity
  8
Frei
  6
GESTRICHELT
 62
           7
100
AcDbLine
 10
-14285.950784342944
 20
-9990.591980597243
 30
0.0
 11
-14308.734285651924
 21
-9989.136605700018
 31
0.0
  0
LINE
  5
6B
100
AcDbEntity
  8
Frei
  6
CONTINUOUS
 62
           7
100
AcDbLine
 10
-14277.717602353727
 20
-9991.117903554778
 30
0.0
 11
-14285.950784342944
 21
-9990.591980597243
 31
0.0
  0
LINE
  5
6C
100
AcDbEntity
  8
Frei
  6
GESTRICHELT
 62
           7
100
AcDbLine
 10
-14286.970760780327
 20
-10006.559436501901
 30
0.0
 11
-14309.754262089305
 21
-10005.104061604674
 31
0.0
  0
LINE
  5
6D
100
AcDbEntity
  8
Frei
  6
CONTINUOUS
 62
           7
100
AcDbLine
 10
-14278.737578791108
 20
-10007.085359459435
 30
0.0
 11
-14286.970760780327
 21
-10006.559436501901
 31
0.0
  0
LINE
  5
6E
100
AcDbEntity
  8
Frei
  6
CONTINUOUS
 62
           7
100
AcDbLine
 10
-14309.711171732984
 20
-9989.996219109771
 30
0.0
 11
-14308.734285651924
 21
-9989.136605700018
 31
0.0
  0
LINE
  5
6F
100
AcDbEntity
  8
Frei
  6
CONTINUOUS
 62
           7
100
AcDbLine
 10
-14310.61383303048
 20
-10004.127138154916
 30
0.0
 11
-14309.754262089305
 21
-10005.104061604674
 31
0.0
  0
LINE
  5
70
100
AcDbEntity
  8
Frei
  6
GESTRICHELT
 62
           7
100
AcDbLine
 10
-14309.711171732984
 20
-9989.996219109771
 30
0.0
 11
-14310.61383303048
 21
-10004.127138154916
 31
0.0
  0
LINE
  5
71
100
AcDbEntity
  8
Frei
  6
CONTINUOUS
 62
           7
100
AcDbLine
 10
-14286.009441912887
 20
-9991.510249027
 30
0.0
 11
-14277.776259923668
 21
-9992.036171984535
 31
0.0
  0
LINE
  5
72
100
AcDbEntity
  8
Frei
  6
GESTRICHELT
 62
           7
100
AcDbLine
 10
-14309.711171732984
 20
-9989.996219109771
 30
0.0
 11
-14286.009441912887
 21
-9991.510249027
 31
0.0
  0
LINE
  5
73
100
AcDbEntity
  8
Frei
  6
CONTINUOUS
 62
           7
100
AcDbLine
 10
-14286.912103210383
 20
-10005.641168072145
 30
0.0
 11
-14278.678921221164
 21
-10006.167091029678
 31
0.0
  0
LINE
  5
74
100
AcDbEntity
  8
Frei
  6
GESTRICHELT
 62
           7
100
AcDbLine
 10
-14310.61383303048
 20
-10004.127138154916
 30
0.0
 11
-14286.912103210383
 21
-10005.641168072145
 31
0.0
  0
LINE
  5
75
100
AcDbEntity
  8
Frei
  6
GESTRICHELT
 62
           7
100
AcDbLine
 10
-14308.734285651924
 20
-9989.136605700018
 30
0.0
 11
-14309.754262089305
 21
-10005.104061604674
 31
0.0
  0
LINE
  5
76
100
AcDbEntity
  8
Frei
  6
CONTINUOUS
 62
           7
100
AcDbLine
 10
-14268.608411352683
 20
-9989.695708312722
 30
0.0
 11
-14277.590105299054
 21
-9989.121971566696
 31
0.0
  0
LINE
  5
77
100
AcDbEntity
  8
Frei
  6
CONTINUOUS
 62
           7
100
AcDbLine
 10
-14277.590105299054
 20
-9989.121971566696
 30
0.0
 11
-14278.865075845781
 21
-10009.081291447517
 31
0.0
  0
LINE
  5
78
100
AcDbEntity
  8
Frei
  6
CONTINUOUS
 62
           7
100
AcDbLine
 10
-14278.865075845781
 20
-10009.081291447517
 30
0.0
 11
-14269.88338189941
 21
-10009.655028193543
 31
0.0
  0
LINE
  5
79
100
AcDbEntity
  8
Frei
  6
CONTINUOUS
 62
           7
100
AcDbLine
 10
-14277.891774167658
 20
-9993.844516304716
 30
0.0
 11
-14271.238664214165
 21
-9994.269506699455
 31
0.0
  0
LINE
  5
7A
100
AcDbEntity
  8
Frei
  6
CONTINUOUS
 62
           7
100
AcDbLine
 10
-14278.563406977175
 20
-10004.358746709497
 30
0.0
 11
-14271.91029702368
 21
-10004.783737104233
 31
0.0
  0
LINE
  5
7B
100
AcDbEntity
  8
Frei
  6
CONTINUOUS
 62
           7
100
AcDbLine
 10
-14271.238664214165
 20
-9994.269506699455
 30
0.0
 11
-14271.91029702368
 21
-10004.783737104233
 31
0.0
  0
LINE
  5
7C
100
AcDbEntity
  8
Frei
  6
CONTINUOUS
 62
           7
100
AcDbLine
 10
-14277.891774167658
 20
-9993.844516304716
 30
0.0
 11
-14271.91029702368
 21
-10004.783737104233
 31
0.0
  0
LINE
  5
7D
100
AcDbEntity
  8
Frei
  6
CONTINUOUS
 62
           7
100
AcDbLine
 10
-14271.238664214165
 20
-9994.269506699455
 30
0.0
 11
-14278.563406977175
 21
-10004.358746709497
 31
0.0
  0
CIRCLE
  5
7E
100
AcDbEntity
  8
Frei
  6
CONTINUOUS
 62
           7
100
AcDbCircle
 10
-14227.873187358678
 20
-10010.835517350608
 30
0.0
 40
5.7225
  0
ARC
  5
7F
100
AcDbEntity
  8
Frei
  6
CONTINUOUS
 62
           7
100
AcDbCircle
 10
-14227.873187358678
 20
-10010.835517350608
 30
0.0
 40
6.5785
100
AcDbArc
 50
106.345
 51
16.345
  0
CIRCLE
  5
80
100
AcDbEntity
  8
Frei
  6
CONTINUOUS
 62
           7
100
AcDbCircle
 10
-13973.414193862542
 20
-10010.055130709901
 30
0.0
 40
5.7225
  0
ARC
  5
81
100
AcDbEntity
  8
Frei
  6
CONTINUOUS
 62
           7
100
AcDbCircle
 10
-13973.414193862542
 20
-10010.055130709901
 30
0.0
 40
6.57849
100
AcDbArc
 50
106.345
 51
16.345
  0
LINE
  5
82
100
AcDbEntity
  8
Frei
  6
CONTINUOUS
 62
           7
100
AcDbLine
 10
-14216.614123368387
 20
-9988.929709555587
 30
0.0
 11
-14225.552378772021
 21
-9996.794596162874
 31
0.0
  0
LINE
  5
83
100
AcDbEntity
  8
Frei
  6
CONTINUOUS
 62
           7
100
AcDbLine
 10
-14217.605047835319
 20
-9987.80354896276
 30
0.0
 11
-14226.543306426382
 21
-9995.668485468348
 31
0.0
  0
CIRCLE
  5
84
100
AcDbEntity
  8
Frei
  6
CONTINUOUS
 62
           7
100
AcDbCircle
 10
-14221.578713622413
 20
-9992.299077552647
 30
0.0
 40
6.0
  0
LINE
  5
85
100
AcDbEntity
  8
Frei
  6
CONTINUOUS
 62
           7
100
AcDbLine
 10
-13974.743775405042
 20
-10025.222181716721
 30
0.0
 11
-13983.682333385901
 21
-10033.087099097749
 31
0.0
  0
LINE
  5
86
100
AcDbEntity
  8
Frei
  6
CONTINUOUS
 62
           7
100
AcDbLine
 10
-13975.735002449201
 20
-10024.096051897637
 30
0.0
 11
-13984.673557242633
 21
-10031.960919380366
 31
0.0
  0
CIRCLE
  5
87
100
AcDbEntity
  8
Frei
  6
CONTINUOUS
 62
           7
100
AcDbCircle
 10
-13979.708667598808
 20
-10028.591570507864
 30
0.0
 40
6.0
  0
LINE
  5
88
100
AcDbEntity
  8
Frei
  6
CONTINUOUS
 62
           7
100
AcDbLine
 10
-14286.068820423507
 20
-9984.715703588483
 30
0.0
 11
-14289.564196317637
 21
-9984.492424371487
 31
0.0
  0
LINE
  5
89
100
AcDbEntity
  8
Frei
  6
CONTINUOUS
 62
           7
100
AcDbLine
 10
-14293.059572211765
 20
-9984.269145154492
 30
0.0
 11
-14289.564196317637
 21
-9984.492424371487
 31
0.0
  0
LINE
  5
8A
100
AcDbEntity
  8
Frei
  6
CONTINUOUS
 62
           7
100
AcDbLine
 10
-14294.826273398952
 20
-10011.926375526949
 30
0.0
 11
-14291.330897504824
 21
-10012.149654743946
 31
0.0
  0
LINE
  5
8B
100
AcDbEntity
  8
Frei
  6
CONTINUOUS
 62
           7
100
AcDbLine
 10
-14287.835521610696
 20
-10012.37293396094
 30
0.0
 11
-14291.330897504824
 21
-10012.149654743946
 31
0.0
  0
LINE
  5
8C
100
AcDbEntity
  8
Frei
  6
CONTINUOUS
 62
           7
100
AcDbLine
 10
-14286.510495082819
 20
-9991.630001201937
 30
0.0
 11
-14290.005870976947
 21
-9991.406721984942
 31
0.0
  0
LINE
  5
8D
100
AcDbEntity
  8
Frei
  6
CONTINUOUS
 62
           7
100
AcDbLine
 10
-14293.501246871077
 20
-9991.183442767946
 30
0.0
 11
-14290.005870976947
 21
-9991.406721984942
 31
0.0
  0
LINE
  5
8E
100
AcDbEntity
  8
Frei
  6
CONTINUOUS
 62
           7
100
AcDbLine
 10
-14294.384598739642
 20
-10005.012077913494
 30
0.0
 11
-14290.889222845512
 21
-10005.23535713049
 31
0.0
  0
LINE
  5
8F
100
AcDbEntity
  8
Frei
  6
CONTINUOUS
 62
           7
100
AcDbLine
 10
-14287.393846951383
 20
-10005.458636347486
 30
0.0
 11
-14290.889222845512
 21
-10005.23535713049
 31
0.0
  0
ARC
  5
90
100
AcDbEntity
  8
Frei
  6
CONTINUOUS
 62
           7
100
AcDbCircle
 10
-14335.343342474949
 20
-9995.453165433879
 30
0.0
 40
48.982199999993
100
AcDbArc
 50
357.204436999999
 51
4.476610000001
  0
ARC
  5
91
100
AcDbEntity
  8
Frei
  6
CONTINUOUS
 62
           7
100
AcDbCircle
 10
-14245.551751347502
 20
-10001.188913681553
 30
0.0
 40
48.982200000003
100
AcDbArc
 50
168.213
 51
175.486
  0
ARC
  5
92
100
AcDbEntity
  8
Frei
  6
CONTINUOUS
 62
           7
100
AcDbCircle
 10
-14245.551751347502
 20
-10001.188913681553
 30
0.0
 40
48.982200000003
100
AcDbArc
 50
177.203999999999
 51
184.476999999999
  0
ARC
  5
93
100
AcDbEntity
  8
Frei
  6
CONTINUOUS
 62
           7
100
AcDbCircle
 10
-14335.343342474949
 20
-9995.453165433879
 30
0.0
 40
48.982199999993
100
AcDbArc
 50
348.213389999999
 51
355.485563
  0
LINE
  5
94
100
AcDbEntity
  8
Frei
  6
CONTINUOUS
 62
           7
100
AcDbLine
 10
-14286.419424949077
 20
-9997.842146329054
 30
0.0
 11
-14286.460772561635
 21
-9998.575708549572
 31
0.0
  0
LINE
  5
95
100
AcDbEntity
  8
Frei
  6
CONTINUOUS
 62
           7
100
AcDbLine
 10
-14294.381996022332
 20
-9997.333509579143
 30
0.0
 11
-14294.434321260826
 21
-9998.066370565861
 31
0.0
  0
LINE
  5
96
100
AcDbEntity
  8
Frei
  6
CONTINUOUS
 62
           7
100
AcDbLine
 10
-14294.475668873383
 20
-9998.799932786378
 30
0.0
 11
-14294.434321260826
 21
-9998.066370565861
 31
0.0
  0
LINE
  5
97
100
AcDbEntity
  8
Frei
  6
CONTINUOUS
 62
           7
100
AcDbLine
 10
-14286.513097800127
 20
-9999.30856953629
 30
0.0
 11
-14286.460772561635
 21
-9998.575708549572
 31
0.0
  0
ARC
  5
98
100
AcDbEntity
  8
Frei
  6
CONTINUOUS
 62
           7
100
AcDbCircle
 10
-14298.573621492558
 20
-9987.388176762057
 30
0.0
 40
12.801500000001
100
AcDbArc
 50
340.626499999999
 51
356.344999999999
  0
ARC
  5
99
100
AcDbEntity
  8
Frei
  6
CONTINUOUS
 62
           7
100
AcDbCircle
 10
-14280.996406520871
 20
-9988.510982123973
 30
0.0
 40
12.787200000001
100
AcDbArc
 50
176.345000000001
 51
192.063999999999
  0
ARC
  5
9A
100
AcDbEntity
  8
Frei
  6
CONTINUOUS
 62
           7
100
AcDbCircle
 10
-14282.321432411263
 20
-10009.253904903317
 30
0.0
 40
12.8015
100
AcDbArc
 50
160.626
 51
176.345000000001
  0
ARC
  5
9B
100
AcDbEntity
  8
Frei
  6
CONTINUOUS
 62
           7
100
AcDbCircle
 10
-14299.898647382948
 20
-10008.131099541401
 30
0.0
 40
12.787200000001
100
AcDbArc
 50
356.344999999998
 51
12.063499999999
  0
ARC
  5
9C
100
AcDbEntity
  8
Frei
  6
CONTINUOUS
 62
           7
100
AcDbCircle
 10
-14298.573621492558
 20
-9987.388176762057
 30
0.0
 40
12.787200000001
100
AcDbArc
 50
356.344999999998
 51
12.063499999999
  0
ARC
  5
9D
100
AcDbEntity
  8
Frei
  6
CONTINUOUS
 62
           7
100
AcDbCircle
 10
-14280.996406520871
 20
-9988.510982123973
 30
0.0
 40
12.8015
100
AcDbArc
 50
160.626
 51
176.345000000001
  0
ARC
  5
9E
100
AcDbEntity
  8
Frei
  6
CONTINUOUS
 62
           7
100
AcDbCircle
 10
-14282.321432411261
 20
-10009.253904903317
 30
0.0
 40
12.787200000001
100
AcDbArc
 50
176.345000000001
 51
192.063999999999
  0
ARC
  5
9F
100
AcDbEntity
  8
Frei
  6
CONTINUOUS
 62
           7
100
AcDbCircle
 10
-14299.898647382948
 20
-10008.131099541401
 30
0.0
 40
12.801500000001
100
AcDbArc
 50
340.626499999999
 51
356.344999999999
  0
LINE
  5
A0
100
AcDbEntity
  8
Frei
  6
CONTINUOUS
 62
           7
100
AcDbLine
 10
-14285.79825961644
 20
-9988.2042471599
 30
0.0
 11
-14286.460772561635
 21
-9998.575708549572
 31
0.0
  0
LINE
  5
A1
100
AcDbEntity
  8
Frei
  6
CONTINUOUS
 62
           7
100
AcDbLine
 10
-14293.771808315629
 20
-9987.694909176189
 30
0.0
 11
-14294.434321260826
 21
-9998.066370565861
 31
0.0
  0
LINE
  5
A2
100
AcDbEntity
  8
Frei
  6
CONTINUOUS
 62
           7
100
AcDbLine
 10
-14295.096834206021
 20
-10008.437831955531
 30
0.0
 11
-14294.434321260826
 21
-9998.066370565861
 31
0.0
  0
LINE
  5
A3
100
AcDbEntity
  8
Frei
  6
CONTINUOUS
 62
           7
100
AcDbLine
 10
-14287.12328550683
 20
-10008.947169939243
 30
0.0
 11
-14286.460772561635
 21
-9998.575708549572
 31
0.0
  0
LINE
  5
A4
100
AcDbEntity
  8
Frei
  6
CONTINUOUS
 62
           7
100
AcDbLine
 10
-14294.944309479515
 20
-10006.05009851819
 30
0.0
 11
-14294.893310657646
 21
-10005.251725722956
 31
0.0
  0
LINE
  5
A5
100
AcDbEntity
  8
Frei
  6
CONTINUOUS
 62
           7
100
AcDbLine
 10
-14294.893310657646
 20
-10005.251725722956
 30
0.0
 11
-14293.975331864003
 21
-9990.881015408764
 31
0.0
  0
LINE
  5
A6
100
AcDbEntity
  8
Frei
  6
CONTINUOUS
 62
           7
100
AcDbLine
 10
-14293.975331864003
 20
-9990.881015408764
 30
0.0
 11
-14293.924333042134
 21
-9990.082642613532
 31
0.0
  0
LINE
  5
A7
100
AcDbEntity
  8
Frei
  6
CONTINUOUS
 62
           7
100
AcDbLine
 10
-14293.924333042134
 20
-9990.082642613532
 30
0.0
 11
-14293.643839521854
 21
-9985.691592239751
 31
0.0
  0
LINE
  5
A8
100
AcDbEntity
  8
Frei
  6
CONTINUOUS
 62
           7
100
AcDbLine
 10
-14327.389209507521
 20
-10011.993873595755
 30
0.0
 11
-14325.653850488343
 21
-10012.104725651368
 31
0.0
  0
LINE
  5
A9
100
AcDbEntity
  8
Frei
  6
CONTINUOUS
 62
           7
100
AcDbLine
 10
-14323.613897613581
 20
-9980.169813842054
 30
0.0
 11
-14325.349256632759
 21
-9980.058961786441
 31
0.0
  0
LINE
  5
AA
100
AcDbEntity
  8
Frei
  6
CONTINUOUS
 62
           7
100
AcDbLine
 10
-14325.653850488343
 20
-10012.104725651368
 30
0.0
 11
-14320.603040748041
 21
-10012.427363581643
 31
0.0
  0
LINE
  5
AB
100
AcDbEntity
  8
Frei
  6
CONTINUOUS
 62
           7
100
AcDbLine
 10
-14318.563087873279
 20
-9980.492451772327
 30
0.0
 11
-14323.613897613581
 21
-9980.169813842054
 31
0.0
  0
LINE
  5
AC
100
AcDbEntity
  8
Frei
  6
CONTINUOUS
 62
           7
100
AcDbLine
 10
-14372.634080840482
 20
-9977.038480200296
 30
0.0
 11
-14325.349256632759
 21
-9980.058961786441
 31
0.0
  0
LINE
  5
AD
100
AcDbEntity
  8
Frei
  6
CONTINUOUS
 62
           7
100
AcDbLine
 10
-14374.674033715246
 20
-10008.97339200961
 30
0.0
 11
-14327.389209507521
 21
-10011.993873595755
 31
0.0
  0
LINE
  5
AE
100
AcDbEntity
  8
Frei
  6
CONTINUOUS
 62
           7
100
AcDbLine
 10
-14317.518525146037
 20
-9982.964068390829
 30
0.0
 11
-14319.252485089586
 21
-10010.108743428747
 31
0.0
  0
LINE
  5
AF
100
AcDbEntity
  8
Frei
  6
CONTINUOUS
 62
           7
100
AcDbLine
 10
-14294.7649004819
 20
-9984.417534814098
 30
0.0
 11
-14298.384695521911
 21
-9984.186307894104
 31
0.0
  0
LINE
  5
B0
100
AcDbEntity
  8
Frei
  6
CONTINUOUS
 62
           7
100
AcDbLine
 10
-14295.224802999795
 20
-10010.44114889197
 30
0.0
 11
-14294.944309479515
 21
-10006.05009851819
 31
0.0
  0
LINE
  5
B1
100
AcDbEntity
  8
Frei
  6
CONTINUOUS
 62
           7
100
AcDbLine
 10
-14318.054925896737
 20
-10010.185241661551
 30
0.0
 11
-14315.605865608983
 21
-10010.341683852603
 31
0.0
  0
LINE
  5
B2
100
AcDbEntity
  8
Frei
  6
CONTINUOUS
 62
           7
100
AcDbLine
 10
-14313.769908021695
 20
-9981.600263224218
 30
0.0
 11
-14313.871905665434
 21
-9983.197008814685
 31
0.0
  0
LINE
  5
B3
100
AcDbEntity
  8
Frei
  6
CONTINUOUS
 62
           7
100
AcDbLine
 10
-14313.871905665434
 20
-9983.197008814685
 30
0.0
 11
-14316.320965953188
 21
-9983.040566623633
 31
0.0
  0
LINE
  5
B4
100
AcDbEntity
  8
Frei
  6
CONTINUOUS
 62
           7
100
AcDbLine
 10
-14313.871905665434
 20
-9983.197008814685
 30
0.0
 11
-14315.605865608983
 21
-10010.341683852603
 31
0.0
  0
LINE
  5
B5
100
AcDbEntity
  8
Frei
  6
CONTINUOUS
 62
           7
100
AcDbLine
 10
-14315.605865608983
 20
-10010.341683852603
 30
0.0
 11
-14315.707863252721
 21
-10011.938429443067
 31
0.0
  0
LINE
  5
B6
100
AcDbEntity
  8
Frei
  6
CONTINUOUS
 62
           7
100
AcDbLine
 10
-14300.220653109198
 20
-10012.927728522489
 30
0.0
 11
-14300.11865546546
 21
-10011.330982932022
 31
0.0
  0
LINE
  5
B7
100
AcDbEntity
  8
Frei
  6
CONTINUOUS
 62
           7
100
AcDbLine
 10
-14300.11865546546
 20
-10011.330982932022
 30
0.0
 11
-14296.498860425449
 21
-10011.562209852016
 31
0.0
  0
LINE
  5
B8
100
AcDbEntity
  8
Frei
  6
CONTINUOUS
 62
           7
100
AcDbLine
 10
-14300.11865546546
 20
-10011.330982932022
 30
0.0
 11
-14298.384695521911
 21
-9984.186307894104
 31
0.0
  0
LINE
  5
B9
100
AcDbEntity
  8
Frei
  6
CONTINUOUS
 62
           7
100
AcDbLine
 10
-14298.384695521911
 20
-9984.186307894104
 30
0.0
 11
-14298.282697878174
 21
-9982.58956230364
 31
0.0
  0
LINE
  5
BA
100
AcDbEntity
  8
Frei
  6
CONTINUOUS
 62
           7
100
AcDbLine
 10
-14313.769908021695
 20
-9981.600263224218
 30
0.0
 11
-14298.282697878174
 21
-9982.58956230364
 31
0.0
  0
LINE
  5
BB
100
AcDbEntity
  8
Frei
  6
CONTINUOUS
 62
           7
100
AcDbLine
 10
-14315.707863252721
 20
-10011.938429443067
 30
0.0
 11
-14300.220653109198
 21
-10012.927728522489
 31
0.0
  0
ARC
  5
BC
100
AcDbEntity
  8
Frei
  6
CONTINUOUS
 62
           7
100
AcDbCircle
 10
-14347.347951677331
 20
-9994.686329527174
 30
0.0
 40
27.821476415485
100
AcDbArc
 50
321.238694434247
 51
31.451305565753
  0
ARC
  5
BD
100
AcDbEntity
  8
Frei
  6
CONTINUOUS
 62
           7
100
AcDbCircle
 10
-14334.187490738679
 20
-9995.526999458731
 30
0.0
 40
39.547005383793
100
AcDbArc
 50
152.48007458395
 51
200.20992541605
  0
ARC
  5
BE
100
AcDbEntity
  8
Frei
  6
CONTINUOUS
 62
           7
100
AcDbCircle
 10
-14348.302316124589
 20
-9994.625366199349
 30
0.0
 40
30.02221399786
100
AcDbArc
 50
144.140772496028
 51
208.549227503973
  0
CIRCLE
  5
BF
100
AcDbEntity
  8
Frei
  6
CONTINUOUS
 62
           7
100
AcDbCircle
 10
-14358.304144879456
 20
-9993.986464816335
 30
0.0
 40
6.8
  0
ARC
  5
C0
100
AcDbEntity
  8
Frei
  6
CONTINUOUS
 62
           7
100
AcDbCircle
 10
-14318.639586106083
 20
-9981.690010965176
 30
0.0
 40
1.2
100
AcDbArc
 50
356.344999999999
 51
86.345
  0
ARC
  5
C1
100
AcDbEntity
  8
Frei
  6
CONTINUOUS
 62
           7
100
AcDbCircle
 10
-14316.244467720384
 20
-9981.843007430784
 30
0.0
 40
1.2
100
AcDbArc
 50
176.345
 51
266.344999999999
  0
ARC
  5
C2
100
AcDbEntity
  8
Frei
  6
CONTINUOUS
 62
           7
100
AcDbCircle
 10
-14294.841398714703
 20
-9985.615094006947
 30
0.0
 40
1.2
100
AcDbArc
 50
356.344999999999
 51
86.345
  0
ARC
  5
C3
100
AcDbEntity
  8
Frei
  6
CONTINUOUS
 62
           7
100
AcDbCircle
 10
-14296.422362192645
 20
-10010.364650659167
 30
0.0
 40
1.2
100
AcDbArc
 50
266.344999999999
 51
356.344999999999
  0
ARC
  5
C4
100
AcDbEntity
  8
Frei
  6
CONTINUOUS
 62
           7
100
AcDbCircle
 10
-14318.13142412954
 20
-10011.382800854401
 30
0.0
 40
1.2
100
AcDbArc
 50
86.345
 51
176.345
  0
ARC
  5
C5
100
AcDbEntity
  8
Frei
  6
CONTINUOUS
 62
           7
100
AcDbCircle
 10
-14320.526542515237
 20
-10011.229804388793
 30
0.0
 40
1.2
100
AcDbArc
 50
266.344999999999
 51
356.344999999999
  0
LINE
  5
C6
100
AcDbEntity
  8
FREI
  6
CONTINUOUS
 62
           7
100
AcDbLine
 10
-13957.944562671264
 20
-9987.495144944798
 30
0.0
 11
-13962.024502185388
 21
-10051.365497139121
 31
0.0
  0
LINE
  5
C7
100
AcDbEntity
  8
FREI
  6
CONTINUOUS
 62
           7
100
AcDbLine
 10
-13954.616626516086
 20
-10045.323893165827
 30
0.0
 11
-13954.89223378353
 21
-10049.638450569913
 31
0.0
  0
LINE
  5
C8
100
AcDbEntity
  8
FREI
  6
CONTINUOUS
 62
           7
100
AcDbLine
 10
-13951.09003267853
 20
-9990.11601822766
 30
0.0
 11
-13951.365639945974
 21
-9994.43057563175
 31
0.0
  0
LINE
  5
C9
100
AcDbEntity
  8
FREI
  6
CONTINUOUS
 62
           7
100
AcDbLine
 10
-13951.365639945974
 20
-9994.43057563175
 30
0.0
 11
-13951.940339269559
 21
-10003.427338470054
 31
0.0
  0
LINE
  5
CA
100
AcDbEntity
  8
FREI
  6
CONTINUOUS
 62
           7
100
AcDbLine
 10
-13954.041927192502
 20
-10036.327130327518
 30
0.0
 11
-13954.616626516086
 21
-10045.323893165827
 31
0.0
  0
LINE
  5
CB
100
AcDbEntity
  8
Frei
  6
CONTINUOUS
 62
           7
100
AcDbLine
 10
-13956.948176829321
 20
-10051.51216860211
 30
0.0
 11
-13962.024502185388
 21
-10051.365497139121
 31
0.0
  0
LINE
  5
CC
100
AcDbEntity
  8
Frei
  6
CONTINUOUS
 62
           7
100
AcDbLine
 10
-13952.890857914781
 20
-9987.995935790537
 30
0.0
 11
-13957.944586313361
 21
-9987.495515055443
 31
0.0
  0
LINE
  5
CD
100
AcDbEntity
  8
FREI
  6
CONTINUOUS
 62
           7
100
AcDbLine
 10
-13953.510505945344
 20
-10045.355852567751
 30
0.0
 11
-13954.616626516086
 21
-10045.323893165827
 31
0.0
  0
LINE
  5
CE
100
AcDbEntity
  8
Frei
  6
CONTINUOUS
 62
           7
100
AcDbLine
 10
-13947.563205350152
 20
-9997.719739908409
 30
0.0
 11
-13948.136702505328
 21
-10006.697683124668
 31
0.0
  0
LINE
  5
CF
100
AcDbEntity
  8
FREI
  6
CONTINUOUS
 62
           7
100
AcDbLine
 10
-13951.365639945974
 20
-9994.43057563175
 30
0.0
 11
-13950.264443204527
 21
-9994.539616252727
 31
0.0
  0
LINE
  5
D0
100
AcDbEntity
  8
Frei
  6
CONTINUOUS
 62
           7
100
AcDbLine
 10
-13949.841372310892
 20
-10033.383828955855
 30
0.0
 11
-13949.853094221482
 21
-10033.567332303197
 31
0.0
  0
LINE
  5
D1
100
AcDbEntity
  8
FREI
  6
CONTINUOUS
 62
           7
100
AcDbLine
 10
-13932.03502384017
 20
-10009.180087710363
 30
0.0
 11
-13947.230610286739
 21
-10007.942797572807
 31
0.0
  0
LINE
  5
D2
100
AcDbEntity
  8
FREI
  6
CONTINUOUS
 62
           7
100
AcDbLine
 10
-13933.566430454868
 20
-10033.153845040555
 30
0.0
 11
-13948.795940963821
 21
-10032.447626945806
 31
0.0
  0
LINE
  5
D3
100
AcDbEntity
  8
FREI
  6
CONTINUOUS
 62
           7
100
AcDbLine
 10
-13947.894282203592
 20
-10007.613802602917
 30
0.0
 11
-13949.496079293074
 21
-10032.689503822223
 31
0.0
  0
LINE
  5
D4
100
AcDbEntity
  8
Frei
  6
CONTINUOUS
 62
           7
100
AcDbLine
 10
-13950.104711011201
 20
-10005.550560671652
 30
0.0
 11
-13949.054516634507
 21
-10005.636072023868
 31
0.0
  0
LINE
  5
D5
100
AcDbEntity
  8
Frei
  6
CONTINUOUS
 62
           7
100
AcDbLine
 10
-13948.136702505328
 20
-10006.697683124668
 30
0.0
 11
-13948.148424415918
 21
-10006.881186472008
 31
0.0
  0
LINE
  5
D6
100
AcDbEntity
  8
Frei
  6
CONTINUOUS
 62
           7
100
AcDbLine
 10
-13949.853094221482
 20
-10033.567332303197
 30
0.0
 11
-13950.426591376659
 21
-10042.545275519456
 31
0.0
  0
LINE
  5
D7
100
AcDbEntity
  8
Frei
  6
CONTINUOUS
 62
           7
100
AcDbLine
 10
-13950.898525568553
 20
-10034.503534313246
 30
0.0
 11
-13951.95106449836
 21
-10034.454726307418
 31
0.0
  0
ARC
  5
D8
100
AcDbEntity
  8
FREI
  6
CONTINUOUS
 62
           7
100
AcDbCircle
 10
-13933.009958892904
 20
-10021.153600974514
 30
0.0
 40
12.0131394
100
AcDbArc
 50
267.344999999997
 51
85.345000000003
  0
ARC
  5
D9
100
AcDbEntity
  8
Frei
  6
CONTINUOUS
 62
           7
100
AcDbCircle
 10
-13953.088150112342
 20
-9989.988381570087
 30
0.0
 40
2.0021899
100
AcDbArc
 50
356.344999999993
 51
84.345000000031
  0
ARC
  5
DA
100
AcDbEntity
  8
Frei
  6
CONTINUOUS
 62
           7
100
AcDbCircle
 10
-13950.560381500871
 20
-9997.528284922051
 30
0.0
 40
3.00328485
100
AcDbArc
 50
356.345000000004
 51
84.344999999982
  0
ARC
  5
DB
100
AcDbEntity
  8
Frei
  6
CONTINUOUS
 62
           7
100
AcDbCircle
 10
-13953.423767527378
 20
-10042.353820533097
 30
0.0
 40
3.00328485
100
AcDbArc
 50
268.344999999994
 51
356.344999999999
  0
ARC
  5
DC
100
AcDbEntity
  8
Frei
  6
CONTINUOUS
 62
           7
100
AcDbCircle
 10
-13956.890351217342
 20
-10049.510813912342
 30
0.0
 40
2.0021899
100
AcDbArc
 50
268.344999999968
 51
356.345000000006
  0
ARC
  5
DD
100
AcDbEntity
  8
Frei
  6
CONTINUOUS
 62
           7
100
AcDbCircle
 10
-13949.135761222235
 20
-10006.633864795882
 30
0.0
 40
1.00109495
100
AcDbArc
 50
356.344999999999
 51
85.34500000007
  0
ARC
  5
DE
100
AcDbEntity
  8
Frei
  6
CONTINUOUS
 62
           7
100
AcDbCircle
 10
-13949.942221835745
 20
-10003.554975127627
 30
0.0
 40
2.0021899
100
AcDbArc
 50
176.345000000006
 51
265.345000000015
  0
ARC
  5
DF
100
AcDbEntity
  8
Frei
  6
CONTINUOUS
 62
           7
100
AcDbCircle
 10
-13947.149365699011
 20
-10006.945004800795
 30
0.0
 40
1.001094950001
100
AcDbArc
 50
221.917995999261
 51
265.345000000022
  0
ARC
  5
E0
100
AcDbEntity
  8
Frei
  6
CONTINUOUS
 62
           7
100
AcDbCircle
 10
-13947.149365699013
 20
-10006.945004800795
 30
0.0
 40
1.001094949999
100
AcDbArc
 50
176.344999999987
 51
221.917995999281
  0
ARC
  5
E1
100
AcDbEntity
  8
Frei
  6
CONTINUOUS
 62
           7
100
AcDbCircle
 10
-13952.043809758688
 20
-10036.454766985091
 30
0.0
 40
2.002189899999
100
AcDbArc
 50
87.344999999931
 51
176.344999999993
  0
ARC
  5
E2
100
AcDbEntity
  8
Frei
  6
CONTINUOUS
 62
           7
100
AcDbCircle
 10
-13950.852152938389
 20
-10033.50351397441
 30
0.0
 40
1.001094949999
100
AcDbArc
 50
267.344999999922
 51
356.345000000012
  0
ARC
  5
E3
100
AcDbEntity
  8
Frei
  6
CONTINUOUS
 62
           7
100
AcDbCircle
 10
-13948.842313593985
 20
-10033.447647284642
 30
0.0
 40
1.00109495
100
AcDbArc
 50
130.772004000806
 51
176.344999999987
  0
ARC
  5
E4
100
AcDbEntity
  8
Frei
  6
CONTINUOUS
 62
           7
100
AcDbCircle
 10
-13948.842313593985
 20
-10033.447647284644
 30
0.0
 40
1.001094950001
100
AcDbArc
 50
87.345000000004
 51
130.772004000779
  0
LINE
  5
E5
100
AcDbEntity
  8
Frei
  6
CONTINUOUS
 62
           7
100
AcDbLine
 10
-14027.052087046053
 20
-10034.88639366309
 30
0.0
 11
-14023.55920606691
 21
-10035.109513508767
 31
0.0
  0
LINE
  5
E6
100
AcDbEntity
  8
Frei
  6
CONTINUOUS
 62
           7
100
AcDbLine
 10
-14026.92458999138
 20
-10032.890461675008
 30
0.0
 11
-14027.052087046053
 21
-10034.88639366309
 31
0.0
  0
LINE
  5
E7
100
AcDbEntity
  8
Frei
  6
CONTINUOUS
 62
           7
100
AcDbLine
 10
-14021.955629063172
 20
-10025.692585092713
 30
0.0
 11
-14022.497491545531
 21
-10034.175296042062
 31
0.0
  0
LINE
  5
E8
100
AcDbEntity
  8
Frei
  6
CONTINUOUS
 62
           7
100
AcDbLine
 10
-14026.446476036357
 20
-10025.405716719699
 30
0.0
 11
-14021.955629063172
 21
-10025.692585092713
 31
0.0
  0
LINE
  5
E9
100
AcDbEntity
  8
Frei
  6
CONTINUOUS
 62
           7
100
AcDbLine
 10
-14026.478350300025
 20
-10025.904699716719
 30
0.0
 11
-14026.446476036357
 21
-10025.405716719699
 31
0.0
  0
LINE
  5
EA
100
AcDbEntity
  8
Frei
  6
CONTINUOUS
 62
           7
100
AcDbLine
 10
-14022.965730815882
 20
-10026.575074102411
 30
0.0
 11
-14026.478350300025
 21
-10025.904699716719
 31
0.0
  0
LINE
  5
EB
100
AcDbEntity
  8
Frei
  6
CONTINUOUS
 62
           7
100
AcDbLine
 10
-14022.691725369896
 20
-10029.152697927306
 30
0.0
 11
-14022.560479810212
 21
-10027.098084104748
 31
0.0
  0
LINE
  5
EC
100
AcDbEntity
  8
Frei
  6
CONTINUOUS
 62
           7
100
AcDbLine
 10
-14026.92458999138
 20
-10032.890461675008
 30
0.0
 11
-14026.478350300025
 21
-10025.904699716719
 31
0.0
  0
LINE
  5
ED
100
AcDbEntity
  8
Frei
  6
CONTINUOUS
 62
           7
100
AcDbLine
 10
-14023.355223286737
 20
-10032.672473635992
 30
0.0
 11
-14026.92458999138
 21
-10032.890461675008
 31
0.0
  0
LINE
  5
EE
100
AcDbEntity
  8
Frei
  6
CONTINUOUS
 62
           7
100
AcDbLine
 10
-14022.755473897232
 20
-10030.150663921348
 30
0.0
 11
-14022.886719456916
 21
-10032.205277743904
 31
0.0
  0
LINE
  5
EF
100
AcDbEntity
  8
Frei
  6
CONTINUOUS
 62
           2
100
AcDbLine
 10
-14024.306690271442
 20
-10029.550555537882
 30
0.0
 11
-14021.535484083741
 21
-10029.727575911789
 31
0.0
  0
LINE
  5
F0
100
AcDbEntity
  8
Frei
  6
CONTINUOUS
 62
           7
100
AcDbLine
 10
-14024.274816007774
 20
-10029.051572540862
 30
0.0
 11
-14022.691725369896
 21
-10029.152697927306
 31
0.0
  0
LINE
  5
F1
100
AcDbEntity
  8
Frei
  6
CONTINUOUS
 62
           7
100
AcDbLine
 10
-14024.306690271442
 20
-10029.550555537882
 30
0.0
 11
-14024.274816007774
 21
-10029.051572540862
 31
0.0
  0
LINE
  5
F2
100
AcDbEntity
  8
Frei
  6
CONTINUOUS
 62
           7
100
AcDbLine
 10
-14024.33856453511
 20
-10030.049538534904
 30
0.0
 11
-14024.306690271442
 21
-10029.550555537882
 31
0.0
  0
LINE
  5
F3
100
AcDbEntity
  8
Frei
  6
CONTINUOUS
 62
           7
100
AcDbLine
 10
-14022.755473897232
 20
-10030.150663921348
 30
0.0
 11
-14024.33856453511
 21
-10030.049538534904
 31
0.0
  0
LINE
  5
F4
100
AcDbEntity
  8
Frei
  6
CONTINUOUS
 62
           7
100
AcDbLine
 10
-14166.268343214788
 20
-10025.99347409967
 30
0.0
 11
-14164.164641812689
 21
-9993.060596296315
 31
0.0
  0
LINE
  5
F5
100
AcDbEntity
  8
Frei
  6
CONTINUOUS
 62
           7
100
AcDbLine
 10
-14180.239867131364
 20
-10025.100994716962
 30
0.0
 11
-14166.268343214788
 21
-10025.99347409967
 31
0.0
  0
LINE
  5
F6
100
AcDbEntity
  8
Frei
  6
CONTINUOUS
 62
           7
100
AcDbLine
 10
-14174.1443017531
 20
-9992.42311102295
 30
0.0
 11
-14164.663624809709
 21
-9993.028722032646
 31
0.0
  0
LINE
  5
F7
100
AcDbEntity
  8
Frei
  6
CONTINUOUS
 62
           7
100
AcDbLine
 10
-14174.271798807773
 20
-9994.419043011034
 30
0.0
 11
-14174.1443017531
 21
-9992.42311102295
 31
0.0
  0
LINE
  5
F8
100
AcDbEntity
  8
Frei
  6
CONTINUOUS
 62
           7
100
AcDbLine
 10
-14174.718038499128
 20
-10001.404804969321
 30
0.0
 11
-14174.749912762796
 21
-10001.903787966341
 31
0.0
  0
LINE
  5
F9
100
AcDbEntity
  8
Frei
  6
CONTINUOUS
 62
           7
100
AcDbLine
 10
-14179.739742733002
 20
-10001.585045329661
 30
0.0
 11
-14179.197880250642
 21
-9993.10233438031
 31
0.0
  0
LINE
  5
FA
100
AcDbEntity
  8
Frei
  6
CONTINUOUS
 62
           7
100
AcDbLine
 10
-14174.749912762796
 20
-10001.903787966341
 30
0.0
 11
-14179.739742733002
 21
-10001.585045329661
 31
0.0
  0
LINE
  5
FB
100
AcDbEntity
  8
Frei
  6
CONTINUOUS
 62
           7
100
AcDbLine
 10
-14178.136165729265
 20
-9992.168116913606
 30
0.0
 11
-14174.1443017531
 21
-9992.42311102295
 31
0.0
  0
LINE
  5
FC
100
AcDbEntity
  8
Frei
  6
CONTINUOUS
 62
           7
100
AcDbLine
 10
-14178.230657983271
 20
-10000.734430583629
 30
0.0
 11
-14174.718038499128
 21
-10001.404804969321
 31
0.0
  0
LINE
  5
FD
100
AcDbEntity
  8
Frei
  6
CONTINUOUS
 62
           7
100
AcDbLine
 10
-14178.504663429258
 20
-9998.156806758734
 30
0.0
 11
-14178.635908988941
 21
-10000.211420581292
 31
0.0
  0
LINE
  5
FE
100
AcDbEntity
  8
Frei
  6
CONTINUOUS
 62
           7
100
AcDbLine
 10
-14174.271798807773
 20
-9994.419043011034
 30
0.0
 11
-14174.718038499128
 21
-10001.404804969321
 31
0.0
  0
LINE
  5
FF
100
AcDbEntity
  8
Frei
  6
CONTINUOUS
 62
           7
100
AcDbLine
 10
-14177.841165512416
 20
-9994.637031050048
 30
0.0
 11
-14174.271798807773
 21
-9994.419043011034
 31
0.0
  0
LINE
  5
100
100
AcDbEntity
  8
Frei
  6
CONTINUOUS
 62
           7
100
AcDbLine
 10
-14178.440914901921
 20
-9997.158840764694
 30
0.0
 11
-14178.309669342239
 21
-9995.104226942136
 31
0.0
  0
LINE
  5
101
100
AcDbEntity
  8
Frei
  6
CONTINUOUS
 62
           2
100
AcDbLine
 10
-14176.889698527712
 20
-9997.758949148158
 30
0.0
 11
-14179.660904715414
 21
-9997.581928774251
 31
0.0
  0
LINE
  5
102
100
AcDbEntity
  8
Frei
  6
CONTINUOUS
 62
           7
100
AcDbLine
 10
-14176.92157279138
 20
-9998.257932145178
 30
0.0
 11
-14178.504663429258
 21
-9998.156806758734
 31
0.0
  0
LINE
  5
103
100
AcDbEntity
  8
Frei
  6
CONTINUOUS
 62
           7
100
AcDbLine
 10
-14176.889698527712
 20
-9997.758949148158
 30
0.0
 11
-14176.92157279138
 21
-9998.257932145178
 31
0.0
  0
LINE
  5
104
100
AcDbEntity
  8
Frei
  6
CONTINUOUS
 62
           7
100
AcDbLine
 10
-14176.857824264043
 20
-9997.259966151136
 30
0.0
 11
-14176.889698527712
 21
-9997.758949148158
 31
0.0
  0
LINE
  5
105
100
AcDbEntity
  8
Frei
  6
CONTINUOUS
 62
           7
100
AcDbLine
 10
-14178.440914901921
 20
-9997.158840764694
 30
0.0
 11
-14176.857824264043
 21
-9997.259966151136
 31
0.0
  0
LINE
  5
106
100
AcDbEntity
  8
Frei
  6
CONTINUOUS
 62
           7
100
AcDbLine
 10
-14140.531597509929
 20
-10030.944223590752
 30
0.0
 11
-14140.563471773597
 21
-10031.443206587772
 31
0.0
  0
LINE
  5
107
100
AcDbEntity
  8
Frei
  6
CONTINUOUS
 62
           7
100
AcDbLine
 10
-14140.563471773597
 20
-10031.443206587772
 30
0.0
 11
-14063.720090232431
 21
-10036.35184319267
 31
0.0
  0
LINE
  5
108
100
AcDbEntity
  8
Frei
  6
CONTINUOUS
 62
           7
100
AcDbLine
 10
-14063.720090232431
 20
-10036.35184319267
 30
0.0
 11
-14060.723909447623
 21
-9989.447441472739
 31
0.0
  0
LINE
  5
109
100
AcDbEntity
  8
Frei
  6
CONTINUOUS
 62
           7
100
AcDbLine
 10
-14060.723909447623
 20
-9989.447441472739
 30
0.0
 11
-14137.567290988791
 21
-9984.538804867842
 31
0.0
  0
LINE
  5
10A
100
AcDbEntity
  8
Frei
  6
CONTINUOUS
 62
           7
100
AcDbLine
 10
-14164.663624809709
 20
-9993.028722032646
 30
0.0
 11
-14164.164641812689
 21
-9993.060596296315
 31
0.0
  0
LINE
  5
10B
100
AcDbEntity
  8
Frei
  6
CONTINUOUS
 62
           7
100
AcDbLine
 10
-14138.565256982831
 20
-9984.475056340505
 30
0.0
 11
-14164.01338983088
 21
-9982.849468893428
 31
0.0
  0
LINE
  5
10C
100
AcDbEntity
  8
Frei
  6
CONTINUOUS
 62
           7
100
AcDbLine
 10
-14166.510587618666
 20
-10029.785744877026
 30
0.0
 11
-14166.268343214788
 21
-10025.99347409967
 31
0.0
  0
LINE
  5
10D
100
AcDbEntity
  8
Frei
  6
CONTINUOUS
 62
           7
100
AcDbLine
 10
-14164.663624809709
 20
-9993.028722032646
 30
0.0
 11
-14164.01338983088
 21
-9982.849468893428
 31
0.0
  0
LINE
  5
10E
100
AcDbEntity
  8
Frei
  6
CONTINUOUS
 62
           7
100
AcDbLine
 10
-14140.531597509929
 20
-10030.944223590752
 30
0.0
 11
-14141.529563503971
 21
-10030.880475063415
 31
0.0
  0
LINE
  5
10F
100
AcDbEntity
  8
Frei
  6
CONTINUOUS
 62
           7
100
AcDbLine
 10
-14137.599165252459
 20
-9985.03778786486
 30
0.0
 11
-14140.531597509929
 21
-10030.944223590752
 31
0.0
  0
LINE
  5
110
100
AcDbEntity
  8
Frei
  6
CONTINUOUS
 62
           7
100
AcDbLine
 10
-14137.599165252459
 20
-9985.03778786486
 30
0.0
 11
-14138.597131246499
 21
-9984.974039337525
 31
0.0
  0
LINE
  5
111
100
AcDbEntity
  8
Frei
  6
CONTINUOUS
 62
           7
100
AcDbLine
 10
-14137.567290988791
 20
-9984.538804867842
 30
0.0
 11
-14137.599165252459
 21
-9985.03778786486
 31
0.0
  0
LINE
  5
112
100
AcDbEntity
  8
Frei
  6
CONTINUOUS
 62
           7
100
AcDbLine
 10
-14141.529563503971
 20
-10030.880475063415
 30
0.0
 11
-14138.565256982831
 21
-9984.475056340505
 31
0.0
  0
LINE
  5
113
100
AcDbEntity
  8
Frei
  6
CONTINUOUS
 62
           7
100
AcDbLine
 10
-14141.561437767639
 20
-10031.379458060435
 30
0.0
 11
-14141.529563503971
 21
-10030.880475063415
 31
0.0
  0
LINE
  5
114
100
AcDbEntity
  8
Frei
  6
CONTINUOUS
 62
           7
100
AcDbLine
 10
-14166.510587618666
 20
-10029.785744877026
 30
0.0
 11
-14141.561437767639
 21
-10031.379458060435
 31
0.0
  0
LINE
  5
115
100
AcDbEntity
  8
Frei
  6
CONTINUOUS
 62
           7
100
AcDbLine
 10
-14062.722124238389
 20
-10036.415591720006
 30
0.0
 11
-14037.772974387362
 21
-10038.009304903415
 31
0.0
  0
LINE
  5
116
100
AcDbEntity
  8
Frei
  6
CONTINUOUS
 62
           7
100
AcDbLine
 10
-14062.690249974721
 20
-10035.916608722986
 30
0.0
 11
-14062.722124238389
 21
-10036.415591720006
 31
0.0
  0
LINE
  5
117
100
AcDbEntity
  8
Frei
  6
CONTINUOUS
 62
           7
100
AcDbLine
 10
-14059.725943453583
 20
-9989.511190000076
 30
0.0
 11
-14062.690249974721
 21
-10035.916608722986
 31
0.0
  0
LINE
  5
118
100
AcDbEntity
  8
Frei
  6
CONTINUOUS
 62
           7
100
AcDbLine
 10
-14059.757817717251
 20
-9990.010172997094
 30
0.0
 11
-14060.755783711291
 21
-9989.946424469757
 31
0.0
  0
LINE
  5
119
100
AcDbEntity
  8
Frei
  6
CONTINUOUS
 62
           7
100
AcDbLine
 10
-14062.690249974721
 20
-10035.916608722986
 30
0.0
 11
-14063.688215968763
 21
-10035.85286019565
 31
0.0
  0
LINE
  5
11A
100
AcDbEntity
  8
Frei
  6
CONTINUOUS
 62
           7
100
AcDbLine
 10
-14034.277810605534
 20
-9991.136777447151
 30
0.0
 11
-14034.928045584365
 21
-10001.316030586369
 31
0.0
  0
LINE
  5
11B
100
AcDbEntity
  8
Frei
  6
CONTINUOUS
 62
           7
100
AcDbLine
 10
-14034.277810605534
 20
-9991.136777447151
 30
0.0
 11
-14059.725943453583
 21
-9989.511190000076
 31
0.0
  0
LINE
  5
11C
100
AcDbEntity
  8
Frei
  6
CONTINUOUS
 62
           7
100
AcDbLine
 10
-14035.427028581385
 20
-10001.284156322701
 30
0.0
 11
-14034.928045584365
 21
-10001.316030586369
 31
0.0
  0
LINE
  5
11D
100
AcDbEntity
  8
Frei
  6
CONTINUOUS
 62
           7
100
AcDbLine
 10
-14035.427028581385
 20
-10001.284156322701
 30
0.0
 11
-14037.772974387362
 21
-10038.009304903415
 31
0.0
  0
LINE
  5
11E
100
AcDbEntity
  8
Frei
  6
CONTINUOUS
 62
           7
100
AcDbLine
 10
-14210.984425963286
 20
-9996.583068736441
 30
0.0
 11
-14212.98035795137
 21
-9996.455571681769
 31
0.0
  0
LINE
  5
11F
100
AcDbEntity
  8
Frei
  6
CONTINUOUS
 62
           7
100
AcDbLine
 10
-14211.197681988637
 20
-10015.608171150559
 30
0.0
 11
-14210.050208496583
 21
-9997.64478325782
 31
0.0
  0
LINE
  5
120
100
AcDbEntity
  8
Frei
  6
CONTINUOUS
 62
           7
100
AcDbLine
 10
-14214.255328498097
 20
-10016.414891562592
 30
0.0
 11
-14212.259396510013
 21
-10016.542388617265
 31
0.0
  0
LINE
  5
121
100
AcDbEntity
  8
Frei
  6
CONTINUOUS
 62
           7
100
AcDbLine
 10
-14214.870803328118
 20
-10010.363347071008
 30
0.0
 11
-14215.1895459648
 21
-10015.353177041214
 31
0.0
  0
LINE
  5
122
100
AcDbEntity
  8
Frei
  6
CONTINUOUS
 62
           7
100
AcDbLine
 10
-14212.98035795137
 20
-9996.455571681769
 30
0.0
 11
-14214.042072472746
 21
-9997.389789148474
 31
0.0
  0
LINE
  5
123
100
AcDbEntity
  8
Frei
  6
CONTINUOUS
 62
           7
100
AcDbLine
 10
-14210.984425963286
 20
-9996.583068736441
 30
0.0
 11
-14210.050208496583
 21
-9997.64478325782
 31
0.0
  0
LINE
  5
124
100
AcDbEntity
  8
Frei
  6
CONTINUOUS
 62
           7
100
AcDbLine
 10
-14211.197681988637
 20
-10015.608171150559
 30
0.0
 11
-14212.259396510013
 21
-10016.542388617265
 31
0.0
  0
LINE
  5
125
100
AcDbEntity
  8
Frei
  6
CONTINUOUS
 62
           7
100
AcDbLine
 10
-14214.255328498097
 20
-10016.414891562592
 30
0.0
 11
-14215.1895459648
 21
-10015.353177041214
 31
0.0
  0
LINE
  5
126
100
AcDbEntity
  8
Frei
  6
CONTINUOUS
 62
           7
100
AcDbLine
 10
-14214.255328498097
 20
-10016.414891562592
 30
0.0
 11
-14212.98035795137
 21
-9996.455571681769
 31
0.0
  0
LINE
  5
127
100
AcDbEntity
  8
Frei
  6
CONTINUOUS
 62
           7
100
AcDbLine
 10
-14212.259396510013
 20
-10016.542388617265
 30
0.0
 11
-14210.984425963286
 21
-9996.583068736441
 31
0.0
  0
LINE
  5
128
100
AcDbEntity
  8
Frei
  6
CONTINUOUS
 62
           7
100
AcDbLine
 10
-14211.675795943658
 20
-10023.092916105868
 30
0.0
 11
-14211.197681988637
 21
-10015.608171150559
 31
0.0
  0
LINE
  5
129
100
AcDbEntity
  8
Frei
  6
CONTINUOUS
 62
           7
100
AcDbLine
 10
-14182.129171106772
 20
-10015.46094645523
 30
0.0
 11
-14182.734782116468
 21
-10024.941623398621
 31
0.0
  0
LINE
  5
12A
100
AcDbEntity
  8
Frei
  6
CONTINUOUS
 62
           7
100
AcDbLine
 10
-14215.422529630805
 20
-10003.313836585385
 30
0.0
 11
-14214.360815109429
 21
-10002.379619118679
 31
0.0
  0
LINE
  5
12B
100
AcDbEntity
  8
Frei
  6
CONTINUOUS
 62
           7
100
AcDbLine
 10
-14214.042072472746
 20
-9997.389789148474
 30
0.0
 11
-14214.360815109429
 21
-10002.379619118679
 31
0.0
  0
LINE
  5
12C
100
AcDbEntity
  8
Frei
  6
CONTINUOUS
 62
           7
100
AcDbLine
 10
-14215.454403894473
 20
-10003.812819582405
 30
0.0
 11
-14215.422529630805
 21
-10003.313836585385
 31
0.0
  0
LINE
  5
12D
100
AcDbEntity
  8
Frei
  6
CONTINUOUS
 62
           7
100
AcDbLine
 10
-14214.870803328118
 20
-10010.363347071008
 30
0.0
 11
-14215.805020794824
 21
-10009.30163254963
 31
0.0
  0
LINE
  5
12E
100
AcDbEntity
  8
Frei
  6
CONTINUOUS
 62
           7
100
AcDbLine
 10
-14214.807054800784
 20
-10009.365381076967
 30
0.0
 11
-14214.870803328118
 21
-10010.363347071008
 31
0.0
  0
LINE
  5
12F
100
AcDbEntity
  8
Frei
  6
CONTINUOUS
 62
           2
100
AcDbLine
 10
-14214.424563636765
 20
-10003.377585112721
 30
0.0
 11
-14215.422529630805
 21
-10003.313836585385
 31
0.0
  0
LINE
  5
130
100
AcDbEntity
  8
Frei
  6
CONTINUOUS
 62
           7
100
AcDbLine
 10
-14214.360815109429
 20
-10002.379619118679
 30
0.0
 11
-14214.424563636765
 21
-10003.377585112721
 31
0.0
  0
LINE
  5
131
100
AcDbEntity
  8
Frei
  6
CONTINUOUS
 62
           2
100
AcDbLine
 10
-14214.807054800784
 20
-10009.365381076967
 30
0.0
 11
-14215.805020794824
 21
-10009.30163254963
 31
0.0
  0
LINE
  5
132
100
AcDbEntity
  8
Frei
  6
CONTINUOUS
 62
           7
100
AcDbLine
 10
-14214.424563636765
 20
-10003.377585112721
 30
0.0
 11
-14214.807054800784
 21
-10009.365381076967
 31
0.0
  0
LINE
  5
133
100
AcDbEntity
  8
Frei
  6
CONTINUOUS
 62
           1
100
AcDbLine
 10
-14212.971114272204
 20
-10003.971448290511
 30
0.0
 11
-14215.454403894473
 21
-10003.812819582405
 31
0.0
  0
LINE
  5
134
100
AcDbEntity
  8
Frei
  6
CONTINUOUS
 62
           7
100
AcDbLine
 10
-14215.486278158141
 20
-10004.311802579425
 30
0.0
 11
-14215.454403894473
 21
-10003.812819582405
 31
0.0
  0
LINE
  5
135
100
AcDbEntity
  8
Frei
  6
CONTINUOUS
 62
           1
100
AcDbLine
 10
-14213.289856908887
 20
-10008.961278260716
 30
0.0
 11
-14215.773146531155
 21
-10008.80264955261
 31
0.0
  0
LINE
  5
136
100
AcDbEntity
  8
Frei
  6
CONTINUOUS
 62
           7
100
AcDbLine
 10
-14215.805020794824
 20
-10009.30163254963
 30
0.0
 11
-14215.773146531155
 21
-10008.80264955261
 31
0.0
  0
LINE
  5
137
100
AcDbEntity
  8
Frei
  6
CONTINUOUS
 62
           1
100
AcDbLine
 10
-14213.002988535873
 20
-10004.470431287533
 30
0.0
 11
-14215.486278158141
 21
-10004.311802579425
 31
0.0
  0
LINE
  5
138
100
AcDbEntity
  8
Frei
  6
CONTINUOUS
 62
           7
100
AcDbLine
 10
-14215.741272267487
 20
-10008.30366655559
 30
0.0
 11
-14215.486278158141
 21
-10004.311802579425
 31
0.0
  0
LINE
  5
139
100
AcDbEntity
  8
Frei
  6
CONTINUOUS
 62
           1
100
AcDbLine
 10
-14213.257982645218
 20
-10008.462295263696
 30
0.0
 11
-14215.741272267487
 21
-10008.30366655559
 31
0.0
  0
LINE
  5
13A
100
AcDbEntity
  8
Frei
  6
CONTINUOUS
 62
           7
100
AcDbLine
 10
-14215.773146531155
 20
-10008.80264955261
 30
0.0
 11
-14215.741272267487
 21
-10008.30366655559
 31
0.0
  0
LINE
  5
13B
100
AcDbEntity
  8
Frei
  6
CONTINUOUS
 62
           7
100
AcDbLine
 10
-14207.961075053492
 20
-9995.218325218952
 30
0.0
 11
-14180.886074823713
 21
-9996.000609571429
 31
0.0
  0
LINE
  5
13C
100
AcDbEntity
  8
Frei
  6
CONTINUOUS
 62
           7
100
AcDbLine
 10
-14210.014769406651
 20
-9997.089993867561
 30
0.0
 11
-14210.050208496583
 21
-9997.64478325782
 31
0.0
  0
LINE
  5
13D
100
AcDbEntity
  8
Frei
  6
CONTINUOUS
 62
           7
100
AcDbLine
 10
-14182.734782116468
 20
-10024.941623398621
 30
0.0
 11
-14211.675795943658
 21
-10023.092916105868
 31
0.0
  0
LINE
  5
13E
100
AcDbEntity
  8
Frei
  6
CONTINUOUS
 62
           7
100
AcDbLine
 10
-14211.739544470995
 20
-10024.090882099908
 30
0.0
 11
-14211.675795943658
 21
-10023.092916105868
 31
0.0
  0
LINE
  5
13F
100
AcDbEntity
  8
Frei
  6
CONTINUOUS
 62
           7
100
AcDbLine
 10
-14211.240561473975
 20
-10024.122756363577
 30
0.0
 11
-14211.739544470995
 21
-10024.090882099908
 31
0.0
  0
LINE
  5
140
100
AcDbEntity
  8
Frei
  6
CONTINUOUS
 62
           7
100
AcDbLine
 10
-14182.734782116468
 20
-10024.941623398621
 30
0.0
 11
-14182.798530643804
 21
-10025.939589392663
 31
0.0
  0
LINE
  5
141
100
AcDbEntity
  8
Frei
  6
CONTINUOUS
 62
           7
100
AcDbLine
 10
-14222.547935266779
 20
-10036.42695474908
 30
0.0
 11
-14212.069292329346
 21
-10037.096314286111
 31
0.0
  0
LINE
  5
142
100
AcDbEntity
  8
Frei
  6
CONTINUOUS
 62
           7
100
AcDbLine
 10
-14225.064860695222
 20
-10052.298787862734
 30
0.0
 11
-14225.09673495889
 21
-10052.797770859754
 31
0.0
  0
LINE
  5
143
100
AcDbEntity
  8
Frei
  6
CONTINUOUS
 62
           7
100
AcDbLine
 10
-14223.695408758833
 20
-10054.39034264182
 30
0.0
 11
-14213.2167658214
 21
-10055.059702178851
 31
0.0
  0
LINE
  5
144
100
AcDbEntity
  8
Frei
  6
CONTINUOUS
 62
           7
100
AcDbLine
 10
-14212.993645975725
 20
-10051.566821199707
 30
0.0
 11
-14211.240561473975
 21
-10024.122756363577
 31
0.0
  0
LINE
  5
145
100
AcDbEntity
  8
Frei
  6
CONTINUOUS
 62
           7
100
AcDbLine
 10
-14183.297513640824
 20
-10025.907715128995
 30
0.0
 11
-14211.240561473975
 21
-10024.122756363577
 31
0.0
  0
LINE
  5
146
100
AcDbEntity
  8
Frei
  6
CONTINUOUS
 62
           7
100
AcDbLine
 10
-14211.592319775667
 20
-10053.159392981774
 30
0.0
 11
-14205.640349178753
 21
-10053.539595676622
 31
0.0
  0
LINE
  5
147
100
AcDbEntity
  8
Frei
  6
CONTINUOUS
 62
           7
100
AcDbLine
 10
-14185.050598142572
 20
-10053.351779965125
 30
0.0
 11
-14183.297513640824
 21
-10025.907715128995
 31
0.0
  0
LINE
  5
148
100
AcDbEntity
  8
Frei
  6
CONTINUOUS
 62
           7
100
AcDbLine
 10
-14182.798530643804
 20
-10025.939589392663
 30
0.0
 11
-14183.297513640824
 21
-10025.907715128995
 31
0.0
  0
LINE
  5
149
100
AcDbEntity
  8
Frei
  6
CONTINUOUS
 62
           7
100
AcDbLine
 10
-14205.640349178753
 20
-10053.539595676622
 30
0.0
 11
-14213.2167658214
 21
-10055.059702178851
 31
0.0
  0
LINE
  5
14A
100
AcDbEntity
  8
Frei
  6
CONTINUOUS
 62
           7
100
AcDbLine
 10
-14186.643169924639
 20
-10054.753106165183
 30
0.0
 11
-14205.640349178753
 21
-10053.539595676622
 31
0.0
  0
LINE
  5
14B
100
AcDbEntity
  8
Frei
  6
CONTINUOUS
 62
           7
100
AcDbLine
 10
-14229.162211282719
 20
-10038.008521309475
 30
0.0
 11
-14224.172381312514
 21
-10038.327263946157
 31
0.0
  0
LINE
  5
14C
100
AcDbEntity
  8
Frei
  6
CONTINUOUS
 62
           7
100
AcDbLine
 10
-14224.140507048845
 20
-10037.828280949137
 30
0.0
 11
-14224.172381312514
 21
-10038.327263946157
 31
0.0
  0
LINE
  5
14D
100
AcDbEntity
  8
Frei
  6
CONTINUOUS
 62
           7
100
AcDbLine
 10
-14230.054690665427
 20
-10051.980045226052
 30
0.0
 11
-14225.064860695222
 21
-10052.298787862734
 31
0.0
  0
LINE
  5
14E
100
AcDbEntity
  8
Frei
  6
CONTINUOUS
 62
           7
100
AcDbLine
 10
-14225.001112167885
 20
-10051.300821868692
 30
0.0
 11
-14225.064860695222
 21
-10052.298787862734
 31
0.0
  0
LINE
  5
14F
100
AcDbEntity
  8
Frei
  6
CONTINUOUS
 62
           2
100
AcDbLine
 10
-14224.23612983985
 20
-10039.325229940199
 30
0.0
 11
-14229.225959810055
 21
-10039.006487303517
 31
0.0
  0
LINE
  5
150
100
AcDbEntity
  8
Frei
  6
CONTINUOUS
 62
           7
100
AcDbLine
 10
-14224.172381312514
 20
-10038.327263946157
 30
0.0
 11
-14224.23612983985
 21
-10039.325229940199
 31
0.0
  0
LINE
  5
151
100
AcDbEntity
  8
Frei
  6
CONTINUOUS
 62
           2
100
AcDbLine
 10
-14225.001112167885
 20
-10051.300821868692
 30
0.0
 11
-14229.990942138091
 21
-10050.98207923201
 31
0.0
  0
LINE
  5
152
100
AcDbEntity
  8
Frei
  6
CONTINUOUS
 62
           7
100
AcDbLine
 10
-14224.23612983985
 20
-10039.325229940199
 30
0.0
 11
-14225.001112167885
 21
-10051.300821868692
 31
0.0
  0
LINE
  5
153
100
AcDbEntity
  8
Frei
  6
CONTINUOUS
 62
           7
100
AcDbLine
 10
-14181.236691724063
 20
-10001.489422538656
 30
0.0
 11
-14180.482240753632
 21
-10001.537615702149
 31
0.0
  0
LINE
  5
154
100
AcDbEntity
  8
Frei
  6
CONTINUOUS
 62
           7
100
AcDbLine
 10
-14180.886074823713
 20
-9996.000609571429
 30
0.0
 11
-14181.236691724063
 21
-10001.489422538656
 31
0.0
  0
LINE
  5
155
100
AcDbEntity
  8
Frei
  6
CONTINUOUS
 62
           7
100
AcDbLine
 10
-14181.459811569741
 20
-10004.9823035178
 30
0.0
 11
-14180.70536059931
 21
-10005.030496681293
 31
0.0
  0
LINE
  5
156
100
AcDbEntity
  8
Frei
  6
CONTINUOUS
 62
           7
100
AcDbLine
 10
-14181.236691724063
 20
-10001.489422538656
 30
0.0
 11
-14181.459811569741
 21
-10004.9823035178
 31
0.0
  0
LINE
  5
157
100
AcDbEntity
  8
Frei
  6
CONTINUOUS
 62
           7
100
AcDbLine
 10
-14181.906051261094
 20
-10011.968065476087
 30
0.0
 11
-14181.151600290665
 21
-10012.01625863958
 31
0.0
  0
LINE
  5
158
100
AcDbEntity
  8
Frei
  6
CONTINUOUS
 62
           7
100
AcDbLine
 10
-14181.459811569741
 20
-10004.9823035178
 30
0.0
 11
-14181.906051261094
 21
-10011.968065476087
 31
0.0
  0
LINE
  5
159
100
AcDbEntity
  8
Frei
  6
CONTINUOUS
 62
           7
100
AcDbLine
 10
-14182.129171106772
 20
-10015.46094645523
 30
0.0
 11
-14181.374720136342
 21
-10015.509139618725
 31
0.0
  0
LINE
  5
15A
100
AcDbEntity
  8
Frei
  6
CONTINUOUS
 62
           7
100
AcDbLine
 10
-14181.906051261094
 20
-10011.968065476087
 30
0.0
 11
-14182.129171106772
 21
-10015.46094645523
 31
0.0
  0
LINE
  5
15B
100
AcDbEntity
  8
Frei
  6
CONTINUOUS
 62
           7
100
AcDbLine
 10
-14180.185982424357
 20
-10008.570807287948
 30
0.0
 11
-14179.851302655839
 21
-10003.331485819232
 31
0.0
  0
LINE
  5
15C
100
AcDbEntity
  8
Frei
  6
CONTINUOUS
 62
           7
100
AcDbLine
 10
-14229.10303969372
 20
-10037.082206050101
 30
0.0
 11
-14229.019567303383
 21
-10035.775468302936
 31
0.0
  0
LINE
  5
15D
100
AcDbEntity
  8
Frei
  6
CONTINUOUS
 62
           7
100
AcDbLine
 10
-14234.43271922488
 20
-10053.94254840294
 30
0.0
 11
-14230.197334644761
 21
-10054.213098232591
 31
0.0
  0
LINE
  5
15E
100
AcDbEntity
  8
Frei
  6
CONTINUOUS
 62
           7
100
AcDbLine
 10
-14234.092869663926
 20
-10036.763463413421
 30
0.0
 11
-14229.10303969372
 21
-10037.082206050101
 31
0.0
  0
LINE
  5
15F
100
AcDbEntity
  8
Frei
  6
CONTINUOUS
 62
           7
100
AcDbLine
 10
-14229.230536748391
 20
-10039.078138038183
 30
0.0
 11
-14229.10303969372
 21
-10037.082206050101
 31
0.0
  0
LINE
  5
160
100
AcDbEntity
  8
Frei
  6
CONTINUOUS
 62
           7
100
AcDbLine
 10
-14229.230536748391
 20
-10039.078138038183
 30
0.0
 11
-14234.220366718599
 21
-10038.759395401503
 31
0.0
  0
LINE
  5
161
100
AcDbEntity
  8
Frei
  6
CONTINUOUS
 62
           7
100
AcDbLine
 10
-14234.092869663926
 20
-10036.763463413421
 30
0.0
 11
-14234.220366718599
 21
-10038.759395401503
 31
0.0
  0
LINE
  5
162
100
AcDbEntity
  8
Frei
  6
CONTINUOUS
 62
           7
100
AcDbLine
 10
-14229.314009138729
 20
-10040.38487578535
 30
0.0
 11
-14229.230536748391
 21
-10039.078138038183
 31
0.0
  0
LINE
  5
163
100
AcDbEntity
  8
Frei
  6
CONTINUOUS
 62
           7
100
AcDbLine
 10
-14229.480953919399
 20
-10042.998351279681
 30
0.0
 11
-14229.314009138729
 21
-10040.38487578535
 31
0.0
  0
LINE
  5
164
100
AcDbEntity
  8
Frei
  6
CONTINUOUS
 62
           7
100
AcDbLine
 10
-14229.480953919399
 20
-10042.998351279681
 30
0.0
 11
-14234.470783889605
 21
-10042.679608642999
 31
0.0
  0
LINE
  5
165
100
AcDbEntity
  8
Frei
  6
CONTINUOUS
 62
           7
100
AcDbLine
 10
-14234.220366718599
 20
-10038.759395401503
 30
0.0
 11
-14234.470783889605
 21
-10042.679608642999
 31
0.0
  0
LINE
  5
166
100
AcDbEntity
  8
Frei
  6
CONTINUOUS
 62
           7
100
AcDbLine
 10
-14229.735948028745
 20
-10046.990215255846
 30
0.0
 11
-14229.480953919399
 21
-10042.998351279681
 31
0.0
  0
LINE
  5
167
100
AcDbEntity
  8
Frei
  6
CONTINUOUS
 62
           7
100
AcDbLine
 10
-14229.735948028745
 20
-10046.990215255846
 30
0.0
 11
-14234.72577799895
 21
-10046.671472619164
 31
0.0
  0
LINE
  5
168
100
AcDbEntity
  8
Frei
  6
CONTINUOUS
 62
           7
100
AcDbLine
 10
-14234.470783889605
 20
-10042.679608642999
 30
0.0
 11
-14234.72577799895
 21
-10046.671472619164
 31
0.0
  0
LINE
  5
169
100
AcDbEntity
  8
Frei
  6
CONTINUOUS
 62
           7
100
AcDbLine
 10
-14229.902892809418
 20
-10049.603690750178
 30
0.0
 11
-14229.735948028745
 21
-10046.990215255846
 31
0.0
  0
LINE
  5
16A
100
AcDbEntity
  8
Frei
  6
CONTINUOUS
 62
           7
100
AcDbLine
 10
-14229.986365199753
 20
-10050.910428497344
 30
0.0
 11
-14229.902892809418
 21
-10049.603690750178
 31
0.0
  0
LINE
  5
16B
100
AcDbEntity
  8
Frei
  6
CONTINUOUS
 62
           7
100
AcDbLine
 10
-14229.986365199753
 20
-10050.910428497344
 30
0.0
 11
-14234.976195169958
 21
-10050.591685860662
 31
0.0
  0
LINE
  5
16C
100
AcDbEntity
  8
Frei
  6
CONTINUOUS
 62
           7
100
AcDbLine
 10
-14234.72577799895
 20
-10046.671472619164
 30
0.0
 11
-14234.976195169958
 21
-10050.591685860662
 31
0.0
  0
LINE
  5
16D
100
AcDbEntity
  8
Frei
  6
CONTINUOUS
 62
           7
100
AcDbLine
 10
-14230.113862254426
 20
-10052.906360485425
 30
0.0
 11
-14229.986365199753
 21
-10050.910428497344
 31
0.0
  0
LINE
  5
16E
100
AcDbEntity
  8
Frei
  6
CONTINUOUS
 62
           7
100
AcDbLine
 10
-14230.113862254426
 20
-10052.906360485425
 30
0.0
 11
-14235.103692224631
 21
-10052.587617848743
 31
0.0
  0
LINE
  5
16F
100
AcDbEntity
  8
Frei
  6
CONTINUOUS
 62
           7
100
AcDbLine
 10
-14234.976195169958
 20
-10050.591685860662
 30
0.0
 11
-14235.103692224631
 21
-10052.587617848743
 31
0.0
  0
LINE
  5
170
100
AcDbEntity
  8
Frei
  6
CONTINUOUS
 62
           7
100
AcDbLine
 10
-14230.197334644761
 20
-10054.213098232591
 30
0.0
 11
-14230.113862254426
 21
-10052.906360485425
 31
0.0
  0
LINE
  5
171
100
AcDbEntity
  8
Frei
  6
CONTINUOUS
 62
           7
100
AcDbLine
 10
-14234.092869663926
 20
-10036.763463413421
 30
0.0
 11
-14233.254951883502
 21
-10035.504918473285
 31
0.0
  0
LINE
  5
172
100
AcDbEntity
  8
Frei
  6
CONTINUOUS
 62
           7
100
AcDbLine
 10
-14229.019567303383
 20
-10035.775468302936
 30
0.0
 11
-14233.254951883502
 21
-10035.504918473285
 31
0.0
  0
LINE
  5
173
100
AcDbEntity
  8
Frei
  6
CONTINUOUS
 62
           7
100
AcDbLine
 10
-14234.43271922488
 20
-10053.94254840294
 30
0.0
 11
-14235.103692224631
 21
-10052.587617848743
 31
0.0
  0
LINE
  5
174
100
AcDbEntity
  8
Frei
  6
CONTINUOUS
 62
           7
100
AcDbLine
 10
-14233.549393718848
 20
-10040.114325955697
 30
0.0
 11
-14234.220366718599
 21
-10038.759395401503
 31
0.0
  0
LINE
  5
175
100
AcDbEntity
  8
Frei
  6
CONTINUOUS
 62
           7
100
AcDbLine
 10
-14229.314009138729
 20
-10040.38487578535
 30
0.0
 11
-14233.549393718848
 21
-10040.114325955697
 31
0.0
  0
LINE
  5
176
100
AcDbEntity
  8
Frei
  6
CONTINUOUS
 62
           7
100
AcDbLine
 10
-14234.470783889605
 20
-10042.679608642999
 30
0.0
 11
-14233.549393718848
 21
-10040.114325955697
 31
0.0
  0
LINE
  5
177
100
AcDbEntity
  8
Frei
  6
CONTINUOUS
 62
           7
100
AcDbLine
 10
-14234.138277389537
 20
-10049.333140920526
 30
0.0
 11
-14234.72577799895
 21
-10046.671472619164
 31
0.0
  0
LINE
  5
178
100
AcDbEntity
  8
Frei
  6
CONTINUOUS
 62
           7
100
AcDbLine
 10
-14229.902892809418
 20
-10049.603690750178
 30
0.0
 11
-14234.138277389537
 21
-10049.333140920526
 31
0.0
  0
LINE
  5
179
100
AcDbEntity
  8
Frei
  6
CONTINUOUS
 62
           7
100
AcDbLine
 10
-14234.976195169958
 20
-10050.591685860662
 30
0.0
 11
-14234.138277389537
 21
-10049.333140920526
 31
0.0
  0
LINE
  5
17A
100
AcDbEntity
  8
Frei
  6
CONTINUOUS
 62
           3
100
AcDbLine
 10
-14189.683436359695
 20
-10047.444427761813
 30
0.0
 11
-14207.646824252435
 21
-10046.296954269759
 31
0.0
  0
LINE
  5
17B
100
AcDbEntity
  8
Frei
  6
CONTINUOUS
 62
           3
100
AcDbLine
 10
-14190.32046507252
 20
-10048.004958241836
 30
0.0
 11
-14189.683436359695
 21
-10047.444427761813
 31
0.0
  0
LINE
  5
17C
100
AcDbEntity
  8
Frei
  6
CONTINUOUS
 62
           3
100
AcDbLine
 10
-14189.759934592499
 20
-10048.641986954663
 30
0.0
 11
-14190.32046507252
 21
-10048.004958241836
 31
0.0
  0
LINE
  5
17D
100
AcDbEntity
  8
Frei
  6
CONTINUOUS
 62
           3
100
AcDbLine
 10
-14207.723322485239
 20
-10047.494513462609
 30
0.0
 11
-14189.759934592499
 21
-10048.641986954663
 31
0.0
  0
LINE
  5
17E
100
AcDbEntity
  8
Frei
  6
CONTINUOUS
 62
           3
100
AcDbLine
 10
-14207.086293772412
 20
-10046.933982982586
 30
0.0
 11
-14207.723322485239
 21
-10047.494513462609
 31
0.0
  0
LINE
  5
17F
100
AcDbEntity
  8
Frei
  6
CONTINUOUS
 62
           3
100
AcDbLine
 10
-14207.646824252435
 20
-10046.296954269759
 30
0.0
 11
-14207.086293772412
 21
-10046.933982982586
 31
0.0
  0
LINE
  5
180
100
AcDbEntity
  8
Frei
  6
CONTINUOUS
 62
           3
100
AcDbLine
 10
-14190.32046507252
 20
-10048.004958241836
 30
0.0
 11
-14207.086293772412
 21
-10046.933982982586
 31
0.0
  0
LINE
  5
181
100
AcDbEntity
  8
Frei
  6
CONTINUOUS
 62
           3
100
AcDbLine
 10
-14207.595825430566
 20
-10045.498581474527
 30
0.0
 11
-14206.958796717739
 21
-10044.938050994502
 31
0.0
  0
LINE
  5
182
100
AcDbEntity
  8
Frei
  6
CONTINUOUS
 62
           3
100
AcDbLine
 10
-14189.632437537826
 20
-10046.646054966581
 30
0.0
 11
-14207.595825430566
 21
-10045.498581474527
 31
0.0
  0
LINE
  5
183
100
AcDbEntity
  8
Frei
  6
CONTINUOUS
 62
           3
100
AcDbLine
 10
-14190.192968017847
 20
-10046.009026253754
 30
0.0
 11
-14189.632437537826
 21
-10046.646054966581
 31
0.0
  0
LINE
  5
184
100
AcDbEntity
  8
Frei
  6
CONTINUOUS
 62
           3
100
AcDbLine
 10
-14189.555939305023
 20
-10045.448495773731
 30
0.0
 11
-14190.192968017847
 21
-10046.009026253754
 31
0.0
  0
LINE
  5
185
100
AcDbEntity
  8
Frei
  6
CONTINUOUS
 62
           3
100
AcDbLine
 10
-14207.519327197762
 20
-10044.301022281677
 30
0.0
 11
-14189.555939305023
 21
-10045.448495773731
 31
0.0
  0
LINE
  5
186
100
AcDbEntity
  8
Frei
  6
CONTINUOUS
 62
           3
100
AcDbLine
 10
-14206.958796717739
 20
-10044.938050994502
 30
0.0
 11
-14207.519327197762
 21
-10044.301022281677
 31
0.0
  0
LINE
  5
187
100
AcDbEntity
  8
Frei
  6
CONTINUOUS
 62
           3
100
AcDbLine
 10
-14206.958796717739
 20
-10044.938050994502
 30
0.0
 11
-14190.192968017847
 21
-10046.009026253754
 31
0.0
  0
LINE
  5
188
100
AcDbEntity
  8
Frei
  6
CONTINUOUS
 62
           3
100
AcDbLine
 10
-14207.468328375893
 20
-10043.502649486443
 30
0.0
 11
-14206.831299663067
 21
-10042.94211900642
 31
0.0
  0
LINE
  5
189
100
AcDbEntity
  8
Frei
  6
CONTINUOUS
 62
           3
100
AcDbLine
 10
-14189.504940483153
 20
-10044.650122978497
 30
0.0
 11
-14207.468328375893
 21
-10043.502649486443
 31
0.0
  0
LINE
  5
18A
100
AcDbEntity
  8
Frei
  6
CONTINUOUS
 62
           3
100
AcDbLine
 10
-14190.065470963174
 20
-10044.013094265671
 30
0.0
 11
-14189.504940483153
 21
-10044.650122978497
 31
0.0
  0
LINE
  5
18B
100
AcDbEntity
  8
Frei
  6
CONTINUOUS
 62
           3
100
AcDbLine
 10
-14189.42844225035
 20
-10043.45256378565
 30
0.0
 11
-14190.065470963174
 21
-10044.013094265671
 31
0.0
  0
LINE
  5
18C
100
AcDbEntity
  8
Frei
  6
CONTINUOUS
 62
           3
100
AcDbLine
 10
-14207.391830143089
 20
-10042.305090293596
 30
0.0
 11
-14189.42844225035
 21
-10043.45256378565
 31
0.0
  0
LINE
  5
18D
100
AcDbEntity
  8
Frei
  6
CONTINUOUS
 62
           3
100
AcDbLine
 10
-14206.831299663067
 20
-10042.94211900642
 30
0.0
 11
-14207.391830143089
 21
-10042.305090293596
 31
0.0
  0
LINE
  5
18E
100
AcDbEntity
  8
Frei
  6
CONTINUOUS
 62
           3
100
AcDbLine
 10
-14207.34083132122
 20
-10041.506717498361
 30
0.0
 11
-14206.703802608394
 21
-10040.946187018339
 31
0.0
  0
LINE
  5
18F
100
AcDbEntity
  8
Frei
  6
CONTINUOUS
 62
           3
100
AcDbLine
 10
-14201.260305067352
 20
-10041.895132130152
 30
0.0
 11
-14207.34083132122
 21
-10041.506717498361
 31
0.0
  0
LINE
  5
190
100
AcDbEntity
  8
Frei
  6
CONTINUOUS
 62
           3
100
AcDbLine
 10
-14189.937973908502
 20
-10042.017162277589
 30
0.0
 11
-14189.377443428481
 21
-10042.654190990415
 31
0.0
  0
LINE
  5
191
100
AcDbEntity
  8
Frei
  6
CONTINUOUS
 62
           3
100
AcDbLine
 10
-14189.300945195677
 20
-10041.456631797566
 30
0.0
 11
-14189.937973908502
 21
-10042.017162277589
 31
0.0
  0
LINE
  5
192
100
AcDbEntity
  8
Frei
  6
CONTINUOUS
 62
           3
100
AcDbLine
 10
-14195.381471449544
 20
-10041.068217165777
 30
0.0
 11
-14189.300945195677
 21
-10041.456631797566
 31
0.0
  0
LINE
  5
193
100
AcDbEntity
  8
Frei
  6
CONTINUOUS
 62
           3
100
AcDbLine
 10
-14206.703802608394
 20
-10040.946187018339
 30
0.0
 11
-14207.264333088417
 21
-10040.309158305512
 31
0.0
  0
LINE
  5
194
100
AcDbEntity
  8
Frei
  6
CONTINUOUS
 62
           3
100
AcDbLine
 10
-14207.213334266547
 20
-10039.51078551028
 30
0.0
 11
-14206.576305553721
 21
-10038.950255030257
 31
0.0
  0
LINE
  5
195
100
AcDbEntity
  8
Frei
  6
CONTINUOUS
 62
           3
100
AcDbLine
 10
-14201.877506302973
 20
-10039.851629964729
 30
0.0
 11
-14207.213334266547
 21
-10039.51078551028
 31
0.0
  0
LINE
  5
196
100
AcDbEntity
  8
Frei
  6
CONTINUOUS
 62
           3
100
AcDbLine
 10
-14189.810476853829
 20
-10040.021230289507
 30
0.0
 11
-14189.249946373808
 21
-10040.658259002334
 31
0.0
  0
LINE
  5
197
100
AcDbEntity
  8
Frei
  6
CONTINUOUS
 62
           3
100
AcDbLine
 10
-14195.146304817405
 20
-10039.680385835058
 30
0.0
 11
-14189.810476853829
 21
-10040.021230289507
 31
0.0
  0
LINE
  5
198
100
AcDbEntity
  8
Frei
  6
CONTINUOUS
 62
           3
100
AcDbLine
 10
-14200.623276354525
 20
-10041.334601650129
 30
0.0
 11
-14206.703802608394
 21
-10040.946187018339
 31
0.0
  0
LINE
  5
199
100
AcDbEntity
  8
Frei
  6
CONTINUOUS
 62
           3
100
AcDbLine
 10
-14190.065470963174
 20
-10044.013094265671
 30
0.0
 11
-14206.831299663067
 21
-10042.94211900642
 31
0.0
  0
LINE
  5
19A
100
AcDbEntity
  8
Frei
  6
CONTINUOUS
 62
           3
100
AcDbLine
 10
-14200.623276354525
 20
-10041.334601650129
 30
0.0
 11
-14201.183806834548
 21
-10040.697572937303
 31
0.0
  0
LINE
  5
19B
100
AcDbEntity
  8
Frei
  6
CONTINUOUS
 62
           3
100
AcDbLine
 10
-14207.264333088417
 20
-10040.309158305512
 30
0.0
 11
-14201.183806834548
 21
-10040.697572937303
 31
0.0
  0
LINE
  5
19C
100
AcDbEntity
  8
Frei
  6
CONTINUOUS
 62
           3
100
AcDbLine
 10
-14201.260305067352
 20
-10041.895132130152
 30
0.0
 11
-14200.623276354525
 21
-10041.334601650129
 31
0.0
  0
LINE
  5
19D
100
AcDbEntity
  8
Frei
  6
CONTINUOUS
 62
           3
100
AcDbLine
 10
-14201.240477590145
 20
-10039.291099484706
 30
0.0
 11
-14201.877506302973
 21
-10039.851629964729
 31
0.0
  0
LINE
  5
19E
100
AcDbEntity
  8
Frei
  6
CONTINUOUS
 62
           3
100
AcDbLine
 10
-14206.576305553721
 20
-10038.950255030257
 30
0.0
 11
-14201.240477590145
 21
-10039.291099484706
 31
0.0
  0
LINE
  5
19F
100
AcDbEntity
  8
Frei
  6
CONTINUOUS
 62
           3
100
AcDbLine
 10
-14194.585774337382
 20
-10040.317414547884
 30
0.0
 11
-14195.146304817405
 21
-10039.680385835058
 31
0.0
  0
LINE
  5
1A0
100
AcDbEntity
  8
Frei
  6
CONTINUOUS
 62
           3
100
AcDbLine
 10
-14189.249946373808
 20
-10040.658259002334
 30
0.0
 11
-14194.585774337382
 21
-10040.317414547884
 31
0.0
  0
LINE
  5
1A1
100
AcDbEntity
  8
Frei
  6
CONTINUOUS
 62
           3
100
AcDbLine
 10
-14196.018500162372
 20
-10041.6287476458
 30
0.0
 11
-14195.381471449544
 21
-10041.068217165777
 31
0.0
  0
LINE
  5
1A2
100
AcDbEntity
  8
Frei
  6
CONTINUOUS
 62
           3
100
AcDbLine
 10
-14189.937973908502
 20
-10042.017162277589
 30
0.0
 11
-14196.018500162372
 21
-10041.6287476458
 31
0.0
  0
LINE
  5
1A3
100
AcDbEntity
  8
Frei
  6
CONTINUOUS
 62
           3
100
AcDbLine
 10
-14195.457969682348
 20
-10042.265776358627
 30
0.0
 11
-14196.018500162372
 21
-10041.6287476458
 31
0.0
  0
LINE
  5
1A4
100
AcDbEntity
  8
Frei
  6
CONTINUOUS
 62
           3
100
AcDbLine
 10
-14189.377443428481
 20
-10042.654190990415
 30
0.0
 11
-14195.457969682348
 21
-10042.265776358627
 31
0.0
  0
LINE
  5
1A5
100
AcDbEntity
  8
Frei
  6
CONTINUOUS
 62
           3
100
AcDbLine
 10
-14207.264333088417
 20
-10040.309158305512
 30
0.0
 11
-14207.34083132122
 21
-10041.506717498361
 31
0.0
  0
LINE
  5
1A6
100
AcDbEntity
  8
Frei
  6
CONTINUOUS
 62
           3
100
AcDbLine
 10
-14207.468328375893
 20
-10043.502649486443
 30
0.0
 11
-14207.391830143089
 21
-10042.305090293596
 31
0.0
  0
LINE
  5
1A7
100
AcDbEntity
  8
Frei
  6
CONTINUOUS
 62
           3
100
AcDbLine
 10
-14207.595825430566
 20
-10045.498581474527
 30
0.0
 11
-14207.519327197762
 21
-10044.301022281677
 31
0.0
  0
LINE
  5
1A8
100
AcDbEntity
  8
Frei
  6
CONTINUOUS
 62
           3
100
AcDbLine
 10
-14207.723322485239
 20
-10047.494513462609
 30
0.0
 11
-14207.646824252435
 21
-10046.296954269759
 31
0.0
  0
LINE
  5
1A9
100
AcDbEntity
  8
Frei
  6
CONTINUOUS
 62
           3
100
AcDbLine
 10
-14207.175085150146
 20
-10038.912005913855
 30
0.0
 11
-14207.213334266547
 21
-10039.51078551028
 31
0.0
  0
LINE
  5
1AA
100
AcDbEntity
  8
Frei
  6
CONTINUOUS
 62
           3
100
AcDbLine
 10
-14189.249946373808
 20
-10040.658259002334
 30
0.0
 11
-14189.211697257406
 21
-10040.059479405909
 31
0.0
  0
LINE
  5
1AB
100
AcDbEntity
  8
Frei
  6
CONTINUOUS
 62
           3
100
AcDbLine
 10
-14189.377443428481
 20
-10042.654190990415
 30
0.0
 11
-14189.300945195677
 21
-10041.456631797566
 31
0.0
  0
LINE
  5
1AC
100
AcDbEntity
  8
Frei
  6
CONTINUOUS
 62
           3
100
AcDbLine
 10
-14189.504940483153
 20
-10044.650122978497
 30
0.0
 11
-14189.42844225035
 21
-10043.45256378565
 31
0.0
  0
LINE
  5
1AD
100
AcDbEntity
  8
Frei
  6
CONTINUOUS
 62
           3
100
AcDbLine
 10
-14189.632437537826
 20
-10046.646054966581
 30
0.0
 11
-14189.555939305023
 21
-10045.448495773731
 31
0.0
  0
LINE
  5
1AE
100
AcDbEntity
  8
Frei
  6
CONTINUOUS
 62
           3
100
AcDbLine
 10
-14189.759934592499
 20
-10048.641986954663
 30
0.0
 11
-14189.683436359695
 21
-10047.444427761813
 31
0.0
  0
LINE
  5
1AF
100
AcDbEntity
  8
Frei
  6
CONTINUOUS
 62
           3
100
AcDbLine
 10
-14188.739958155118
 20
-10032.674531050005
 30
0.0
 11
-14188.663459922314
 21
-10031.476971857155
 31
0.0
  0
LINE
  5
1B0
100
AcDbEntity
  8
Frei
  6
CONTINUOUS
 62
           3
100
AcDbLine
 10
-14188.867455209789
 20
-10034.670463038086
 30
0.0
 11
-14188.790956976985
 21
-10033.472903845237
 31
0.0
  0
LINE
  5
1B1
100
AcDbEntity
  8
Frei
  6
CONTINUOUS
 62
           3
100
AcDbLine
 10
-14188.994952264462
 20
-10036.66639502617
 30
0.0
 11
-14188.918454031658
 21
-10035.468835833321
 31
0.0
  0
LINE
  5
1B2
100
AcDbEntity
  8
Frei
  6
CONTINUOUS
 62
           3
100
AcDbLine
 10
-14189.122449319135
 20
-10038.662327014252
 30
0.0
 11
-14189.045951086331
 21
-10037.464767821402
 31
0.0
  0
LINE
  5
1B3
100
AcDbEntity
  8
Frei
  6
CONTINUOUS
 62
           3
100
AcDbLine
 10
-14189.211697257406
 20
-10040.059479405909
 30
0.0
 11
-14189.173448141004
 21
-10039.460699809484
 31
0.0
  0
LINE
  5
1B4
100
AcDbEntity
  8
Frei
  6
CONTINUOUS
 62
           3
100
AcDbLine
 10
-14207.136836033744
 20
-10038.31322631743
 30
0.0
 11
-14207.175085150146
 21
-10038.912005913855
 31
0.0
  0
LINE
  5
1B5
100
AcDbEntity
  8
Frei
  6
CONTINUOUS
 62
           3
100
AcDbLine
 10
-14206.703346047858
 20
-10031.527057557951
 30
0.0
 11
-14206.626847815054
 21
-10030.329498365101
 31
0.0
  0
LINE
  5
1B6
100
AcDbEntity
  8
Frei
  6
CONTINUOUS
 62
           3
100
AcDbLine
 10
-14206.830843102529
 20
-10033.522989546032
 30
0.0
 11
-14206.754344869727
 21
-10032.325430353185
 31
0.0
  0
LINE
  5
1B7
100
AcDbEntity
  8
Frei
  6
CONTINUOUS
 62
           3
100
AcDbLine
 10
-14206.958340157202
 20
-10035.518921534114
 30
0.0
 11
-14206.881841924398
 21
-10034.321362341267
 31
0.0
  0
LINE
  5
1B8
100
AcDbEntity
  8
Frei
  6
CONTINUOUS
 62
           3
100
AcDbLine
 10
-14207.009338979071
 20
-10036.317294329348
 30
0.0
 11
-14207.085837211875
 21
-10037.514853522198
 31
0.0
  0
LINE
  5
1B9
100
AcDbEntity
  8
Frei
  6
CONTINUOUS
 62
           3
100
AcDbLine
 10
-14195.1264773402
 20
-10037.076353189612
 30
0.0
 11
-14189.045951086331
 21
-10037.464767821402
 31
0.0
  0
LINE
  5
1BA
100
AcDbEntity
  8
Frei
  6
CONTINUOUS
 62
           3
100
AcDbLine
 10
-14195.763506053027
 20
-10037.636883669635
 30
0.0
 11
-14195.1264773402
 21
-10037.076353189612
 31
0.0
  0
LINE
  5
1BB
100
AcDbEntity
  8
Frei
  6
CONTINUOUS
 62
           3
100
AcDbLine
 10
-14195.763506053027
 20
-10037.636883669635
 30
0.0
 11
-14189.682979799156
 21
-10038.025298301425
 31
0.0
  0
LINE
  5
1BC
100
AcDbEntity
  8
Frei
  6
CONTINUOUS
 62
           3
100
AcDbLine
 10
-14195.202975573004
 20
-10038.273912382461
 30
0.0
 11
-14195.763506053027
 21
-10037.636883669635
 31
0.0
  0
LINE
  5
1BD
100
AcDbEntity
  8
Frei
  6
CONTINUOUS
 62
           3
100
AcDbLine
 10
-14194.509276104578
 20
-10039.119855355035
 30
0.0
 11
-14189.173448141004
 21
-10039.460699809484
 31
0.0
  0
LINE
  5
1BE
100
AcDbEntity
  8
Frei
  6
CONTINUOUS
 62
           3
100
AcDbLine
 10
-14195.146304817405
 20
-10039.680385835058
 30
0.0
 11
-14194.509276104578
 21
-10039.119855355035
 31
0.0
  0
LINE
  5
1BF
100
AcDbEntity
  8
Frei
  6
CONTINUOUS
 62
           3
100
AcDbLine
 10
-14201.80100807017
 20
-10038.65407077188
 30
0.0
 11
-14201.240477590145
 21
-10039.291099484706
 31
0.0
  0
LINE
  5
1C0
100
AcDbEntity
  8
Frei
  6
CONTINUOUS
 62
           3
100
AcDbLine
 10
-14200.368282245181
 20
-10037.342737673964
 30
0.0
 11
-14200.928812725202
 21
-10036.705708961137
 31
0.0
  0
LINE
  5
1C1
100
AcDbEntity
  8
Frei
  6
CONTINUOUS
 62
           3
100
AcDbLine
 10
-14201.005310958006
 20
-10037.903268153987
 30
0.0
 11
-14207.085837211875
 21
-10037.514853522198
 31
0.0
  0
LINE
  5
1C2
100
AcDbEntity
  8
Frei
  6
CONTINUOUS
 62
           3
100
AcDbLine
 10
-14201.005310958006
 20
-10037.903268153987
 30
0.0
 11
-14200.368282245181
 21
-10037.342737673964
 31
0.0
  0
LINE
  5
1C3
100
AcDbEntity
  8
Frei
  6
CONTINUOUS
 62
           3
100
AcDbLine
 10
-14206.321311444375
 20
-10034.958391054091
 30
0.0
 11
-14189.555482744485
 21
-10036.029366313343
 31
0.0
  0
LINE
  5
1C4
100
AcDbEntity
  8
Frei
  6
CONTINUOUS
 62
           3
100
AcDbLine
 10
-14206.448808499048
 20
-10036.954323042175
 30
0.0
 11
-14200.368282245181
 21
-10037.342737673964
 31
0.0
  0
LINE
  5
1C5
100
AcDbEntity
  8
Frei
  6
CONTINUOUS
 62
           3
100
AcDbLine
 10
-14189.173448141004
 20
-10039.460699809484
 30
0.0
 11
-14189.810476853829
 21
-10040.021230289507
 31
0.0
  0
LINE
  5
1C6
100
AcDbEntity
  8
Frei
  6
CONTINUOUS
 62
           3
100
AcDbLine
 10
-14207.136836033744
 20
-10038.31322631743
 30
0.0
 11
-14201.80100807017
 21
-10038.65407077188
 31
0.0
  0
LINE
  5
1C7
100
AcDbEntity
  8
Frei
  6
CONTINUOUS
 62
           3
100
AcDbLine
 10
-14206.576305553721
 20
-10038.950255030257
 30
0.0
 11
-14207.136836033744
 21
-10038.31322631743
 31
0.0
  0
LINE
  5
1C8
100
AcDbEntity
  8
Frei
  6
CONTINUOUS
 62
           3
100
AcDbLine
 10
-14207.085837211875
 20
-10037.514853522198
 30
0.0
 11
-14206.448808499048
 21
-10036.954323042175
 31
0.0
  0
LINE
  5
1C9
100
AcDbEntity
  8
Frei
  6
CONTINUOUS
 62
           3
100
AcDbLine
 10
-14189.122449319135
 20
-10038.662327014252
 30
0.0
 11
-14195.202975573004
 21
-10038.273912382461
 31
0.0
  0
LINE
  5
1CA
100
AcDbEntity
  8
Frei
  6
CONTINUOUS
 62
           3
100
AcDbLine
 10
-14189.682979799156
 20
-10038.025298301425
 30
0.0
 11
-14189.122449319135
 21
-10038.662327014252
 31
0.0
  0
LINE
  5
1CB
100
AcDbEntity
  8
Frei
  6
CONTINUOUS
 62
           3
100
AcDbLine
 10
-14189.045951086331
 20
-10037.464767821402
 30
0.0
 11
-14189.682979799156
 21
-10038.025298301425
 31
0.0
  0
LINE
  5
1CC
100
AcDbEntity
  8
Frei
  6
CONTINUOUS
 62
           3
100
AcDbLine
 10
-14207.009338979071
 20
-10036.317294329348
 30
0.0
 11
-14200.928812725202
 21
-10036.705708961137
 31
0.0
  0
LINE
  5
1CD
100
AcDbEntity
  8
Frei
  6
CONTINUOUS
 62
           3
100
AcDbLine
 10
-14206.448808499048
 20
-10036.954323042175
 30
0.0
 11
-14207.009338979071
 21
-10036.317294329348
 31
0.0
  0
LINE
  5
1CE
100
AcDbEntity
  8
Frei
  6
CONTINUOUS
 62
           3
100
AcDbLine
 10
-14206.958340157202
 20
-10035.518921534114
 30
0.0
 11
-14206.321311444375
 21
-10034.958391054091
 31
0.0
  0
LINE
  5
1CF
100
AcDbEntity
  8
Frei
  6
CONTINUOUS
 62
           3
100
AcDbLine
 10
-14188.994952264462
 20
-10036.66639502617
 30
0.0
 11
-14206.958340157202
 21
-10035.518921534114
 31
0.0
  0
LINE
  5
1D0
100
AcDbEntity
  8
Frei
  6
CONTINUOUS
 62
           3
100
AcDbLine
 10
-14189.555482744485
 20
-10036.029366313343
 30
0.0
 11
-14188.994952264462
 21
-10036.66639502617
 31
0.0
  0
LINE
  5
1D1
100
AcDbEntity
  8
Frei
  6
CONTINUOUS
 62
           3
100
AcDbLine
 10
-14188.918454031658
 20
-10035.468835833321
 30
0.0
 11
-14189.555482744485
 21
-10036.029366313343
 31
0.0
  0
LINE
  5
1D2
100
AcDbEntity
  8
Frei
  6
CONTINUOUS
 62
           3
100
AcDbLine
 10
-14206.881841924398
 20
-10034.321362341267
 30
0.0
 11
-14188.918454031658
 21
-10035.468835833321
 31
0.0
  0
LINE
  5
1D3
100
AcDbEntity
  8
Frei
  6
CONTINUOUS
 62
           3
100
AcDbLine
 10
-14206.321311444375
 20
-10034.958391054091
 30
0.0
 11
-14206.881841924398
 21
-10034.321362341267
 31
0.0
  0
LINE
  5
1D4
100
AcDbEntity
  8
Frei
  6
CONTINUOUS
 62
           3
100
AcDbLine
 10
-14189.427985689812
 20
-10034.03343432526
 30
0.0
 11
-14206.193814389702
 21
-10032.96245906601
 31
0.0
  0
LINE
  5
1D5
100
AcDbEntity
  8
Frei
  6
CONTINUOUS
 62
           3
100
AcDbLine
 10
-14206.830843102529
 20
-10033.522989546032
 30
0.0
 11
-14206.193814389702
 21
-10032.96245906601
 31
0.0
  0
LINE
  5
1D6
100
AcDbEntity
  8
Frei
  6
CONTINUOUS
 62
           3
100
AcDbLine
 10
-14188.867455209789
 20
-10034.670463038086
 30
0.0
 11
-14206.830843102529
 21
-10033.522989546032
 31
0.0
  0
LINE
  5
1D7
100
AcDbEntity
  8
Frei
  6
CONTINUOUS
 62
           3
100
AcDbLine
 10
-14189.427985689812
 20
-10034.03343432526
 30
0.0
 11
-14188.867455209789
 21
-10034.670463038086
 31
0.0
  0
LINE
  5
1D8
100
AcDbEntity
  8
Frei
  6
CONTINUOUS
 62
           3
100
AcDbLine
 10
-14188.790956976985
 20
-10033.472903845237
 30
0.0
 11
-14189.427985689812
 21
-10034.03343432526
 31
0.0
  0
LINE
  5
1D9
100
AcDbEntity
  8
Frei
  6
CONTINUOUS
 62
           3
100
AcDbLine
 10
-14206.754344869727
 20
-10032.325430353185
 30
0.0
 11
-14188.790956976985
 21
-10033.472903845237
 31
0.0
  0
LINE
  5
1DA
100
AcDbEntity
  8
Frei
  6
CONTINUOUS
 62
           3
100
AcDbLine
 10
-14206.193814389702
 20
-10032.96245906601
 30
0.0
 11
-14206.754344869727
 21
-10032.325430353185
 31
0.0
  0
LINE
  5
1DB
100
AcDbEntity
  8
Frei
  6
CONTINUOUS
 62
           3
100
AcDbLine
 10
-14206.066317335029
 20
-10030.966527077928
 30
0.0
 11
-14189.300488635139
 21
-10032.037502337178
 31
0.0
  0
LINE
  5
1DC
100
AcDbEntity
  8
Frei
  6
CONTINUOUS
 62
           3
100
AcDbLine
 10
-14206.066317335029
 20
-10030.966527077928
 30
0.0
 11
-14206.703346047858
 21
-10031.527057557951
 31
0.0
  0
LINE
  5
1DD
100
AcDbEntity
  8
Frei
  6
CONTINUOUS
 62
           3
100
AcDbLine
 10
-14206.626847815054
 20
-10030.329498365101
 30
0.0
 11
-14206.066317335029
 21
-10030.966527077928
 31
0.0
  0
LINE
  5
1DE
100
AcDbEntity
  8
Frei
  6
CONTINUOUS
 62
           3
100
AcDbLine
 10
-14188.663459922314
 20
-10031.476971857155
 30
0.0
 11
-14206.626847815054
 21
-10030.329498365101
 31
0.0
  0
LINE
  5
1DF
100
AcDbEntity
  8
Frei
  6
CONTINUOUS
 62
           3
100
AcDbLine
 10
-14189.300488635139
 20
-10032.037502337178
 30
0.0
 11
-14188.663459922314
 21
-10031.476971857155
 31
0.0
  0
LINE
  5
1E0
100
AcDbEntity
  8
Frei
  6
CONTINUOUS
 62
           3
100
AcDbLine
 10
-14188.739958155118
 20
-10032.674531050005
 30
0.0
 11
-14189.300488635139
 21
-10032.037502337178
 31
0.0
  0
LINE
  5
1E1
100
AcDbEntity
  8
Frei
  6
CONTINUOUS
 62
           3
100
AcDbLine
 10
-14206.703346047858
 20
-10031.527057557951
 30
0.0
 11
-14188.739958155118
 21
-10032.674531050005
 31
0.0
  0
LINE
  5
1E2
100
AcDbEntity
  8
Frei
  6
CONTINUOUS
 62
           3
100
AcDbLine
 10
-14016.091841186004
 20
-10043.70302627919
 30
0.0
 11
-13998.128453293264
 21
-10044.850499771244
 31
0.0
  0
LINE
  5
1E3
100
AcDbEntity
  8
Frei
  6
CONTINUOUS
 62
           3
100
AcDbLine
 10
-14015.454812473179
 20
-10043.142495799168
 30
0.0
 11
-14016.091841186004
 21
-10043.70302627919
 31
0.0
  0
LINE
  5
1E4
100
AcDbEntity
  8
Frei
  6
CONTINUOUS
 62
           3
100
AcDbLine
 10
-14016.0153429532
 20
-10042.505467086341
 30
0.0
 11
-14015.454812473179
 21
-10043.142495799168
 31
0.0
  0
LINE
  5
1E5
100
AcDbEntity
  8
Frei
  6
CONTINUOUS
 62
           3
100
AcDbLine
 10
-13998.05195506046
 20
-10043.652940578395
 30
0.0
 11
-14016.0153429532
 21
-10042.505467086341
 31
0.0
  0
LINE
  5
1E6
100
AcDbEntity
  8
Frei
  6
CONTINUOUS
 62
           3
100
AcDbLine
 10
-13998.688983773287
 20
-10044.213471058418
 30
0.0
 11
-13998.05195506046
 21
-10043.652940578395
 31
0.0
  0
LINE
  5
1E7
100
AcDbEntity
  8
Frei
  6
CONTINUOUS
 62
           3
100
AcDbLine
 10
-13998.128453293264
 20
-10044.850499771244
 30
0.0
 11
-13998.688983773287
 21
-10044.213471058418
 31
0.0
  0
LINE
  5
1E8
100
AcDbEntity
  8
Frei
  6
CONTINUOUS
 62
           3
100
AcDbLine
 10
-14015.454812473179
 20
-10043.142495799168
 30
0.0
 11
-13998.688983773287
 21
-10044.213471058418
 31
0.0
  0
LINE
  5
1E9
100
AcDbEntity
  8
Frei
  6
CONTINUOUS
 62
           3
100
AcDbLine
 10
-13998.179452115133
 20
-10045.648872566479
 30
0.0
 11
-13998.81648082796
 21
-10046.2094030465
 31
0.0
  0
LINE
  5
1EA
100
AcDbEntity
  8
Frei
  6
CONTINUOUS
 62
           3
100
AcDbLine
 10
-14016.142840007873
 20
-10044.501399074425
 30
0.0
 11
-13998.179452115133
 21
-10045.648872566479
 31
0.0
  0
LINE
  5
1EB
100
AcDbEntity
  8
Frei
  6
CONTINUOUS
 62
           3
100
AcDbLine
 10
-14015.582309527852
 20
-10045.138427787249
 30
0.0
 11
-14016.142840007873
 21
-10044.501399074425
 31
0.0
  0
LINE
  5
1EC
100
AcDbEntity
  8
Frei
  6
CONTINUOUS
 62
           3
100
AcDbLine
 10
-14016.219338240677
 20
-10045.698958267272
 30
0.0
 11
-14015.582309527852
 21
-10045.138427787249
 31
0.0
  0
LINE
  5
1ED
100
AcDbEntity
  8
Frei
  6
CONTINUOUS
 62
           3
100
AcDbLine
 10
-13998.255950347937
 20
-10046.846431759326
 30
0.0
 11
-14016.219338240677
 21
-10045.698958267272
 31
0.0
  0
LINE
  5
1EE
100
AcDbEntity
  8
Frei
  6
CONTINUOUS
 62
           3
100
AcDbLine
 10
-13998.81648082796
 20
-10046.2094030465
 30
0.0
 11
-13998.255950347937
 21
-10046.846431759326
 31
0.0
  0
LINE
  5
1EF
100
AcDbEntity
  8
Frei
  6
CONTINUOUS
 62
           3
100
AcDbLine
 10
-13998.81648082796
 20
-10046.2094030465
 30
0.0
 11
-14015.582309527852
 21
-10045.138427787249
 31
0.0
  0
LINE
  5
1F0
100
AcDbEntity
  8
Frei
  6
CONTINUOUS
 62
           3
100
AcDbLine
 10
-13998.306949169806
 20
-10047.64480455456
 30
0.0
 11
-13998.943977882633
 21
-10048.205335034583
 31
0.0
  0
LINE
  5
1F1
100
AcDbEntity
  8
Frei
  6
CONTINUOUS
 62
           3
100
AcDbLine
 10
-14016.270337062546
 20
-10046.497331062506
 30
0.0
 11
-13998.306949169806
 21
-10047.64480455456
 31
0.0
  0
LINE
  5
1F2
100
AcDbEntity
  8
Frei
  6
CONTINUOUS
 62
           3
100
AcDbLine
 10
-14015.709806582525
 20
-10047.134359775331
 30
0.0
 11
-14016.270337062546
 21
-10046.497331062506
 31
0.0
  0
LINE
  5
1F3
100
AcDbEntity
  8
Frei
  6
CONTINUOUS
 62
           3
100
AcDbLine
 10
-14016.34683529535
 20
-10047.694890255354
 30
0.0
 11
-14015.709806582525
 21
-10047.134359775331
 31
0.0
  0
LINE
  5
1F4
100
AcDbEntity
  8
Frei
  6
CONTINUOUS
 62
           3
100
AcDbLine
 10
-13998.38344740261
 20
-10048.84236374741
 30
0.0
 11
-14016.34683529535
 21
-10047.694890255354
 31
0.0
  0
LINE
  5
1F5
100
AcDbEntity
  8
Frei
  6
CONTINUOUS
 62
           3
100
AcDbLine
 10
-13998.943977882633
 20
-10048.205335034583
 30
0.0
 11
-13998.38344740261
 21
-10048.84236374741
 31
0.0
  0
LINE
  5
1F6
100
AcDbEntity
  8
Frei
  6
CONTINUOUS
 62
           3
100
AcDbLine
 10
-13998.434446224479
 20
-10049.640736542642
 30
0.0
 11
-13999.071474937306
 21
-10050.201267022665
 31
0.0
  0
LINE
  5
1F7
100
AcDbEntity
  8
Frei
  6
CONTINUOUS
 62
           3
100
AcDbLine
 10
-14004.514972478348
 20
-10049.252321910852
 30
0.0
 11
-13998.434446224479
 21
-10049.640736542642
 31
0.0
  0
LINE
  5
1F8
100
AcDbEntity
  8
Frei
  6
CONTINUOUS
 62
           3
100
AcDbLine
 10
-14015.837303637198
 20
-10049.130291763415
 30
0.0
 11
-14016.397834117219
 21
-10048.493263050588
 31
0.0
  0
LINE
  5
1F9
100
AcDbEntity
  8
Frei
  6
CONTINUOUS
 62
           3
100
AcDbLine
 10
-14016.474332350022
 20
-10049.690822243438
 30
0.0
 11
-14015.837303637198
 21
-10049.130291763415
 31
0.0
  0
LINE
  5
1FA
100
AcDbEntity
  8
Frei
  6
CONTINUOUS
 62
           3
100
AcDbLine
 10
-14010.393806096155
 20
-10050.079236875226
 30
0.0
 11
-14016.474332350022
 21
-10049.690822243438
 31
0.0
  0
LINE
  5
1FB
100
AcDbEntity
  8
Frei
  6
CONTINUOUS
 62
           3
100
AcDbLine
 10
-13999.071474937306
 20
-10050.201267022665
 30
0.0
 11
-13998.510944457283
 21
-10050.838295735492
 31
0.0
  0
LINE
  5
1FC
100
AcDbEntity
  8
Frei
  6
CONTINUOUS
 62
           3
100
AcDbLine
 10
-13998.561943279152
 20
-10051.636668530724
 30
0.0
 11
-13999.198971991978
 21
-10052.197199010747
 31
0.0
  0
LINE
  5
1FD
100
AcDbEntity
  8
Frei
  6
CONTINUOUS
 62
           3
100
AcDbLine
 10
-14003.897771242726
 20
-10051.295824076275
 30
0.0
 11
-13998.561943279152
 21
-10051.636668530724
 31
0.0
  0
LINE
  5
1FE
100
AcDbEntity
  8
Frei
  6
CONTINUOUS
 62
           3
100
AcDbLine
 10
-14015.964800691871
 20
-10051.126223751497
 30
0.0
 11
-14016.525331171892
 21
-10050.48919503867
 31
0.0
  0
LINE
  5
1FF
100
AcDbEntity
  8
Frei
  6
CONTINUOUS
 62
           3
100
AcDbLine
 10
-14005.152001191174
 20
-10049.812852390874
 30
0.0
 11
-13999.071474937306
 21
-10050.201267022665
 31
0.0
  0
LINE
  5
200
100
AcDbEntity
  8
Frei
  6
CONTINUOUS
 62
           3
100
AcDbLine
 10
-14015.709806582525
 20
-10047.134359775331
 30
0.0
 11
-13998.943977882633
 21
-10048.205335034583
 31
0.0
  0
LINE
  5
201
100
AcDbEntity
  8
Frei
  6
CONTINUOUS
 62
           3
100
AcDbLine
 10
-14005.152001191174
 20
-10049.812852390874
 30
0.0
 11
-14004.591470711151
 21
-10050.449881103701
 31
0.0
  0
LINE
  5
202
100
AcDbEntity
  8
Frei
  6
CONTINUOUS
 62
           3
100
AcDbLine
 10
-13998.510944457283
 20
-10050.838295735492
 30
0.0
 11
-14004.591470711151
 21
-10050.449881103701
 31
0.0
  0
LINE
  5
203
100
AcDbEntity
  8
Frei
  6
CONTINUOUS
 62
           3
100
AcDbLine
 10
-14004.514972478348
 20
-10049.252321910852
 30
0.0
 11
-14005.152001191174
 21
-10049.812852390874
 31
0.0
  0
LINE
  5
204
100
AcDbEntity
  8
Frei
  6
CONTINUOUS
 62
           3
100
AcDbLine
 10
-14004.534799955554
 20
-10051.856354556297
 30
0.0
 11
-14003.897771242726
 21
-10051.295824076275
 31
0.0
  0
LINE
  5
205
100
AcDbEntity
  8
Frei
  6
CONTINUOUS
 62
           3
100
AcDbLine
 10
-14011.189503208318
 20
-10050.830039493119
 30
0.0
 11
-14010.628972728295
 21
-10051.467068205946
 31
0.0
  0
LINE
  5
206
100
AcDbEntity
  8
Frei
  6
CONTINUOUS
 62
           3
100
AcDbLine
 10
-14016.525331171892
 20
-10050.48919503867
 30
0.0
 11
-14011.189503208318
 21
-10050.830039493119
 31
0.0
  0
LINE
  5
207
100
AcDbEntity
  8
Frei
  6
CONTINUOUS
 62
           3
100
AcDbLine
 10
-14009.756777383327
 20
-10049.518706395203
 30
0.0
 11
-14010.393806096155
 21
-10050.079236875226
 31
0.0
  0
LINE
  5
208
100
AcDbEntity
  8
Frei
  6
CONTINUOUS
 62
           3
100
AcDbLine
 10
-14015.837303637198
 20
-10049.130291763415
 30
0.0
 11
-14009.756777383327
 21
-10049.518706395203
 31
0.0
  0
LINE
  5
209
100
AcDbEntity
  8
Frei
  6
CONTINUOUS
 62
           3
100
AcDbLine
 10
-14010.317307863352
 20
-10048.881677682377
 30
0.0
 11
-14009.756777383327
 21
-10049.518706395203
 31
0.0
  0
LINE
  5
20A
100
AcDbEntity
  8
Frei
  6
CONTINUOUS
 62
           3
100
AcDbLine
 10
-14016.397834117219
 20
-10048.493263050588
 30
0.0
 11
-14010.317307863352
 21
-10048.881677682377
 31
0.0
  0
LINE
  5
20B
100
AcDbEntity
  8
Frei
  6
CONTINUOUS
 62
           3
100
AcDbLine
 10
-13998.510944457283
 20
-10050.838295735492
 30
0.0
 11
-13998.434446224479
 21
-10049.640736542642
 31
0.0
  0
LINE
  5
20C
100
AcDbEntity
  8
Frei
  6
CONTINUOUS
 62
           3
100
AcDbLine
 10
-13998.306949169806
 20
-10047.64480455456
 30
0.0
 11
-13998.38344740261
 21
-10048.84236374741
 31
0.0
  0
LINE
  5
20D
100
AcDbEntity
  8
Frei
  6
CONTINUOUS
 62
           3
100
AcDbLine
 10
-13998.179452115133
 20
-10045.648872566479
 30
0.0
 11
-13998.255950347937
 21
-10046.846431759326
 31
0.0
  0
LINE
  5
20E
100
AcDbEntity
  8
Frei
  6
CONTINUOUS
 62
           3
100
AcDbLine
 10
-13998.05195506046
 20
-10043.652940578395
 30
0.0
 11
-13998.128453293264
 21
-10044.850499771244
 31
0.0
  0
LINE
  5
20F
100
AcDbEntity
  8
Frei
  6
CONTINUOUS
 62
           3
100
AcDbLine
 10
-13998.600192395554
 20
-10052.235448127149
 30
0.0
 11
-13998.561943279152
 21
-10051.636668530724
 31
0.0
  0
LINE
  5
210
100
AcDbEntity
  8
Frei
  6
CONTINUOUS
 62
           3
100
AcDbLine
 10
-14016.525331171892
 20
-10050.48919503867
 30
0.0
 11
-14016.563580288293
 21
-10051.087974635095
 31
0.0
  0
LINE
  5
211
100
AcDbEntity
  8
Frei
  6
CONTINUOUS
 62
           3
100
AcDbLine
 10
-14016.397834117219
 20
-10048.493263050588
 30
0.0
 11
-14016.474332350022
 21
-10049.690822243438
 31
0.0
  0
LINE
  5
212
100
AcDbEntity
  8
Frei
  6
CONTINUOUS
 62
           3
100
AcDbLine
 10
-14016.270337062546
 20
-10046.497331062506
 30
0.0
 11
-14016.34683529535
 21
-10047.694890255354
 31
0.0
  0
LINE
  5
213
100
AcDbEntity
  8
Frei
  6
CONTINUOUS
 62
           3
100
AcDbLine
 10
-14016.142840007873
 20
-10044.501399074425
 30
0.0
 11
-14016.219338240677
 21
-10045.698958267272
 31
0.0
  0
LINE
  5
214
100
AcDbEntity
  8
Frei
  6
CONTINUOUS
 62
           3
100
AcDbLine
 10
-14016.0153429532
 20
-10042.505467086341
 30
0.0
 11
-14016.091841186004
 21
-10043.70302627919
 31
0.0
  0
LINE
  5
215
100
AcDbEntity
  8
Frei
  6
CONTINUOUS
 62
           3
100
AcDbLine
 10
-14017.035319390583
 20
-10058.472922990999
 30
0.0
 11
-14017.111817623385
 21
-10059.670482183848
 31
0.0
  0
LINE
  5
216
100
AcDbEntity
  8
Frei
  6
CONTINUOUS
 62
           3
100
AcDbLine
 10
-14016.90782233591
 20
-10056.476991002917
 30
0.0
 11
-14016.984320568714
 21
-10057.674550195767
 31
0.0
  0
LINE
  5
217
100
AcDbEntity
  8
Frei
  6
CONTINUOUS
 62
           3
100
AcDbLine
 10
-14016.780325281237
 20
-10054.481059014835
 30
0.0
 11
-14016.856823514041
 21
-10055.678618207683
 31
0.0
  0
LINE
  5
218
100
AcDbEntity
  8
Frei
  6
CONTINUOUS
 62
           3
100
AcDbLine
 10
-14016.652828226564
 20
-10052.485127026752
 30
0.0
 11
-14016.729326459368
 21
-10053.682686219601
 31
0.0
  0
LINE
  5
219
100
AcDbEntity
  8
Frei
  6
CONTINUOUS
 62
           3
100
AcDbLine
 10
-14016.563580288293
 20
-10051.087974635095
 30
0.0
 11
-14016.601829404695
 21
-10051.686754231519
 31
0.0
  0
LINE
  5
21A
100
AcDbEntity
  8
Frei
  6
CONTINUOUS
 62
           3
100
AcDbLine
 10
-13998.638441511956
 20
-10052.834227723573
 30
0.0
 11
-13998.600192395554
 21
-10052.235448127149
 31
0.0
  0
LINE
  5
21B
100
AcDbEntity
  8
Frei
  6
CONTINUOUS
 62
           3
100
AcDbLine
 10
-13999.071931497841
 20
-10059.620396483053
 30
0.0
 11
-13999.148429730645
 21
-10060.817955675902
 31
0.0
  0
LINE
  5
21C
100
AcDbEntity
  8
Frei
  6
CONTINUOUS
 62
           3
100
AcDbLine
 10
-13998.94443444317
 20
-10057.624464494971
 30
0.0
 11
-13999.020932675974
 21
-10058.822023687821
 31
0.0
  0
LINE
  5
21D
100
AcDbEntity
  8
Frei
  6
CONTINUOUS
 62
           3
100
AcDbLine
 10
-13998.816937388498
 20
-10055.628532506889
 30
0.0
 11
-13998.893435621301
 21
-10056.826091699737
 31
0.0
  0
LINE
  5
21E
100
AcDbEntity
  8
Frei
  6
CONTINUOUS
 62
           3
100
AcDbLine
 10
-13998.765938566628
 20
-10054.830159711655
 30
0.0
 11
-13998.689440333825
 21
-10053.632600518808
 31
0.0
  0
LINE
  5
21F
100
AcDbEntity
  8
Frei
  6
CONTINUOUS
 62
           3
100
AcDbLine
 10
-14010.648800205499
 20
-10054.071100851392
 30
0.0
 11
-14016.729326459368
 21
-10053.682686219601
 31
0.0
  0
LINE
  5
220
100
AcDbEntity
  8
Frei
  6
CONTINUOUS
 62
           3
100
AcDbLine
 10
-14010.011771492673
 20
-10053.510570371369
 30
0.0
 11
-14010.648800205499
 21
-10054.071100851392
 31
0.0
  0
LINE
  5
221
100
AcDbEntity
  8
Frei
  6
CONTINUOUS
 62
           3
100
AcDbLine
 10
-14010.011771492673
 20
-10053.510570371369
 30
0.0
 11
-14016.092297746543
 21
-10053.122155739578
 31
0.0
  0
LINE
  5
222
100
AcDbEntity
  8
Frei
  6
CONTINUOUS
 62
           3
100
AcDbLine
 10
-14010.572301972696
 20
-10052.873541658542
 30
0.0
 11
-14010.011771492673
 21
-10053.510570371369
 31
0.0
  0
LINE
  5
223
100
AcDbEntity
  8
Frei
  6
CONTINUOUS
 62
           3
100
AcDbLine
 10
-14011.266001441121
 20
-10052.027598685969
 30
0.0
 11
-14016.601829404695
 21
-10051.686754231519
 31
0.0
  0
LINE
  5
224
100
AcDbEntity
  8
Frei
  6
CONTINUOUS
 62
           3
100
AcDbLine
 10
-14010.628972728295
 20
-10051.467068205946
 30
0.0
 11
-14011.266001441121
 21
-10052.027598685969
 31
0.0
  0
LINE
  5
225
100
AcDbEntity
  8
Frei
  6
CONTINUOUS
 62
           3
100
AcDbLine
 10
-14004.534799955554
 20
-10051.856354556297
 30
0.0
 11
-13999.198971991978
 21
-10052.197199010747
 31
0.0
  0
LINE
  5
226
100
AcDbEntity
  8
Frei
  6
CONTINUOUS
 62
           3
100
AcDbLine
 10
-14003.97426947553
 20
-10052.493383269124
 30
0.0
 11
-14004.534799955554
 21
-10051.856354556297
 31
0.0
  0
LINE
  5
227
100
AcDbEntity
  8
Frei
  6
CONTINUOUS
 62
           3
100
AcDbLine
 10
-14005.406995300518
 20
-10053.80471636704
 30
0.0
 11
-14004.846464820497
 21
-10054.441745079866
 31
0.0
  0
LINE
  5
228
100
AcDbEntity
  8
Frei
  6
CONTINUOUS
 62
           3
100
AcDbLine
 10
-14004.769966587693
 20
-10053.244185887017
 30
0.0
 11
-13998.689440333825
 21
-10053.632600518808
 31
0.0
  0
LINE
  5
229
100
AcDbEntity
  8
Frei
  6
CONTINUOUS
 62
           3
100
AcDbLine
 10
-14004.769966587693
 20
-10053.244185887017
 30
0.0
 11
-14005.406995300518
 21
-10053.80471636704
 31
0.0
  0
LINE
  5
22A
100
AcDbEntity
  8
Frei
  6
CONTINUOUS
 62
           3
100
AcDbLine
 10
-13999.453966101324
 20
-10056.18906298691
 30
0.0
 11
-14016.219794801216
 21
-10055.11808772766
 31
0.0
  0
LINE
  5
22B
100
AcDbEntity
  8
Frei
  6
CONTINUOUS
 62
           3
100
AcDbLine
 10
-13999.326469046651
 20
-10054.193130998829
 30
0.0
 11
-14005.406995300518
 21
-10053.80471636704
 31
0.0
  0
LINE
  5
22C
100
AcDbEntity
  8
Frei
  6
CONTINUOUS
 62
           3
100
AcDbLine
 10
-14015.964800691871
 20
-10051.126223751497
 30
0.0
 11
-14010.628972728295
 21
-10051.467068205946
 31
0.0
  0
LINE
  5
22D
100
AcDbEntity
  8
Frei
  6
CONTINUOUS
 62
           3
100
AcDbLine
 10
-14016.601829404695
 20
-10051.686754231519
 30
0.0
 11
-14015.964800691871
 21
-10051.126223751497
 31
0.0
  0
LINE
  5
22E
100
AcDbEntity
  8
Frei
  6
CONTINUOUS
 62
           3
100
AcDbLine
 10
-13998.638441511956
 20
-10052.834227723573
 30
0.0
 11
-14003.97426947553
 21
-10052.493383269124
 31
0.0
  0
LINE
  5
22F
100
AcDbEntity
  8
Frei
  6
CONTINUOUS
 62
           3
100
AcDbLine
 10
-13999.198971991978
 20
-10052.197199010747
 30
0.0
 11
-13998.638441511956
 21
-10052.834227723573
 31
0.0
  0
LINE
  5
230
100
AcDbEntity
  8
Frei
  6
CONTINUOUS
 62
           3
100
AcDbLine
 10
-13998.689440333825
 20
-10053.632600518808
 30
0.0
 11
-13999.326469046651
 21
-10054.193130998829
 31
0.0
  0
LINE
  5
231
100
AcDbEntity
  8
Frei
  6
CONTINUOUS
 62
           3
100
AcDbLine
 10
-14016.652828226564
 20
-10052.485127026752
 30
0.0
 11
-14010.572301972696
 21
-10052.873541658542
 31
0.0
  0
LINE
  5
232
100
AcDbEntity
  8
Frei
  6
CONTINUOUS
 62
           3
100
AcDbLine
 10
-14016.092297746543
 20
-10053.122155739578
 30
0.0
 11
-14016.652828226564
 21
-10052.485127026752
 31
0.0
  0
LINE
  5
233
100
AcDbEntity
  8
Frei
  6
CONTINUOUS
 62
           3
100
AcDbLine
 10
-14016.729326459368
 20
-10053.682686219601
 30
0.0
 11
-14016.092297746543
 21
-10053.122155739578
 31
0.0
  0
LINE
  5
234
100
AcDbEntity
  8
Frei
  6
CONTINUOUS
 62
           3
100
AcDbLine
 10
-13998.765938566628
 20
-10054.830159711655
 30
0.0
 11
-14004.846464820497
 21
-10054.441745079866
 31
0.0
  0
LINE
  5
235
100
AcDbEntity
  8
Frei
  6
CONTINUOUS
 62
           3
100
AcDbLine
 10
-13999.326469046651
 20
-10054.193130998829
 30
0.0
 11
-13998.765938566628
 21
-10054.830159711655
 31
0.0
  0
LINE
  5
236
100
AcDbEntity
  8
Frei
  6
CONTINUOUS
 62
           3
100
AcDbLine
 10
-13998.816937388498
 20
-10055.628532506889
 30
0.0
 11
-13999.453966101324
 21
-10056.18906298691
 31
0.0
  0
LINE
  5
237
100
AcDbEntity
  8
Frei
  6
CONTINUOUS
 62
           3
100
AcDbLine
 10
-14016.780325281237
 20
-10054.481059014835
 30
0.0
 11
-13998.816937388498
 21
-10055.628532506889
 31
0.0
  0
LINE
  5
238
100
AcDbEntity
  8
Frei
  6
CONTINUOUS
 62
           3
100
AcDbLine
 10
-14016.219794801216
 20
-10055.11808772766
 30
0.0
 11
-14016.780325281237
 21
-10054.481059014835
 31
0.0
  0
LINE
  5
239
100
AcDbEntity
  8
Frei
  6
CONTINUOUS
 62
           3
100
AcDbLine
 10
-14016.856823514041
 20
-10055.678618207683
 30
0.0
 11
-14016.219794801216
 21
-10055.11808772766
 31
0.0
  0
LINE
  5
23A
100
AcDbEntity
  8
Frei
  6
CONTINUOUS
 62
           3
100
AcDbLine
 10
-13998.893435621301
 20
-10056.826091699737
 30
0.0
 11
-14016.856823514041
 21
-10055.678618207683
 31
0.0
  0
LINE
  5
23B
100
AcDbEntity
  8
Frei
  6
CONTINUOUS
 62
           3
100
AcDbLine
 10
-13999.453966101324
 20
-10056.18906298691
 30
0.0
 11
-13998.893435621301
 21
-10056.826091699737
 31
0.0
  0
LINE
  5
23C
100
AcDbEntity
  8
Frei
  6
CONTINUOUS
 62
           3
100
AcDbLine
 10
-14016.347291855887
 20
-10057.114019715742
 30
0.0
 11
-13999.581463155997
 21
-10058.184994974994
 31
0.0
  0
LINE
  5
23D
100
AcDbEntity
  8
Frei
  6
CONTINUOUS
 62
           3
100
AcDbLine
 10
-13998.94443444317
 20
-10057.624464494971
 30
0.0
 11
-13999.581463155997
 21
-10058.184994974994
 31
0.0
  0
LINE
  5
23E
100
AcDbEntity
  8
Frei
  6
CONTINUOUS
 62
           3
100
AcDbLine
 10
-14016.90782233591
 20
-10056.476991002917
 30
0.0
 11
-13998.94443444317
 21
-10057.624464494971
 31
0.0
  0
LINE
  5
23F
100
AcDbEntity
  8
Frei
  6
CONTINUOUS
 62
           3
100
AcDbLine
 10
-14016.347291855887
 20
-10057.114019715742
 30
0.0
 11
-14016.90782233591
 21
-10056.476991002917
 31
0.0
  0
LINE
  5
240
100
AcDbEntity
  8
Frei
  6
CONTINUOUS
 62
           3
100
AcDbLine
 10
-14016.984320568714
 20
-10057.674550195767
 30
0.0
 11
-14016.347291855887
 21
-10057.114019715742
 31
0.0
  0
LINE
  5
241
100
AcDbEntity
  8
Frei
  6
CONTINUOUS
 62
           3
100
AcDbLine
 10
-13999.020932675974
 20
-10058.822023687821
 30
0.0
 11
-14016.984320568714
 21
-10057.674550195767
 31
0.0
  0
LINE
  5
242
100
AcDbEntity
  8
Frei
  6
CONTINUOUS
 62
           3
100
AcDbLine
 10
-13999.581463155997
 20
-10058.184994974994
 30
0.0
 11
-13999.020932675974
 21
-10058.822023687821
 31
0.0
  0
LINE
  5
243
100
AcDbEntity
  8
Frei
  6
CONTINUOUS
 62
           3
100
AcDbLine
 10
-13999.70896021067
 20
-10060.180926963076
 30
0.0
 11
-14016.47478891056
 21
-10059.109951703826
 31
0.0
  0
LINE
  5
244
100
AcDbEntity
  8
Frei
  6
CONTINUOUS
 62
           3
100
AcDbLine
 10
-13999.70896021067
 20
-10060.180926963076
 30
0.0
 11
-13999.071931497841
 21
-10059.620396483053
 31
0.0
  0
LINE
  5
245
100
AcDbEntity
  8
Frei
  6
CONTINUOUS
 62
           3
100
AcDbLine
 10
-13999.148429730645
 20
-10060.817955675902
 30
0.0
 11
-13999.70896021067
 21
-10060.180926963076
 31
0.0
  0
LINE
  5
246
100
AcDbEntity
  8
Frei
  6
CONTINUOUS
 62
           3
100
AcDbLine
 10
-14017.111817623385
 20
-10059.670482183848
 30
0.0
 11
-13999.148429730645
 21
-10060.817955675902
 31
0.0
  0
LINE
  5
247
100
AcDbEntity
  8
Frei
  6
CONTINUOUS
 62
           3
100
AcDbLine
 10
-14016.47478891056
 20
-10059.109951703826
 30
0.0
 11
-14017.111817623385
 21
-10059.670482183848
 31
0.0
  0
LINE
  5
248
100
AcDbEntity
  8
Frei
  6
CONTINUOUS
 62
           3
100
AcDbLine
 10
-14017.035319390583
 20
-10058.472922990999
 30
0.0
 11
-14016.47478891056
 21
-10059.109951703826
 31
0.0
  0
LINE
  5
249
100
AcDbEntity
  8
Frei
  6
CONTINUOUS
 62
           3
100
AcDbLine
 10
-13999.071931497841
 20
-10059.620396483053
 30
0.0
 11
-14017.035319390583
 21
-10058.472922990999
 31
0.0
  0
LINE
  5
24A
100
AcDbEntity
  8
Frei
  6
CONTINUOUS
 62
           7
100
AcDbLine
 10
-13973.182111736898
 20
-10066.002617995922
 30
0.0
 11
-13972.511138737147
 21
-10067.357548550119
 31
0.0
  0
LINE
  5
24B
100
AcDbEntity
  8
Frei
  6
CONTINUOUS
 62
           7
100
AcDbLine
 10
-13973.182111736898
 20
-10066.002617995922
 30
0.0
 11
-13977.417496317015
 21
-10065.73206816627
 31
0.0
  0
LINE
  5
24C
100
AcDbEntity
  8
Frei
  6
CONTINUOUS
 62
           7
100
AcDbLine
 10
-13972.260721566139
 20
-10063.437335308619
 30
0.0
 11
-13973.182111736898
 21
-10066.002617995922
 31
0.0
  0
LINE
  5
24D
100
AcDbEntity
  8
Frei
  6
CONTINUOUS
 62
           7
100
AcDbLine
 10
-13972.593228066207
 20
-10056.783803031094
 30
0.0
 11
-13972.005727456793
 21
-10059.445471332456
 31
0.0
  0
LINE
  5
24E
100
AcDbEntity
  8
Frei
  6
CONTINUOUS
 62
           7
100
AcDbLine
 10
-13972.593228066207
 20
-10056.783803031094
 30
0.0
 11
-13976.828612646326
 21
-10056.513253201441
 31
0.0
  0
LINE
  5
24F
100
AcDbEntity
  8
Frei
  6
CONTINUOUS
 62
           7
100
AcDbLine
 10
-13971.755310285786
 20
-10055.525258090958
 30
0.0
 11
-13972.593228066207
 21
-10056.783803031094
 31
0.0
  0
LINE
  5
250
100
AcDbEntity
  8
Frei
  6
CONTINUOUS
 62
           7
100
AcDbLine
 10
-13972.63863579182
 20
-10069.353480538201
 30
0.0
 11
-13973.476553572242
 21
-10070.612025478335
 31
0.0
  0
LINE
  5
251
100
AcDbEntity
  8
Frei
  6
CONTINUOUS
 62
           7
100
AcDbLine
 10
-13972.298786230864
 20
-10052.17439554868
 30
0.0
 11
-13976.534170810983
 21
-10051.903845719029
 31
0.0
  0
LINE
  5
252
100
AcDbEntity
  8
Frei
  6
CONTINUOUS
 62
           7
100
AcDbLine
 10
-13972.298786230864
 20
-10052.17439554868
 30
0.0
 11
-13971.627813231113
 21
-10053.529326102876
 31
0.0
  0
LINE
  5
253
100
AcDbEntity
  8
Frei
  6
CONTINUOUS
 62
           7
100
AcDbLine
 10
-13977.628465762025
 20
-10069.034737901518
 30
0.0
 11
-13977.711938152361
 21
-10070.341475648684
 31
0.0
  0
LINE
  5
254
100
AcDbEntity
  8
Frei
  6
CONTINUOUS
 62
           7
100
AcDbLine
 10
-13972.63863579182
 20
-10069.353480538201
 30
0.0
 11
-13972.511138737147
 21
-10067.357548550119
 31
0.0
  0
LINE
  5
255
100
AcDbEntity
  8
Frei
  6
CONTINUOUS
 62
           7
100
AcDbLine
 10
-13972.63863579182
 20
-10069.353480538201
 30
0.0
 11
-13977.628465762025
 21
-10069.034737901518
 31
0.0
  0
LINE
  5
256
100
AcDbEntity
  8
Frei
  6
CONTINUOUS
 62
           7
100
AcDbLine
 10
-13977.500968707353
 20
-10067.038805913437
 30
0.0
 11
-13977.628465762025
 21
-10069.034737901518
 31
0.0
  0
LINE
  5
257
100
AcDbEntity
  8
Frei
  6
CONTINUOUS
 62
           7
100
AcDbLine
 10
-13972.511138737147
 20
-10067.357548550119
 30
0.0
 11
-13972.260721566139
 21
-10063.437335308619
 31
0.0
  0
LINE
  5
258
100
AcDbEntity
  8
Frei
  6
CONTINUOUS
 62
           7
100
AcDbLine
 10
-13972.511138737147
 20
-10067.357548550119
 30
0.0
 11
-13977.500968707353
 21
-10067.038805913437
 31
0.0
  0
LINE
  5
259
100
AcDbEntity
  8
Frei
  6
CONTINUOUS
 62
           7
100
AcDbLine
 10
-13977.417496317015
 20
-10065.73206816627
 30
0.0
 11
-13977.500968707353
 21
-10067.038805913437
 31
0.0
  0
LINE
  5
25A
100
AcDbEntity
  8
Frei
  6
CONTINUOUS
 62
           7
100
AcDbLine
 10
-13977.250551536345
 20
-10063.118592671939
 30
0.0
 11
-13977.417496317015
 21
-10065.73206816627
 31
0.0
  0
LINE
  5
25B
100
AcDbEntity
  8
Frei
  6
CONTINUOUS
 62
           7
100
AcDbLine
 10
-13972.260721566139
 20
-10063.437335308619
 30
0.0
 11
-13972.005727456793
 21
-10059.445471332456
 31
0.0
  0
LINE
  5
25C
100
AcDbEntity
  8
Frei
  6
CONTINUOUS
 62
           7
100
AcDbLine
 10
-13972.260721566139
 20
-10063.437335308619
 30
0.0
 11
-13977.250551536345
 21
-10063.118592671939
 31
0.0
  0
LINE
  5
25D
100
AcDbEntity
  8
Frei
  6
CONTINUOUS
 62
           7
100
AcDbLine
 10
-13976.995557426999
 20
-10059.126728695774
 30
0.0
 11
-13977.250551536345
 21
-10063.118592671939
 31
0.0
  0
LINE
  5
25E
100
AcDbEntity
  8
Frei
  6
CONTINUOUS
 62
           7
100
AcDbLine
 10
-13972.005727456793
 20
-10059.445471332456
 30
0.0
 11
-13971.755310285786
 21
-10055.525258090958
 31
0.0
  0
LINE
  5
25F
100
AcDbEntity
  8
Frei
  6
CONTINUOUS
 62
           7
100
AcDbLine
 10
-13972.005727456793
 20
-10059.445471332456
 30
0.0
 11
-13976.995557426999
 21
-10059.126728695774
 31
0.0
  0
LINE
  5
260
100
AcDbEntity
  8
Frei
  6
CONTINUOUS
 62
           7
100
AcDbLine
 10
-13976.828612646326
 20
-10056.513253201441
 30
0.0
 11
-13976.995557426999
 21
-10059.126728695774
 31
0.0
  0
LINE
  5
261
100
AcDbEntity
  8
Frei
  6
CONTINUOUS
 62
           7
100
AcDbLine
 10
-13976.745140255991
 20
-10055.206515454276
 30
0.0
 11
-13976.828612646326
 21
-10056.513253201441
 31
0.0
  0
LINE
  5
262
100
AcDbEntity
  8
Frei
  6
CONTINUOUS
 62
           7
100
AcDbLine
 10
-13971.755310285786
 20
-10055.525258090958
 30
0.0
 11
-13971.627813231113
 21
-10053.529326102876
 31
0.0
  0
LINE
  5
263
100
AcDbEntity
  8
Frei
  6
CONTINUOUS
 62
           7
100
AcDbLine
 10
-13971.755310285786
 20
-10055.525258090958
 30
0.0
 11
-13976.745140255991
 21
-10055.206515454276
 31
0.0
  0
LINE
  5
264
100
AcDbEntity
  8
Frei
  6
CONTINUOUS
 62
           7
100
AcDbLine
 10
-13976.617643201318
 20
-10053.210583466194
 30
0.0
 11
-13976.745140255991
 21
-10055.206515454276
 31
0.0
  0
LINE
  5
265
100
AcDbEntity
  8
Frei
  6
CONTINUOUS
 62
           7
100
AcDbLine
 10
-13976.617643201318
 20
-10053.210583466194
 30
0.0
 11
-13971.627813231113
 21
-10053.529326102876
 31
0.0
  0
LINE
  5
266
100
AcDbEntity
  8
Frei
  6
CONTINUOUS
 62
           7
100
AcDbLine
 10
-13977.711938152361
 20
-10070.341475648684
 30
0.0
 11
-13973.476553572242
 21
-10070.612025478335
 31
0.0
  0
LINE
  5
267
100
AcDbEntity
  8
Frei
  6
CONTINUOUS
 62
           7
100
AcDbLine
 10
-13976.534170810983
 20
-10051.903845719029
 30
0.0
 11
-13976.617643201318
 21
-10053.210583466194
 31
0.0
  0
LINE
  5
268
100
AcDbEntity
  8
Frei
  6
CONTINUOUS
 62
           7
100
AcDbLine
 10
-14021.509389371819
 20
-10018.706823134426
 30
0.0
 11
-14021.844069140334
 21
-10023.94614460314
 31
0.0
  0
LINE
  5
269
100
AcDbEntity
  8
Frei
  6
CONTINUOUS
 62
           7
100
AcDbLine
 10
-14020.458680072112
 20
-10025.788207883717
 30
0.0
 11
-14020.235560226434
 21
-10022.295326904574
 31
0.0
  0
LINE
  5
26A
100
AcDbEntity
  8
Frei
  6
CONTINUOUS
 62
           7
100
AcDbLine
 10
-14021.213131042539
 20
-10025.740014720222
 30
0.0
 11
-14020.458680072112
 21
-10025.788207883717
 31
0.0
  0
LINE
  5
26B
100
AcDbEntity
  8
Frei
  6
CONTINUOUS
 62
           7
100
AcDbLine
 10
-14020.235560226434
 20
-10022.295326904574
 30
0.0
 11
-14019.789320535079
 21
-10015.309564946285
 31
0.0
  0
LINE
  5
26C
100
AcDbEntity
  8
Frei
  6
CONTINUOUS
 62
           7
100
AcDbLine
 10
-14020.990011196862
 20
-10022.247133741079
 30
0.0
 11
-14020.235560226434
 21
-10022.295326904574
 31
0.0
  0
LINE
  5
26D
100
AcDbEntity
  8
Frei
  6
CONTINUOUS
 62
           7
100
AcDbLine
 10
-14019.789320535079
 20
-10015.309564946285
 30
0.0
 11
-14019.566200689402
 21
-10011.816683967141
 31
0.0
  0
LINE
  5
26E
100
AcDbEntity
  8
Frei
  6
CONTINUOUS
 62
           7
100
AcDbLine
 10
-14020.543771505509
 20
-10015.261371782792
 30
0.0
 11
-14019.789320535079
 21
-10015.309564946285
 31
0.0
  0
LINE
  5
26F
100
AcDbEntity
  8
Frei
  6
CONTINUOUS
 62
           7
100
AcDbLine
 10
-14019.566200689402
 20
-10011.816683967141
 30
0.0
 11
-14019.215583789053
 21
-10006.327870999916
 31
0.0
  0
LINE
  5
270
100
AcDbEntity
  8
Frei
  6
CONTINUOUS
 62
           7
100
AcDbLine
 10
-14020.320651659831
 20
-10011.768490803648
 30
0.0
 11
-14019.566200689402
 21
-10011.816683967141
 31
0.0
  0
LINE
  5
271
100
AcDbEntity
  8
Frei
  6
CONTINUOUS
 62
           7
100
AcDbLine
 10
-13982.495375615896
 20
-10066.79171401142
 30
0.0
 11
-13981.730393287859
 21
-10054.816122082928
 31
0.0
  0
LINE
  5
272
100
AcDbEntity
  8
Frei
  6
CONTINUOUS
 62
           2
100
AcDbLine
 10
-13977.50554564569
 20
-10067.110456648103
 30
0.0
 11
-13982.495375615896
 21
-10066.79171401142
 31
0.0
  0
LINE
  5
273
100
AcDbEntity
  8
Frei
  6
CONTINUOUS
 62
           7
100
AcDbLine
 10
-13981.730393287859
 20
-10054.816122082928
 30
0.0
 11
-13981.666644760522
 21
-10053.818156088886
 31
0.0
  0
LINE
  5
274
100
AcDbEntity
  8
Frei
  6
CONTINUOUS
 62
           2
100
AcDbLine
 10
-13976.740563317653
 20
-10055.13486471961
 30
0.0
 11
-13981.730393287859
 21
-10054.816122082928
 31
0.0
  0
LINE
  5
275
100
AcDbEntity
  8
Frei
  6
CONTINUOUS
 62
           7
100
AcDbLine
 10
-13982.559124143232
 20
-10067.789680005462
 30
0.0
 11
-13982.495375615896
 21
-10066.79171401142
 31
0.0
  0
LINE
  5
276
100
AcDbEntity
  8
Frei
  6
CONTINUOUS
 62
           7
100
AcDbLine
 10
-13982.559124143232
 20
-10067.789680005462
 30
0.0
 11
-13977.569294173027
 21
-10068.108422642144
 31
0.0
  0
LINE
  5
277
100
AcDbEntity
  8
Frei
  6
CONTINUOUS
 62
           7
100
AcDbLine
 10
-13981.666644760522
 20
-10053.818156088886
 30
0.0
 11
-13981.634770496854
 21
-10053.319173091866
 31
0.0
  0
LINE
  5
278
100
AcDbEntity
  8
Frei
  6
CONTINUOUS
 62
           7
100
AcDbLine
 10
-13981.666644760522
 20
-10053.818156088886
 30
0.0
 11
-13976.676814790317
 21
-10054.136898725568
 31
0.0
  0
LINE
  5
279
100
AcDbEntity
  8
Frei
  6
CONTINUOUS
 62
           7
100
AcDbLine
 10
-14001.983635659701
 20
-10066.548872191572
 30
0.0
 11
-14020.980814913813
 21
-10065.335361703013
 31
0.0
  0
LINE
  5
27A
100
AcDbEntity
  8
Frei
  6
CONTINUOUS
 62
           7
100
AcDbLine
 10
-13994.662213126398
 20
-10069.020629665509
 30
0.0
 11
-14001.983635659701
 21
-10066.548872191572
 31
0.0
  0
LINE
  5
27B
100
AcDbEntity
  8
Frei
  6
CONTINUOUS
 62
           7
100
AcDbLine
 10
-14020.629056612122
 20
-10036.298725084816
 30
0.0
 11
-14021.128039609142
 21
-10036.266850821148
 31
0.0
  0
LINE
  5
27C
100
AcDbEntity
  8
Frei
  6
CONTINUOUS
 62
           7
100
AcDbLine
 10
-14020.629056612122
 20
-10036.298725084816
 30
0.0
 11
-14022.382141113871
 21
-10063.742789920947
 31
0.0
  0
LINE
  5
27D
100
AcDbEntity
  8
Frei
  6
CONTINUOUS
 62
           7
100
AcDbLine
 10
-14001.983635659701
 20
-10066.548872191572
 30
0.0
 11
-13996.031665062786
 21
-10066.929074886422
 31
0.0
  0
LINE
  5
27E
100
AcDbEntity
  8
Frei
  6
CONTINUOUS
 62
           7
100
AcDbLine
 10
-13992.686008778972
 20
-10038.083683850235
 30
0.0
 11
-14020.629056612122
 21
-10036.298725084816
 31
0.0
  0
LINE
  5
27F
100
AcDbEntity
  8
Frei
  6
CONTINUOUS
 62
           7
100
AcDbLine
 10
-13992.686008778972
 20
-10038.083683850235
 30
0.0
 11
-13994.43909328072
 21
-10065.527748686365
 31
0.0
  0
LINE
  5
280
100
AcDbEntity
  8
Frei
  6
CONTINUOUS
 62
           7
100
AcDbLine
 10
-13994.662213126398
 20
-10069.020629665509
 30
0.0
 11
-13984.183570188965
 21
-10069.689989202539
 31
0.0
  0
LINE
  5
281
100
AcDbEntity
  8
Frei
  6
CONTINUOUS
 62
           7
100
AcDbLine
 10
-13982.5909984069
 20
-10068.288663002482
 30
0.0
 11
-13982.559124143232
 21
-10067.789680005462
 31
0.0
  0
LINE
  5
282
100
AcDbEntity
  8
Frei
  6
CONTINUOUS
 62
           7
100
AcDbLine
 10
-13993.514739634344
 20
-10051.057241772769
 30
0.0
 11
-13983.036096696911
 21
-10051.7266013098
 31
0.0
  0
LINE
  5
283
100
AcDbEntity
  8
Frei
  6
CONTINUOUS
 62
           7
100
AcDbLine
 10
-14021.128039609142
 20
-10036.266850821148
 30
0.0
 11
-14021.064291081806
 21
-10035.268884827108
 31
0.0
  0
LINE
  5
284
100
AcDbEntity
  8
Frei
  6
CONTINUOUS
 62
           7
100
AcDbLine
 10
-13992.18702578195
 20
-10038.115558113903
 30
0.0
 11
-13992.686008778972
 21
-10038.083683850235
 31
0.0
  0
LINE
  5
285
100
AcDbEntity
  8
Frei
  6
CONTINUOUS
 62
           7
100
AcDbLine
 10
-13992.123277254614
 20
-10037.117592119861
 30
0.0
 11
-13992.18702578195
 21
-10038.115558113903
 31
0.0
  0
LINE
  5
286
100
AcDbEntity
  8
Frei
  6
CONTINUOUS
 62
           7
100
AcDbLine
 10
-13992.123277254614
 20
-10037.117592119861
 30
0.0
 11
-14021.064291081806
 21
-10035.268884827108
 31
0.0
  0
LINE
  5
287
100
AcDbEntity
  8
Frei
  6
CONTINUOUS
 62
           7
100
AcDbLine
 10
-13990.497689807538
 20
-10011.669459271812
 30
0.0
 11
-13990.462250717606
 21
-10011.114669881556
 31
0.0
  0
LINE
  5
288
100
AcDbEntity
  8
Frei
  6
CONTINUOUS
 62
           7
100
AcDbLine
 10
-14019.215583789053
 20
-10006.327870999916
 30
0.0
 11
-13992.261106296941
 21
-10008.996906289678
 31
0.0
  0
LINE
  5
289
100
AcDbEntity
  8
Frei
  6
CONTINUOUS
 62
           7
100
AcDbLine
 10
-13986.209093638032
 20
-10022.965827842947
 30
0.0
 11
-13986.2409679017
 21
-10023.464810839967
 31
0.0
  0
LINE
  5
28A
100
AcDbEntity
  8
Frei
  6
CONTINUOUS
 62
           1
100
AcDbLine
 10
-13986.209093638032
 20
-10022.965827842947
 30
0.0
 11
-13988.692383260301
 21
-10022.807199134841
 31
0.0
  0
LINE
  5
28B
100
AcDbEntity
  8
Frei
  6
CONTINUOUS
 62
           7
100
AcDbLine
 10
-13985.954099528686
 20
-10018.973963866782
 30
0.0
 11
-13986.209093638032
 21
-10022.965827842947
 31
0.0
  0
LINE
  5
28C
100
AcDbEntity
  8
Frei
  6
CONTINUOUS
 62
           1
100
AcDbLine
 10
-13985.954099528686
 20
-10018.973963866782
 30
0.0
 11
-13988.437389150955
 21
-10018.815335158675
 31
0.0
  0
LINE
  5
28D
100
AcDbEntity
  8
Frei
  6
CONTINUOUS
 62
           7
100
AcDbLine
 10
-13986.2409679017
 20
-10023.464810839967
 30
0.0
 11
-13986.272842165368
 21
-10023.963793836987
 31
0.0
  0
LINE
  5
28E
100
AcDbEntity
  8
Frei
  6
CONTINUOUS
 62
           1
100
AcDbLine
 10
-13986.2409679017
 20
-10023.464810839967
 30
0.0
 11
-13988.724257523969
 21
-10023.306182131861
 31
0.0
  0
LINE
  5
28F
100
AcDbEntity
  8
Frei
  6
CONTINUOUS
 62
           7
100
AcDbLine
 10
-13985.922225265018
 20
-10018.474980869762
 30
0.0
 11
-13985.954099528686
 21
-10018.973963866782
 31
0.0
  0
LINE
  5
290
100
AcDbEntity
  8
Frei
  6
CONTINUOUS
 62
           1
100
AcDbLine
 10
-13985.922225265018
 20
-10018.474980869762
 30
0.0
 11
-13988.405514887287
 21
-10018.316352161655
 31
0.0
  0
LINE
  5
291
100
AcDbEntity
  8
Frei
  6
CONTINUOUS
 62
           7
100
AcDbLine
 10
-13987.27080815941
 20
-10023.900045309652
 30
0.0
 11
-13986.888316995392
 21
-10017.912249345405
 31
0.0
  0
LINE
  5
292
100
AcDbEntity
  8
Frei
  6
CONTINUOUS
 62
           2
100
AcDbLine
 10
-13986.272842165368
 20
-10023.963793836987
 30
0.0
 11
-13987.27080815941
 21
-10023.900045309652
 31
0.0
  0
LINE
  5
293
100
AcDbEntity
  8
Frei
  6
CONTINUOUS
 62
           7
100
AcDbLine
 10
-13986.888316995392
 20
-10017.912249345405
 30
0.0
 11
-13986.824568468055
 21
-10016.914283351363
 31
0.0
  0
LINE
  5
294
100
AcDbEntity
  8
Frei
  6
CONTINUOUS
 62
           2
100
AcDbLine
 10
-13985.89035100135
 20
-10017.975997872742
 30
0.0
 11
-13986.888316995392
 21
-10017.912249345405
 31
0.0
  0
LINE
  5
295
100
AcDbEntity
  8
Frei
  6
CONTINUOUS
 62
           7
100
AcDbLine
 10
-13987.334556686745
 20
-10024.898011303692
 30
0.0
 11
-13987.27080815941
 21
-10023.900045309652
 31
0.0
  0
LINE
  5
296
100
AcDbEntity
  8
Frei
  6
CONTINUOUS
 62
           7
100
AcDbLine
 10
-13986.272842165368
 20
-10023.963793836987
 30
0.0
 11
-13987.334556686745
 21
-10024.898011303692
 31
0.0
  0
LINE
  5
297
100
AcDbEntity
  8
Frei
  6
CONTINUOUS
 62
           7
100
AcDbLine
 10
-13985.89035100135
 20
-10017.975997872742
 30
0.0
 11
-13985.922225265018
 21
-10018.474980869762
 31
0.0
  0
LINE
  5
298
100
AcDbEntity
  8
Frei
  6
CONTINUOUS
 62
           7
100
AcDbLine
 10
-13986.824568468055
 20
-10016.914283351363
 30
0.0
 11
-13986.505825831373
 21
-10011.924453381158
 31
0.0
  0
LINE
  5
299
100
AcDbEntity
  8
Frei
  6
CONTINUOUS
 62
           7
100
AcDbLine
 10
-13986.824568468055
 20
-10016.914283351363
 30
0.0
 11
-13985.89035100135
 21
-10017.975997872742
 31
0.0
  0
LINE
  5
29A
100
AcDbEntity
  8
Frei
  6
CONTINUOUS
 62
           7
100
AcDbLine
 10
-14021.064291081806
 20
-10035.268884827108
 30
0.0
 11
-14020.458680072112
 21
-10025.788207883717
 31
0.0
  0
LINE
  5
29B
100
AcDbEntity
  8
Frei
  6
CONTINUOUS
 62
           7
100
AcDbLine
 10
-13991.645163299592
 20
-10029.632847164552
 30
0.0
 11
-13992.123277254614
 21
-10037.117592119861
 31
0.0
  0
LINE
  5
29C
100
AcDbEntity
  8
Frei
  6
CONTINUOUS
 62
           7
100
AcDbLine
 10
-13989.43597528616
 20
-10010.735241805109
 30
0.0
 11
-13990.710945832887
 21
-10030.69456168593
 31
0.0
  0
LINE
  5
29D
100
AcDbEntity
  8
Frei
  6
CONTINUOUS
 62
           7
100
AcDbLine
 10
-13987.440043298078
 20
-10010.862738859782
 30
0.0
 11
-13988.715013844805
 21
-10030.822058740603
 31
0.0
  0
LINE
  5
29E
100
AcDbEntity
  8
Frei
  6
CONTINUOUS
 62
           7
100
AcDbLine
 10
-13987.653299323427
 20
-10029.887841273898
 30
0.0
 11
-13988.715013844805
 21
-10030.822058740603
 31
0.0
  0
LINE
  5
29F
100
AcDbEntity
  8
Frei
  6
CONTINUOUS
 62
           7
100
AcDbLine
 10
-13990.710945832887
 20
-10030.69456168593
 30
0.0
 11
-13991.645163299592
 21
-10029.632847164552
 31
0.0
  0
LINE
  5
2A0
100
AcDbEntity
  8
Frei
  6
CONTINUOUS
 62
           7
100
AcDbLine
 10
-13990.497689807538
 20
-10011.669459271812
 30
0.0
 11
-13989.43597528616
 21
-10010.735241805109
 31
0.0
  0
LINE
  5
2A1
100
AcDbEntity
  8
Frei
  6
CONTINUOUS
 62
           7
100
AcDbLine
 10
-13986.505825831373
 20
-10011.924453381158
 30
0.0
 11
-13987.440043298078
 21
-10010.862738859782
 31
0.0
  0
LINE
  5
2A2
100
AcDbEntity
  8
Frei
  6
CONTINUOUS
 62
           7
100
AcDbLine
 10
-13987.653299323427
 20
-10029.887841273898
 30
0.0
 11
-13987.334556686745
 21
-10024.898011303692
 31
0.0
  0
LINE
  5
2A3
100
AcDbEntity
  8
Frei
  6
CONTINUOUS
 62
           7
100
AcDbLine
 10
-13990.710945832887
 20
-10030.69456168593
 30
0.0
 11
-13988.715013844805
 21
-10030.822058740603
 31
0.0
  0
LINE
  5
2A4
100
AcDbEntity
  8
Frei
  6
CONTINUOUS
 62
           7
100
AcDbLine
 10
-13990.497689807538
 20
-10011.669459271812
 30
0.0
 11
-13991.645163299592
 21
-10029.632847164552
 31
0.0
  0
LINE
  5
2A5
100
AcDbEntity
  8
Frei
  6
CONTINUOUS
 62
           7
100
AcDbLine
 10
-13987.440043298078
 20
-10010.862738859782
 30
0.0
 11
-13989.43597528616
 21
-10010.735241805109
 31
0.0
  0
LINE
  5
2A6
100
AcDbEntity
  8
Frei
  6
CONTINUOUS
 62
           7
100
AcDbLine
 10
-14037.530729983484
 20
-10034.217034126057
 30
0.0
 11
-14027.052087046053
 21
-10034.88639366309
 31
0.0
  0
LINE
  5
2A7
100
AcDbEntity
  8
Frei
  6
CONTINUOUS
 62
           7
100
AcDbLine
 10
-14021.455504664809
 20
-10002.176635705409
 30
0.0
 11
-14035.427028581385
 21
-10001.284156322701
 31
0.0
  0
LINE
  5
2A8
100
AcDbEntity
  8
Frei
  6
CONTINUOUS
 62
           7
100
AcDbLine
 10
-14020.521287198106
 20
-10003.238350226788
 30
0.0
 11
-14021.955629063172
 21
-10025.692585092713
 31
0.0
  0
LINE
  5
2A9
100
AcDbEntity
  8
Frei
  6
CONTINUOUS
 62
           7
100
AcDbLine
 10
-14181.174084598069
 20
-10024.039280195584
 30
0.0
 11
-14179.739742733002
 21
-10001.585045329661
 31
0.0
  0
LINE
  5
2AA
100
AcDbEntity
  8
Frei
  6
CONTINUOUS
 62
           7
100
AcDbLine
 10
-14180.520662192872
 20
-10013.810128756662
 30
0.0
 11
-14180.185982424357
 21
-10008.570807287948
 31
0.0
  0
LINE
  5
2AB
100
AcDbEntity
  8
Frei
  6
CONTINUOUS
 62
           7
100
AcDbLine
 10
-14021.174709603303
 20
-10013.467501665709
 30
0.0
 11
-14021.509389371819
 21
-10018.706823134426
 31
0.0
  0
ARC
  5
2AC
100
AcDbEntity
  8
Frei
  6
CONTINUOUS
 62
           7
100
AcDbCircle
 10
-14188.772888039426
 20
-10008.022289011167
 30
0.0
 40
8.604407030244
100
AcDbArc
 50
332.343014671726
 51
356.344999999999
  0
ARC
  5
2AD
100
AcDbEntity
  8
Frei
  6
CONTINUOUS
 62
           7
100
AcDbCircle
 10
-14182.276465817344
 20
-10003.17657013972
 30
0.0
 40
2.430106011614
100
AcDbArc
 50
310.279521857266
 51
356.344999999999
  0
ARC
  5
2AE
100
AcDbEntity
  8
Frei
  6
CONTINUOUS
 62
           7
100
AcDbCircle
 10
-14182.945825354374
 20
-10013.655213077152
 30
0.0
 40
2.430106011614
100
AcDbArc
 50
310.279521857266
 51
356.344999999999
  0
ARC
  5
2AF
100
AcDbEntity
  8
Frei
  6
CONTINUOUS
 62
           7
100
AcDbCircle
 10
-14182.276465817344
 20
-10003.17657013972
 30
0.0
 40
2.430106011614
100
AcDbArc
 50
356.344999999999
 51
42.410478142733
  0
ARC
  5
2B0
100
AcDbEntity
  8
Frei
  6
CONTINUOUS
 62
           7
100
AcDbCircle
 10
-14182.945825354374
 20
-10013.655213077152
 30
0.0
 40
2.430106011614
100
AcDbArc
 50
356.344999999999
 51
42.410478142733
  0
ARC
  5
2B1
100
AcDbEntity
  8
Frei
  6
CONTINUOUS
 62
           7
100
AcDbCircle
 10
-14019.418905978828
 20
-10024.101060282652
 30
0.0
 40
2.430106011614
100
AcDbArc
 50
130.279521857263
 51
176.345
  0
ARC
  5
2B2
100
AcDbEntity
  8
Frei
  6
CONTINUOUS
 62
           7
100
AcDbCircle
 10
-14018.749546441797
 20
-10013.622417345221
 30
0.0
 40
2.430106011614
100
AcDbArc
 50
130.279521857263
 51
176.345
  0
ARC
  5
2B3
100
AcDbEntity
  8
Frei
  6
CONTINUOUS
 62
           7
100
AcDbCircle
 10
-14019.418905978828
 20
-10024.101060282652
 30
0.0
 40
2.430106011614
100
AcDbArc
 50
176.345
 51
222.410478142737
  0
ARC
  5
2B4
100
AcDbEntity
  8
Frei
  6
CONTINUOUS
 62
           7
100
AcDbCircle
 10
-14018.749546441797
 20
-10013.622417345221
 30
0.0
 40
2.430106011614
100
AcDbArc
 50
176.345
 51
222.410478142737
  0
ARC
  5
2B5
100
AcDbEntity
  8
Frei
  6
CONTINUOUS
 62
           7
100
AcDbCircle
 10
-14012.922483756747
 20
-10019.255341411204
 30
0.0
 40
8.604407030244
100
AcDbArc
 50
152.343014671724
 51
176.345
  0
ARC
  5
2B6
100
AcDbEntity
  8
Frei
  6
CONTINUOUS
 62
           7
100
AcDbCircle
 10
-14157.380227550275
 20
-10017.806341965108
 30
0.0
 40
4.481959213903
100
AcDbArc
 50
184.723955885586
 51
347.966044114414
  0
ARC
  5
2B7
100
AcDbEntity
  8
Frei
  6
CONTINUOUS
 62
           7
100
AcDbCircle
 10
-14188.772888039426
 20
-10008.022289011167
 30
0.0
 40
8.604407030244
100
AcDbArc
 50
356.344999999999
 51
20.346985328274
  0
ARC
  5
2B8
100
AcDbEntity
  8
Frei
  6
CONTINUOUS
 62
           7
100
AcDbCircle
 10
-14012.922483756747
 20
-10019.255341411204
 30
0.0
 40
8.604407030244
100
AcDbArc
 50
176.345
 51
200.346985328276
  0
POLYLINE
  5
2B9
100
AcDbEntity
  8
Frei
  6
CONTINUOUS
 62
           7
100
AcDb2dPolyline
 66
           1
 10
0.0
 20
0.0
 30
0.0
  0
VERTEX
  5
2BA
100
AcDbEntity
  8
Frei
  6
CONTINUOUS
 62
           7
100
AcDbVertex
100
AcDb2dVertex
 10
-14161.540931832789
 20
-10017.841501761022
 30
0.0
 42
0.046286845788
  0
VERTEX
  5
2BB
100
AcDbEntity
  8
Frei
  6
CONTINUOUS
 62
           7
100
AcDbVertex
100
AcDb2dVertex
 10
-14161.521181477181
 20
-10018.521323610139
 30
0.0
  0
VERTEX
  5
2BC
100
AcDbEntity
  8
Frei
  6
CONTINUOUS
 62
           7
100
AcDbVertex
100
AcDb2dVertex
 10
-14161.464036424473
 20
-10018.858259569559
 30
0.0
  0
VERTEX
  5
2BD
100
AcDbEntity
  8
Frei
  6
CONTINUOUS
 62
           7
100
AcDbVertex
100
AcDb2dVertex
 10
-14161.376192055439
 20
-10019.18852782837
 30
0.0
 42
0.045273723548
  0
VERTEX
  5
2BE
100
AcDbEntity
  8
Frei
  6
CONTINUOUS
 62
           7
100
AcDbVertex
100
AcDb2dVertex
 10
-14161.110368997775
 20
-10019.822841753161
 30
0.0
  0
VERTEX
  5
2BF
100
AcDbEntity
  8
Frei
  6
CONTINUOUS
 62
           7
100
AcDbVertex
100
AcDb2dVertex
 10
-14160.934030814173
 20
-10020.122336172861
 30
0.0
  0
VERTEX
  5
2C0
100
AcDbEntity
  8
Frei
  6
CONTINUOUS
 62
           7
100
AcDbVertex
100
AcDb2dVertex
 10
-14160.731789203281
 20
-10020.40499207689
 30
0.0
 42
0.04348253534
  0
VERTEX
  5
2C1
100
AcDbEntity
  8
Frei
  6
CONTINUOUS
 62
           7
100
AcDbVertex
100
AcDb2dVertex
 10
-14160.251955627442
 20
-10020.917290456549
 30
0.0
  0
VERTEX
  5
2C2
100
AcDbEntity
  8
Frei
  6
CONTINUOUS
 62
           7
100
AcDbVertex
100
AcDb2dVertex
 10
-14159.977806731376
 20
-10021.142809819014
 30
0.0
  0
VERTEX
  5
2C3
100
AcDbEntity
  8
Frei
  6
CONTINUOUS
 62
           7
100
AcDbVertex
100
AcDb2dVertex
 10
-14159.685447770658
 20
-10021.344170965111
 30
0.0
 42
0.041825507476
  0
VERTEX
  5
2C4
100
AcDbEntity
  8
Frei
  6
CONTINUOUS
 62
           7
100
AcDbVertex
100
AcDb2dVertex
 10
-14159.049478687482
 20
-10021.672663054334
 30
0.0
  0
VERTEX
  5
2C5
100
AcDbEntity
  8
Frei
  6
CONTINUOUS
 62
           7
100
AcDbVertex
100
AcDb2dVertex
 10
-14158.710976086124
 20
-10021.796904916035
 30
0.0
  0
VERTEX
  5
2C6
100
AcDbEntity
  8
Frei
  6
CONTINUOUS
 62
           7
100
AcDbVertex
100
AcDb2dVertex
 10
-14158.363371976699
 20
-10021.892785658312
 30
0.0
 42
0.040993490696
  0
VERTEX
  5
2C7
100
AcDbEntity
  8
Frei
  6
CONTINUOUS
 62
           7
100
AcDbVertex
100
AcDb2dVertex
 10
-14157.647974643523
 20
-10021.997850463111
 30
0.0
  0
VERTEX
  5
2C8
100
AcDbEntity
  8
Frei
  6
CONTINUOUS
 62
           7
100
AcDbVertex
100
AcDb2dVertex
 10
-14157.286228127541
 20
-10022.006096707359
 30
0.0
  0
VERTEX
  5
2C9
100
AcDbEntity
  8
Frei
  6
CONTINUOUS
 62
           7
100
AcDbVertex
100
AcDb2dVertex
 10
-14156.925023673917
 20
-10021.984665127799
 30
0.0
 42
0.041278481646
  0
VERTEX
  5
2CA
100
AcDbEntity
  8
Frei
  6
CONTINUOUS
 62
           7
100
AcDbVertex
100
AcDb2dVertex
 10
-14156.21648556726
 20
-10021.853630282123
 30
0.0
  0
VERTEX
  5
2CB
100
AcDbEntity
  8
Frei
  6
CONTINUOUS
 62
           7
100
AcDbVertex
100
AcDb2dVertex
 10
-14155.875056421939
 20
-10021.745264500927
 30
0.0
  0
VERTEX
  5
2CC
100
AcDbEntity
  8
Frei
  6
CONTINUOUS
 62
           7
100
AcDbVertex
100
AcDb2dVertex
 10
-14155.543888895385
 20
-10021.608727353558
 30
0.0
 42
0.042584509173
  0
VERTEX
  5
2CD
100
AcDbEntity
  8
Frei
  6
CONTINUOUS
 62
           7
100
AcDbVertex
100
AcDb2dVertex
 10
-14154.927670167821
 20
-10021.257397593663
 30
0.0
  0
VERTEX
  5
2CE
100
AcDbEntity
  8
Frei
  6
CONTINUOUS
 62
           7
100
AcDbVertex
100
AcDb2dVertex
 10
-14154.647373964239
 20
-10021.04563805758
 30
0.0
  0
VERTEX
  5
2CF
100
AcDbEntity
  8
Frei
  6
CONTINUOUS
 62
           7
100
AcDbVertex
100
AcDb2dVertex
 10
-14154.386552878779
 20
-10020.81031597941
 30
0.0
 42
0.044417198743
  0
VERTEX
  5
2D0
100
AcDbEntity
  8
Frei
  6
CONTINUOUS
 62
           7
100
AcDbVertex
100
AcDb2dVertex
 10
-14153.936978603266
 20
-10020.281066859416
 30
0.0
  0
VERTEX
  5
2D1
100
AcDbEntity
  8
Frei
  6
CONTINUOUS
 62
           7
100
AcDbVertex
100
AcDb2dVertex
 10
-14153.751292253341
 20
-10019.991205637783
 30
0.0
  0
VERTEX
  5
2D2
100
AcDbEntity
  8
Frei
  6
CONTINUOUS
 62
           7
100
AcDbVertex
100
AcDb2dVertex
 10
-14153.592607428156
 20
-10019.685731200378
 30
0.0
 42
0.045929593742
  0
VERTEX
  5
2D3
100
AcDbEntity
  8
Frei
  6
CONTINUOUS
 62
           7
100
AcDbVertex
100
AcDb2dVertex
 10
-14153.363902897334
 20
-10019.042397975039
 30
0.0
  0
VERTEX
  5
2D4
100
AcDbEntity
  8
Frei
  6
CONTINUOUS
 62
           7
100
AcDbVertex
100
AcDb2dVertex
 10
-14153.295283223164
 20
-10018.708965294729
 30
0.0
  0
VERTEX
  5
2D5
100
AcDbEntity
  8
Frei
  6
CONTINUOUS
 62
           7
100
AcDbVertex
100
AcDb2dVertex
 10
-14153.257814082248
 20
-10018.370614537913
 30
0.0
 42
0.046286845788
  0
VERTEX
  5
2D6
100
AcDbEntity
  8
Frei
  6
CONTINUOUS
 62
           7
100
AcDbVertex
100
AcDb2dVertex
 10
-14153.277564437856
 20
-10017.690792688796
 30
0.0
  0
VERTEX
  5
2D7
100
AcDbEntity
  8
Frei
  6
CONTINUOUS
 62
           7
100
AcDbVertex
100
AcDb2dVertex
 10
-14153.334709490564
 20
-10017.353856729378
 30
0.0
  0
VERTEX
  5
2D8
100
AcDbEntity
  8
Frei
  6
CONTINUOUS
 62
           7
100
AcDbVertex
100
AcDb2dVertex
 10
-14153.422553859598
 20
-10017.023588470567
 30
0.0
 42
0.045273723548
  0
VERTEX
  5
2D9
100
AcDbEntity
  8
Frei
  6
CONTINUOUS
 62
           7
100
AcDbVertex
100
AcDb2dVertex
 10
-14153.688376917262
 20
-10016.389274545774
 30
0.0
  0
VERTEX
  5
2DA
100
AcDbEntity
  8
Frei
  6
CONTINUOUS
 62
           7
100
AcDbVertex
100
AcDb2dVertex
 10
-14153.864715100864
 20
-10016.089780126074
 30
0.0
  0
VERTEX
  5
2DB
100
AcDbEntity
  8
Frei
  6
CONTINUOUS
 62
           7
100
AcDbVertex
100
AcDb2dVertex
 10
-14154.066956711757
 20
-10015.807124222045
 30
0.0
 42
0.04348253534
  0
VERTEX
  5
2DC
100
AcDbEntity
  8
Frei
  6
CONTINUOUS
 62
           7
100
AcDbVertex
100
AcDb2dVertex
 10
-14154.546790287593
 20
-10015.294825842386
 30
0.0
  0
VERTEX
  5
2DD
100
AcDbEntity
  8
Frei
  6
CONTINUOUS
 62
           7
100
AcDbVertex
100
AcDb2dVertex
 10
-14154.820939183659
 20
-10015.069306479922
 30
0.0
  0
VERTEX
  5
2DE
100
AcDbEntity
  8
Frei
  6
CONTINUOUS
 62
           7
100
AcDbVertex
100
AcDb2dVertex
 10
-14155.113298144379
 20
-10014.867945333825
 30
0.0
 42
0.041825507476
  0
VERTEX
  5
2DF
100
AcDbEntity
  8
Frei
  6
CONTINUOUS
 62
           7
100
AcDbVertex
100
AcDb2dVertex
 10
-14155.749267227555
 20
-10014.539453244601
 30
0.0
  0
VERTEX
  5
2E0
100
AcDbEntity
  8
Frei
  6
CONTINUOUS
 62
           7
100
AcDbVertex
100
AcDb2dVertex
 10
-14156.087769828911
 20
-10014.4152113829
 30
0.0
  0
VERTEX
  5
2E1
100
AcDbEntity
  8
Frei
  6
CONTINUOUS
 62
           7
100
AcDbVertex
100
AcDb2dVertex
 10
-14156.435373938339
 20
-10014.319330640623
 30
0.0
 42
0.040993490695
  0
VERTEX
  5
2E2
100
AcDbEntity
  8
Frei
  6
CONTINUOUS
 62
           7
100
AcDbVertex
100
AcDb2dVertex
 10
-14157.150771271514
 20
-10014.214265835826
 30
0.0
  0
VERTEX
  5
2E3
100
AcDbEntity
  8
Frei
  6
CONTINUOUS
 62
           7
100
AcDbVertex
100
AcDb2dVertex
 10
-14157.512517787496
 20
-10014.206019591576
 30
0.0
  0
VERTEX
  5
2E4
100
AcDbEntity
  8
Frei
  6
CONTINUOUS
 62
           7
100
AcDbVertex
100
AcDb2dVertex
 10
-14157.87372224112
 20
-10014.227451171137
 30
0.0
 42
0.041278481647
  0
VERTEX
  5
2E5
100
AcDbEntity
  8
Frei
  6
CONTINUOUS
 62
           7
100
AcDbVertex
100
AcDb2dVertex
 10
-14158.582260347775
 20
-10014.358486016812
 30
0.0
  0
VERTEX
  5
2E6
100
AcDbEntity
  8
Frei
  6
CONTINUOUS
 62
           7
100
AcDbVertex
100
AcDb2dVertex
 10
-14158.923689493098
 20
-10014.466851798008
 30
0.0
  0
VERTEX
  5
2E7
100
AcDbEntity
  8
Frei
  6
CONTINUOUS
 62
           7
100
AcDbVertex
100
AcDb2dVertex
 10
-14159.25485701965
 20
-10014.603388945377
 30
0.0
 42
0.042584509173
  0
VERTEX
  5
2E8
100
AcDbEntity
  8
Frei
  6
CONTINUOUS
 62
           7
100
AcDbVertex
100
AcDb2dVertex
 10
-14159.871075747214
 20
-10014.954718705274
 30
0.0
  0
VERTEX
  5
2E9
100
AcDbEntity
  8
Frei
  6
CONTINUOUS
 62
           7
100
AcDbVertex
100
AcDb2dVertex
 10
-14160.151371950798
 20
-10015.166478241355
 30
0.0
  0
VERTEX
  5
2EA
100
AcDbEntity
  8
Frei
  6
CONTINUOUS
 62
           7
100
AcDbVertex
100
AcDb2dVertex
 10
-14160.412193036258
 20
-10015.401800319525
 30
0.0
 42
0.044417198743
  0
VERTEX
  5
2EB
100
AcDbEntity
  8
Frei
  6
CONTINUOUS
 62
           7
100
AcDbVertex
100
AcDb2dVertex
 10
-14160.86176731177
 20
-10015.931049439518
 30
0.0
  0
VERTEX
  5
2EC
100
AcDbEntity
  8
Frei
  6
CONTINUOUS
 62
           7
100
AcDbVertex
100
AcDb2dVertex
 10
-14161.047453661695
 20
-10016.220910661152
 30
0.0
  0
VERTEX
  5
2ED
100
AcDbEntity
  8
Frei
  6
CONTINUOUS
 62
           7
100
AcDbVertex
100
AcDb2dVertex
 10
-14161.206138486883
 20
-10016.526385098558
 30
0.0
 42
0.045929593741
  0
VERTEX
  5
2EE
100
AcDbEntity
  8
Frei
  6
CONTINUOUS
 62
           7
100
AcDbVertex
100
AcDb2dVertex
 10
-14161.434843017701
 20
-10017.169718323896
 30
0.0
  0
VERTEX
  5
2EF
100
AcDbEntity
  8
Frei
  6
CONTINUOUS
 62
           7
100
AcDbVertex
100
AcDb2dVertex
 10
-14161.503462691873
 20
-10017.503151004206
 30
0.0
  0
VERTEX
  5
2F0
100
AcDbEntity
  8
Frei
  6
CONTINUOUS
 62
           7
100
AcDbVertex
100
AcDb2dVertex
 10
-14161.540931832789
 20
-10017.841501761022
 30
0.0
  0
SEQEND
  5
2F1
100
AcDbEntity
  8
Frei
  6
CONTINUOUS
 62
           7
  0
POLYLINE
  5
2F2
100
AcDbEntity
  8
Frei
  6
CONTINUOUS
 62
           7
100
AcDb2dPolyline
 66
           1
 10
0.0
 20
0.0
 30
0.0
  0
VERTEX
  5
2F3
100
AcDbEntity
  8
Frei
  6
CONTINUOUS
 62
           7
100
AcDbVertex
100
AcDb2dVertex
 10
-14157.145453216626
 20
-10014.131013121536
 30
0.0
 42
0.046286845788
  0
VERTEX
  5
2F4
100
AcDbEntity
  8
Frei
  6
CONTINUOUS
 62
           7
100
AcDbVertex
100
AcDb2dVertex
 10
-14157.921202202115
 20
-10014.153550376475
 30
0.0
  0
VERTEX
  5
2F5
100
AcDbEntity
  8
Frei
  6
CONTINUOUS
 62
           7
100
AcDbVertex
100
AcDb2dVertex
 10
-14158.305681943437
 20
-10014.218758955341
 30
0.0
  0
VERTEX
  5
2F6
100
AcDbEntity
  8
Frei
  6
CONTINUOUS
 62
           7
100
AcDbVertex
100
AcDb2dVertex
 10
-14158.682553129682
 20
-10014.31899871705
 30
0.0
 42
0.045273723548
  0
VERTEX
  5
2F7
100
AcDbEntity
  8
Frei
  6
CONTINUOUS
 62
           7
100
AcDbVertex
100
AcDb2dVertex
 10
-14159.406372736656
 20
-10014.622331079154
 30
0.0
  0
VERTEX
  5
2F8
100
AcDbEntity
  8
Frei
  6
CONTINUOUS
 62
           7
100
AcDbVertex
100
AcDb2dVertex
 10
-14159.74812770164
 20
-10014.823551688949
 30
0.0
  0
VERTEX
  5
2F9
100
AcDbEntity
  8
Frei
  6
CONTINUOUS
 62
           7
100
AcDbVertex
100
AcDb2dVertex
 10
-14160.070668130546
 20
-10015.05433086246
 30
0.0
 42
0.04348253534
  0
VERTEX
  5
2FA
100
AcDbEntity
  8
Frei
  6
CONTINUOUS
 62
           7
100
AcDbVertex
100
AcDb2dVertex
 10
-14160.655255031959
 20
-10015.601871972152
 30
0.0
  0
VERTEX
  5
2FB
100
AcDbEntity
  8
Frei
  6
CONTINUOUS
 62
           7
100
AcDbVertex
100
AcDb2dVertex
 10
-14160.912596594115
 20
-10015.914705000796
 30
0.0
  0
VERTEX
  5
2FC
100
AcDbEntity
  8
Frei
  6
CONTINUOUS
 62
           7
100
AcDbVertex
100
AcDb2dVertex
 10
-14161.142371063714
 20
-10016.248317648684
 30
0.0
 42
0.041825507476
  0
VERTEX
  5
2FD
100
AcDbEntity
  8
Frei
  6
CONTINUOUS
 62
           7
100
AcDbVertex
100
AcDb2dVertex
 10
-14161.517215451675
 20
-10016.974025967289
 30
0.0
  0
VERTEX
  5
2FE
100
AcDbEntity
  8
Frei
  6
CONTINUOUS
 62
           7
100
AcDbVertex
100
AcDb2dVertex
 10
-14161.658988621064
 20
-10017.360293413576
 30
0.0
  0
VERTEX
  5
2FF
100
AcDbEntity
  8
Frei
  6
CONTINUOUS
 62
           7
100
AcDbVertex
100
AcDb2dVertex
 10
-14161.768398738797
 20
-10017.756946647934
 30
0.0
 42
0.040993490695
  0
VERTEX
  5
300
100
AcDbEntity
  8
Frei
  6
CONTINUOUS
 62
           7
100
AcDbVertex
100
AcDb2dVertex
 10
-14161.888288848006
 20
-10018.573291041917
 30
0.0
  0
VERTEX
  5
301
100
AcDbEntity
  8
Frei
  6
CONTINUOUS
 62
           7
100
AcDbVertex
100
AcDb2dVertex
 10
-14161.897698689154
 20
-10018.986082265295
 30
0.0
  0
VERTEX
  5
302
100
AcDbEntity
  8
Frei
  6
CONTINUOUS
 62
           7
100
AcDbVertex
100
AcDb2dVertex
 10
-14161.873242978998
 20
-10019.398254937912
 30
0.0
 42
0.041278481646
  0
VERTEX
  5
303
100
AcDbEntity
  8
Frei
  6
CONTINUOUS
 62
           7
100
AcDbVertex
100
AcDb2dVertex
 10
-14161.723718292891
 20
-10020.206772225394
 30
0.0
  0
VERTEX
  5
304
100
AcDbEntity
  8
Frei
  6
CONTINUOUS
 62
           7
100
AcDbVertex
100
AcDb2dVertex
 10
-14161.600061418767
 20
-10020.596379169394
 30
0.0
  0
VERTEX
  5
305
100
AcDbEntity
  8
Frei
  6
CONTINUOUS
 62
           7
100
AcDbVertex
100
AcDb2dVertex
 10
-14161.444258021609
 20
-10020.974276515712
 30
0.0
 42
0.042584509173
  0
VERTEX
  5
306
100
AcDbEntity
  8
Frei
  6
CONTINUOUS
 62
           7
100
AcDbVertex
100
AcDb2dVertex
 10
-14161.043353424084
 20
-10021.677447579379
 30
0.0
  0
VERTEX
  5
307
100
AcDbEntity
  8
Frei
  6
CONTINUOUS
 62
           7
100
AcDbVertex
100
AcDb2dVertex
 10
-14160.801713286306
 20
-10021.99729533927
 30
0.0
  0
VERTEX
  5
308
100
AcDbEntity
  8
Frei
  6
CONTINUOUS
 62
           7
100
AcDbVertex
100
AcDb2dVertex
 10
-14160.533185783639
 20
-10022.29491991945
 30
0.0
 42
0.044417198743
  0
VERTEX
  5
309
100
AcDbEntity
  8
Frei
  6
CONTINUOUS
 62
           7
100
AcDbVertex
100
AcDb2dVertex
 10
-14159.929256285874
 20
-10022.807931951325
 30
0.0
  0
VERTEX
  5
30A
100
AcDbEntity
  8
Frei
  6
CONTINUOUS
 62
           7
100
AcDbVertex
100
AcDb2dVertex
 10
-14159.598493823758
 20
-10023.019819812478
 30
0.0
  0
VERTEX
  5
30B
100
AcDbEntity
  8
Frei
  6
CONTINUOUS
 62
           7
100
AcDbVertex
100
AcDb2dVertex
 10
-14159.249915022974
 20
-10023.200896064016
 30
0.0
 42
0.045929593742
  0
VERTEX
  5
30C
100
AcDbEntity
  8
Frei
  6
CONTINUOUS
 62
           7
100
AcDbVertex
100
AcDb2dVertex
 10
-14158.515803435454
 20
-10023.461872241804
 30
0.0
  0
VERTEX
  5
30D
100
AcDbEntity
  8
Frei
  6
CONTINUOUS
 62
           7
100
AcDbVertex
100
AcDb2dVertex
 10
-14158.135321307944
 20
-10023.540174583353
 30
0.0
  0
VERTEX
  5
30E
100
AcDbEntity
  8
Frei
  6
CONTINUOUS
 62
           7
100
AcDbVertex
100
AcDb2dVertex
 10
-14157.749227132419
 20
-10023.582930855589
 30
0.0
 42
0.046286845788
  0
VERTEX
  5
30F
100
AcDbEntity
  8
Frei
  6
CONTINUOUS
 62
           7
100
AcDbVertex
100
AcDb2dVertex
 10
-14156.973478146931
 20
-10023.560393600652
 30
0.0
  0
VERTEX
  5
310
100
AcDbEntity
  8
Frei
  6
CONTINUOUS
 62
           7
100
AcDbVertex
100
AcDb2dVertex
 10
-14156.588998405608
 20
-10023.495185021786
 30
0.0
  0
VERTEX
  5
311
100
AcDbEntity
  8
Frei
  6
CONTINUOUS
 62
           7
100
AcDbVertex
100
AcDb2dVertex
 10
-14156.212127219364
 20
-10023.394945260077
 30
0.0
 42
0.045273723548
  0
VERTEX
  5
312
100
AcDbEntity
  8
Frei
  6
CONTINUOUS
 62
           7
100
AcDbVertex
100
AcDb2dVertex
 10
-14155.48830761239
 20
-10023.091612897972
 30
0.0
  0
VERTEX
  5
313
100
AcDbEntity
  8
Frei
  6
CONTINUOUS
 62
           7
100
AcDbVertex
100
AcDb2dVertex
 10
-14155.146552647406
 20
-10022.890392288176
 30
0.0
  0
VERTEX
  5
314
100
AcDbEntity
  8
Frei
  6
CONTINUOUS
 62
           7
100
AcDbVertex
100
AcDb2dVertex
 10
-14154.824012218502
 20
-10022.659613114667
 30
0.0
 42
0.04348253534
  0
VERTEX
  5
315
100
AcDbEntity
  8
Frei
  6
CONTINUOUS
 62
           7
100
AcDbVertex
100
AcDb2dVertex
 10
-14154.239425317086
 20
-10022.112072004973
 30
0.0
  0
VERTEX
  5
316
100
AcDbEntity
  8
Frei
  6
CONTINUOUS
 62
           7
100
AcDbVertex
100
AcDb2dVertex
 10
-14153.98208375493
 20
-10021.799238976331
 30
0.0
  0
VERTEX
  5
317
100
AcDbEntity
  8
Frei
  6
CONTINUOUS
 62
           7
100
AcDbVertex
100
AcDb2dVertex
 10
-14153.752309285332
 20
-10021.465626328443
 30
0.0
 42
0.041825507476
  0
VERTEX
  5
318
100
AcDbEntity
  8
Frei
  6
CONTINUOUS
 62
           7
100
AcDbVertex
100
AcDb2dVertex
 10
-14153.377464897369
 20
-10020.739918009836
 30
0.0
  0
VERTEX
  5
319
100
AcDbEntity
  8
Frei
  6
CONTINUOUS
 62
           7
100
AcDbVertex
100
AcDb2dVertex
 10
-14153.235691727981
 20
-10020.353650563549
 30
0.0
  0
VERTEX
  5
31A
100
AcDbEntity
  8
Frei
  6
CONTINUOUS
 62
           7
100
AcDbVertex
100
AcDb2dVertex
 10
-14153.126281610248
 20
-10019.956997329191
 30
0.0
 42
0.040993490695
  0
VERTEX
  5
31B
100
AcDbEntity
  8
Frei
  6
CONTINUOUS
 62
           7
100
AcDbVertex
100
AcDb2dVertex
 10
-14153.00639150104
 20
-10019.14065293521
 30
0.0
  0
VERTEX
  5
31C
100
AcDbEntity
  8
Frei
  6
CONTINUOUS
 62
           7
100
AcDbVertex
100
AcDb2dVertex
 10
-14152.99698165989
 20
-10018.72786171183
 30
0.0
  0
VERTEX
  5
31D
100
AcDbEntity
  8
Frei
  6
CONTINUOUS
 62
           7
100
AcDbVertex
100
AcDb2dVertex
 10
-14153.021437370047
 20
-10018.315689039213
 30
0.0
 42
0.041278481646
  0
VERTEX
  5
31E
100
AcDbEntity
  8
Frei
  6
CONTINUOUS
 62
           7
100
AcDbVertex
100
AcDb2dVertex
 10
-14153.170962056154
 20
-10017.507171751733
 30
0.0
  0
VERTEX
  5
31F
100
AcDbEntity
  8
Frei
  6
CONTINUOUS
 62
           7
100
AcDbVertex
100
AcDb2dVertex
 10
-14153.294618930278
 20
-10017.117564807731
 30
0.0
  0
VERTEX
  5
320
100
AcDbEntity
  8
Frei
  6
CONTINUOUS
 62
           7
100
AcDbVertex
100
AcDb2dVertex
 10
-14153.450422327436
 20
-10016.739667461416
 30
0.0
 42
0.042584509173
  0
VERTEX
  5
321
100
AcDbEntity
  8
Frei
  6
CONTINUOUS
 62
           7
100
AcDbVertex
100
AcDb2dVertex
 10
-14153.851326924962
 20
-10016.036496397748
 30
0.0
  0
VERTEX
  5
322
100
AcDbEntity
  8
Frei
  6
CONTINUOUS
 62
           7
100
AcDbVertex
100
AcDb2dVertex
 10
-14154.092967062737
 20
-10015.716648637856
 30
0.0
  0
VERTEX
  5
323
100
AcDbEntity
  8
Frei
  6
CONTINUOUS
 62
           7
100
AcDbVertex
100
AcDb2dVertex
 10
-14154.361494565408
 20
-10015.419024057677
 30
0.0
 42
0.044417198743
  0
VERTEX
  5
324
100
AcDbEntity
  8
Frei
  6
CONTINUOUS
 62
           7
100
AcDbVertex
100
AcDb2dVertex
 10
-14154.965424063172
 20
-10014.906012025802
 30
0.0
  0
VERTEX
  5
325
100
AcDbEntity
  8
Frei
  6
CONTINUOUS
 62
           7
100
AcDbVertex
100
AcDb2dVertex
 10
-14155.296186525287
 20
-10014.694124164647
 30
0.0
  0
VERTEX
  5
326
100
AcDbEntity
  8
Frei
  6
CONTINUOUS
 62
           7
100
AcDbVertex
100
AcDb2dVertex
 10
-14155.644765326069
 20
-10014.513047913111
 30
0.0
 42
0.045929593741
  0
VERTEX
  5
327
100
AcDbEntity
  8
Frei
  6
CONTINUOUS
 62
           7
100
AcDbVertex
100
AcDb2dVertex
 10
-14156.37887691359
 20
-10014.252071735322
 30
0.0
  0
VERTEX
  5
328
100
AcDbEntity
  8
Frei
  6
CONTINUOUS
 62
           7
100
AcDbVertex
100
AcDb2dVertex
 10
-14156.7593590411
 20
-10014.173769393772
 30
0.0
  0
VERTEX
  5
329
100
AcDbEntity
  8
Frei
  6
CONTINUOUS
 62
           7
100
AcDbVertex
100
AcDb2dVertex
 10
-14157.145453216626
 20
-10014.131013121536
 30
0.0
  0
SEQEND
  5
32A
100
AcDbEntity
  8
Frei
  6
CONTINUOUS
 62
           7
  0
ARC
  5
32B
100
AcDbEntity
  8
Frei
  6
CONTINUOUS
 62
           7
100
AcDbCircle
 10
-14023.385702453936
 20
-10032.173403480236
 30
0.0
 40
0.5
100
AcDbArc
 50
273.494821982568
 51
356.344999999999
  0
ARC
  5
32C
100
AcDbEntity
  8
Frei
  6
CONTINUOUS
 62
           7
100
AcDbCircle
 10
-14023.059462807232
 20
-10027.066209841081
 30
0.0
 40
0.5
100
AcDbArc
 50
356.344999999999
 51
79.195178017423
  0
ARC
  5
32D
100
AcDbEntity
  8
Frei
  6
CONTINUOUS
 62
           7
100
AcDbCircle
 10
-14177.810686345218
 20
-9995.136101205804
 30
0.0
 40
0.5
100
AcDbArc
 50
93.494821982565
 51
176.345
  0
ARC
  5
32E
100
AcDbEntity
  8
Frei
  6
CONTINUOUS
 62
           7
100
AcDbCircle
 10
-14178.136925991921
 20
-10000.24329484496
 30
0.0
 40
0.5
100
AcDbArc
 50
176.345
 51
259.195178017419
  0
ARC
  5
32F
100
AcDbEntity
  8
Frei
  6
CONTINUOUS
 62
           7
100
AcDbCircle
 10
-14208.018837418569
 20
-9997.217490922234
 30
0.0
 40
2.0
100
AcDbArc
 50
88.345
 51
176.345
  0
ARC
  5
330
100
AcDbEntity
  8
Frei
  6
CONTINUOUS
 62
           7
100
AcDbCircle
 10
-14223.599785967828
 20
-10052.893393650758
 30
0.0
 40
1.5
100
AcDbArc
 50
176.345
 51
266.345
  0
ARC
  5
331
100
AcDbEntity
  8
Frei
  6
CONTINUOUS
 62
           7
100
AcDbCircle
 10
-14222.643558057784
 20
-10037.92390374014
 30
0.0
 40
1.5
100
AcDbArc
 50
86.345
 51
176.345
  0
ARC
  5
332
100
AcDbEntity
  8
Frei
  6
CONTINUOUS
 62
           7
100
AcDbCircle
 10
-14211.496696984663
 20
-10051.662443990712
 30
0.0
 40
1.5
100
AcDbArc
 50
176.345
 51
266.345
  0
ARC
  5
333
100
AcDbEntity
  8
Frei
  6
CONTINUOUS
 62
           7
100
AcDbCircle
 10
-14186.547547133634
 20
-10053.256157174121
 30
0.0
 40
1.5
100
AcDbArc
 50
266.345
 51
356.344999999999
  0
ARC
  5
334
100
AcDbEntity
  8
Frei
  6
CONTINUOUS
 62
           7
100
AcDbCircle
 10
-14020.885192122809
 20
-10063.838412711952
 30
0.0
 40
1.5
100
AcDbArc
 50
176.345
 51
266.345
  0
ARC
  5
335
100
AcDbEntity
  8
Frei
  6
CONTINUOUS
 62
           7
100
AcDbCircle
 10
-13995.936042271782
 20
-10065.432125895361
 30
0.0
 40
1.5
100
AcDbArc
 50
266.345
 51
356.344999999999
  0
ARC
  5
336
100
AcDbEntity
  8
Frei
  6
CONTINUOUS
 62
           7
100
AcDbCircle
 10
-13983.131719487916
 20
-10053.223550300861
 30
0.0
 40
1.5
100
AcDbArc
 50
356.344999999999
 51
86.345
  0
ARC
  5
337
100
AcDbEntity
  8
Frei
  6
CONTINUOUS
 62
           7
100
AcDbCircle
 10
-13984.087947397962
 20
-10068.193040211478
 30
0.0
 40
1.5
100
AcDbArc
 50
266.345
 51
356.344999999999
  0
ARC
  5
338
100
AcDbEntity
  8
Frei
  6
CONTINUOUS
 62
           7
100
AcDbCircle
 10
-13992.458182705688
 20
-10010.987172826883
 30
0.0
 40
2.0
100
AcDbArc
 50
356.344999999999
 51
84.345
  0
ARC
  5
339
100
AcDbEntity
  8
Frei
  6
CONTINUOUS
 62
           7
100
AcDbCircle
 10
-14021.519253192146
 20
-10003.174601699451
 30
0.0
 40
1.0
100
AcDbArc
 50
356.344999999999
 51
86.345
  0
ARC
  5
33A
100
AcDbEntity
  8
Frei
  6
CONTINUOUS
 62
           7
100
AcDbCircle
 10
-14023.495457539573
 20
-10034.111547514725
 30
0.0
 40
1.0
100
AcDbArc
 50
266.344999999999
 51
356.344999999999
  0
ARC
  5
33B
100
AcDbEntity
  8
Frei
  6
CONTINUOUS
 62
           7
100
AcDbCircle
 10
-14180.176118604028
 20
-10024.10302872292
 30
0.0
 40
1.0
100
AcDbArc
 50
176.345
 51
266.345
  0
ARC
  5
33C
100
AcDbEntity
  8
Frei
  6
CONTINUOUS
 62
           7
100
AcDbCircle
 10
-14178.199914256602
 20
-9993.166082907646
 30
0.0
 40
1.0
100
AcDbArc
 50
86.345
 51
176.345
  0
LINE
  5
33D
100
AcDbEntity
  8
Frei
  6
CONTINUOUS
 62
           7
100
AcDbLine
 10
-14458.898905892904
 20
-9976.153600974514
 30
0.0
 11
-14458.898905892904
 21
-10056.153600974514
 31
0.0
  0
LINE
  5
33E
100
AcDbEntity
  8
Frei
  6
CONTINUOUS
 62
           7
100
AcDbLine
 10
-13913.010020892905
 20
-10056.153600974514
 30
0.0
 11
-13913.010020892905
 21
-9976.153600974514
 31
0.0
  0
LINE
  5
33F
100
AcDbEntity
  8
Frei
  6
CONTINUOUS
 62
          15
100
AcDbLine
 10
-14362.198619516937
 20
-9976.153600974514
 30
0.0
 11
-14458.898905892904
 21
-9976.153600974514
 31
0.0
  0
LINE
  5
340
100
AcDbEntity
  8
Frei
  6
GESTRICHELT
 62
          15
100
AcDbLine
 10
-14354.40829865227
 20
-9976.153600974514
 30
0.0
 11
-14362.198619516937
 21
-9976.153600974514
 31
0.0
  0
LINE
  5
341
100
AcDbEntity
  8
Frei
  6
CONTINUOUS
 62
          15
100
AcDbLine
 10
-14239.686294194198
 20
-9976.153600974514
 30
0.0
 11
-14354.40829865227
 21
-9976.153600974514
 31
0.0
  0
LINE
  5
342
100
AcDbEntity
  8
Frei
  6
GESTRICHELT
 62
          15
100
AcDbLine
 10
-14143.342885454567
 20
-9976.153600974514
 30
0.0
 11
-14239.686294194198
 21
-9976.153600974514
 31
0.0
  0
LINE
  5
343
100
AcDbEntity
  8
Frei
  6
CONTINUOUS
 62
          15
100
AcDbLine
 10
-13913.010020892905
 20
-9976.153600974514
 30
0.0
 11
-14143.342885454567
 21
-9976.153600974514
 31
0.0
  0
LINE
  5
344
100
AcDbEntity
  8
Frei
  6
CONTINUOUS
 62
          15
100
AcDbLine
 10
-14021.897355437904
 20
-10056.153600974514
 30
0.0
 11
-14458.898905892904
 21
-10056.153600974514
 31
0.0
  0
LINE
  5
345
100
AcDbEntity
  8
Frei
  6
GESTRICHELT
 62
          15
100
AcDbLine
 10
-13971.795447859338
 20
-10056.153600974514
 30
0.0
 11
-14021.897355437904
 21
-10056.153600974514
 31
0.0
  0
LINE
  5
346
100
AcDbEntity
  8
Frei
  6
CONTINUOUS
 62
          15
100
AcDbLine
 10
-13913.010020892905
 20
-10056.153600974514
 30
0.0
 11
-13971.795447859338
 21
-10056.153600974514
 31
0.0
  0
TEXT
  5
347
100
AcDbEntity
  8
FREI
  6
CONTINUOUS
 62
          15
100
AcDbText
 10
-14597.941710429071
 20
-10140.860834376155
 30
0.0
 40
3.527777671814
  1
200-701
 41
0.899999979725
  7
GOTHICG
100
AcDbText
  0
ENDSEC
  0
SECTION
  2
OBJECTS
  0
DICTIONARY
  5
19
100
AcDbDictionary
  3
ACAD_GROUP
350
1A
  3
ACAD_MLINESTYLE
350
1B
  0
DICTIONARY
  5
1A
102
{ACAD_REACTORS
330
19
102
}
100
AcDbDictionary
  0
DICTIONARY
  5
1B
102
{ACAD_REACTORS
330
19
102
}
100
AcDbDictionary
  3
STANDARD
350
1C
  0
MLINESTYLE
  5
1C
102
{ACAD_REACTORS
330
1B
102
}
100
AcDbMlineStyle
  2
STANDARD
 70
           0
  3

 62
           0
 51
90.0
 52
90.0
 71
           2
 49
0.5
 62
         256
  6
BYLAYER
 49
-0.5
 62
         256
  6
BYLAYER
  0
ENDSEC
  0
EOF
