  0
SECTION
  2
HEADER
  9
$ACADVER
  1
AC1012
  9
$DWGCODEPAGE
  3
dos850
  9
$INSBASE
 10
0.0
 20
0.0
 30
0.0
  9
$EXTMIN
 10
-14670.760573373209
 20
-11035.734187023354
 30
0.0
  9
$EXTMAX
 10
-13927.274351357128
 20
-10575.076520641771
 30
0.0
  9
$LIMMIN
 10
-14670.760573373209
 20
-11035.734187023354
  9
$LIMMAX
 10
-13927.274351357128
 20
-10575.076520641771
  9
$ORTHOMODE
 70
           0
  9
$REGENMODE
 70
           1
  9
$FILLMODE
 70
           1
  9
$QTEXTMODE
 70
           0
  9
$MIRRTEXT
 70
           1
  9
$DRAGMODE
 70
           2
  9
$LTSCALE
 40
5.0
  9
$OSMODE
 70
           0
  9
$ATTMODE
 70
           1
  9
$TEXTSIZE
 40
0.2
  9
$TRACEWID
 40
0.05
  9
$TEXTSTYLE
  7
TXT
  9
$CLAYER
  8
0
  9
$CELTYPE
  6
CONTINUOUS
  9
$CECOLOR
 62
         256
  9
$CELTSCALE
 40
1.0
  9
$DELOBJ
 70
           1
  9
$DISPSILH
 70
           0
  9
$DIMSCALE
 40
1.0
  9
$DIMASZ
 40
3.5
  9
$DIMEXO
 40
0.0625
  9
$DIMDLI
 40
0.38
  9
$DIMRND
 40
0.0
  9
$DIMDLE
 40
0.0
  9
$DIMEXE
 40
0.18
  9
$DIMTP
 40
0.0
  9
$DIMTM
 40
0.0
  9
$DIMTXT
 40
3.5
  9
$DIMCEN
 40
0.09
  9
$DIMTSZ
 40
0.0
  9
$DIMTOL
 70
           0
  9
$DIMLIM
 70
           0
  9
$DIMTIH
 70
           1
  9
$DIMTOH
 70
           1
  9
$DIMSE1
 70
           0
  9
$DIMSE2
 70
           0
  9
$DIMTAD
 70
           0
  9
$DIMZIN
 70
           0
  9
$DIMBLK
  1

  9
$DIMASO
 70
           1
  9
$DIMSHO
 70
           1
  9
$DIMPOST
  1

  9
$DIMAPOST
  1

  9
$DIMALT
 70
           0
  9
$DIMALTD
 70
           2
  9
$DIMALTF
 40
25.4
  9
$DIMLFAC
 40
1.0
  9
$DIMTOFL
 70
           0
  9
$DIMTVP
 40
0.0
  9
$DIMTIX
 70
           0
  9
$DIMSOXD
 70
           0
  9
$DIMSAH
 70
           0
  9
$DIMBLK1
  1

  9
$DIMBLK2
  1

  9
$DIMSTYLE
  2
STANDARD
  9
$DIMCLRD
 70
           0
  9
$DIMCLRE
 70
           0
  9
$DIMCLRT
 70
           0
  9
$DIMTFAC
 40
1.0
  9
$DIMGAP
 40
0.09
  9
$DIMJUST
 70
           0
  9
$DIMSD1
 70
           0
  9
$DIMSD2
 70
           0
  9
$DIMTOLJ
 70
           1
  9
$DIMTZIN
 70
           0
  9
$DIMALTZ
 70
           0
  9
$DIMALTTZ
 70
           0
  9
$DIMFIT
 70
           3
  9
$DIMUPT
 70
           0
  9
$DIMUNIT
 70
           2
  9
$DIMDEC
 70
           4
  9
$DIMTDEC
 70
           4
  9
$DIMALTU
 70
           2
  9
$DIMALTTD
 70
           2
  9
$DIMTXSTY
  7
TXT
  9
$DIMAUNIT
 70
           0
  9
$LUNITS
 70
           2
  9
$LUPREC
 70
           3
  9
$SKETCHINC
 40
0.1
  9
$FILLETRAD
 40
0.0
  9
$AUNITS
 70
           0
  9
$AUPREC
 70
           3
  9
$MENU
  1
acad
  9
$ELEVATION
 40
0.0
  9
$PELEVATION
 40
0.0
  9
$THICKNESS
 40
0.0
  9
$LIMCHECK
 70
           0
  9
$BLIPMODE
 70
           1
  9
$CHAMFERA
 40
0.0
  9
$CHAMFERB
 40
0.0
  9
$CHAMFERC
 40
0.0
  9
$CHAMFERD
 40
0.0
  9
$SKPOLY
 70
           0
  9
$TDCREATE
 40
0.000000000
  9
$TDUPDATE
 40
0.000000000
  9
$TDINDWG
 40
0.0000000000
  9
$TDUSRTIMER
 40
0.0000000000
  9
$USRTIMER
 70
           1
  9
$ANGBASE
 50
0.0
  9
$ANGDIR
 70
           0
  9
$PDMODE
 70
           2
  9
$PDSIZE
 40
0.5
  9
$PLINEWID
 40
0.0
  9
$COORDS
 70
           0
  9
$SPLFRAME
 70
           0
  9
$SPLINETYPE
 70
           6
  9
$SPLINESEGS
 70
           8
  9
$ATTDIA
 70
           0
  9
$ATTREQ
 70
           1
  9
$HANDLING
 70
           1
  9
$HANDSEED
  5
3A4
  9
$SURFTAB1
 70
           6
  9
$SURFTAB2
 70
           6
  9
$SURFTYPE
 70
           6
  9
$SURFU
 70
           6
  9
$SURFV
 70
           6
  9
$UCSNAME
  2

  9
$UCSORG
 10
0.0
 20
0.0
 30
0.0
  9
$UCSXDIR
 10
1.0
 20
0.0
 30
0.0
  9
$UCSYDIR
 10
0.0
 20
1.0
 30
0.0
  9
$PUCSNAME
  2

  9
$PUCSORG
 10
0.0
 20
0.0
 30
0.0
  9
$PUCSXDIR
 10
1.0
 20
0.0
 30
0.0
  9
$PUCSYDIR
 10
0.0
 20
1.0
 30
0.0
  9
$USERI1
 70
           0
  9
$USERI2
 70
           0
  9
$USERI3
 70
           0
  9
$USERI4
 70
           0
  9
$USERI5
 70
           0
  9
$USERR1
 40
0.0
  9
$USERR2
 40
0.0
  9
$USERR3
 40
0.0
  9
$USERR4
 40
0.0
  9
$USERR5
 40
0.0
  9
$WORLDVIEW
 70
           1
  9
$SHADEDGE
 70
           3
  9
$SHADEDIF
 70
          70
  9
$TILEMODE
 70
           1
  9
$MAXACTVP
 70
          16
  9
$PINSBASE
 10
0.0
 20
0.0
 30
0.0
  9
$PLIMCHECK
 70
           0
  9
$PEXTMIN
 10
1.000000000000E+20
 20
1.000000000000E+20
 30
1.000000000000E+20
  9
$PEXTMAX
 10
-1.000000000000E+20
 20
-1.000000000000E+20
 30
-1.000000000000E+20
  9
$PLIMMIN
 10
0.0
 20
0.0
  9
$PLIMMAX
 10
12.0
 20
9.0
  9
$UNITMODE
 70
           0
  9
$VISRETAIN
 70
           0
  9
$PLINEGEN
 70
           1
  9
$PSLTSCALE
 70
           0
  9
$TREEDEPTH
 70
        3020
  9
$PICKSTYLE
 70
           1
  9
$CMLSTYLE
  2
STANDARD
  9
$CMLJUST
 70
           0
  9
$CMLSCALE
 40
1.0
  9
$SAVEIMAGES
 70
           0
  0
ENDSEC
  0
SECTION
  2
CLASSES
  0
CLASS
  1
LWPOLYLINE
  2
AcDbPolyline
  3
"AutoCAD"
 90
        0
280
           0
281
           1
  0
CLASS
  1
IMAGE
  2
AcDbRasterImage
  3
ISM
 90
      127
280
           0
281
           1
  0
CLASS
  1
OLE2FRAME
  2
AcDbOle2Frame
  3
""
 90
        0
280
           0
281
           1
  0
CLASS
  1
HATCH
  2
AcDbHatch
  3
"ACAD_SEDONA"
 90
        0
280
           0
281
           1
  0
CLASS
  1
DICTIONARYVAR
  2
AcDbDictionaryVar
  3
"AutoCAD"
 90
        0
280
           0
281
           0
  0
CLASS
  1
RASTERVARIABLES
  2
AcDbRasterVariables
  3
ISM
 90
        0
280
           0
281
           0
  0
CLASS
  1
IMAGEDEF
  2
AcDbRasterImageDef
  3
ISM
 90
        0
280
           0
281
           0
  0
CLASS
  1
IMAGEDEF_REACTOR
  2
AcDbRasterImageDefReactor
  3
ISM
 90
        1
280
           0
281
           0
  0
CLASS
  1
IDBUFFER
  2
AcDbIdBuffer
  3
"Acad"
 90
        0
280
           0
281
           0
  0
CLASS
  1
SPATIAL_FILTER
  2
AcDbSpatialFilter
  3
"Acad"
 90
        0
280
           0
281
           0
  0
CLASS
  1
XRECORD
  2
AcDbXrecord
  3
"<Built In>"
 90
        0
280
           0
281
           0
  0
ENDSEC
  0
SECTION
  2
TABLES
  0
TABLE
  2
VPORT
  5
7
100
AcDbSymbolTable
 70
           1
  0
VPORT
  5
15
100
AcDbSymbolTableRecord
100
AcDbViewportTableRecord
  2
*ACTIVE
 70
           0
 10
0.0
 20
0.0
 11
1.0
 21
1.0
 12
6.591288
 22
4.579184
 13
0.0
 23
0.0
 14
1.0
 24
1.0
 15
0.0
 25
0.0
 16
0.0
 26
0.0
 36
1.0
 17
0.0
 27
0.0
 37
0.0
 40
9.158369
 41
0.688564
 42
50.0
 43
0.0
 44
0.0
 50
0.0
 51
0.0
 71
           0
 72
         100
 73
           1
 74
           1
 75
           0
 76
           0
 77
           0
 78
           0
  0
ENDTAB
  0
TABLE
  2
LTYPE
  5
4
100
AcDbSymbolTable
 70
           5
  0
LTYPE
  5
11
100
AcDbSymbolTableRecord
100
AcDbLinetypeTableRecord
  2
BYBLOCK
 70
           0
  3

 72
          65
 73
           0
 40
0.0
  0
LTYPE
  5
12
100
AcDbSymbolTableRecord
100
AcDbLinetypeTableRecord
  2
BYLAYER
 70
           0
  3

 72
          65
 73
           0
 40
0.0
  0
LTYPE
  5
13
100
AcDbSymbolTableRecord
100
AcDbLinetypeTableRecord
  2
CONTINUOUS
 70
           0
  3
Solid line
 72
          65
 73
           0
 40
0.0
  0
LTYPE
  5
1D
100
AcDbSymbolTableRecord
100
AcDbLinetypeTableRecord
  2
GESTRICHELT
 70
           0
  3

 72
          65
 73
           2
 40
0.75
 49
0.5
 74
           0
 49
-0.25
 74
           0
  0
LTYPE
  5
1E
100
AcDbSymbolTableRecord
100
AcDbLinetypeTableRecord
  2
STRICHPUNKT
 70
           0
  3

 72
          65
 73
           4
 40
1.0
 49
0.5
 74
           0
 49
-0.25
 74
           0
 49
0.0
 74
           0
 49
-0.25
 74
           0
  0
ENDTAB
  0
TABLE
  2
LAYER
  5
2
100
AcDbSymbolTable
 70
           3
  0
LAYER
  5
14
100
AcDbSymbolTableRecord
100
AcDbLayerTableRecord
  2
0
 70
           0
 62
           7
  6
CONTINUOUS
  0
LAYER
  5
20
100
AcDbSymbolTableRecord
100
AcDbLayerTableRecord
  2
FREI
 70
           0
 62
           7
  6
CONTINUOUS
  0
LAYER
  5
21
100
AcDbSymbolTableRecord
100
AcDbLayerTableRecord
  2
Frei
 70
           0
 62
           7
  6
CONTINUOUS
  0
ENDTAB
  0
TABLE
  2
STYLE
  5
3
100
AcDbSymbolTable
 70
           2
  0
STYLE
  5
17
100
AcDbSymbolTableRecord
100
AcDbTextStyleTableRecord
  2
TXT
 70
           0
 40
3.5
 41
1.0
 50
0.0
 71
           0
 42
3.5
  3
TXT
  4

  0
STYLE
  5
1F
100
AcDbSymbolTableRecord
100
AcDbTextStyleTableRecord
  2
GOTHICG
 70
           0
 40
3.5
 41
1.0
 50
0.0
 71
           0
 42
3.5
  3
GOTHICG
  4

  0
ENDTAB
  0
TABLE
  2
VIEW
  5
5
100
AcDbSymbolTable
 70
           0
  0
ENDTAB
  0
TABLE
  2
UCS
  5
6
100
AcDbSymbolTable
 70
           0
  0
ENDTAB
  0
TABLE
  2
APPID
  5
8
100
AcDbSymbolTable
 70
           2
  0
APPID
  5
16
100
AcDbSymbolTableRecord
100
AcDbRegAppTableRecord
  2
ACAD
 70
           0
  0
APPID
  5
22
100
AcDbSymbolTableRecord
100
AcDbRegAppTableRecord
  2
MegaCADPntStyle
 70
           0
  0
ENDTAB
  0
TABLE
  2
DIMSTYLE
  5
9
100
AcDbSymbolTable
 70
           1
  0
DIMSTYLE
105
18
100
AcDbSymbolTableRecord
100
AcDbDimStyleTableRecord
  2
STANDARD
 70
           0
  3

  4

  5

  6

  7

 40
1.0
 41
0.18
 42
0.0625
 43
0.38
 44
0.18
 45
0.0
 46
0.0
 47
0.0
 48
0.0
140
0.18
141
0.09
142
0.0
143
25.4
144
1.0
145
0.0
146
1.0
147
0.09
 71
           0
 72
           0
 73
           1
 74
           1
 75
           0
 76
           0
 77
           0
 78
           0
170
           0
171
           2
172
           0
173
           0
174
           0
175
           0
176
           0
177
           0
178
           0
270
           2
271
           4
272
           4
273
           2
274
           2
340
17
275
           0
280
           0
281
           0
282
           0
283
           1
284
           0
285
           0
286
           0
287
           0
288
           0
  0
ENDTAB
  0
TABLE
  2
BLOCK_RECORD
  5
1
100
AcDbSymbolTable
 70
           3
  0
BLOCK_RECORD
  5
A
100
AcDbSymbolTableRecord
100
AcDbBlockTableRecord
  2
*MODEL_SPACE
  0
BLOCK_RECORD
  5
B
100
AcDbSymbolTableRecord
100
AcDbBlockTableRecord
  2
*PAPER_SPACE
  0
BLOCK_RECORD
  5
23
100
AcDbSymbolTableRecord
100
AcDbBlockTableRecord
  2
ELIPPSE
  0
BLOCK_RECORD
  5
24
100
AcDbSymbolTableRecord
100
AcDbBlockTableRecord
  2
MAK1
  0
BLOCK_RECORD
  5
25
100
AcDbSymbolTableRecord
100
AcDbBlockTableRecord
  2
MAK2
  0
ENDTAB
  0
ENDSEC
  0
SECTION
  2
BLOCKS
  0
BLOCK
  5
D
100
AcDbEntity
  8
0
100
AcDbBlockBegin
  2
*MODEL_SPACE
 70
           0
 10
0.0
 20
0.0
 30
0.0
  3
*MODEL_SPACE
  1

  0
ENDBLK
  5
E
100
AcDbEntity
  8
0
100
AcDbBlockEnd
  0
BLOCK
  5
F
100
AcDbEntity
 67
           1
  8
0
100
AcDbBlockBegin
  2
*PAPER_SPACE
 70
           0
 10
0.0
 20
0.0
 30
0.0
  3
*PAPER_SPACE
  1

  0
ENDBLK
  5
10
100
AcDbEntity
 67
           1
  8
0
100
AcDbBlockEnd
  0
BLOCK
  5
348
100
AcDbEntity
  8
0
100
AcDbBlockBegin
  2
ELIPPSE
 70
          64
 10
0.0
 20
0.0
 30
0.0
  3
ELIPPSE
  1

  0
CIRCLE
  5
349
100
AcDbEntity
  8
0
  6
BYBLOCK
 62
           0
100
AcDbCircle
 10
0.0
 20
0.0
 30
0.0
 40
1.0
  0
ENDBLK
  5
34A
100
AcDbEntity
  8
0
  6
BYBLOCK
 62
           0
100
AcDbBlockEnd
  0
BLOCK
  5
34B
100
AcDbEntity
  8
0
100
AcDbBlockBegin
  2
MAK1
 70
          64
 10
0.0
 20
0.0
 30
0.0
  3
MAK1
  1

  0
LINE
  5
34C
100
AcDbEntity
  8
Frei
  6
CONTINUOUS
 62
           2
100
AcDbLine
 10
191.903508353413
 20
615.106916893559
 30
0.0
 11
192.293358480829
 21
615.496767020979
 31
0.0
  0
LINE
  5
34D
100
AcDbEntity
  8
Frei
  6
CONTINUOUS
 62
           2
100
AcDbLine
 10
191.903508353413
 20
614.04625672178
 30
0.0
 11
193.35401865261
 21
615.496767020977
 31
0.0
  0
LINE
  5
34E
100
AcDbEntity
  8
Frei
  6
CONTINUOUS
 62
           2
100
AcDbLine
 10
191.903508353413
 20
612.985596549999
 30
0.0
 11
193.903508353411
 21
614.985596549997
 31
0.0
  0
LINE
  5
34F
100
AcDbEntity
  8
Frei
  6
CONTINUOUS
 62
           2
100
AcDbLine
 10
191.903508353413
 20
611.92493637822
 30
0.0
 11
193.903508353413
 21
613.92493637822
 31
0.0
  0
LINE
  5
350
100
AcDbEntity
  8
Frei
  6
CONTINUOUS
 62
           2
100
AcDbLine
 10
191.903508353413
 20
610.864276206441
 30
0.0
 11
193.903508353413
 21
612.864276206439
 31
0.0
  0
LINE
  5
351
100
AcDbEntity
  8
Frei
  6
CONTINUOUS
 62
           2
100
AcDbLine
 10
191.903508353413
 20
609.803616034662
 30
0.0
 11
193.903508353413
 21
611.80361603466
 31
0.0
  0
LINE
  5
352
100
AcDbEntity
  8
Frei
  6
CONTINUOUS
 62
           2
100
AcDbLine
 10
191.903508353413
 20
608.742955862881
 30
0.0
 11
193.903508353411
 21
610.742955862881
 31
0.0
  0
LINE
  5
353
100
AcDbEntity
  8
Frei
  6
CONTINUOUS
 62
           2
100
AcDbLine
 10
191.903508353413
 20
607.682295691102
 30
0.0
 11
193.903508353413
 21
609.6822956911
 31
0.0
  0
LINE
  5
354
100
AcDbEntity
  8
Frei
  6
CONTINUOUS
 62
           2
100
AcDbLine
 10
191.903508353413
 20
606.621635519319
 30
0.0
 11
193.903508353413
 21
608.621635519319
 31
0.0
  0
LINE
  5
355
100
AcDbEntity
  8
Frei
  6
CONTINUOUS
 62
           2
100
AcDbLine
 10
191.903508353413
 20
605.56097534754
 30
0.0
 11
193.903508353413
 21
607.560975347542
 31
0.0
  0
LINE
  5
356
100
AcDbEntity
  8
Frei
  6
CONTINUOUS
 62
           2
100
AcDbLine
 10
191.903508353411
 20
604.500315175761
 30
0.0
 11
193.903508353413
 21
606.500315175763
 31
0.0
  0
LINE
  5
357
100
AcDbEntity
  8
Frei
  6
CONTINUOUS
 62
           2
100
AcDbLine
 10
191.903508353413
 20
603.439655003982
 30
0.0
 11
193.903508353413
 21
605.439655003982
 31
0.0
  0
LINE
  5
358
100
AcDbEntity
  8
Frei
  6
CONTINUOUS
 62
           2
100
AcDbLine
 10
191.903508353413
 20
602.378994832203
 30
0.0
 11
193.903508353415
 21
604.378994832203
 31
0.0
  0
LINE
  5
359
100
AcDbEntity
  8
Frei
  6
CONTINUOUS
 62
           2
100
AcDbLine
 10
191.903508353413
 20
601.318334660422
 30
0.0
 11
193.903508353413
 21
603.318334660422
 31
0.0
  0
LINE
  5
35A
100
AcDbEntity
  8
Frei
  6
CONTINUOUS
 62
           2
100
AcDbLine
 10
191.903508353411
 20
600.257674488643
 30
0.0
 11
193.903508353413
 21
602.257674488643
 31
0.0
  0
LINE
  5
35B
100
AcDbEntity
  8
Frei
  6
CONTINUOUS
 62
           2
100
AcDbLine
 10
191.903508353413
 20
599.197014316862
 30
0.0
 11
193.903508353413
 21
601.197014316862
 31
0.0
  0
LINE
  5
35C
100
AcDbEntity
  8
Frei
  6
CONTINUOUS
 62
           2
100
AcDbLine
 10
191.903508353413
 20
598.136354145083
 30
0.0
 11
193.903508353415
 21
600.136354145083
 31
0.0
  0
LINE
  5
35D
100
AcDbEntity
  8
Frei
  6
CONTINUOUS
 62
           2
100
AcDbLine
 10
191.903508353413
 20
597.075693973304
 30
0.0
 11
193.903508353413
 21
599.075693973304
 31
0.0
  0
LINE
  5
35E
100
AcDbEntity
  8
Frei
  6
CONTINUOUS
 62
           2
100
AcDbLine
 10
191.903508353411
 20
596.015033801525
 30
0.0
 11
193.903508353413
 21
598.015033801523
 31
0.0
  0
LINE
  5
35F
100
AcDbEntity
  8
Frei
  6
CONTINUOUS
 62
           2
100
AcDbLine
 10
192.445901744646
 20
595.496767020979
 30
0.0
 11
193.903508353411
 21
596.954373629744
 31
0.0
  0
LINE
  5
360
100
AcDbEntity
  8
Frei
  6
CONTINUOUS
 62
           2
100
AcDbLine
 10
193.506561916425
 20
595.496767020977
 30
0.0
 11
193.903508353415
 21
595.893713457963
 31
0.0
  0
LINE
  5
361
100
AcDbEntity
  8
Frei
  6
CONTINUOUS
 62
           2
100
AcDbLine
 10
192.573740611429
 20
595.496767020977
 30
0.0
 11
191.903508353413
 21
596.166999278998
 31
0.0
  0
LINE
  5
362
100
AcDbEntity
  8
Frei
  6
CONTINUOUS
 62
           2
100
AcDbLine
 10
193.634400783209
 20
595.496767020977
 30
0.0
 11
191.903508353413
 21
597.227659450777
 31
0.0
  0
LINE
  5
363
100
AcDbEntity
  8
Frei
  6
CONTINUOUS
 62
           2
100
AcDbLine
 10
193.903508353413
 20
596.288319622556
 30
0.0
 11
191.903508353413
 21
598.288319622556
 31
0.0
  0
LINE
  5
364
100
AcDbEntity
  8
Frei
  6
CONTINUOUS
 62
           2
100
AcDbLine
 10
193.903508353413
 20
597.348979794337
 30
0.0
 11
191.903508353413
 21
599.348979794337
 31
0.0
  0
LINE
  5
365
100
AcDbEntity
  8
Frei
  6
CONTINUOUS
 62
           2
100
AcDbLine
 10
193.903508353415
 20
598.409639966116
 30
0.0
 11
191.903508353413
 21
600.409639966114
 31
0.0
  0
LINE
  5
366
100
AcDbEntity
  8
Frei
  6
CONTINUOUS
 62
           2
100
AcDbLine
 10
193.903508353413
 20
599.470300137895
 30
0.0
 11
191.903508353413
 21
601.470300137895
 31
0.0
  0
LINE
  5
367
100
AcDbEntity
  8
Frei
  6
CONTINUOUS
 62
           2
100
AcDbLine
 10
193.903508353413
 20
600.530960309674
 30
0.0
 11
191.903508353413
 21
602.530960309674
 31
0.0
  0
LINE
  5
368
100
AcDbEntity
  8
Frei
  6
CONTINUOUS
 62
           2
100
AcDbLine
 10
193.903508353413
 20
601.591620481455
 30
0.0
 11
191.903508353413
 21
603.591620481455
 31
0.0
  0
LINE
  5
369
100
AcDbEntity
  8
Frei
  6
CONTINUOUS
 62
           2
100
AcDbLine
 10
193.903508353415
 20
602.652280653234
 30
0.0
 11
191.903508353413
 21
604.652280653234
 31
0.0
  0
LINE
  5
36A
100
AcDbEntity
  8
Frei
  6
CONTINUOUS
 62
           2
100
AcDbLine
 10
193.903508353413
 20
603.712940825015
 30
0.0
 11
191.903508353413
 21
605.712940825013
 31
0.0
  0
LINE
  5
36B
100
AcDbEntity
  8
Frei
  6
CONTINUOUS
 62
           2
100
AcDbLine
 10
193.903508353411
 20
604.773600996794
 30
0.0
 11
191.903508353413
 21
606.773600996794
 31
0.0
  0
LINE
  5
36C
100
AcDbEntity
  8
Frei
  6
CONTINUOUS
 62
           2
100
AcDbLine
 10
193.903508353413
 20
605.834261168575
 30
0.0
 11
191.903508353413
 21
607.834261168573
 31
0.0
  0
LINE
  5
36D
100
AcDbEntity
  8
Frei
  6
CONTINUOUS
 62
           2
100
AcDbLine
 10
193.903508353411
 20
606.894921340354
 30
0.0
 11
191.903508353413
 21
608.894921340354
 31
0.0
  0
LINE
  5
36E
100
AcDbEntity
  8
Frei
  6
CONTINUOUS
 62
           2
100
AcDbLine
 10
193.903508353413
 20
607.955581512135
 30
0.0
 11
191.903508353415
 21
609.955581512133
 31
0.0
  0
LINE
  5
36F
100
AcDbEntity
  8
Frei
  6
CONTINUOUS
 62
           2
100
AcDbLine
 10
193.903508353411
 20
609.016241683914
 30
0.0
 11
191.903508353413
 21
611.016241683914
 31
0.0
  0
LINE
  5
370
100
AcDbEntity
  8
Frei
  6
CONTINUOUS
 62
           2
100
AcDbLine
 10
193.903508353413
 20
610.076901855693
 30
0.0
 11
191.903508353413
 21
612.076901855691
 31
0.0
  0
LINE
  5
371
100
AcDbEntity
  8
Frei
  6
CONTINUOUS
 62
           2
100
AcDbLine
 10
193.903508353413
 20
611.137562027474
 30
0.0
 11
191.903508353413
 21
613.137562027472
 31
0.0
  0
LINE
  5
372
100
AcDbEntity
  8
Frei
  6
CONTINUOUS
 62
           2
100
AcDbLine
 10
193.903508353413
 20
612.198222199251
 30
0.0
 11
191.903508353415
 21
614.198222199253
 31
0.0
  0
LINE
  5
373
100
AcDbEntity
  8
Frei
  6
CONTINUOUS
 62
           2
100
AcDbLine
 10
193.903508353411
 20
613.258882371032
 30
0.0
 11
191.903508353413
 21
615.258882371032
 31
0.0
  0
LINE
  5
374
100
AcDbEntity
  8
Frei
  6
CONTINUOUS
 62
           2
100
AcDbLine
 10
193.903508353413
 20
614.319542542811
 30
0.0
 11
192.726283875247
 21
615.496767020977
 31
0.0
  0
LINE
  5
375
100
AcDbEntity
  8
Frei
  6
CONTINUOUS
 62
           2
100
AcDbLine
 10
193.903508353413
 20
615.380202714592
 30
0.0
 11
193.786944047026
 21
615.496767020979
 31
0.0
  0
ENDBLK
  5
376
100
AcDbEntity
  8
0
  6
BYBLOCK
 62
           0
100
AcDbBlockEnd
  0
BLOCK
  5
377
100
AcDbEntity
  8
0
100
AcDbBlockBegin
  2
MAK2
 70
          64
 10
0.0
 20
0.0
 30
0.0
  3
MAK2
  1

  0
LINE
  5
378
100
AcDbEntity
  8
Frei
  6
CONTINUOUS
 62
           2
100
AcDbLine
 10
-32.096491646589
 20
614.906213139102
 30
0.0
 11
-31.505937764712
 21
615.496767020977
 31
0.0
  0
LINE
  5
379
100
AcDbEntity
  8
Frei
  6
CONTINUOUS
 62
           2
100
AcDbLine
 10
-32.096491646587
 20
613.845552967321
 30
0.0
 11
-30.445277592933
 21
615.496767020979
 31
0.0
  0
LINE
  5
37A
100
AcDbEntity
  8
Frei
  6
CONTINUOUS
 62
           2
100
AcDbLine
 10
-32.096491646589
 20
612.78489279554
 30
0.0
 11
-30.096491646589
 21
614.784892795542
 31
0.0
  0
LINE
  5
37B
100
AcDbEntity
  8
Frei
  6
CONTINUOUS
 62
           2
100
AcDbLine
 10
-32.096491646589
 20
611.724232623761
 30
0.0
 11
-30.096491646589
 21
613.724232623763
 31
0.0
  0
LINE
  5
37C
100
AcDbEntity
  8
Frei
  6
CONTINUOUS
 62
           2
100
AcDbLine
 10
-32.096491646589
 20
610.663572451982
 30
0.0
 11
-30.096491646589
 21
612.663572451982
 31
0.0
  0
LINE
  5
37D
100
AcDbEntity
  8
Frei
  6
CONTINUOUS
 62
           2
100
AcDbLine
 10
-32.096491646587
 20
609.602912280203
 30
0.0
 11
-30.096491646589
 21
611.602912280203
 31
0.0
  0
LINE
  5
37E
100
AcDbEntity
  8
Frei
  6
CONTINUOUS
 62
           2
100
AcDbLine
 10
-32.096491646589
 20
608.542252108422
 30
0.0
 11
-30.096491646589
 21
610.542252108422
 31
0.0
  0
LINE
  5
37F
100
AcDbEntity
  8
Frei
  6
CONTINUOUS
 62
           2
100
AcDbLine
 10
-32.096491646589
 20
607.481591936643
 30
0.0
 11
-30.096491646589
 21
609.481591936641
 31
0.0
  0
LINE
  5
380
100
AcDbEntity
  8
Frei
  6
CONTINUOUS
 62
           2
100
AcDbLine
 10
-32.096491646589
 20
606.420931764864
 30
0.0
 11
-30.096491646589
 21
608.420931764864
 31
0.0
  0
LINE
  5
381
100
AcDbEntity
  8
Frei
  6
CONTINUOUS
 62
           2
100
AcDbLine
 10
-32.096491646589
 20
605.360271593085
 30
0.0
 11
-30.096491646589
 21
607.360271593083
 31
0.0
  0
LINE
  5
382
100
AcDbEntity
  8
Frei
  6
CONTINUOUS
 62
           2
100
AcDbLine
 10
-32.096491646589
 20
604.299611421304
 30
0.0
 11
-30.096491646589
 21
606.299611421304
 31
0.0
  0
LINE
  5
383
100
AcDbEntity
  8
Frei
  6
CONTINUOUS
 62
           2
100
AcDbLine
 10
-32.096491646589
 20
603.238951249525
 30
0.0
 11
-30.096491646589
 21
605.238951249523
 31
0.0
  0
LINE
  5
384
100
AcDbEntity
  8
Frei
  6
CONTINUOUS
 62
           2
100
AcDbLine
 10
-32.096491646589
 20
602.178291077744
 30
0.0
 11
-30.096491646589
 21
604.178291077742
 31
0.0
  0
LINE
  5
385
100
AcDbEntity
  8
Frei
  6
CONTINUOUS
 62
           2
100
AcDbLine
 10
-32.096491646589
 20
601.117630905965
 30
0.0
 11
-30.096491646589
 21
603.117630905963
 31
0.0
  0
LINE
  5
386
100
AcDbEntity
  8
Frei
  6
CONTINUOUS
 62
           2
100
AcDbLine
 10
-32.096491646589
 20
600.056970734182
 30
0.0
 11
-30.096491646589
 21
602.056970734186
 31
0.0
  0
LINE
  5
387
100
AcDbEntity
  8
Frei
  6
CONTINUOUS
 62
           2
100
AcDbLine
 10
-32.096491646589
 20
598.996310562405
 30
0.0
 11
-30.096491646589
 21
600.996310562405
 31
0.0
  0
LINE
  5
388
100
AcDbEntity
  8
Frei
  6
CONTINUOUS
 62
           2
100
AcDbLine
 10
-32.096491646589
 20
597.935650390626
 30
0.0
 11
-30.096491646589
 21
599.935650390626
 31
0.0
  0
LINE
  5
389
100
AcDbEntity
  8
Frei
  6
CONTINUOUS
 62
           2
100
AcDbLine
 10
-32.096491646589
 20
596.874990218845
 30
0.0
 11
-30.096491646589
 21
598.874990218847
 31
0.0
  0
LINE
  5
38A
100
AcDbEntity
  8
Frei
  6
CONTINUOUS
 62
           2
100
AcDbLine
 10
-32.096491646589
 20
595.814330047066
 30
0.0
 11
-30.096491646591
 21
597.814330047064
 31
0.0
  0
LINE
  5
38B
100
AcDbEntity
  8
Frei
  6
CONTINUOUS
 62
           2
100
AcDbLine
 10
-31.353394500897
 20
595.496767020977
 30
0.0
 11
-30.096491646589
 21
596.753669875283
 31
0.0
  0
LINE
  5
38C
100
AcDbEntity
  8
Frei
  6
CONTINUOUS
 62
           2
100
AcDbLine
 10
-30.292734329116
 20
595.496767020979
 30
0.0
 11
-30.096491646589
 21
595.693009703506
 31
0.0
  0
LINE
  5
38D
100
AcDbEntity
  8
Frei
  6
CONTINUOUS
 62
           2
100
AcDbLine
 10
-31.225555634113
 20
595.496767020977
 30
0.0
 11
-32.096491646591
 21
596.367703033455
 31
0.0
  0
LINE
  5
38E
100
AcDbEntity
  8
Frei
  6
CONTINUOUS
 62
           2
100
AcDbLine
 10
-30.164895462332
 20
595.496767020977
 30
0.0
 11
-32.096491646589
 21
597.428363205234
 31
0.0
  0
LINE
  5
38F
100
AcDbEntity
  8
Frei
  6
CONTINUOUS
 62
           2
100
AcDbLine
 10
-30.096491646589
 20
596.489023377015
 30
0.0
 11
-32.096491646589
 21
598.489023377013
 31
0.0
  0
LINE
  5
390
100
AcDbEntity
  8
Frei
  6
CONTINUOUS
 62
           2
100
AcDbLine
 10
-30.096491646589
 20
597.549683548792
 30
0.0
 11
-32.096491646589
 21
599.549683548794
 31
0.0
  0
LINE
  5
391
100
AcDbEntity
  8
Frei
  6
CONTINUOUS
 62
           2
100
AcDbLine
 10
-30.096491646587
 20
598.610343720573
 30
0.0
 11
-32.096491646591
 21
600.610343720573
 31
0.0
  0
LINE
  5
392
100
AcDbEntity
  8
Frei
  6
CONTINUOUS
 62
           2
100
AcDbLine
 10
-30.096491646591
 20
599.671003892352
 30
0.0
 11
-32.096491646589
 21
601.671003892352
 31
0.0
  0
LINE
  5
393
100
AcDbEntity
  8
Frei
  6
CONTINUOUS
 62
           2
100
AcDbLine
 10
-30.096491646589
 20
600.731664064133
 30
0.0
 11
-32.096491646589
 21
602.731664064133
 31
0.0
  0
LINE
  5
394
100
AcDbEntity
  8
Frei
  6
CONTINUOUS
 62
           2
100
AcDbLine
 10
-30.096491646589
 20
601.792324235912
 30
0.0
 11
-32.096491646589
 21
603.792324235912
 31
0.0
  0
LINE
  5
395
100
AcDbEntity
  8
Frei
  6
CONTINUOUS
 62
           2
100
AcDbLine
 10
-30.096491646587
 20
602.852984407693
 30
0.0
 11
-32.096491646591
 21
604.852984407691
 31
0.0
  0
LINE
  5
396
100
AcDbEntity
  8
Frei
  6
CONTINUOUS
 62
           2
100
AcDbLine
 10
-30.096491646591
 20
603.91364457947
 30
0.0
 11
-32.096491646589
 21
605.913644579472
 31
0.0
  0
LINE
  5
397
100
AcDbEntity
  8
Frei
  6
CONTINUOUS
 62
           2
100
AcDbLine
 10
-30.096491646589
 20
604.974304751253
 30
0.0
 11
-32.096491646589
 21
606.974304751253
 31
0.0
  0
LINE
  5
398
100
AcDbEntity
  8
Frei
  6
CONTINUOUS
 62
           2
100
AcDbLine
 10
-30.096491646589
 20
606.034964923032
 30
0.0
 11
-32.096491646589
 21
608.034964923032
 31
0.0
  0
LINE
  5
399
100
AcDbEntity
  8
Frei
  6
CONTINUOUS
 62
           2
100
AcDbLine
 10
-30.096491646587
 20
607.095625094813
 30
0.0
 11
-32.096491646591
 21
609.095625094813
 31
0.0
  0
LINE
  5
39A
100
AcDbEntity
  8
Frei
  6
CONTINUOUS
 62
           2
100
AcDbLine
 10
-30.096491646591
 20
608.156285266592
 30
0.0
 11
-32.096491646589
 21
610.156285266592
 31
0.0
  0
LINE
  5
39B
100
AcDbEntity
  8
Frei
  6
CONTINUOUS
 62
           2
100
AcDbLine
 10
-30.096491646589
 20
609.216945438371
 30
0.0
 11
-32.096491646589
 21
611.216945438369
 31
0.0
  0
LINE
  5
39C
100
AcDbEntity
  8
Frei
  6
CONTINUOUS
 62
           2
100
AcDbLine
 10
-30.096491646589
 20
610.27760561015
 30
0.0
 11
-32.096491646589
 21
612.27760561015
 31
0.0
  0
LINE
  5
39D
100
AcDbEntity
  8
Frei
  6
CONTINUOUS
 62
           2
100
AcDbLine
 10
-30.096491646587
 20
611.338265781929
 30
0.0
 11
-32.096491646591
 21
613.338265781931
 31
0.0
  0
LINE
  5
39E
100
AcDbEntity
  8
Frei
  6
CONTINUOUS
 62
           2
100
AcDbLine
 10
-30.096491646591
 20
612.39892595371
 30
0.0
 11
-32.096491646589
 21
614.39892595371
 31
0.0
  0
LINE
  5
39F
100
AcDbEntity
  8
Frei
  6
CONTINUOUS
 62
           2
100
AcDbLine
 10
-30.096491646589
 20
613.459586125489
 30
0.0
 11
-32.096491646589
 21
615.459586125489
 31
0.0
  0
LINE
  5
3A0
100
AcDbEntity
  8
Frei
  6
CONTINUOUS
 62
           2
100
AcDbLine
 10
-30.096491646589
 20
614.52024629727
 30
0.0
 11
-31.073012370296
 21
615.496767020977
 31
0.0
  0
ENDBLK
  5
3A1
100
AcDbEntity
  8
0
  6
BYBLOCK
 62
           0
100
AcDbBlockEnd
  0
ENDSEC
  0
SECTION
  2
ENTITIES
  0
INSERT
  5
26
100
AcDbEntity
  8
FREI
  6
CONTINUOUS
 62
           7
100
AcDbBlockReference
  2
MAK1
 10
-14234.450493702134
 20
-11396.894552119424
 30
0.0
 50
356.344999999999
  0
INSERT
  5
27
100
AcDbEntity
  8
FREI
  6
CONTINUOUS
 62
           7
100
AcDbBlockReference
  2
MAK2
 10
-14234.450493702134
 20
-11396.894552119424
 30
0.0
 50
356.344999999999
  0
LINE
  5
28
100
AcDbEntity
  8
FREI
  6
CONTINUOUS
 62
          15
100
AcDbLine
 10
-14360.552689448908
 20
-10575.076520641771
 30
0.0
 11
-14569.34946379646
 21
-10661.562976356283
 31
0.0
  0
LINE
  5
29
100
AcDbEntity
  8
FREI
  6
CONTINUOUS
 62
          15
100
AcDbLine
 10
-14438.163236357126
 20
-10978.274545836881
 30
0.0
 11
-14414.362673688596
 21
-11035.734187023354
 31
0.0
  0
LINE
  5
2A
100
AcDbEntity
  8
FREI
  6
CONTINUOUS
 62
          15
100
AcDbLine
 10
-14569.34946379646
 20
-10661.562976356283
 30
0.0
 11
-14560.473554990169
 21
-10682.991315774816
 31
0.0
  0
LINE
  5
2B
100
AcDbEntity
  8
FREI
  6
CONTINUOUS
 62
          15
100
AcDbLine
 10
-14414.362673688596
 20
-11035.734187023354
 30
0.0
 11
-14205.565899341047
 21
-10949.247731308842
 31
0.0
  0
LINE
  5
2C
100
AcDbEntity
  8
FREI
  6
CONTINUOUS
 62
          15
100
AcDbLine
 10
-14283.829935234895
 20
-10760.301634407861
 30
0.0
 11
-14360.552689448908
 21
-10575.076520641771
 31
0.0
  0
LINE
  5
2D
100
AcDbEntity
  8
FREI
  6
GESTRICHELT
 62
          15
100
AcDbLine
 10
-14250.692850245046
 20
-10840.301634407861
 30
0.0
 11
-14283.829935234895
 21
-10760.301634407861
 31
0.0
  0
LINE
  5
2E
100
AcDbEntity
  8
FREI
  6
CONTINUOUS
 62
          15
100
AcDbLine
 10
-14205.565899341047
 20
-10949.247731308842
 30
0.0
 11
-14250.692850245046
 21
-10840.301634407861
 31
0.0
  0
LINE
  5
2F
100
AcDbEntity
  8
FREI
  6
STRICHPUNKT
 62
          15
100
AcDbLine
 10
-14309.964286514823
 20
-10992.490959166098
 30
0.0
 11
-14464.951076622685
 21
-10618.319748499027
 31
0.0
  0
LINE
  5
30
100
AcDbEntity
  8
FREI
  6
STRICHPUNKT
 62
          15
100
AcDbLine
 10
-14438.163236357128
 20
-10682.991315774816
 30
0.0
 11
-14566.362186199432
 21
-10992.490959166098
 31
0.0
  0
LINE
  5
31
100
AcDbEntity
  8
FREI
  6
CONTINUOUS
 62
          15
100
AcDbLine
 10
-14560.473554990169
 20
-10682.991315774816
 30
0.0
 11
-14670.760573373209
 21
-10949.247731308842
 31
0.0
  0
LINE
  5
32
100
AcDbEntity
  8
FREI
  6
CONTINUOUS
 62
          15
100
AcDbLine
 10
-14438.163236357126
 20
-10978.274545836881
 30
0.0
 11
-14461.963799025656
 21
-11035.734187023354
 31
0.0
  0
LINE
  5
33
100
AcDbEntity
  8
FREI
  6
CONTINUOUS
 62
          15
100
AcDbLine
 10
-14315.852917724085
 20
-10682.991315774816
 30
0.0
 11
-14560.473554990169
 21
-10682.991315774816
 31
0.0
  0
LINE
  5
34
100
AcDbEntity
  8
FREI
  6
CONTINUOUS
 62
          15
100
AcDbLine
 10
-14438.163236357126
 20
-10760.301634407861
 30
0.0
 11
-14438.163236357128
 21
-10682.991315774816
 31
0.0
  0
LINE
  5
35
100
AcDbEntity
  8
FREI
  6
GESTRICHELT
 62
          15
100
AcDbLine
 10
-14438.163236357126
 20
-10795.301634407861
 30
0.0
 11
-14438.163236357126
 21
-10760.301634407861
 31
0.0
  0
LINE
  5
36
100
AcDbEntity
  8
FREI
  6
GESTRICHELT
 62
          15
100
AcDbLine
 10
-14438.163236357126
 20
-10840.301634407861
 30
0.0
 11
-14438.163236357126
 21
-10815.301634407861
 31
0.0
  0
LINE
  5
37
100
AcDbEntity
  8
FREI
  6
CONTINUOUS
 62
          15
100
AcDbLine
 10
-14438.163236357126
 20
-10978.274545836881
 30
0.0
 11
-14438.163236357126
 21
-10840.301634407861
 31
0.0
  0
LINE
  5
38
100
AcDbEntity
  8
FREI
  6
CONTINUOUS
 62
          15
100
AcDbLine
 10
-14670.760573373209
 20
-10949.247731308842
 30
0.0
 11
-14461.963799025656
 21
-11035.734187023354
 31
0.0
  0
CIRCLE
  5
39
100
AcDbEntity
  8
FREI
  6
CONTINUOUS
 62
          15
100
AcDbCircle
 10
-14438.163236357126
 20
-10805.301634407861
 30
0.0
 40
10.0
  0
CIRCLE
  5
3A
100
AcDbEntity
  8
Frei
  6
CONTINUOUS
 62
           7
100
AcDbCircle
 10
-13947.274289357127
 20
-10805.301634407861
 30
0.0
 40
6.25
  0
CIRCLE
  5
3B
100
AcDbEntity
  8
FREI
  6
CONTINUOUS
 62
          15
100
AcDbCircle
 10
-14372.567789548826
 20
-10778.131110709939
 30
0.0
 40
8.25
  0
ARC
  5
3C
100
AcDbEntity
  8
FREI
  6
CONTINUOUS
 62
          15
100
AcDbCircle
 10
-14438.163236357126
 20
-10805.301634407861
 30
0.0
 40
20.25
100
AcDbArc
 50
110.885820858497
 51
319.617816039371
  0
ARC
  5
3D
100
AcDbEntity
  8
FREI
  6
CONTINUOUS
 62
          15
100
AcDbCircle
 10
-14372.567789548826
 20
-10778.131110709939
 30
0.0
 40
18.25
100
AcDbArc
 50
57.570939232536
 51
110.885820858496
  0
ARC
  5
3E
100
AcDbEntity
  8
FREI
  6
GESTRICHELT
 62
          15
100
AcDbCircle
 10
-14372.567789548826
 20
-10778.131110709939
 30
0.0
 40
18.25
100
AcDbArc
 50
295.074360346149
 51
57.570939232536
  0
ARC
  5
3F
100
AcDbEntity
  8
FREI
  6
CONTINUOUS
 62
          15
100
AcDbCircle
 10
-14372.567789548826
 20
-10778.131110709939
 30
0.0
 40
18.25
100
AcDbArc
 50
237.615639653848
 51
295.074360346149
  0
ARC
  5
40
100
AcDbEntity
  8
FREI
  6
GESTRICHELT
 62
          15
100
AcDbCircle
 10
-14372.567789548826
 20
-10778.131110709939
 30
0.0
 40
18.25
100
AcDbArc
 50
211.802481262961
 51
237.615639653848
  0
LINE
  5
41
100
AcDbEntity
  8
FREI
  6
CONTINUOUS
 62
          15
100
AcDbLine
 10
-14380.434558251138
 20
-10761.599414589731
 30
0.0
 11
-14379.074038617629
 21
-10761.080268412425
 31
0.0
  0
LINE
  5
42
100
AcDbEntity
  8
FREI
  6
GESTRICHELT
 62
          15
100
AcDbLine
 10
-14389.217527751605
 20
-10764.950814252965
 30
0.0
 11
-14380.434558251138
 21
-10761.599414589731
 31
0.0
  0
LINE
  5
43
100
AcDbEntity
  8
FREI
  6
CONTINUOUS
 62
          15
100
AcDbLine
 10
-14445.382499022511
 20
-10786.382206653085
 30
0.0
 11
-14389.217527751605
 21
-10764.950814252965
 31
0.0
  0
LINE
  5
44
100
AcDbEntity
  8
FREI
  6
CONTINUOUS
 62
          15
100
AcDbLine
 10
-14396.1359630799
 20
-10787.144273322123
 30
0.0
 11
-14422.738005353291
 21
-10818.421266585563
 31
0.0
  0
ARC
  5
45
100
AcDbEntity
  8
FREI
  6
CONTINUOUS
 62
          15
100
AcDbCircle
 10
-14392.327264066607
 20
-10790.383688674643
 30
0.0
 40
5.0
100
AcDbArc
 50
84.4865011185
 51
139.617816039369
  0
ARC
  5
46
100
AcDbEntity
  8
FREI
  6
GESTRICHELT
 62
          15
100
AcDbCircle
 10
-14392.327264066607
 20
-10790.383688674643
 30
0.0
 40
5.0
100
AcDbArc
 50
31.802481262955
 51
84.4865011185
  0
LINE
  5
47
100
AcDbEntity
  8
Frei
  6
GESTRICHELT
 62
           7
100
AcDbLine
 10
-13970.256998916384
 20
-10803.833348584652
 30
0.0
 11
-13968.982028369657
 21
-10783.874028703829
 31
0.0
  0
LINE
  5
48
100
AcDbEntity
  8
Frei
  6
GESTRICHELT
 62
           7
100
AcDbLine
 10
-13968.982028369657
 20
-10783.874028703829
 30
0.0
 11
-13972.973892345821
 21
-10783.619034594485
 31
0.0
  0
LINE
  5
49
100
AcDbEntity
  8
Frei
  6
CONTINUOUS
 62
           7
100
AcDbLine
 10
-13972.208910017785
 20
-10771.643442665991
 30
0.0
 11
-14001.748703441403
 21
-10769.756486256836
 31
0.0
  0
LINE
  5
4A
100
AcDbEntity
  8
Frei
  6
CONTINUOUS
 62
           7
100
AcDbLine
 10
-14001.748703441403
 20
-10769.756486256836
 30
0.0
 11
-14001.780577705071
 21
-10770.255469253856
 31
0.0
  0
LINE
  5
4B
100
AcDbEntity
  8
Frei
  6
CONTINUOUS
 62
           7
100
AcDbLine
 10
-14001.780577705071
 20
-10770.255469253856
 30
0.0
 11
-14224.019307222406
 21
-10756.059388048758
 31
0.0
  0
LINE
  5
4C
100
AcDbEntity
  8
Frei
  6
CONTINUOUS
 62
           7
100
AcDbLine
 10
-14224.019307222406
 20
-10756.059388048758
 30
0.0
 11
-14223.987432958738
 21
-10755.560405051738
 31
0.0
  0
LINE
  5
4D
100
AcDbEntity
  8
Frei
  6
CONTINUOUS
 62
           7
100
AcDbLine
 10
-14223.987432958738
 20
-10755.560405051738
 30
0.0
 11
-14253.527226382355
 21
-10753.673448642581
 31
0.0
  0
LINE
  5
4E
100
AcDbEntity
  8
Frei
  6
CONTINUOUS
 62
           7
100
AcDbLine
 10
-14253.527226382355
 20
-10753.673448642581
 30
0.0
 11
-14254.292208710391
 21
-10765.649040571076
 31
0.0
  0
LINE
  5
4F
100
AcDbEntity
  8
Frei
  6
CONTINUOUS
 62
           7
100
AcDbLine
 10
-14254.292208710391
 20
-10765.649040571076
 30
0.0
 11
-14265.768817641865
 21
-10764.915932506707
 31
0.0
  0
LINE
  5
50
100
AcDbEntity
  8
Frei
  6
CONTINUOUS
 62
           7
100
AcDbLine
 10
-14265.768817641865
 20
-10764.915932506707
 30
0.0
 11
-14265.8325661692
 21
-10765.913898500748
 31
0.0
  0
LINE
  5
51
100
AcDbEntity
  8
Frei
  6
CONTINUOUS
 62
           7
100
AcDbLine
 10
-14265.8325661692
 20
-10765.913898500748
 30
0.0
 11
-14282.29900507088
 21
-10764.862047799699
 31
0.0
  0
LINE
  5
52
100
AcDbEntity
  8
Frei
  6
CONTINUOUS
 62
           7
100
AcDbLine
 10
-14282.29900507088
 20
-10764.862047799699
 30
0.0
 11
-14284.72144910966
 21
-10802.784755573261
 31
0.0
  0
LINE
  5
53
100
AcDbEntity
  8
Frei
  6
CONTINUOUS
 62
           7
100
AcDbLine
 10
-14284.72144910966
 20
-10802.784755573261
 30
0.0
 11
-14268.25501020798
 21
-10803.83660627431
 31
0.0
  0
LINE
  5
54
100
AcDbEntity
  8
Frei
  6
CONTINUOUS
 62
           7
100
AcDbLine
 10
-14268.25501020798
 20
-10803.83660627431
 30
0.0
 11
-14268.318758735317
 21
-10804.834572268352
 31
0.0
  0
LINE
  5
55
100
AcDbEntity
  8
Frei
  6
CONTINUOUS
 62
           7
100
AcDbLine
 10
-14268.318758735317
 20
-10804.834572268352
 30
0.0
 11
-14256.842149803844
 21
-10805.567680332719
 31
0.0
  0
LINE
  5
56
100
AcDbEntity
  8
Frei
  6
CONTINUOUS
 62
           7
100
AcDbLine
 10
-14256.842149803844
 20
-10805.567680332719
 30
0.0
 11
-14257.607132131881
 21
-10817.543272261213
 31
0.0
  0
LINE
  5
57
100
AcDbEntity
  8
Frei
  6
CONTINUOUS
 62
           7
100
AcDbLine
 10
-14257.607132131881
 20
-10817.543272261213
 30
0.0
 11
-14228.067338708264
 21
-10819.430228670368
 31
0.0
  0
LINE
  5
58
100
AcDbEntity
  8
Frei
  6
CONTINUOUS
 62
           7
100
AcDbLine
 10
-14228.067338708264
 20
-10819.430228670368
 30
0.0
 11
-14228.035464444596
 21
-10818.931245673348
 31
0.0
  0
LINE
  5
59
100
AcDbEntity
  8
Frei
  6
CONTINUOUS
 62
           7
100
AcDbLine
 10
-14007.638817525883
 20
-10833.009659025442
 30
0.0
 11
-14005.796734927259
 21
-10833.127326878446
 31
0.0
  0
LINE
  5
5A
100
AcDbEntity
  8
Frei
  6
GESTRICHELT
 62
           7
100
AcDbLine
 10
-14035.581866845347
 20
-10831.224723527841
 30
0.0
 11
-14007.638817525883
 21
-10833.009659025442
 31
0.0
  0
LINE
  5
5B
100
AcDbEntity
  8
Frei
  6
CONTINUOUS
 62
           7
100
AcDbLine
 10
-14198.250332526508
 20
-10820.833849023951
 30
0.0
 11
-14035.581866845347
 21
-10831.224723527841
 31
0.0
  0
LINE
  5
5C
100
AcDbEntity
  8
Frei
  6
GESTRICHELT
 62
           7
100
AcDbLine
 10
-14226.193381845971
 20
-10819.048913526351
 30
0.0
 11
-14198.250332526508
 21
-10820.833849023951
 31
0.0
  0
LINE
  5
5D
100
AcDbEntity
  8
Frei
  6
CONTINUOUS
 62
           7
100
AcDbLine
 10
-14228.035464444596
 20
-10818.931245673348
 30
0.0
 11
-14226.193381845971
 21
-10819.048913526351
 31
0.0
  0
LINE
  5
5E
100
AcDbEntity
  8
Frei
  6
CONTINUOUS
 62
           7
100
AcDbLine
 10
-14005.796734927259
 20
-10833.127326878446
 30
0.0
 11
-14005.828609190927
 21
-10833.626309875466
 31
0.0
  0
LINE
  5
5F
100
AcDbEntity
  8
Frei
  6
CONTINUOUS
 62
           7
100
AcDbLine
 10
-14005.828609190927
 20
-10833.626309875466
 30
0.0
 11
-13976.288815767311
 21
-10835.513266284621
 31
0.0
  0
LINE
  5
60
100
AcDbEntity
  8
Frei
  6
GESTRICHELT
 62
           7
100
AcDbLine
 10
-13975.523833439274
 20
-10823.537674356128
 30
0.0
 11
-13971.531969463111
 21
-10823.792668465474
 31
0.0
  0
LINE
  5
61
100
AcDbEntity
  8
Frei
  6
GESTRICHELT
 62
           7
100
AcDbLine
 10
-13971.531969463111
 20
-10823.792668465474
 30
0.0
 11
-13970.256998916384
 21
-10803.833348584652
 31
0.0
  0
LINE
  5
62
100
AcDbEntity
  8
Frei
  6
CONTINUOUS
 62
           7
100
AcDbLine
 10
-14004.630142787528
 20
-10814.864641715154
 30
0.0
 11
-14005.796734927259
 21
-10833.127326878446
 31
0.0
  0
LINE
  5
63
100
AcDbEntity
  8
Frei
  6
GESTRICHELT
 62
           7
100
AcDbLine
 10
-14003.355172240803
 20
-10794.905321834332
 30
0.0
 11
-14004.630142787528
 21
-10814.864641715154
 31
0.0
  0
LINE
  5
64
100
AcDbEntity
  8
Frei
  6
CONTINUOUS
 62
           7
100
AcDbLine
 10
-14001.780577705071
 20
-10770.255469253856
 30
0.0
 11
-14003.355172240803
 21
-10794.905321834332
 31
0.0
  0
LINE
  5
65
100
AcDbEntity
  8
Frei
  6
CONTINUOUS
 62
           7
100
AcDbLine
 10
-14226.868860483817
 20
-10800.668375454732
 30
0.0
 11
-14228.035464444596
 21
-10818.931245673348
 31
0.0
  0
LINE
  5
66
100
AcDbEntity
  8
Frei
  6
GESTRICHELT
 62
           7
100
AcDbLine
 10
-14225.59388993709
 20
-10780.709055573911
 30
0.0
 11
-14226.868860483817
 21
-10800.668375454732
 31
0.0
  0
LINE
  5
67
100
AcDbEntity
  8
Frei
  6
CONTINUOUS
 62
           7
100
AcDbLine
 10
-14224.019307222406
 20
-10756.059388048758
 30
0.0
 11
-14225.59388993709
 21
-10780.709055573911
 31
0.0
  0
LINE
  5
68
100
AcDbEntity
  8
Frei
  6
CONTINUOUS
 62
           7
100
AcDbLine
 10
-14254.292208710391
 20
-10765.649040571076
 30
0.0
 11
-14256.842149803844
 21
-10805.567680332719
 31
0.0
  0
LINE
  5
69
100
AcDbEntity
  8
Frei
  6
CONTINUOUS
 62
           7
100
AcDbLine
 10
-14265.768817641865
 20
-10764.915932506707
 30
0.0
 11
-14268.318758735317
 21
-10804.834572268352
 31
0.0
  0
LINE
  5
6A
100
AcDbEntity
  8
Frei
  6
GESTRICHELT
 62
           7
100
AcDbLine
 10
-14300.215114807166
 20
-10774.740014030589
 30
0.0
 11
-14322.998616116147
 21
-10773.284639133364
 31
0.0
  0
LINE
  5
6B
100
AcDbEntity
  8
Frei
  6
CONTINUOUS
 62
           7
100
AcDbLine
 10
-14291.981932817949
 20
-10775.265936988124
 30
0.0
 11
-14300.215114807166
 21
-10774.740014030589
 31
0.0
  0
LINE
  5
6C
100
AcDbEntity
  8
Frei
  6
GESTRICHELT
 62
           7
100
AcDbLine
 10
-14301.235091244549
 20
-10790.707469935247
 30
0.0
 11
-14324.018592553528
 21
-10789.25209503802
 31
0.0
  0
LINE
  5
6D
100
AcDbEntity
  8
Frei
  6
CONTINUOUS
 62
           7
100
AcDbLine
 10
-14293.00190925533
 20
-10791.233392892782
 30
0.0
 11
-14301.235091244549
 21
-10790.707469935247
 31
0.0
  0
LINE
  5
6E
100
AcDbEntity
  8
Frei
  6
CONTINUOUS
 62
           7
100
AcDbLine
 10
-14323.975502197207
 20
-10774.144252543118
 30
0.0
 11
-14322.998616116147
 21
-10773.284639133364
 31
0.0
  0
LINE
  5
6F
100
AcDbEntity
  8
Frei
  6
CONTINUOUS
 62
           7
100
AcDbLine
 10
-14324.878163494703
 20
-10788.275171588262
 30
0.0
 11
-14324.018592553528
 21
-10789.25209503802
 31
0.0
  0
LINE
  5
70
100
AcDbEntity
  8
Frei
  6
GESTRICHELT
 62
           7
100
AcDbLine
 10
-14323.975502197207
 20
-10774.144252543118
 30
0.0
 11
-14324.878163494703
 21
-10788.275171588262
 31
0.0
  0
LINE
  5
71
100
AcDbEntity
  8
Frei
  6
CONTINUOUS
 62
           7
100
AcDbLine
 10
-14300.27377237711
 20
-10775.658282460347
 30
0.0
 11
-14292.040590387891
 21
-10776.184205417881
 31
0.0
  0
LINE
  5
72
100
AcDbEntity
  8
Frei
  6
GESTRICHELT
 62
           7
100
AcDbLine
 10
-14323.975502197207
 20
-10774.144252543118
 30
0.0
 11
-14300.27377237711
 21
-10775.658282460347
 31
0.0
  0
LINE
  5
73
100
AcDbEntity
  8
Frei
  6
CONTINUOUS
 62
           7
100
AcDbLine
 10
-14301.176433674606
 20
-10789.789201505491
 30
0.0
 11
-14292.943251685387
 21
-10790.315124463024
 31
0.0
  0
LINE
  5
74
100
AcDbEntity
  8
Frei
  6
GESTRICHELT
 62
           7
100
AcDbLine
 10
-14324.878163494703
 20
-10788.275171588262
 30
0.0
 11
-14301.176433674606
 21
-10789.789201505491
 31
0.0
  0
LINE
  5
75
100
AcDbEntity
  8
Frei
  6
GESTRICHELT
 62
           7
100
AcDbLine
 10
-14322.998616116147
 20
-10773.284639133364
 30
0.0
 11
-14324.018592553528
 21
-10789.25209503802
 31
0.0
  0
LINE
  5
76
100
AcDbEntity
  8
Frei
  6
CONTINUOUS
 62
           7
100
AcDbLine
 10
-14282.872741816906
 20
-10773.843741746068
 30
0.0
 11
-14291.854435763276
 21
-10773.270005000042
 31
0.0
  0
LINE
  5
77
100
AcDbEntity
  8
Frei
  6
CONTINUOUS
 62
           7
100
AcDbLine
 10
-14291.854435763276
 20
-10773.270005000042
 30
0.0
 11
-14293.129406310003
 21
-10793.229324880864
 31
0.0
  0
LINE
  5
78
100
AcDbEntity
  8
Frei
  6
CONTINUOUS
 62
           7
100
AcDbLine
 10
-14293.129406310003
 20
-10793.229324880864
 30
0.0
 11
-14284.147712363632
 21
-10793.80306162689
 31
0.0
  0
LINE
  5
79
100
AcDbEntity
  8
Frei
  6
CONTINUOUS
 62
           7
100
AcDbLine
 10
-14292.15610463188
 20
-10777.992549738063
 30
0.0
 11
-14285.502994678387
 21
-10778.417540132801
 31
0.0
  0
LINE
  5
7A
100
AcDbEntity
  8
Frei
  6
CONTINUOUS
 62
           7
100
AcDbLine
 10
-14292.827737441397
 20
-10788.506780142843
 30
0.0
 11
-14286.174627487902
 21
-10788.93177053758
 31
0.0
  0
LINE
  5
7B
100
AcDbEntity
  8
Frei
  6
CONTINUOUS
 62
           7
100
AcDbLine
 10
-14285.502994678387
 20
-10778.417540132801
 30
0.0
 11
-14286.174627487902
 21
-10788.93177053758
 31
0.0
  0
LINE
  5
7C
100
AcDbEntity
  8
Frei
  6
CONTINUOUS
 62
           7
100
AcDbLine
 10
-14292.15610463188
 20
-10777.992549738063
 30
0.0
 11
-14286.174627487902
 21
-10788.93177053758
 31
0.0
  0
LINE
  5
7D
100
AcDbEntity
  8
Frei
  6
CONTINUOUS
 62
           7
100
AcDbLine
 10
-14285.502994678387
 20
-10778.417540132801
 30
0.0
 11
-14292.827737441397
 21
-10788.506780142843
 31
0.0
  0
CIRCLE
  5
7E
100
AcDbEntity
  8
Frei
  6
CONTINUOUS
 62
           7
100
AcDbCircle
 10
-14242.137517822901
 20
-10794.983550783954
 30
0.0
 40
5.7225
  0
ARC
  5
7F
100
AcDbEntity
  8
Frei
  6
CONTINUOUS
 62
           7
100
AcDbCircle
 10
-14242.137517822901
 20
-10794.983550783954
 30
0.0
 40
6.5785
100
AcDbArc
 50
106.345
 51
16.345
  0
CIRCLE
  5
80
100
AcDbEntity
  8
Frei
  6
CONTINUOUS
 62
           7
100
AcDbCircle
 10
-13987.678524326764
 20
-10794.203164143248
 30
0.0
 40
5.7225
  0
ARC
  5
81
100
AcDbEntity
  8
Frei
  6
CONTINUOUS
 62
           7
100
AcDbCircle
 10
-13987.678524326764
 20
-10794.203164143248
 30
0.0
 40
6.57849
100
AcDbArc
 50
106.345
 51
16.345
  0
LINE
  5
82
100
AcDbEntity
  8
Frei
  6
CONTINUOUS
 62
           7
100
AcDbLine
 10
-14230.878453832609
 20
-10773.077742988933
 30
0.0
 11
-14239.816709236244
 21
-10780.94262959622
 31
0.0
  0
LINE
  5
83
100
AcDbEntity
  8
Frei
  6
CONTINUOUS
 62
           7
100
AcDbLine
 10
-14231.869378299541
 20
-10771.951582396106
 30
0.0
 11
-14240.807636890604
 21
-10779.816518901695
 31
0.0
  0
CIRCLE
  5
84
100
AcDbEntity
  8
Frei
  6
CONTINUOUS
 62
           7
100
AcDbCircle
 10
-14235.843044086636
 20
-10776.447110985993
 30
0.0
 40
6.0
  0
LINE
  5
85
100
AcDbEntity
  8
Frei
  6
CONTINUOUS
 62
           7
100
AcDbLine
 10
-13989.008105869265
 20
-10809.370215150067
 30
0.0
 11
-13997.946663850124
 21
-10817.235132531096
 31
0.0
  0
LINE
  5
86
100
AcDbEntity
  8
Frei
  6
CONTINUOUS
 62
           7
100
AcDbLine
 10
-13989.999332913423
 20
-10808.244085330984
 30
0.0
 11
-13998.937887706856
 21
-10816.108952813713
 31
0.0
  0
CIRCLE
  5
87
100
AcDbEntity
  8
Frei
  6
CONTINUOUS
 62
           7
100
AcDbCircle
 10
-13993.972998063031
 20
-10812.739603941211
 30
0.0
 40
6.0
  0
LINE
  5
88
100
AcDbEntity
  8
Frei
  6
CONTINUOUS
 62
           7
100
AcDbLine
 10
-14300.333150887729
 20
-10768.863737021829
 30
0.0
 11
-14303.828526781859
 21
-10768.640457804833
 31
0.0
  0
LINE
  5
89
100
AcDbEntity
  8
Frei
  6
CONTINUOUS
 62
           7
100
AcDbLine
 10
-14307.323902675987
 20
-10768.417178587839
 30
0.0
 11
-14303.828526781859
 21
-10768.640457804833
 31
0.0
  0
LINE
  5
8A
100
AcDbEntity
  8
Frei
  6
CONTINUOUS
 62
           7
100
AcDbLine
 10
-14309.090603863175
 20
-10796.074408960296
 30
0.0
 11
-14305.595227969046
 21
-10796.297688177292
 31
0.0
  0
LINE
  5
8B
100
AcDbEntity
  8
Frei
  6
CONTINUOUS
 62
           7
100
AcDbLine
 10
-14302.099852074918
 20
-10796.520967394286
 30
0.0
 11
-14305.595227969046
 21
-10796.297688177292
 31
0.0
  0
LINE
  5
8C
100
AcDbEntity
  8
Frei
  6
CONTINUOUS
 62
           7
100
AcDbLine
 10
-14300.774825547041
 20
-10775.778034635283
 30
0.0
 11
-14304.27020144117
 21
-10775.554755418289
 31
0.0
  0
LINE
  5
8D
100
AcDbEntity
  8
Frei
  6
CONTINUOUS
 62
           7
100
AcDbLine
 10
-14307.7655773353
 20
-10775.331476201292
 30
0.0
 11
-14304.27020144117
 21
-10775.554755418289
 31
0.0
  0
LINE
  5
8E
100
AcDbEntity
  8
Frei
  6
CONTINUOUS
 62
           7
100
AcDbLine
 10
-14308.648929203864
 20
-10789.16011134684
 30
0.0
 11
-14305.153553309734
 21
-10789.383390563837
 31
0.0
  0
LINE
  5
8F
100
AcDbEntity
  8
Frei
  6
CONTINUOUS
 62
           7
100
AcDbLine
 10
-14301.658177415606
 20
-10789.606669780833
 30
0.0
 11
-14305.153553309734
 21
-10789.383390563837
 31
0.0
  0
ARC
  5
90
100
AcDbEntity
  8
Frei
  6
CONTINUOUS
 62
           7
100
AcDbCircle
 10
-14349.607672939172
 20
-10779.601198867225
 30
0.0
 40
48.982199999993
100
AcDbArc
 50
357.204436999999
 51
4.476610000001
  0
ARC
  5
91
100
AcDbEntity
  8
Frei
  6
CONTINUOUS
 62
           7
100
AcDbCircle
 10
-14259.816081811725
 20
-10785.3369471149
 30
0.0
 40
48.982200000003
100
AcDbArc
 50
168.213
 51
175.486
  0
ARC
  5
92
100
AcDbEntity
  8
Frei
  6
CONTINUOUS
 62
           7
100
AcDbCircle
 10
-14259.816081811725
 20
-10785.3369471149
 30
0.0
 40
48.982200000003
100
AcDbArc
 50
177.203999999999
 51
184.476999999999
  0
ARC
  5
93
100
AcDbEntity
  8
Frei
  6
CONTINUOUS
 62
           7
100
AcDbCircle
 10
-14349.607672939172
 20
-10779.601198867225
 30
0.0
 40
48.982199999993
100
AcDbArc
 50
348.213389999999
 51
355.485563
  0
LINE
  5
94
100
AcDbEntity
  8
Frei
  6
CONTINUOUS
 62
           7
100
AcDbLine
 10
-14300.6837554133
 20
-10781.990179762401
 30
0.0
 11
-14300.725103025858
 21
-10782.723741982918
 31
0.0
  0
LINE
  5
95
100
AcDbEntity
  8
Frei
  6
CONTINUOUS
 62
           7
100
AcDbLine
 10
-14308.646326486554
 20
-10781.481543012489
 30
0.0
 11
-14308.698651725048
 21
-10782.214403999207
 31
0.0
  0
LINE
  5
96
100
AcDbEntity
  8
Frei
  6
CONTINUOUS
 62
           7
100
AcDbLine
 10
-14308.739999337606
 20
-10782.947966219725
 30
0.0
 11
-14308.698651725048
 21
-10782.214403999207
 31
0.0
  0
LINE
  5
97
100
AcDbEntity
  8
Frei
  6
CONTINUOUS
 62
           7
100
AcDbLine
 10
-14300.77742826435
 20
-10783.456602969636
 30
0.0
 11
-14300.725103025858
 21
-10782.723741982918
 31
0.0
  0
ARC
  5
98
100
AcDbEntity
  8
Frei
  6
CONTINUOUS
 62
           7
100
AcDbCircle
 10
-14312.837951956781
 20
-10771.536210195403
 30
0.0
 40
12.801500000001
100
AcDbArc
 50
340.626499999999
 51
356.344999999999
  0
ARC
  5
99
100
AcDbEntity
  8
Frei
  6
CONTINUOUS
 62
           7
100
AcDbCircle
 10
-14295.260736985094
 20
-10772.659015557319
 30
0.0
 40
12.787200000001
100
AcDbArc
 50
176.345000000001
 51
192.063999999999
  0
ARC
  5
9A
100
AcDbEntity
  8
Frei
  6
CONTINUOUS
 62
           7
100
AcDbCircle
 10
-14296.585762875486
 20
-10793.401938336663
 30
0.0
 40
12.8015
100
AcDbArc
 50
160.626
 51
176.345000000001
  0
ARC
  5
9B
100
AcDbEntity
  8
Frei
  6
CONTINUOUS
 62
           7
100
AcDbCircle
 10
-14314.162977847171
 20
-10792.279132974747
 30
0.0
 40
12.787200000001
100
AcDbArc
 50
356.344999999998
 51
12.063499999999
  0
ARC
  5
9C
100
AcDbEntity
  8
Frei
  6
CONTINUOUS
 62
           7
100
AcDbCircle
 10
-14312.837951956781
 20
-10771.536210195403
 30
0.0
 40
12.787200000001
100
AcDbArc
 50
356.344999999998
 51
12.063499999999
  0
ARC
  5
9D
100
AcDbEntity
  8
Frei
  6
CONTINUOUS
 62
           7
100
AcDbCircle
 10
-14295.260736985094
 20
-10772.659015557319
 30
0.0
 40
12.8015
100
AcDbArc
 50
160.626
 51
176.345000000001
  0
ARC
  5
9E
100
AcDbEntity
  8
Frei
  6
CONTINUOUS
 62
           7
100
AcDbCircle
 10
-14296.585762875484
 20
-10793.401938336663
 30
0.0
 40
12.787200000001
100
AcDbArc
 50
176.345000000001
 51
192.063999999999
  0
ARC
  5
9F
100
AcDbEntity
  8
Frei
  6
CONTINUOUS
 62
           7
100
AcDbCircle
 10
-14314.162977847171
 20
-10792.279132974747
 30
0.0
 40
12.801500000001
100
AcDbArc
 50
340.626499999999
 51
356.344999999999
  0
LINE
  5
A0
100
AcDbEntity
  8
Frei
  6
CONTINUOUS
 62
           7
100
AcDbLine
 10
-14300.062590080663
 20
-10772.352280593246
 30
0.0
 11
-14300.725103025858
 21
-10782.723741982918
 31
0.0
  0
LINE
  5
A1
100
AcDbEntity
  8
Frei
  6
CONTINUOUS
 62
           7
100
AcDbLine
 10
-14308.036138779851
 20
-10771.842942609535
 30
0.0
 11
-14308.698651725048
 21
-10782.214403999207
 31
0.0
  0
LINE
  5
A2
100
AcDbEntity
  8
Frei
  6
CONTINUOUS
 62
           7
100
AcDbLine
 10
-14309.361164670243
 20
-10792.585865388877
 30
0.0
 11
-14308.698651725048
 21
-10782.214403999207
 31
0.0
  0
LINE
  5
A3
100
AcDbEntity
  8
Frei
  6
CONTINUOUS
 62
           7
100
AcDbLine
 10
-14301.387615971053
 20
-10793.09520337259
 30
0.0
 11
-14300.725103025858
 21
-10782.723741982918
 31
0.0
  0
LINE
  5
A4
100
AcDbEntity
  8
Frei
  6
CONTINUOUS
 62
           7
100
AcDbLine
 10
-14309.208639943738
 20
-10790.198131951536
 30
0.0
 11
-14309.157641121868
 21
-10789.399759156302
 31
0.0
  0
LINE
  5
A5
100
AcDbEntity
  8
Frei
  6
CONTINUOUS
 62
           7
100
AcDbLine
 10
-14309.157641121868
 20
-10789.399759156302
 30
0.0
 11
-14308.239662328226
 21
-10775.029048842111
 31
0.0
  0
LINE
  5
A6
100
AcDbEntity
  8
Frei
  6
CONTINUOUS
 62
           7
100
AcDbLine
 10
-14308.239662328226
 20
-10775.029048842111
 30
0.0
 11
-14308.188663506357
 21
-10774.230676046878
 31
0.0
  0
LINE
  5
A7
100
AcDbEntity
  8
Frei
  6
CONTINUOUS
 62
           7
100
AcDbLine
 10
-14308.188663506357
 20
-10774.230676046878
 30
0.0
 11
-14307.908169986076
 21
-10769.839625673098
 31
0.0
  0
LINE
  5
A8
100
AcDbEntity
  8
Frei
  6
CONTINUOUS
 62
           7
100
AcDbLine
 10
-14341.653539971743
 20
-10796.141907029101
 30
0.0
 11
-14339.918180952565
 21
-10796.252759084715
 31
0.0
  0
LINE
  5
A9
100
AcDbEntity
  8
Frei
  6
CONTINUOUS
 62
           7
100
AcDbLine
 10
-14337.878228077803
 20
-10764.317847275401
 30
0.0
 11
-14339.613587096981
 21
-10764.206995219787
 31
0.0
  0
LINE
  5
AA
100
AcDbEntity
  8
Frei
  6
CONTINUOUS
 62
           7
100
AcDbLine
 10
-14339.918180952565
 20
-10796.252759084715
 30
0.0
 11
-14334.867371212264
 21
-10796.575397014989
 31
0.0
  0
LINE
  5
AB
100
AcDbEntity
  8
Frei
  6
CONTINUOUS
 62
           7
100
AcDbLine
 10
-14332.827418337502
 20
-10764.640485205673
 30
0.0
 11
-14337.878228077803
 21
-10764.317847275401
 31
0.0
  0
LINE
  5
AC
100
AcDbEntity
  8
Frei
  6
CONTINUOUS
 62
           7
100
AcDbLine
 10
-14386.898411304704
 20
-10761.186513633642
 30
0.0
 11
-14339.613587096981
 21
-10764.206995219787
 31
0.0
  0
LINE
  5
AD
100
AcDbEntity
  8
Frei
  6
CONTINUOUS
 62
           7
100
AcDbLine
 10
-14388.938364179468
 20
-10793.121425442956
 30
0.0
 11
-14341.653539971743
 21
-10796.141907029101
 31
0.0
  0
LINE
  5
AE
100
AcDbEntity
  8
Frei
  6
CONTINUOUS
 62
           7
100
AcDbLine
 10
-14331.78285561026
 20
-10767.112101824176
 30
0.0
 11
-14333.516815553809
 21
-10794.256776862094
 31
0.0
  0
LINE
  5
AF
100
AcDbEntity
  8
Frei
  6
CONTINUOUS
 62
           7
100
AcDbLine
 10
-14309.029230946122
 20
-10768.565568247444
 30
0.0
 11
-14312.649025986133
 21
-10768.334341327451
 31
0.0
  0
LINE
  5
B0
100
AcDbEntity
  8
Frei
  6
CONTINUOUS
 62
           7
100
AcDbLine
 10
-14309.489133464018
 20
-10794.589182325317
 30
0.0
 11
-14309.208639943738
 21
-10790.198131951536
 31
0.0
  0
LINE
  5
B1
100
AcDbEntity
  8
Frei
  6
CONTINUOUS
 62
           7
100
AcDbLine
 10
-14332.319256360959
 20
-10794.333275094898
 30
0.0
 11
-14329.870196073205
 21
-10794.489717285949
 31
0.0
  0
LINE
  5
B2
100
AcDbEntity
  8
Frei
  6
CONTINUOUS
 62
           7
100
AcDbLine
 10
-14328.034238485918
 20
-10765.748296657564
 30
0.0
 11
-14328.136236129656
 21
-10767.345042248031
 31
0.0
  0
LINE
  5
B3
100
AcDbEntity
  8
Frei
  6
CONTINUOUS
 62
           7
100
AcDbLine
 10
-14328.136236129656
 20
-10767.345042248031
 30
0.0
 11
-14330.58529641741
 21
-10767.188600056979
 31
0.0
  0
LINE
  5
B4
100
AcDbEntity
  8
Frei
  6
CONTINUOUS
 62
           7
100
AcDbLine
 10
-14328.136236129656
 20
-10767.345042248031
 30
0.0
 11
-14329.870196073205
 21
-10794.489717285949
 31
0.0
  0
LINE
  5
B5
100
AcDbEntity
  8
Frei
  6
CONTINUOUS
 62
           7
100
AcDbLine
 10
-14329.870196073205
 20
-10794.489717285949
 30
0.0
 11
-14329.972193716943
 21
-10796.086462876414
 31
0.0
  0
LINE
  5
B6
100
AcDbEntity
  8
Frei
  6
CONTINUOUS
 62
           7
100
AcDbLine
 10
-14314.48498357342
 20
-10797.075761955835
 30
0.0
 11
-14314.382985929682
 21
-10795.479016365369
 31
0.0
  0
LINE
  5
B7
100
AcDbEntity
  8
Frei
  6
CONTINUOUS
 62
           7
100
AcDbLine
 10
-14314.382985929682
 20
-10795.479016365369
 30
0.0
 11
-14310.763190889671
 21
-10795.710243285363
 31
0.0
  0
LINE
  5
B8
100
AcDbEntity
  8
Frei
  6
CONTINUOUS
 62
           7
100
AcDbLine
 10
-14314.382985929682
 20
-10795.479016365369
 30
0.0
 11
-14312.649025986133
 21
-10768.334341327451
 31
0.0
  0
LINE
  5
B9
100
AcDbEntity
  8
Frei
  6
CONTINUOUS
 62
           7
100
AcDbLine
 10
-14312.649025986133
 20
-10768.334341327451
 30
0.0
 11
-14312.547028342397
 21
-10766.737595736986
 31
0.0
  0
LINE
  5
BA
100
AcDbEntity
  8
Frei
  6
CONTINUOUS
 62
           7
100
AcDbLine
 10
-14328.034238485918
 20
-10765.748296657564
 30
0.0
 11
-14312.547028342397
 21
-10766.737595736986
 31
0.0
  0
LINE
  5
BB
100
AcDbEntity
  8
Frei
  6
CONTINUOUS
 62
           7
100
AcDbLine
 10
-14329.972193716943
 20
-10796.086462876414
 30
0.0
 11
-14314.48498357342
 21
-10797.075761955835
 31
0.0
  0
ARC
  5
BC
100
AcDbEntity
  8
Frei
  6
CONTINUOUS
 62
           7
100
AcDbCircle
 10
-14361.612282141554
 20
-10778.834362960521
 30
0.0
 40
27.821476415485
100
AcDbArc
 50
321.238694434247
 51
31.451305565753
  0
ARC
  5
BD
100
AcDbEntity
  8
Frei
  6
CONTINUOUS
 62
           7
100
AcDbCircle
 10
-14348.451821202902
 20
-10779.675032892077
 30
0.0
 40
39.547005383793
100
AcDbArc
 50
152.48007458395
 51
200.20992541605
  0
ARC
  5
BE
100
AcDbEntity
  8
Frei
  6
CONTINUOUS
 62
           7
100
AcDbCircle
 10
-14362.566646588812
 20
-10778.773399632695
 30
0.0
 40
30.02221399786
100
AcDbArc
 50
144.140772496028
 51
208.549227503973
  0
CIRCLE
  5
BF
100
AcDbEntity
  8
Frei
  6
CONTINUOUS
 62
           7
100
AcDbCircle
 10
-14372.568475343678
 20
-10778.134498249681
 30
0.0
 40
6.8
  0
ARC
  5
C0
100
AcDbEntity
  8
Frei
  6
CONTINUOUS
 62
           7
100
AcDbCircle
 10
-14332.903916570305
 20
-10765.838044398522
 30
0.0
 40
1.2
100
AcDbArc
 50
356.344999999999
 51
86.345
  0
ARC
  5
C1
100
AcDbEntity
  8
Frei
  6
CONTINUOUS
 62
           7
100
AcDbCircle
 10
-14330.508798184606
 20
-10765.99104086413
 30
0.0
 40
1.2
100
AcDbArc
 50
176.345
 51
266.344999999999
  0
ARC
  5
C2
100
AcDbEntity
  8
Frei
  6
CONTINUOUS
 62
           7
100
AcDbCircle
 10
-14309.105729178926
 20
-10769.763127440294
 30
0.0
 40
1.2
100
AcDbArc
 50
356.344999999999
 51
86.345
  0
ARC
  5
C3
100
AcDbEntity
  8
Frei
  6
CONTINUOUS
 62
           7
100
AcDbCircle
 10
-14310.686692656867
 20
-10794.512684092513
 30
0.0
 40
1.2
100
AcDbArc
 50
266.344999999999
 51
356.344999999999
  0
ARC
  5
C4
100
AcDbEntity
  8
Frei
  6
CONTINUOUS
 62
           7
100
AcDbCircle
 10
-14332.395754593763
 20
-10795.530834287747
 30
0.0
 40
1.2
100
AcDbArc
 50
86.345
 51
176.345
  0
ARC
  5
C5
100
AcDbEntity
  8
Frei
  6
CONTINUOUS
 62
           7
100
AcDbCircle
 10
-14334.79087297946
 20
-10795.37783782214
 30
0.0
 40
1.2
100
AcDbArc
 50
266.344999999999
 51
356.344999999999
  0
LINE
  5
C6
100
AcDbEntity
  8
FREI
  6
CONTINUOUS
 62
           7
100
AcDbLine
 10
-13972.208893135487
 20
-10771.643178378145
 30
0.0
 11
-13976.28883264961
 21
-10835.513530572467
 31
0.0
  0
LINE
  5
C7
100
AcDbEntity
  8
FREI
  6
CONTINUOUS
 62
           7
100
AcDbLine
 10
-13968.880956980309
 20
-10829.471926599173
 30
0.0
 11
-13969.156564247753
 21
-10833.78648400326
 31
0.0
  0
LINE
  5
C8
100
AcDbEntity
  8
FREI
  6
CONTINUOUS
 62
           7
100
AcDbLine
 10
-13965.354363142753
 20
-10774.264051661006
 30
0.0
 11
-13965.629970410197
 21
-10778.578609065096
 31
0.0
  0
LINE
  5
C9
100
AcDbEntity
  8
FREI
  6
CONTINUOUS
 62
           7
100
AcDbLine
 10
-13965.629970410197
 20
-10778.578609065096
 30
0.0
 11
-13966.204669733781
 21
-10787.5753719034
 31
0.0
  0
LINE
  5
CA
100
AcDbEntity
  8
FREI
  6
CONTINUOUS
 62
           7
100
AcDbLine
 10
-13968.306257656724
 20
-10820.475163760864
 30
0.0
 11
-13968.880956980309
 21
-10829.471926599173
 31
0.0
  0
LINE
  5
CB
100
AcDbEntity
  8
Frei
  6
CONTINUOUS
 62
           7
100
AcDbLine
 10
-13971.212507293543
 20
-10835.660202035457
 30
0.0
 11
-13976.28883264961
 21
-10835.513530572467
 31
0.0
  0
LINE
  5
CC
100
AcDbEntity
  8
Frei
  6
CONTINUOUS
 62
           7
100
AcDbLine
 10
-13967.155188379003
 20
-10772.143969223884
 30
0.0
 11
-13972.208916777583
 21
-10771.64354848879
 31
0.0
  0
LINE
  5
CD
100
AcDbEntity
  8
FREI
  6
CONTINUOUS
 62
           7
100
AcDbLine
 10
-13967.774836409566
 20
-10829.503886001097
 30
0.0
 11
-13968.880956980309
 21
-10829.471926599173
 31
0.0
  0
LINE
  5
CE
100
AcDbEntity
  8
Frei
  6
CONTINUOUS
 62
           7
100
AcDbLine
 10
-13961.827535814375
 20
-10781.867773341755
 30
0.0
 11
-13962.40103296955
 21
-10790.845716558015
 31
0.0
  0
LINE
  5
CF
100
AcDbEntity
  8
FREI
  6
CONTINUOUS
 62
           7
100
AcDbLine
 10
-13965.629970410197
 20
-10778.578609065096
 30
0.0
 11
-13964.52877366875
 21
-10778.687649686073
 31
0.0
  0
LINE
  5
D0
100
AcDbEntity
  8
Frei
  6
CONTINUOUS
 62
           7
100
AcDbLine
 10
-13964.105702775114
 20
-10817.531862389202
 30
0.0
 11
-13964.117424685704
 21
-10817.715365736543
 31
0.0
  0
LINE
  5
D1
100
AcDbEntity
  8
FREI
  6
CONTINUOUS
 62
           7
100
AcDbLine
 10
-13946.299354304392
 20
-10793.32812114371
 30
0.0
 11
-13961.494940750961
 21
-10792.090831006153
 31
0.0
  0
LINE
  5
D2
100
AcDbEntity
  8
FREI
  6
CONTINUOUS
 62
           7
100
AcDbLine
 10
-13947.830760919091
 20
-10817.301878473902
 30
0.0
 11
-13963.060271428043
 21
-10816.595660379153
 31
0.0
  0
LINE
  5
D3
100
AcDbEntity
  8
FREI
  6
CONTINUOUS
 62
           7
100
AcDbLine
 10
-13962.158612667814
 20
-10791.761836036263
 30
0.0
 11
-13963.760409757297
 21
-10816.837537255569
 31
0.0
  0
LINE
  5
D4
100
AcDbEntity
  8
Frei
  6
CONTINUOUS
 62
           7
100
AcDbLine
 10
-13964.369041475424
 20
-10789.698594104999
 30
0.0
 11
-13963.31884709873
 21
-10789.784105457215
 31
0.0
  0
LINE
  5
D5
100
AcDbEntity
  8
Frei
  6
CONTINUOUS
 62
           7
100
AcDbLine
 10
-13962.40103296955
 20
-10790.845716558015
 30
0.0
 11
-13962.412754880141
 21
-10791.029219905355
 31
0.0
  0
LINE
  5
D6
100
AcDbEntity
  8
Frei
  6
CONTINUOUS
 62
           7
100
AcDbLine
 10
-13964.117424685704
 20
-10817.715365736543
 30
0.0
 11
-13964.690921840882
 21
-10826.693308952803
 31
0.0
  0
LINE
  5
D7
100
AcDbEntity
  8
Frei
  6
CONTINUOUS
 62
           7
100
AcDbLine
 10
-13965.162856032775
 20
-10818.651567746592
 30
0.0
 11
-13966.215394962583
 21
-10818.602759740765
 31
0.0
  0
ARC
  5
D8
100
AcDbEntity
  8
FREI
  6
CONTINUOUS
 62
           7
100
AcDbCircle
 10
-13947.274289357127
 20
-10805.301634407861
 30
0.0
 40
12.0131394
100
AcDbArc
 50
267.344999999997
 51
85.345000000003
  0
ARC
  5
D9
100
AcDbEntity
  8
Frei
  6
CONTINUOUS
 62
           7
100
AcDbCircle
 10
-13967.352480576565
 20
-10774.136415003433
 30
0.0
 40
2.0021899
100
AcDbArc
 50
356.344999999993
 51
84.345000000031
  0
ARC
  5
DA
100
AcDbEntity
  8
Frei
  6
CONTINUOUS
 62
           7
100
AcDbCircle
 10
-13964.824711965093
 20
-10781.676318355398
 30
0.0
 40
3.00328485
100
AcDbArc
 50
356.345000000004
 51
84.344999999982
  0
ARC
  5
DB
100
AcDbEntity
  8
Frei
  6
CONTINUOUS
 62
           7
100
AcDbCircle
 10
-13967.6880979916
 20
-10826.501853966443
 30
0.0
 40
3.00328485
100
AcDbArc
 50
268.344999999994
 51
356.344999999999
  0
ARC
  5
DC
100
AcDbEntity
  8
Frei
  6
CONTINUOUS
 62
           7
100
AcDbCircle
 10
-13971.154681681564
 20
-10833.658847345689
 30
0.0
 40
2.0021899
100
AcDbArc
 50
268.344999999968
 51
356.345000000006
  0
ARC
  5
DD
100
AcDbEntity
  8
Frei
  6
CONTINUOUS
 62
           7
100
AcDbCircle
 10
-13963.400091686457
 20
-10790.781898229228
 30
0.0
 40
1.00109495
100
AcDbArc
 50
356.344999999999
 51
85.34500000007
  0
ARC
  5
DE
100
AcDbEntity
  8
Frei
  6
CONTINUOUS
 62
           7
100
AcDbCircle
 10
-13964.206552299967
 20
-10787.703008560973
 30
0.0
 40
2.0021899
100
AcDbArc
 50
176.345000000006
 51
265.345000000015
  0
ARC
  5
DF
100
AcDbEntity
  8
Frei
  6
CONTINUOUS
 62
           7
100
AcDbCircle
 10
-13961.413696163234
 20
-10791.093038234141
 30
0.0
 40
1.001094950001
100
AcDbArc
 50
221.917995999261
 51
265.345000000022
  0
ARC
  5
E0
100
AcDbEntity
  8
Frei
  6
CONTINUOUS
 62
           7
100
AcDbCircle
 10
-13961.413696163236
 20
-10791.093038234141
 30
0.0
 40
1.001094949999
100
AcDbArc
 50
176.344999999987
 51
221.917995999281
  0
ARC
  5
E1
100
AcDbEntity
  8
Frei
  6
CONTINUOUS
 62
           7
100
AcDbCircle
 10
-13966.308140222911
 20
-10820.602800418437
 30
0.0
 40
2.002189899999
100
AcDbArc
 50
87.344999999931
 51
176.344999999993
  0
ARC
  5
E2
100
AcDbEntity
  8
Frei
  6
CONTINUOUS
 62
           7
100
AcDbCircle
 10
-13965.116483402611
 20
-10817.651547407757
 30
0.0
 40
1.001094949999
100
AcDbArc
 50
267.344999999922
 51
356.345000000012
  0
ARC
  5
E3
100
AcDbEntity
  8
Frei
  6
CONTINUOUS
 62
           7
100
AcDbCircle
 10
-13963.106644058207
 20
-10817.595680717988
 30
0.0
 40
1.00109495
100
AcDbArc
 50
130.772004000806
 51
176.344999999987
  0
ARC
  5
E4
100
AcDbEntity
  8
Frei
  6
CONTINUOUS
 62
           7
100
AcDbCircle
 10
-13963.106644058207
 20
-10817.59568071799
 30
0.0
 40
1.001094950001
100
AcDbArc
 50
87.345000000004
 51
130.772004000779
  0
LINE
  5
E5
100
AcDbEntity
  8
Frei
  6
CONTINUOUS
 62
           7
100
AcDbLine
 10
-14041.316417510276
 20
-10819.034427096436
 30
0.0
 11
-14037.823536531132
 21
-10819.257546942114
 31
0.0
  0
LINE
  5
E6
100
AcDbEntity
  8
Frei
  6
CONTINUOUS
 62
           7
100
AcDbLine
 10
-14041.188920455603
 20
-10817.038495108354
 30
0.0
 11
-14041.316417510276
 21
-10819.034427096436
 31
0.0
  0
LINE
  5
E7
100
AcDbEntity
  8
Frei
  6
CONTINUOUS
 62
           7
100
AcDbLine
 10
-14036.219959527394
 20
-10809.840618526059
 30
0.0
 11
-14036.761822009754
 21
-10818.323329475408
 31
0.0
  0
LINE
  5
E8
100
AcDbEntity
  8
Frei
  6
CONTINUOUS
 62
           7
100
AcDbLine
 10
-14040.71080650058
 20
-10809.553750153045
 30
0.0
 11
-14036.219959527394
 21
-10809.840618526059
 31
0.0
  0
LINE
  5
E9
100
AcDbEntity
  8
Frei
  6
CONTINUOUS
 62
           7
100
AcDbLine
 10
-14040.742680764248
 20
-10810.052733150065
 30
0.0
 11
-14040.71080650058
 21
-10809.553750153045
 31
0.0
  0
LINE
  5
EA
100
AcDbEntity
  8
Frei
  6
CONTINUOUS
 62
           7
100
AcDbLine
 10
-14037.230061280105
 20
-10810.723107535758
 30
0.0
 11
-14040.742680764248
 21
-10810.052733150065
 31
0.0
  0
LINE
  5
EB
100
AcDbEntity
  8
Frei
  6
CONTINUOUS
 62
           7
100
AcDbLine
 10
-14036.956055834118
 20
-10813.300731360652
 30
0.0
 11
-14036.824810274435
 21
-10811.246117538094
 31
0.0
  0
LINE
  5
EC
100
AcDbEntity
  8
Frei
  6
CONTINUOUS
 62
           7
100
AcDbLine
 10
-14041.188920455603
 20
-10817.038495108354
 30
0.0
 11
-14040.742680764248
 21
-10810.052733150065
 31
0.0
  0
LINE
  5
ED
100
AcDbEntity
  8
Frei
  6
CONTINUOUS
 62
           7
100
AcDbLine
 10
-14037.619553750959
 20
-10816.820507069338
 30
0.0
 11
-14041.188920455603
 21
-10817.038495108354
 31
0.0
  0
LINE
  5
EE
100
AcDbEntity
  8
Frei
  6
CONTINUOUS
 62
           7
100
AcDbLine
 10
-14037.019804361455
 20
-10814.298697354694
 30
0.0
 11
-14037.151049921138
 21
-10816.35331117725
 31
0.0
  0
LINE
  5
EF
100
AcDbEntity
  8
Frei
  6
CONTINUOUS
 62
           2
100
AcDbLine
 10
-14038.571020735664
 20
-10813.698588971229
 30
0.0
 11
-14035.799814547963
 21
-10813.875609345136
 31
0.0
  0
LINE
  5
F0
100
AcDbEntity
  8
Frei
  6
CONTINUOUS
 62
           7
100
AcDbLine
 10
-14038.539146471996
 20
-10813.199605974209
 30
0.0
 11
-14036.956055834118
 21
-10813.300731360652
 31
0.0
  0
LINE
  5
F1
100
AcDbEntity
  8
Frei
  6
CONTINUOUS
 62
           7
100
AcDbLine
 10
-14038.571020735664
 20
-10813.698588971229
 30
0.0
 11
-14038.539146471996
 21
-10813.199605974209
 31
0.0
  0
LINE
  5
F2
100
AcDbEntity
  8
Frei
  6
CONTINUOUS
 62
           7
100
AcDbLine
 10
-14038.602894999332
 20
-10814.19757196825
 30
0.0
 11
-14038.571020735664
 21
-10813.698588971229
 31
0.0
  0
LINE
  5
F3
100
AcDbEntity
  8
Frei
  6
CONTINUOUS
 62
           7
100
AcDbLine
 10
-14037.019804361455
 20
-10814.298697354694
 30
0.0
 11
-14038.602894999332
 21
-10814.19757196825
 31
0.0
  0
LINE
  5
F4
100
AcDbEntity
  8
Frei
  6
CONTINUOUS
 62
           7
100
AcDbLine
 10
-14180.53267367901
 20
-10810.141507533017
 30
0.0
 11
-14178.428972276912
 21
-10777.208629729661
 31
0.0
  0
LINE
  5
F5
100
AcDbEntity
  8
Frei
  6
CONTINUOUS
 62
           7
100
AcDbLine
 10
-14194.504197595586
 20
-10809.249028150309
 30
0.0
 11
-14180.53267367901
 21
-10810.141507533017
 31
0.0
  0
LINE
  5
F6
100
AcDbEntity
  8
Frei
  6
CONTINUOUS
 62
           7
100
AcDbLine
 10
-14188.408632217323
 20
-10776.571144456297
 30
0.0
 11
-14178.927955273932
 21
-10777.176755465993
 31
0.0
  0
LINE
  5
F7
100
AcDbEntity
  8
Frei
  6
CONTINUOUS
 62
           7
100
AcDbLine
 10
-14188.536129271995
 20
-10778.56707644438
 30
0.0
 11
-14188.408632217323
 21
-10776.571144456297
 31
0.0
  0
LINE
  5
F8
100
AcDbEntity
  8
Frei
  6
CONTINUOUS
 62
           7
100
AcDbLine
 10
-14188.98236896335
 20
-10785.552838402667
 30
0.0
 11
-14189.014243227019
 21
-10786.051821399687
 31
0.0
  0
LINE
  5
F9
100
AcDbEntity
  8
Frei
  6
CONTINUOUS
 62
           7
100
AcDbLine
 10
-14194.004073197224
 20
-10785.733078763007
 30
0.0
 11
-14193.462210714864
 21
-10777.250367813656
 31
0.0
  0
LINE
  5
FA
100
AcDbEntity
  8
Frei
  6
CONTINUOUS
 62
           7
100
AcDbLine
 10
-14189.014243227019
 20
-10786.051821399687
 30
0.0
 11
-14194.004073197224
 21
-10785.733078763007
 31
0.0
  0
LINE
  5
FB
100
AcDbEntity
  8
Frei
  6
CONTINUOUS
 62
           7
100
AcDbLine
 10
-14192.400496193488
 20
-10776.316150346953
 30
0.0
 11
-14188.408632217323
 21
-10776.571144456297
 31
0.0
  0
LINE
  5
FC
100
AcDbEntity
  8
Frei
  6
CONTINUOUS
 62
           7
100
AcDbLine
 10
-14192.494988447494
 20
-10784.882464016975
 30
0.0
 11
-14188.98236896335
 21
-10785.552838402667
 31
0.0
  0
LINE
  5
FD
100
AcDbEntity
  8
Frei
  6
CONTINUOUS
 62
           7
100
AcDbLine
 10
-14192.76899389348
 20
-10782.304840192081
 30
0.0
 11
-14192.900239453164
 21
-10784.359454014639
 31
0.0
  0
LINE
  5
FE
100
AcDbEntity
  8
Frei
  6
CONTINUOUS
 62
           7
100
AcDbLine
 10
-14188.536129271995
 20
-10778.56707644438
 30
0.0
 11
-14188.98236896335
 21
-10785.552838402667
 31
0.0
  0
LINE
  5
FF
100
AcDbEntity
  8
Frei
  6
CONTINUOUS
 62
           7
100
AcDbLine
 10
-14192.105495976639
 20
-10778.785064483394
 30
0.0
 11
-14188.536129271995
 21
-10778.56707644438
 31
0.0
  0
LINE
  5
100
100
AcDbEntity
  8
Frei
  6
CONTINUOUS
 62
           7
100
AcDbLine
 10
-14192.705245366144
 20
-10781.306874198041
 30
0.0
 11
-14192.573999806462
 21
-10779.252260375482
 31
0.0
  0
LINE
  5
101
100
AcDbEntity
  8
Frei
  6
CONTINUOUS
 62
           2
100
AcDbLine
 10
-14191.154028991934
 20
-10781.906982581504
 30
0.0
 11
-14193.925235179637
 21
-10781.729962207597
 31
0.0
  0
LINE
  5
102
100
AcDbEntity
  8
Frei
  6
CONTINUOUS
 62
           7
100
AcDbLine
 10
-14191.185903255602
 20
-10782.405965578524
 30
0.0
 11
-14192.76899389348
 21
-10782.304840192081
 31
0.0
  0
LINE
  5
103
100
AcDbEntity
  8
Frei
  6
CONTINUOUS
 62
           7
100
AcDbLine
 10
-14191.154028991934
 20
-10781.906982581504
 30
0.0
 11
-14191.185903255602
 21
-10782.405965578524
 31
0.0
  0
LINE
  5
104
100
AcDbEntity
  8
Frei
  6
CONTINUOUS
 62
           7
100
AcDbLine
 10
-14191.122154728266
 20
-10781.407999584482
 30
0.0
 11
-14191.154028991934
 21
-10781.906982581504
 31
0.0
  0
LINE
  5
105
100
AcDbEntity
  8
Frei
  6
CONTINUOUS
 62
           7
100
AcDbLine
 10
-14192.705245366144
 20
-10781.306874198041
 30
0.0
 11
-14191.122154728266
 21
-10781.407999584482
 31
0.0
  0
LINE
  5
106
100
AcDbEntity
  8
Frei
  6
CONTINUOUS
 62
           7
100
AcDbLine
 10
-14154.795927974152
 20
-10815.092257024098
 30
0.0
 11
-14154.82780223782
 21
-10815.591240021118
 31
0.0
  0
LINE
  5
107
100
AcDbEntity
  8
Frei
  6
CONTINUOUS
 62
           7
100
AcDbLine
 10
-14154.82780223782
 20
-10815.591240021118
 30
0.0
 11
-14077.984420696654
 21
-10820.499876626016
 31
0.0
  0
LINE
  5
108
100
AcDbEntity
  8
Frei
  6
CONTINUOUS
 62
           7
100
AcDbLine
 10
-14077.984420696654
 20
-10820.499876626016
 30
0.0
 11
-14074.988239911845
 21
-10773.595474906086
 31
0.0
  0
LINE
  5
109
100
AcDbEntity
  8
Frei
  6
CONTINUOUS
 62
           7
100
AcDbLine
 10
-14074.988239911845
 20
-10773.595474906086
 30
0.0
 11
-14151.831621453013
 21
-10768.686838301188
 31
0.0
  0
LINE
  5
10A
100
AcDbEntity
  8
Frei
  6
CONTINUOUS
 62
           7
100
AcDbLine
 10
-14178.927955273932
 20
-10777.176755465993
 30
0.0
 11
-14178.428972276912
 21
-10777.208629729661
 31
0.0
  0
LINE
  5
10B
100
AcDbEntity
  8
Frei
  6
CONTINUOUS
 62
           7
100
AcDbLine
 10
-14152.829587447053
 20
-10768.623089773851
 30
0.0
 11
-14178.277720295102
 21
-10766.997502326774
 31
0.0
  0
LINE
  5
10C
100
AcDbEntity
  8
Frei
  6
CONTINUOUS
 62
           7
100
AcDbLine
 10
-14180.774918082889
 20
-10813.933778310373
 30
0.0
 11
-14180.53267367901
 21
-10810.141507533017
 31
0.0
  0
LINE
  5
10D
100
AcDbEntity
  8
Frei
  6
CONTINUOUS
 62
           7
100
AcDbLine
 10
-14178.927955273932
 20
-10777.176755465993
 30
0.0
 11
-14178.277720295102
 21
-10766.997502326774
 31
0.0
  0
LINE
  5
10E
100
AcDbEntity
  8
Frei
  6
CONTINUOUS
 62
           7
100
AcDbLine
 10
-14154.795927974152
 20
-10815.092257024098
 30
0.0
 11
-14155.793893968194
 21
-10815.028508496762
 31
0.0
  0
LINE
  5
10F
100
AcDbEntity
  8
Frei
  6
CONTINUOUS
 62
           7
100
AcDbLine
 10
-14151.863495716681
 20
-10769.185821298206
 30
0.0
 11
-14154.795927974152
 21
-10815.092257024098
 31
0.0
  0
LINE
  5
110
100
AcDbEntity
  8
Frei
  6
CONTINUOUS
 62
           7
100
AcDbLine
 10
-14151.863495716681
 20
-10769.185821298206
 30
0.0
 11
-14152.861461710721
 21
-10769.122072770871
 31
0.0
  0
LINE
  5
111
100
AcDbEntity
  8
Frei
  6
CONTINUOUS
 62
           7
100
AcDbLine
 10
-14151.831621453013
 20
-10768.686838301188
 30
0.0
 11
-14151.863495716681
 21
-10769.185821298206
 31
0.0
  0
LINE
  5
112
100
AcDbEntity
  8
Frei
  6
CONTINUOUS
 62
           7
100
AcDbLine
 10
-14155.793893968194
 20
-10815.028508496762
 30
0.0
 11
-14152.829587447053
 21
-10768.623089773851
 31
0.0
  0
LINE
  5
113
100
AcDbEntity
  8
Frei
  6
CONTINUOUS
 62
           7
100
AcDbLine
 10
-14155.825768231862
 20
-10815.527491493782
 30
0.0
 11
-14155.793893968194
 21
-10815.028508496762
 31
0.0
  0
LINE
  5
114
100
AcDbEntity
  8
Frei
  6
CONTINUOUS
 62
           7
100
AcDbLine
 10
-14180.774918082889
 20
-10813.933778310373
 30
0.0
 11
-14155.825768231862
 21
-10815.527491493782
 31
0.0
  0
LINE
  5
115
100
AcDbEntity
  8
Frei
  6
CONTINUOUS
 62
           7
100
AcDbLine
 10
-14076.986454702612
 20
-10820.563625153352
 30
0.0
 11
-14052.037304851585
 21
-10822.157338336761
 31
0.0
  0
LINE
  5
116
100
AcDbEntity
  8
Frei
  6
CONTINUOUS
 62
           7
100
AcDbLine
 10
-14076.954580438944
 20
-10820.064642156332
 30
0.0
 11
-14076.986454702612
 21
-10820.563625153352
 31
0.0
  0
LINE
  5
117
100
AcDbEntity
  8
Frei
  6
CONTINUOUS
 62
           7
100
AcDbLine
 10
-14073.990273917805
 20
-10773.659223433422
 30
0.0
 11
-14076.954580438944
 21
-10820.064642156332
 31
0.0
  0
LINE
  5
118
100
AcDbEntity
  8
Frei
  6
CONTINUOUS
 62
           7
100
AcDbLine
 10
-14074.022148181473
 20
-10774.15820643044
 30
0.0
 11
-14075.020114175513
 21
-10774.094457903104
 31
0.0
  0
LINE
  5
119
100
AcDbEntity
  8
Frei
  6
CONTINUOUS
 62
           7
100
AcDbLine
 10
-14076.954580438944
 20
-10820.064642156332
 30
0.0
 11
-14077.952546432985
 21
-10820.000893628996
 31
0.0
  0
LINE
  5
11A
100
AcDbEntity
  8
Frei
  6
CONTINUOUS
 62
           7
100
AcDbLine
 10
-14048.542141069756
 20
-10775.284810880497
 30
0.0
 11
-14049.192376048588
 21
-10785.464064019716
 31
0.0
  0
LINE
  5
11B
100
AcDbEntity
  8
Frei
  6
CONTINUOUS
 62
           7
100
AcDbLine
 10
-14048.542141069756
 20
-10775.284810880497
 30
0.0
 11
-14073.990273917805
 21
-10773.659223433422
 31
0.0
  0
LINE
  5
11C
100
AcDbEntity
  8
Frei
  6
CONTINUOUS
 62
           7
100
AcDbLine
 10
-14049.691359045608
 20
-10785.432189756048
 30
0.0
 11
-14049.192376048588
 21
-10785.464064019716
 31
0.0
  0
LINE
  5
11D
100
AcDbEntity
  8
Frei
  6
CONTINUOUS
 62
           7
100
AcDbLine
 10
-14049.691359045608
 20
-10785.432189756048
 30
0.0
 11
-14052.037304851585
 21
-10822.157338336761
 31
0.0
  0
LINE
  5
11E
100
AcDbEntity
  8
Frei
  6
CONTINUOUS
 62
           7
100
AcDbLine
 10
-14225.248756427509
 20
-10780.731102169788
 30
0.0
 11
-14227.244688415592
 21
-10780.603605115115
 31
0.0
  0
LINE
  5
11F
100
AcDbEntity
  8
Frei
  6
CONTINUOUS
 62
           7
100
AcDbLine
 10
-14225.462012452859
 20
-10799.756204583906
 30
0.0
 11
-14224.314538960805
 21
-10781.792816691166
 31
0.0
  0
LINE
  5
120
100
AcDbEntity
  8
Frei
  6
CONTINUOUS
 62
           7
100
AcDbLine
 10
-14228.519658962319
 20
-10800.562924995938
 30
0.0
 11
-14226.523726974236
 21
-10800.690422050611
 31
0.0
  0
LINE
  5
121
100
AcDbEntity
  8
Frei
  6
CONTINUOUS
 62
           7
100
AcDbLine
 10
-14229.135133792341
 20
-10794.511380504355
 30
0.0
 11
-14229.453876429023
 21
-10799.50121047456
 31
0.0
  0
LINE
  5
122
100
AcDbEntity
  8
Frei
  6
CONTINUOUS
 62
           7
100
AcDbLine
 10
-14227.244688415592
 20
-10780.603605115115
 30
0.0
 11
-14228.306402936969
 21
-10781.53782258182
 31
0.0
  0
LINE
  5
123
100
AcDbEntity
  8
Frei
  6
CONTINUOUS
 62
           7
100
AcDbLine
 10
-14225.248756427509
 20
-10780.731102169788
 30
0.0
 11
-14224.314538960805
 21
-10781.792816691166
 31
0.0
  0
LINE
  5
124
100
AcDbEntity
  8
Frei
  6
CONTINUOUS
 62
           7
100
AcDbLine
 10
-14225.462012452859
 20
-10799.756204583906
 30
0.0
 11
-14226.523726974236
 21
-10800.690422050611
 31
0.0
  0
LINE
  5
125
100
AcDbEntity
  8
Frei
  6
CONTINUOUS
 62
           7
100
AcDbLine
 10
-14228.519658962319
 20
-10800.562924995938
 30
0.0
 11
-14229.453876429023
 21
-10799.50121047456
 31
0.0
  0
LINE
  5
126
100
AcDbEntity
  8
Frei
  6
CONTINUOUS
 62
           7
100
AcDbLine
 10
-14228.519658962319
 20
-10800.562924995938
 30
0.0
 11
-14227.244688415592
 21
-10780.603605115115
 31
0.0
  0
LINE
  5
127
100
AcDbEntity
  8
Frei
  6
CONTINUOUS
 62
           7
100
AcDbLine
 10
-14226.523726974236
 20
-10800.690422050611
 30
0.0
 11
-14225.248756427509
 21
-10780.731102169788
 31
0.0
  0
LINE
  5
128
100
AcDbEntity
  8
Frei
  6
CONTINUOUS
 62
           7
100
AcDbLine
 10
-14225.940126407881
 20
-10807.240949539215
 30
0.0
 11
-14225.462012452859
 21
-10799.756204583906
 31
0.0
  0
LINE
  5
129
100
AcDbEntity
  8
Frei
  6
CONTINUOUS
 62
           7
100
AcDbLine
 10
-14196.393501570994
 20
-10799.608979888577
 30
0.0
 11
-14196.99911258069
 21
-10809.089656831968
 31
0.0
  0
LINE
  5
12A
100
AcDbEntity
  8
Frei
  6
CONTINUOUS
 62
           7
100
AcDbLine
 10
-14229.686860095027
 20
-10787.461870018731
 30
0.0
 11
-14228.625145573651
 21
-10786.527652552026
 31
0.0
  0
LINE
  5
12B
100
AcDbEntity
  8
Frei
  6
CONTINUOUS
 62
           7
100
AcDbLine
 10
-14228.306402936969
 20
-10781.53782258182
 30
0.0
 11
-14228.625145573651
 21
-10786.527652552026
 31
0.0
  0
LINE
  5
12C
100
AcDbEntity
  8
Frei
  6
CONTINUOUS
 62
           7
100
AcDbLine
 10
-14229.718734358696
 20
-10787.960853015751
 30
0.0
 11
-14229.686860095027
 21
-10787.461870018731
 31
0.0
  0
LINE
  5
12D
100
AcDbEntity
  8
Frei
  6
CONTINUOUS
 62
           7
100
AcDbLine
 10
-14229.135133792341
 20
-10794.511380504355
 30
0.0
 11
-14230.069351259046
 21
-10793.449665982977
 31
0.0
  0
LINE
  5
12E
100
AcDbEntity
  8
Frei
  6
CONTINUOUS
 62
           7
100
AcDbLine
 10
-14229.071385265006
 20
-10793.513414510313
 30
0.0
 11
-14229.135133792341
 21
-10794.511380504355
 31
0.0
  0
LINE
  5
12F
100
AcDbEntity
  8
Frei
  6
CONTINUOUS
 62
           2
100
AcDbLine
 10
-14228.688894100987
 20
-10787.525618546068
 30
0.0
 11
-14229.686860095027
 21
-10787.461870018731
 31
0.0
  0
LINE
  5
130
100
AcDbEntity
  8
Frei
  6
CONTINUOUS
 62
           7
100
AcDbLine
 10
-14228.625145573651
 20
-10786.527652552026
 30
0.0
 11
-14228.688894100987
 21
-10787.525618546068
 31
0.0
  0
LINE
  5
131
100
AcDbEntity
  8
Frei
  6
CONTINUOUS
 62
           2
100
AcDbLine
 10
-14229.071385265006
 20
-10793.513414510313
 30
0.0
 11
-14230.069351259046
 21
-10793.449665982977
 31
0.0
  0
LINE
  5
132
100
AcDbEntity
  8
Frei
  6
CONTINUOUS
 62
           7
100
AcDbLine
 10
-14228.688894100987
 20
-10787.525618546068
 30
0.0
 11
-14229.071385265006
 21
-10793.513414510313
 31
0.0
  0
LINE
  5
133
100
AcDbEntity
  8
Frei
  6
CONTINUOUS
 62
           1
100
AcDbLine
 10
-14227.235444736427
 20
-10788.119481723857
 30
0.0
 11
-14229.718734358696
 21
-10787.960853015751
 31
0.0
  0
LINE
  5
134
100
AcDbEntity
  8
Frei
  6
CONTINUOUS
 62
           7
100
AcDbLine
 10
-14229.750608622364
 20
-10788.459836012771
 30
0.0
 11
-14229.718734358696
 21
-10787.960853015751
 31
0.0
  0
LINE
  5
135
100
AcDbEntity
  8
Frei
  6
CONTINUOUS
 62
           1
100
AcDbLine
 10
-14227.554187373109
 20
-10793.109311694063
 30
0.0
 11
-14230.037476995378
 21
-10792.950682985957
 31
0.0
  0
LINE
  5
136
100
AcDbEntity
  8
Frei
  6
CONTINUOUS
 62
           7
100
AcDbLine
 10
-14230.069351259046
 20
-10793.449665982977
 30
0.0
 11
-14230.037476995378
 21
-10792.950682985957
 31
0.0
  0
LINE
  5
137
100
AcDbEntity
  8
Frei
  6
CONTINUOUS
 62
           1
100
AcDbLine
 10
-14227.267319000095
 20
-10788.618464720879
 30
0.0
 11
-14229.750608622364
 21
-10788.459836012771
 31
0.0
  0
LINE
  5
138
100
AcDbEntity
  8
Frei
  6
CONTINUOUS
 62
           7
100
AcDbLine
 10
-14230.00560273171
 20
-10792.451699988937
 30
0.0
 11
-14229.750608622364
 21
-10788.459836012771
 31
0.0
  0
LINE
  5
139
100
AcDbEntity
  8
Frei
  6
CONTINUOUS
 62
           1
100
AcDbLine
 10
-14227.522313109441
 20
-10792.610328697043
 30
0.0
 11
-14230.00560273171
 21
-10792.451699988937
 31
0.0
  0
LINE
  5
13A
100
AcDbEntity
  8
Frei
  6
CONTINUOUS
 62
           7
100
AcDbLine
 10
-14230.037476995378
 20
-10792.950682985957
 30
0.0
 11
-14230.00560273171
 21
-10792.451699988937
 31
0.0
  0
LINE
  5
13B
100
AcDbEntity
  8
Frei
  6
CONTINUOUS
 62
           7
100
AcDbLine
 10
-14222.225405517715
 20
-10779.366358652298
 30
0.0
 11
-14195.150405287935
 21
-10780.148643004775
 31
0.0
  0
LINE
  5
13C
100
AcDbEntity
  8
Frei
  6
CONTINUOUS
 62
           7
100
AcDbLine
 10
-14224.279099870873
 20
-10781.238027300908
 30
0.0
 11
-14224.314538960805
 21
-10781.792816691166
 31
0.0
  0
LINE
  5
13D
100
AcDbEntity
  8
Frei
  6
CONTINUOUS
 62
           7
100
AcDbLine
 10
-14196.99911258069
 20
-10809.089656831968
 30
0.0
 11
-14225.940126407881
 21
-10807.240949539215
 31
0.0
  0
LINE
  5
13E
100
AcDbEntity
  8
Frei
  6
CONTINUOUS
 62
           7
100
AcDbLine
 10
-14226.003874935217
 20
-10808.238915533255
 30
0.0
 11
-14225.940126407881
 21
-10807.240949539215
 31
0.0
  0
LINE
  5
13F
100
AcDbEntity
  8
Frei
  6
CONTINUOUS
 62
           7
100
AcDbLine
 10
-14225.504891938197
 20
-10808.270789796923
 30
0.0
 11
-14226.003874935217
 21
-10808.238915533255
 31
0.0
  0
LINE
  5
140
100
AcDbEntity
  8
Frei
  6
CONTINUOUS
 62
           7
100
AcDbLine
 10
-14196.99911258069
 20
-10809.089656831968
 30
0.0
 11
-14197.062861108026
 21
-10810.087622826009
 31
0.0
  0
LINE
  5
141
100
AcDbEntity
  8
Frei
  6
CONTINUOUS
 62
           7
100
AcDbLine
 10
-14236.812265731001
 20
-10820.574988182427
 30
0.0
 11
-14226.333622793569
 21
-10821.244347719457
 31
0.0
  0
LINE
  5
142
100
AcDbEntity
  8
Frei
  6
CONTINUOUS
 62
           7
100
AcDbLine
 10
-14239.329191159444
 20
-10836.44682129608
 30
0.0
 11
-14239.361065423112
 21
-10836.9458042931
 31
0.0
  0
LINE
  5
143
100
AcDbEntity
  8
Frei
  6
CONTINUOUS
 62
           7
100
AcDbLine
 10
-14237.959739223055
 20
-10838.538376075167
 30
0.0
 11
-14227.481096285623
 21
-10839.207735612197
 31
0.0
  0
LINE
  5
144
100
AcDbEntity
  8
Frei
  6
CONTINUOUS
 62
           7
100
AcDbLine
 10
-14227.257976439947
 20
-10835.714854633054
 30
0.0
 11
-14225.504891938197
 21
-10808.270789796923
 31
0.0
  0
LINE
  5
145
100
AcDbEntity
  8
Frei
  6
CONTINUOUS
 62
           7
100
AcDbLine
 10
-14197.561844105046
 20
-10810.055748562341
 30
0.0
 11
-14225.504891938197
 21
-10808.270789796923
 31
0.0
  0
LINE
  5
146
100
AcDbEntity
  8
Frei
  6
CONTINUOUS
 62
           7
100
AcDbLine
 10
-14225.85665023989
 20
-10837.30742641512
 30
0.0
 11
-14219.904679642976
 21
-10837.687629109969
 31
0.0
  0
LINE
  5
147
100
AcDbEntity
  8
Frei
  6
CONTINUOUS
 62
           7
100
AcDbLine
 10
-14199.314928606795
 20
-10837.499813398472
 30
0.0
 11
-14197.561844105046
 21
-10810.055748562341
 31
0.0
  0
LINE
  5
148
100
AcDbEntity
  8
Frei
  6
CONTINUOUS
 62
           7
100
AcDbLine
 10
-14197.062861108026
 20
-10810.087622826009
 30
0.0
 11
-14197.561844105046
 21
-10810.055748562341
 31
0.0
  0
LINE
  5
149
100
AcDbEntity
  8
Frei
  6
CONTINUOUS
 62
           7
100
AcDbLine
 10
-14219.904679642976
 20
-10837.687629109969
 30
0.0
 11
-14227.481096285623
 21
-10839.207735612197
 31
0.0
  0
LINE
  5
14A
100
AcDbEntity
  8
Frei
  6
CONTINUOUS
 62
           7
100
AcDbLine
 10
-14200.907500388861
 20
-10838.901139598529
 30
0.0
 11
-14219.904679642976
 21
-10837.687629109969
 31
0.0
  0
LINE
  5
14B
100
AcDbEntity
  8
Frei
  6
CONTINUOUS
 62
           7
100
AcDbLine
 10
-14243.426541746941
 20
-10822.156554742822
 30
0.0
 11
-14238.436711776736
 21
-10822.475297379504
 31
0.0
  0
LINE
  5
14C
100
AcDbEntity
  8
Frei
  6
CONTINUOUS
 62
           7
100
AcDbLine
 10
-14238.404837513068
 20
-10821.976314382484
 30
0.0
 11
-14238.436711776736
 21
-10822.475297379504
 31
0.0
  0
LINE
  5
14D
100
AcDbEntity
  8
Frei
  6
CONTINUOUS
 62
           7
100
AcDbLine
 10
-14244.31902112965
 20
-10836.128078659398
 30
0.0
 11
-14239.329191159444
 21
-10836.44682129608
 31
0.0
  0
LINE
  5
14E
100
AcDbEntity
  8
Frei
  6
CONTINUOUS
 62
           7
100
AcDbLine
 10
-14239.265442632108
 20
-10835.448855302038
 30
0.0
 11
-14239.329191159444
 21
-10836.44682129608
 31
0.0
  0
LINE
  5
14F
100
AcDbEntity
  8
Frei
  6
CONTINUOUS
 62
           2
100
AcDbLine
 10
-14238.500460304072
 20
-10823.473263373546
 30
0.0
 11
-14243.490290274278
 21
-10823.154520736864
 31
0.0
  0
LINE
  5
150
100
AcDbEntity
  8
Frei
  6
CONTINUOUS
 62
           7
100
AcDbLine
 10
-14238.436711776736
 20
-10822.475297379504
 30
0.0
 11
-14238.500460304072
 21
-10823.473263373546
 31
0.0
  0
LINE
  5
151
100
AcDbEntity
  8
Frei
  6
CONTINUOUS
 62
           2
100
AcDbLine
 10
-14239.265442632108
 20
-10835.448855302038
 30
0.0
 11
-14244.255272602313
 21
-10835.130112665356
 31
0.0
  0
LINE
  5
152
100
AcDbEntity
  8
Frei
  6
CONTINUOUS
 62
           7
100
AcDbLine
 10
-14238.500460304072
 20
-10823.473263373546
 30
0.0
 11
-14239.265442632108
 21
-10835.448855302038
 31
0.0
  0
LINE
  5
153
100
AcDbEntity
  8
Frei
  6
CONTINUOUS
 62
           7
100
AcDbLine
 10
-14195.501022188286
 20
-10785.637455972002
 30
0.0
 11
-14194.746571217855
 21
-10785.685649135496
 31
0.0
  0
LINE
  5
154
100
AcDbEntity
  8
Frei
  6
CONTINUOUS
 62
           7
100
AcDbLine
 10
-14195.150405287935
 20
-10780.148643004775
 30
0.0
 11
-14195.501022188286
 21
-10785.637455972002
 31
0.0
  0
LINE
  5
155
100
AcDbEntity
  8
Frei
  6
CONTINUOUS
 62
           7
100
AcDbLine
 10
-14195.724142033963
 20
-10789.130336951146
 30
0.0
 11
-14194.969691063532
 21
-10789.178530114639
 31
0.0
  0
LINE
  5
156
100
AcDbEntity
  8
Frei
  6
CONTINUOUS
 62
           7
100
AcDbLine
 10
-14195.501022188286
 20
-10785.637455972002
 30
0.0
 11
-14195.724142033963
 21
-10789.130336951146
 31
0.0
  0
LINE
  5
157
100
AcDbEntity
  8
Frei
  6
CONTINUOUS
 62
           7
100
AcDbLine
 10
-14196.170381725316
 20
-10796.116098909433
 30
0.0
 11
-14195.415930754887
 21
-10796.164292072926
 31
0.0
  0
LINE
  5
158
100
AcDbEntity
  8
Frei
  6
CONTINUOUS
 62
           7
100
AcDbLine
 10
-14195.724142033963
 20
-10789.130336951146
 30
0.0
 11
-14196.170381725316
 21
-10796.116098909433
 31
0.0
  0
LINE
  5
159
100
AcDbEntity
  8
Frei
  6
CONTINUOUS
 62
           7
100
AcDbLine
 10
-14196.393501570994
 20
-10799.608979888577
 30
0.0
 11
-14195.639050600565
 21
-10799.657173052072
 31
0.0
  0
LINE
  5
15A
100
AcDbEntity
  8
Frei
  6
CONTINUOUS
 62
           7
100
AcDbLine
 10
-14196.170381725316
 20
-10796.116098909433
 30
0.0
 11
-14196.393501570994
 21
-10799.608979888577
 31
0.0
  0
LINE
  5
15B
100
AcDbEntity
  8
Frei
  6
CONTINUOUS
 62
           7
100
AcDbLine
 10
-14194.450312888579
 20
-10792.718840721294
 30
0.0
 11
-14194.115633120062
 21
-10787.479519252578
 31
0.0
  0
LINE
  5
15C
100
AcDbEntity
  8
Frei
  6
CONTINUOUS
 62
           7
100
AcDbLine
 10
-14243.367370157943
 20
-10821.230239483448
 30
0.0
 11
-14243.283897767606
 21
-10819.923501736283
 31
0.0
  0
LINE
  5
15D
100
AcDbEntity
  8
Frei
  6
CONTINUOUS
 62
           7
100
AcDbLine
 10
-14248.697049689103
 20
-10838.090581836286
 30
0.0
 11
-14244.461665108984
 21
-10838.361131665937
 31
0.0
  0
LINE
  5
15E
100
AcDbEntity
  8
Frei
  6
CONTINUOUS
 62
           7
100
AcDbLine
 10
-14248.357200128148
 20
-10820.911496846767
 30
0.0
 11
-14243.367370157943
 21
-10821.230239483448
 31
0.0
  0
LINE
  5
15F
100
AcDbEntity
  8
Frei
  6
CONTINUOUS
 62
           7
100
AcDbLine
 10
-14243.494867212614
 20
-10823.22617147153
 30
0.0
 11
-14243.367370157943
 21
-10821.230239483448
 31
0.0
  0
LINE
  5
160
100
AcDbEntity
  8
Frei
  6
CONTINUOUS
 62
           7
100
AcDbLine
 10
-14243.494867212614
 20
-10823.22617147153
 30
0.0
 11
-14248.484697182821
 21
-10822.907428834849
 31
0.0
  0
LINE
  5
161
100
AcDbEntity
  8
Frei
  6
CONTINUOUS
 62
           7
100
AcDbLine
 10
-14248.357200128148
 20
-10820.911496846767
 30
0.0
 11
-14248.484697182821
 21
-10822.907428834849
 31
0.0
  0
LINE
  5
162
100
AcDbEntity
  8
Frei
  6
CONTINUOUS
 62
           7
100
AcDbLine
 10
-14243.578339602951
 20
-10824.532909218697
 30
0.0
 11
-14243.494867212614
 21
-10823.22617147153
 31
0.0
  0
LINE
  5
163
100
AcDbEntity
  8
Frei
  6
CONTINUOUS
 62
           7
100
AcDbLine
 10
-14243.745284383622
 20
-10827.146384713027
 30
0.0
 11
-14243.578339602951
 21
-10824.532909218697
 31
0.0
  0
LINE
  5
164
100
AcDbEntity
  8
Frei
  6
CONTINUOUS
 62
           7
100
AcDbLine
 10
-14243.745284383622
 20
-10827.146384713027
 30
0.0
 11
-14248.735114353827
 21
-10826.827642076345
 31
0.0
  0
LINE
  5
165
100
AcDbEntity
  8
Frei
  6
CONTINUOUS
 62
           7
100
AcDbLine
 10
-14248.484697182821
 20
-10822.907428834849
 30
0.0
 11
-14248.735114353827
 21
-10826.827642076345
 31
0.0
  0
LINE
  5
166
100
AcDbEntity
  8
Frei
  6
CONTINUOUS
 62
           7
100
AcDbLine
 10
-14244.000278492967
 20
-10831.138248689193
 30
0.0
 11
-14243.745284383622
 21
-10827.146384713027
 31
0.0
  0
LINE
  5
167
100
AcDbEntity
  8
Frei
  6
CONTINUOUS
 62
           7
100
AcDbLine
 10
-14244.000278492967
 20
-10831.138248689193
 30
0.0
 11
-14248.990108463173
 21
-10830.81950605251
 31
0.0
  0
LINE
  5
168
100
AcDbEntity
  8
Frei
  6
CONTINUOUS
 62
           7
100
AcDbLine
 10
-14248.735114353827
 20
-10826.827642076345
 30
0.0
 11
-14248.990108463173
 21
-10830.81950605251
 31
0.0
  0
LINE
  5
169
100
AcDbEntity
  8
Frei
  6
CONTINUOUS
 62
           7
100
AcDbLine
 10
-14244.16722327364
 20
-10833.751724183525
 30
0.0
 11
-14244.000278492967
 21
-10831.138248689193
 31
0.0
  0
LINE
  5
16A
100
AcDbEntity
  8
Frei
  6
CONTINUOUS
 62
           7
100
AcDbLine
 10
-14244.250695663975
 20
-10835.05846193069
 30
0.0
 11
-14244.16722327364
 21
-10833.751724183525
 31
0.0
  0
LINE
  5
16B
100
AcDbEntity
  8
Frei
  6
CONTINUOUS
 62
           7
100
AcDbLine
 10
-14244.250695663975
 20
-10835.05846193069
 30
0.0
 11
-14249.240525634181
 21
-10834.739719294008
 31
0.0
  0
LINE
  5
16C
100
AcDbEntity
  8
Frei
  6
CONTINUOUS
 62
           7
100
AcDbLine
 10
-14248.990108463173
 20
-10830.81950605251
 30
0.0
 11
-14249.240525634181
 21
-10834.739719294008
 31
0.0
  0
LINE
  5
16D
100
AcDbEntity
  8
Frei
  6
CONTINUOUS
 62
           7
100
AcDbLine
 10
-14244.378192718648
 20
-10837.054393918772
 30
0.0
 11
-14244.250695663975
 21
-10835.05846193069
 31
0.0
  0
LINE
  5
16E
100
AcDbEntity
  8
Frei
  6
CONTINUOUS
 62
           7
100
AcDbLine
 10
-14244.378192718648
 20
-10837.054393918772
 30
0.0
 11
-14249.368022688854
 21
-10836.73565128209
 31
0.0
  0
LINE
  5
16F
100
AcDbEntity
  8
Frei
  6
CONTINUOUS
 62
           7
100
AcDbLine
 10
-14249.240525634181
 20
-10834.739719294008
 30
0.0
 11
-14249.368022688854
 21
-10836.73565128209
 31
0.0
  0
LINE
  5
170
100
AcDbEntity
  8
Frei
  6
CONTINUOUS
 62
           7
100
AcDbLine
 10
-14244.461665108984
 20
-10838.361131665937
 30
0.0
 11
-14244.378192718648
 21
-10837.054393918772
 31
0.0
  0
LINE
  5
171
100
AcDbEntity
  8
Frei
  6
CONTINUOUS
 62
           7
100
AcDbLine
 10
-14248.357200128148
 20
-10820.911496846767
 30
0.0
 11
-14247.519282347725
 21
-10819.652951906632
 31
0.0
  0
LINE
  5
172
100
AcDbEntity
  8
Frei
  6
CONTINUOUS
 62
           7
100
AcDbLine
 10
-14243.283897767606
 20
-10819.923501736283
 30
0.0
 11
-14247.519282347725
 21
-10819.652951906632
 31
0.0
  0
LINE
  5
173
100
AcDbEntity
  8
Frei
  6
CONTINUOUS
 62
           7
100
AcDbLine
 10
-14248.697049689103
 20
-10838.090581836286
 30
0.0
 11
-14249.368022688854
 21
-10836.73565128209
 31
0.0
  0
LINE
  5
174
100
AcDbEntity
  8
Frei
  6
CONTINUOUS
 62
           7
100
AcDbLine
 10
-14247.81372418307
 20
-10824.262359389044
 30
0.0
 11
-14248.484697182821
 21
-10822.907428834849
 31
0.0
  0
LINE
  5
175
100
AcDbEntity
  8
Frei
  6
CONTINUOUS
 62
           7
100
AcDbLine
 10
-14243.578339602951
 20
-10824.532909218697
 30
0.0
 11
-14247.81372418307
 21
-10824.262359389044
 31
0.0
  0
LINE
  5
176
100
AcDbEntity
  8
Frei
  6
CONTINUOUS
 62
           7
100
AcDbLine
 10
-14248.735114353827
 20
-10826.827642076345
 30
0.0
 11
-14247.81372418307
 21
-10824.262359389044
 31
0.0
  0
LINE
  5
177
100
AcDbEntity
  8
Frei
  6
CONTINUOUS
 62
           7
100
AcDbLine
 10
-14248.402607853759
 20
-10833.481174353872
 30
0.0
 11
-14248.990108463173
 21
-10830.81950605251
 31
0.0
  0
LINE
  5
178
100
AcDbEntity
  8
Frei
  6
CONTINUOUS
 62
           7
100
AcDbLine
 10
-14244.16722327364
 20
-10833.751724183525
 30
0.0
 11
-14248.402607853759
 21
-10833.481174353872
 31
0.0
  0
LINE
  5
179
100
AcDbEntity
  8
Frei
  6
CONTINUOUS
 62
           7
100
AcDbLine
 10
-14249.240525634181
 20
-10834.739719294008
 30
0.0
 11
-14248.402607853759
 21
-10833.481174353872
 31
0.0
  0
LINE
  5
17A
100
AcDbEntity
  8
Frei
  6
CONTINUOUS
 62
           3
100
AcDbLine
 10
-14203.947766823918
 20
-10831.59246119516
 30
0.0
 11
-14221.911154716658
 21
-10830.444987703106
 31
0.0
  0
LINE
  5
17B
100
AcDbEntity
  8
Frei
  6
CONTINUOUS
 62
           3
100
AcDbLine
 10
-14204.584795536743
 20
-10832.152991675182
 30
0.0
 11
-14203.947766823918
 21
-10831.59246119516
 31
0.0
  0
LINE
  5
17C
100
AcDbEntity
  8
Frei
  6
CONTINUOUS
 62
           3
100
AcDbLine
 10
-14204.024265056722
 20
-10832.790020388009
 30
0.0
 11
-14204.584795536743
 21
-10832.152991675182
 31
0.0
  0
LINE
  5
17D
100
AcDbEntity
  8
Frei
  6
CONTINUOUS
 62
           3
100
AcDbLine
 10
-14221.987652949461
 20
-10831.642546895955
 30
0.0
 11
-14204.024265056722
 21
-10832.790020388009
 31
0.0
  0
LINE
  5
17E
100
AcDbEntity
  8
Frei
  6
CONTINUOUS
 62
           3
100
AcDbLine
 10
-14221.350624236635
 20
-10831.082016415932
 30
0.0
 11
-14221.987652949461
 21
-10831.642546895955
 31
0.0
  0
LINE
  5
17F
100
AcDbEntity
  8
Frei
  6
CONTINUOUS
 62
           3
100
AcDbLine
 10
-14221.911154716658
 20
-10830.444987703106
 30
0.0
 11
-14221.350624236635
 21
-10831.082016415932
 31
0.0
  0
LINE
  5
180
100
AcDbEntity
  8
Frei
  6
CONTINUOUS
 62
           3
100
AcDbLine
 10
-14204.584795536743
 20
-10832.152991675182
 30
0.0
 11
-14221.350624236635
 21
-10831.082016415932
 31
0.0
  0
LINE
  5
181
100
AcDbEntity
  8
Frei
  6
CONTINUOUS
 62
           3
100
AcDbLine
 10
-14221.860155894788
 20
-10829.646614907873
 30
0.0
 11
-14221.223127181962
 21
-10829.086084427849
 31
0.0
  0
LINE
  5
182
100
AcDbEntity
  8
Frei
  6
CONTINUOUS
 62
           3
100
AcDbLine
 10
-14203.896768002049
 20
-10830.794088399927
 30
0.0
 11
-14221.860155894788
 21
-10829.646614907873
 31
0.0
  0
LINE
  5
183
100
AcDbEntity
  8
Frei
  6
CONTINUOUS
 62
           3
100
AcDbLine
 10
-14204.45729848207
 20
-10830.157059687101
 30
0.0
 11
-14203.896768002049
 21
-10830.794088399927
 31
0.0
  0
LINE
  5
184
100
AcDbEntity
  8
Frei
  6
CONTINUOUS
 62
           3
100
AcDbLine
 10
-14203.820269769245
 20
-10829.596529207078
 30
0.0
 11
-14204.45729848207
 21
-10830.157059687101
 31
0.0
  0
LINE
  5
185
100
AcDbEntity
  8
Frei
  6
CONTINUOUS
 62
           3
100
AcDbLine
 10
-14221.783657661985
 20
-10828.449055715024
 30
0.0
 11
-14203.820269769245
 21
-10829.596529207078
 31
0.0
  0
LINE
  5
186
100
AcDbEntity
  8
Frei
  6
CONTINUOUS
 62
           3
100
AcDbLine
 10
-14221.223127181962
 20
-10829.086084427849
 30
0.0
 11
-14221.783657661985
 21
-10828.449055715024
 31
0.0
  0
LINE
  5
187
100
AcDbEntity
  8
Frei
  6
CONTINUOUS
 62
           3
100
AcDbLine
 10
-14221.223127181962
 20
-10829.086084427849
 30
0.0
 11
-14204.45729848207
 21
-10830.157059687101
 31
0.0
  0
LINE
  5
188
100
AcDbEntity
  8
Frei
  6
CONTINUOUS
 62
           3
100
AcDbLine
 10
-14221.732658840116
 20
-10827.65068291979
 30
0.0
 11
-14221.095630127289
 21
-10827.090152439767
 31
0.0
  0
LINE
  5
189
100
AcDbEntity
  8
Frei
  6
CONTINUOUS
 62
           3
100
AcDbLine
 10
-14203.769270947376
 20
-10828.798156411844
 30
0.0
 11
-14221.732658840116
 21
-10827.65068291979
 31
0.0
  0
LINE
  5
18A
100
AcDbEntity
  8
Frei
  6
CONTINUOUS
 62
           3
100
AcDbLine
 10
-14204.329801427397
 20
-10828.161127699017
 30
0.0
 11
-14203.769270947376
 21
-10828.798156411844
 31
0.0
  0
LINE
  5
18B
100
AcDbEntity
  8
Frei
  6
CONTINUOUS
 62
           3
100
AcDbLine
 10
-14203.692772714572
 20
-10827.600597218996
 30
0.0
 11
-14204.329801427397
 21
-10828.161127699017
 31
0.0
  0
LINE
  5
18C
100
AcDbEntity
  8
Frei
  6
CONTINUOUS
 62
           3
100
AcDbLine
 10
-14221.656160607312
 20
-10826.453123726942
 30
0.0
 11
-14203.692772714572
 21
-10827.600597218996
 31
0.0
  0
LINE
  5
18D
100
AcDbEntity
  8
Frei
  6
CONTINUOUS
 62
           3
100
AcDbLine
 10
-14221.095630127289
 20
-10827.090152439767
 30
0.0
 11
-14221.656160607312
 21
-10826.453123726942
 31
0.0
  0
LINE
  5
18E
100
AcDbEntity
  8
Frei
  6
CONTINUOUS
 62
           3
100
AcDbLine
 10
-14221.605161785443
 20
-10825.654750931708
 30
0.0
 11
-14220.968133072616
 21
-10825.094220451685
 31
0.0
  0
LINE
  5
18F
100
AcDbEntity
  8
Frei
  6
CONTINUOUS
 62
           3
100
AcDbLine
 10
-14215.524635531574
 20
-10826.043165563498
 30
0.0
 11
-14221.605161785443
 21
-10825.654750931708
 31
0.0
  0
LINE
  5
190
100
AcDbEntity
  8
Frei
  6
CONTINUOUS
 62
           3
100
AcDbLine
 10
-14204.202304372724
 20
-10826.165195710935
 30
0.0
 11
-14203.641773892703
 21
-10826.802224423762
 31
0.0
  0
LINE
  5
191
100
AcDbEntity
  8
Frei
  6
CONTINUOUS
 62
           3
100
AcDbLine
 10
-14203.565275659899
 20
-10825.604665230912
 30
0.0
 11
-14204.202304372724
 21
-10826.165195710935
 31
0.0
  0
LINE
  5
192
100
AcDbEntity
  8
Frei
  6
CONTINUOUS
 62
           3
100
AcDbLine
 10
-14209.645801913766
 20
-10825.216250599124
 30
0.0
 11
-14203.565275659899
 21
-10825.604665230912
 31
0.0
  0
LINE
  5
193
100
AcDbEntity
  8
Frei
  6
CONTINUOUS
 62
           3
100
AcDbLine
 10
-14220.968133072616
 20
-10825.094220451685
 30
0.0
 11
-14221.528663552639
 21
-10824.457191738858
 31
0.0
  0
LINE
  5
194
100
AcDbEntity
  8
Frei
  6
CONTINUOUS
 62
           3
100
AcDbLine
 10
-14221.47766473077
 20
-10823.658818943626
 30
0.0
 11
-14220.840636017943
 21
-10823.098288463603
 31
0.0
  0
LINE
  5
195
100
AcDbEntity
  8
Frei
  6
CONTINUOUS
 62
           3
100
AcDbLine
 10
-14216.141836767196
 20
-10823.999663398075
 30
0.0
 11
-14221.47766473077
 21
-10823.658818943626
 31
0.0
  0
LINE
  5
196
100
AcDbEntity
  8
Frei
  6
CONTINUOUS
 62
           3
100
AcDbLine
 10
-14204.074807318051
 20
-10824.169263722853
 30
0.0
 11
-14203.51427683803
 21
-10824.80629243568
 31
0.0
  0
LINE
  5
197
100
AcDbEntity
  8
Frei
  6
CONTINUOUS
 62
           3
100
AcDbLine
 10
-14209.410635281627
 20
-10823.828419268404
 30
0.0
 11
-14204.074807318051
 21
-10824.169263722853
 31
0.0
  0
LINE
  5
198
100
AcDbEntity
  8
Frei
  6
CONTINUOUS
 62
           3
100
AcDbLine
 10
-14214.887606818747
 20
-10825.482635083476
 30
0.0
 11
-14220.968133072616
 21
-10825.094220451685
 31
0.0
  0
LINE
  5
199
100
AcDbEntity
  8
Frei
  6
CONTINUOUS
 62
           3
100
AcDbLine
 10
-14204.329801427397
 20
-10828.161127699017
 30
0.0
 11
-14221.095630127289
 21
-10827.090152439767
 31
0.0
  0
LINE
  5
19A
100
AcDbEntity
  8
Frei
  6
CONTINUOUS
 62
           3
100
AcDbLine
 10
-14214.887606818747
 20
-10825.482635083476
 30
0.0
 11
-14215.44813729877
 21
-10824.845606370649
 31
0.0
  0
LINE
  5
19B
100
AcDbEntity
  8
Frei
  6
CONTINUOUS
 62
           3
100
AcDbLine
 10
-14221.528663552639
 20
-10824.457191738858
 30
0.0
 11
-14215.44813729877
 21
-10824.845606370649
 31
0.0
  0
LINE
  5
19C
100
AcDbEntity
  8
Frei
  6
CONTINUOUS
 62
           3
100
AcDbLine
 10
-14215.524635531574
 20
-10826.043165563498
 30
0.0
 11
-14214.887606818747
 21
-10825.482635083476
 31
0.0
  0
LINE
  5
19D
100
AcDbEntity
  8
Frei
  6
CONTINUOUS
 62
           3
100
AcDbLine
 10
-14215.504808054367
 20
-10823.439132918053
 30
0.0
 11
-14216.141836767196
 21
-10823.999663398075
 31
0.0
  0
LINE
  5
19E
100
AcDbEntity
  8
Frei
  6
CONTINUOUS
 62
           3
100
AcDbLine
 10
-14220.840636017943
 20
-10823.098288463603
 30
0.0
 11
-14215.504808054367
 21
-10823.439132918053
 31
0.0
  0
LINE
  5
19F
100
AcDbEntity
  8
Frei
  6
CONTINUOUS
 62
           3
100
AcDbLine
 10
-14208.850104801604
 20
-10824.465447981231
 30
0.0
 11
-14209.410635281627
 21
-10823.828419268404
 31
0.0
  0
LINE
  5
1A0
100
AcDbEntity
  8
Frei
  6
CONTINUOUS
 62
           3
100
AcDbLine
 10
-14203.51427683803
 20
-10824.80629243568
 30
0.0
 11
-14208.850104801604
 21
-10824.465447981231
 31
0.0
  0
LINE
  5
1A1
100
AcDbEntity
  8
Frei
  6
CONTINUOUS
 62
           3
100
AcDbLine
 10
-14210.282830626595
 20
-10825.776781079147
 30
0.0
 11
-14209.645801913766
 21
-10825.216250599124
 31
0.0
  0
LINE
  5
1A2
100
AcDbEntity
  8
Frei
  6
CONTINUOUS
 62
           3
100
AcDbLine
 10
-14204.202304372724
 20
-10826.165195710935
 30
0.0
 11
-14210.282830626595
 21
-10825.776781079147
 31
0.0
  0
LINE
  5
1A3
100
AcDbEntity
  8
Frei
  6
CONTINUOUS
 62
           3
100
AcDbLine
 10
-14209.72230014657
 20
-10826.413809791973
 30
0.0
 11
-14210.282830626595
 21
-10825.776781079147
 31
0.0
  0
LINE
  5
1A4
100
AcDbEntity
  8
Frei
  6
CONTINUOUS
 62
           3
100
AcDbLine
 10
-14203.641773892703
 20
-10826.802224423762
 30
0.0
 11
-14209.72230014657
 21
-10826.413809791973
 31
0.0
  0
LINE
  5
1A5
100
AcDbEntity
  8
Frei
  6
CONTINUOUS
 62
           3
100
AcDbLine
 10
-14221.528663552639
 20
-10824.457191738858
 30
0.0
 11
-14221.605161785443
 21
-10825.654750931708
 31
0.0
  0
LINE
  5
1A6
100
AcDbEntity
  8
Frei
  6
CONTINUOUS
 62
           3
100
AcDbLine
 10
-14221.732658840116
 20
-10827.65068291979
 30
0.0
 11
-14221.656160607312
 21
-10826.453123726942
 31
0.0
  0
LINE
  5
1A7
100
AcDbEntity
  8
Frei
  6
CONTINUOUS
 62
           3
100
AcDbLine
 10
-14221.860155894788
 20
-10829.646614907873
 30
0.0
 11
-14221.783657661985
 21
-10828.449055715024
 31
0.0
  0
LINE
  5
1A8
100
AcDbEntity
  8
Frei
  6
CONTINUOUS
 62
           3
100
AcDbLine
 10
-14221.987652949461
 20
-10831.642546895955
 30
0.0
 11
-14221.911154716658
 21
-10830.444987703106
 31
0.0
  0
LINE
  5
1A9
100
AcDbEntity
  8
Frei
  6
CONTINUOUS
 62
           3
100
AcDbLine
 10
-14221.439415614368
 20
-10823.060039347201
 30
0.0
 11
-14221.47766473077
 21
-10823.658818943626
 31
0.0
  0
LINE
  5
1AA
100
AcDbEntity
  8
Frei
  6
CONTINUOUS
 62
           3
100
AcDbLine
 10
-14203.51427683803
 20
-10824.80629243568
 30
0.0
 11
-14203.476027721628
 21
-10824.207512839255
 31
0.0
  0
LINE
  5
1AB
100
AcDbEntity
  8
Frei
  6
CONTINUOUS
 62
           3
100
AcDbLine
 10
-14203.641773892703
 20
-10826.802224423762
 30
0.0
 11
-14203.565275659899
 21
-10825.604665230912
 31
0.0
  0
LINE
  5
1AC
100
AcDbEntity
  8
Frei
  6
CONTINUOUS
 62
           3
100
AcDbLine
 10
-14203.769270947376
 20
-10828.798156411844
 30
0.0
 11
-14203.692772714572
 21
-10827.600597218996
 31
0.0
  0
LINE
  5
1AD
100
AcDbEntity
  8
Frei
  6
CONTINUOUS
 62
           3
100
AcDbLine
 10
-14203.896768002049
 20
-10830.794088399927
 30
0.0
 11
-14203.820269769245
 21
-10829.596529207078
 31
0.0
  0
LINE
  5
1AE
100
AcDbEntity
  8
Frei
  6
CONTINUOUS
 62
           3
100
AcDbLine
 10
-14204.024265056722
 20
-10832.790020388009
 30
0.0
 11
-14203.947766823918
 21
-10831.59246119516
 31
0.0
  0
LINE
  5
1AF
100
AcDbEntity
  8
Frei
  6
CONTINUOUS
 62
           3
100
AcDbLine
 10
-14203.004288619341
 20
-10816.822564483351
 30
0.0
 11
-14202.927790386537
 21
-10815.625005290502
 31
0.0
  0
LINE
  5
1B0
100
AcDbEntity
  8
Frei
  6
CONTINUOUS
 62
           3
100
AcDbLine
 10
-14203.131785674012
 20
-10818.818496471433
 30
0.0
 11
-14203.055287441208
 21
-10817.620937278583
 31
0.0
  0
LINE
  5
1B1
100
AcDbEntity
  8
Frei
  6
CONTINUOUS
 62
           3
100
AcDbLine
 10
-14203.259282728684
 20
-10820.814428459516
 30
0.0
 11
-14203.182784495881
 21
-10819.616869266667
 31
0.0
  0
LINE
  5
1B2
100
AcDbEntity
  8
Frei
  6
CONTINUOUS
 62
           3
100
AcDbLine
 10
-14203.386779783357
 20
-10822.810360447598
 30
0.0
 11
-14203.310281550554
 21
-10821.612801254749
 31
0.0
  0
LINE
  5
1B3
100
AcDbEntity
  8
Frei
  6
CONTINUOUS
 62
           3
100
AcDbLine
 10
-14203.476027721628
 20
-10824.207512839255
 30
0.0
 11
-14203.437778605226
 21
-10823.608733242831
 31
0.0
  0
LINE
  5
1B4
100
AcDbEntity
  8
Frei
  6
CONTINUOUS
 62
           3
100
AcDbLine
 10
-14221.401166497966
 20
-10822.461259750777
 30
0.0
 11
-14221.439415614368
 21
-10823.060039347201
 31
0.0
  0
LINE
  5
1B5
100
AcDbEntity
  8
Frei
  6
CONTINUOUS
 62
           3
100
AcDbLine
 10
-14220.96767651208
 20
-10815.675090991297
 30
0.0
 11
-14220.891178279277
 21
-10814.477531798448
 31
0.0
  0
LINE
  5
1B6
100
AcDbEntity
  8
Frei
  6
CONTINUOUS
 62
           3
100
AcDbLine
 10
-14221.095173566751
 20
-10817.671022979379
 30
0.0
 11
-14221.018675333949
 21
-10816.473463786531
 31
0.0
  0
LINE
  5
1B7
100
AcDbEntity
  8
Frei
  6
CONTINUOUS
 62
           3
100
AcDbLine
 10
-14221.222670621424
 20
-10819.666954967461
 30
0.0
 11
-14221.14617238862
 21
-10818.469395774613
 31
0.0
  0
LINE
  5
1B8
100
AcDbEntity
  8
Frei
  6
CONTINUOUS
 62
           3
100
AcDbLine
 10
-14221.273669443293
 20
-10820.465327762695
 30
0.0
 11
-14221.350167676097
 21
-10821.662886955544
 31
0.0
  0
LINE
  5
1B9
100
AcDbEntity
  8
Frei
  6
CONTINUOUS
 62
           3
100
AcDbLine
 10
-14209.390807804422
 20
-10821.224386622958
 30
0.0
 11
-14203.310281550554
 21
-10821.612801254749
 31
0.0
  0
LINE
  5
1BA
100
AcDbEntity
  8
Frei
  6
CONTINUOUS
 62
           3
100
AcDbLine
 10
-14210.027836517249
 20
-10821.784917102981
 30
0.0
 11
-14209.390807804422
 21
-10821.224386622958
 31
0.0
  0
LINE
  5
1BB
100
AcDbEntity
  8
Frei
  6
CONTINUOUS
 62
           3
100
AcDbLine
 10
-14210.027836517249
 20
-10821.784917102981
 30
0.0
 11
-14203.947310263378
 21
-10822.173331734772
 31
0.0
  0
LINE
  5
1BC
100
AcDbEntity
  8
Frei
  6
CONTINUOUS
 62
           3
100
AcDbLine
 10
-14209.467306037226
 20
-10822.421945815808
 30
0.0
 11
-14210.027836517249
 21
-10821.784917102981
 31
0.0
  0
LINE
  5
1BD
100
AcDbEntity
  8
Frei
  6
CONTINUOUS
 62
           3
100
AcDbLine
 10
-14208.7736065688
 20
-10823.267888788381
 30
0.0
 11
-14203.437778605226
 21
-10823.608733242831
 31
0.0
  0
LINE
  5
1BE
100
AcDbEntity
  8
Frei
  6
CONTINUOUS
 62
           3
100
AcDbLine
 10
-14209.410635281627
 20
-10823.828419268404
 30
0.0
 11
-14208.7736065688
 21
-10823.267888788381
 31
0.0
  0
LINE
  5
1BF
100
AcDbEntity
  8
Frei
  6
CONTINUOUS
 62
           3
100
AcDbLine
 10
-14216.065338534392
 20
-10822.802104205226
 30
0.0
 11
-14215.504808054367
 21
-10823.439132918053
 31
0.0
  0
LINE
  5
1C0
100
AcDbEntity
  8
Frei
  6
CONTINUOUS
 62
           3
100
AcDbLine
 10
-14214.632612709403
 20
-10821.49077110731
 30
0.0
 11
-14215.193143189425
 21
-10820.853742394484
 31
0.0
  0
LINE
  5
1C1
100
AcDbEntity
  8
Frei
  6
CONTINUOUS
 62
           3
100
AcDbLine
 10
-14215.269641422228
 20
-10822.051301587333
 30
0.0
 11
-14221.350167676097
 21
-10821.662886955544
 31
0.0
  0
LINE
  5
1C2
100
AcDbEntity
  8
Frei
  6
CONTINUOUS
 62
           3
100
AcDbLine
 10
-14215.269641422228
 20
-10822.051301587333
 30
0.0
 11
-14214.632612709403
 21
-10821.49077110731
 31
0.0
  0
LINE
  5
1C3
100
AcDbEntity
  8
Frei
  6
CONTINUOUS
 62
           3
100
AcDbLine
 10
-14220.585641908598
 20
-10819.106424487438
 30
0.0
 11
-14203.819813208707
 21
-10820.17739974669
 31
0.0
  0
LINE
  5
1C4
100
AcDbEntity
  8
Frei
  6
CONTINUOUS
 62
           3
100
AcDbLine
 10
-14220.71313896327
 20
-10821.102356475521
 30
0.0
 11
-14214.632612709403
 21
-10821.49077110731
 31
0.0
  0
LINE
  5
1C5
100
AcDbEntity
  8
Frei
  6
CONTINUOUS
 62
           3
100
AcDbLine
 10
-14203.437778605226
 20
-10823.608733242831
 30
0.0
 11
-14204.074807318051
 21
-10824.169263722853
 31
0.0
  0
LINE
  5
1C6
100
AcDbEntity
  8
Frei
  6
CONTINUOUS
 62
           3
100
AcDbLine
 10
-14221.401166497966
 20
-10822.461259750777
 30
0.0
 11
-14216.065338534392
 21
-10822.802104205226
 31
0.0
  0
LINE
  5
1C7
100
AcDbEntity
  8
Frei
  6
CONTINUOUS
 62
           3
100
AcDbLine
 10
-14220.840636017943
 20
-10823.098288463603
 30
0.0
 11
-14221.401166497966
 21
-10822.461259750777
 31
0.0
  0
LINE
  5
1C8
100
AcDbEntity
  8
Frei
  6
CONTINUOUS
 62
           3
100
AcDbLine
 10
-14221.350167676097
 20
-10821.662886955544
 30
0.0
 11
-14220.71313896327
 21
-10821.102356475521
 31
0.0
  0
LINE
  5
1C9
100
AcDbEntity
  8
Frei
  6
CONTINUOUS
 62
           3
100
AcDbLine
 10
-14203.386779783357
 20
-10822.810360447598
 30
0.0
 11
-14209.467306037226
 21
-10822.421945815808
 31
0.0
  0
LINE
  5
1CA
100
AcDbEntity
  8
Frei
  6
CONTINUOUS
 62
           3
100
AcDbLine
 10
-14203.947310263378
 20
-10822.173331734772
 30
0.0
 11
-14203.386779783357
 21
-10822.810360447598
 31
0.0
  0
LINE
  5
1CB
100
AcDbEntity
  8
Frei
  6
CONTINUOUS
 62
           3
100
AcDbLine
 10
-14203.310281550554
 20
-10821.612801254749
 30
0.0
 11
-14203.947310263378
 21
-10822.173331734772
 31
0.0
  0
LINE
  5
1CC
100
AcDbEntity
  8
Frei
  6
CONTINUOUS
 62
           3
100
AcDbLine
 10
-14221.273669443293
 20
-10820.465327762695
 30
0.0
 11
-14215.193143189425
 21
-10820.853742394484
 31
0.0
  0
LINE
  5
1CD
100
AcDbEntity
  8
Frei
  6
CONTINUOUS
 62
           3
100
AcDbLine
 10
-14220.71313896327
 20
-10821.102356475521
 30
0.0
 11
-14221.273669443293
 21
-10820.465327762695
 31
0.0
  0
LINE
  5
1CE
100
AcDbEntity
  8
Frei
  6
CONTINUOUS
 62
           3
100
AcDbLine
 10
-14221.222670621424
 20
-10819.666954967461
 30
0.0
 11
-14220.585641908598
 21
-10819.106424487438
 31
0.0
  0
LINE
  5
1CF
100
AcDbEntity
  8
Frei
  6
CONTINUOUS
 62
           3
100
AcDbLine
 10
-14203.259282728684
 20
-10820.814428459516
 30
0.0
 11
-14221.222670621424
 21
-10819.666954967461
 31
0.0
  0
LINE
  5
1D0
100
AcDbEntity
  8
Frei
  6
CONTINUOUS
 62
           3
100
AcDbLine
 10
-14203.819813208707
 20
-10820.17739974669
 30
0.0
 11
-14203.259282728684
 21
-10820.814428459516
 31
0.0
  0
LINE
  5
1D1
100
AcDbEntity
  8
Frei
  6
CONTINUOUS
 62
           3
100
AcDbLine
 10
-14203.182784495881
 20
-10819.616869266667
 30
0.0
 11
-14203.819813208707
 21
-10820.17739974669
 31
0.0
  0
LINE
  5
1D2
100
AcDbEntity
  8
Frei
  6
CONTINUOUS
 62
           3
100
AcDbLine
 10
-14221.14617238862
 20
-10818.469395774613
 30
0.0
 11
-14203.182784495881
 21
-10819.616869266667
 31
0.0
  0
LINE
  5
1D3
100
AcDbEntity
  8
Frei
  6
CONTINUOUS
 62
           3
100
AcDbLine
 10
-14220.585641908598
 20
-10819.106424487438
 30
0.0
 11
-14221.14617238862
 21
-10818.469395774613
 31
0.0
  0
LINE
  5
1D4
100
AcDbEntity
  8
Frei
  6
CONTINUOUS
 62
           3
100
AcDbLine
 10
-14203.692316154034
 20
-10818.181467758606
 30
0.0
 11
-14220.458144853925
 21
-10817.110492499356
 31
0.0
  0
LINE
  5
1D5
100
AcDbEntity
  8
Frei
  6
CONTINUOUS
 62
           3
100
AcDbLine
 10
-14221.095173566751
 20
-10817.671022979379
 30
0.0
 11
-14220.458144853925
 21
-10817.110492499356
 31
0.0
  0
LINE
  5
1D6
100
AcDbEntity
  8
Frei
  6
CONTINUOUS
 62
           3
100
AcDbLine
 10
-14203.131785674012
 20
-10818.818496471433
 30
0.0
 11
-14221.095173566751
 21
-10817.671022979379
 31
0.0
  0
LINE
  5
1D7
100
AcDbEntity
  8
Frei
  6
CONTINUOUS
 62
           3
100
AcDbLine
 10
-14203.692316154034
 20
-10818.181467758606
 30
0.0
 11
-14203.131785674012
 21
-10818.818496471433
 31
0.0
  0
LINE
  5
1D8
100
AcDbEntity
  8
Frei
  6
CONTINUOUS
 62
           3
100
AcDbLine
 10
-14203.055287441208
 20
-10817.620937278583
 30
0.0
 11
-14203.692316154034
 21
-10818.181467758606
 31
0.0
  0
LINE
  5
1D9
100
AcDbEntity
  8
Frei
  6
CONTINUOUS
 62
           3
100
AcDbLine
 10
-14221.018675333949
 20
-10816.473463786531
 30
0.0
 11
-14203.055287441208
 21
-10817.620937278583
 31
0.0
  0
LINE
  5
1DA
100
AcDbEntity
  8
Frei
  6
CONTINUOUS
 62
           3
100
AcDbLine
 10
-14220.458144853925
 20
-10817.110492499356
 30
0.0
 11
-14221.018675333949
 21
-10816.473463786531
 31
0.0
  0
LINE
  5
1DB
100
AcDbEntity
  8
Frei
  6
CONTINUOUS
 62
           3
100
AcDbLine
 10
-14220.330647799252
 20
-10815.114560511274
 30
0.0
 11
-14203.564819099362
 21
-10816.185535770524
 31
0.0
  0
LINE
  5
1DC
100
AcDbEntity
  8
Frei
  6
CONTINUOUS
 62
           3
100
AcDbLine
 10
-14220.330647799252
 20
-10815.114560511274
 30
0.0
 11
-14220.96767651208
 21
-10815.675090991297
 31
0.0
  0
LINE
  5
1DD
100
AcDbEntity
  8
Frei
  6
CONTINUOUS
 62
           3
100
AcDbLine
 10
-14220.891178279277
 20
-10814.477531798448
 30
0.0
 11
-14220.330647799252
 21
-10815.114560511274
 31
0.0
  0
LINE
  5
1DE
100
AcDbEntity
  8
Frei
  6
CONTINUOUS
 62
           3
100
AcDbLine
 10
-14202.927790386537
 20
-10815.625005290502
 30
0.0
 11
-14220.891178279277
 21
-10814.477531798448
 31
0.0
  0
LINE
  5
1DF
100
AcDbEntity
  8
Frei
  6
CONTINUOUS
 62
           3
100
AcDbLine
 10
-14203.564819099362
 20
-10816.185535770524
 30
0.0
 11
-14202.927790386537
 21
-10815.625005290502
 31
0.0
  0
LINE
  5
1E0
100
AcDbEntity
  8
Frei
  6
CONTINUOUS
 62
           3
100
AcDbLine
 10
-14203.004288619341
 20
-10816.822564483351
 30
0.0
 11
-14203.564819099362
 21
-10816.185535770524
 31
0.0
  0
LINE
  5
1E1
100
AcDbEntity
  8
Frei
  6
CONTINUOUS
 62
           3
100
AcDbLine
 10
-14220.96767651208
 20
-10815.675090991297
 30
0.0
 11
-14203.004288619341
 21
-10816.822564483351
 31
0.0
  0
LINE
  5
1E2
100
AcDbEntity
  8
Frei
  6
CONTINUOUS
 62
           3
100
AcDbLine
 10
-14030.356171650226
 20
-10827.851059712537
 30
0.0
 11
-14012.392783757487
 21
-10828.998533204591
 31
0.0
  0
LINE
  5
1E3
100
AcDbEntity
  8
Frei
  6
CONTINUOUS
 62
           3
100
AcDbLine
 10
-14029.719142937402
 20
-10827.290529232514
 30
0.0
 11
-14030.356171650226
 21
-10827.851059712537
 31
0.0
  0
LINE
  5
1E4
100
AcDbEntity
  8
Frei
  6
CONTINUOUS
 62
           3
100
AcDbLine
 10
-14030.279673417423
 20
-10826.653500519687
 30
0.0
 11
-14029.719142937402
 21
-10827.290529232514
 31
0.0
  0
LINE
  5
1E5
100
AcDbEntity
  8
Frei
  6
CONTINUOUS
 62
           3
100
AcDbLine
 10
-14012.316285524683
 20
-10827.800974011741
 30
0.0
 11
-14030.279673417423
 21
-10826.653500519687
 31
0.0
  0
LINE
  5
1E6
100
AcDbEntity
  8
Frei
  6
CONTINUOUS
 62
           3
100
AcDbLine
 10
-14012.953314237509
 20
-10828.361504491764
 30
0.0
 11
-14012.316285524683
 21
-10827.800974011741
 31
0.0
  0
LINE
  5
1E7
100
AcDbEntity
  8
Frei
  6
CONTINUOUS
 62
           3
100
AcDbLine
 10
-14012.392783757487
 20
-10828.998533204591
 30
0.0
 11
-14012.953314237509
 21
-10828.361504491764
 31
0.0
  0
LINE
  5
1E8
100
AcDbEntity
  8
Frei
  6
CONTINUOUS
 62
           3
100
AcDbLine
 10
-14029.719142937402
 20
-10827.290529232514
 30
0.0
 11
-14012.953314237509
 21
-10828.361504491764
 31
0.0
  0
LINE
  5
1E9
100
AcDbEntity
  8
Frei
  6
CONTINUOUS
 62
           3
100
AcDbLine
 10
-14012.443782579356
 20
-10829.796905999825
 30
0.0
 11
-14013.080811292182
 21
-10830.357436479846
 31
0.0
  0
LINE
  5
1EA
100
AcDbEntity
  8
Frei
  6
CONTINUOUS
 62
           3
100
AcDbLine
 10
-14030.407170472095
 20
-10828.649432507771
 30
0.0
 11
-14012.443782579356
 21
-10829.796905999825
 31
0.0
  0
LINE
  5
1EB
100
AcDbEntity
  8
Frei
  6
CONTINUOUS
 62
           3
100
AcDbLine
 10
-14029.846639992074
 20
-10829.286461220596
 30
0.0
 11
-14030.407170472095
 21
-10828.649432507771
 31
0.0
  0
LINE
  5
1EC
100
AcDbEntity
  8
Frei
  6
CONTINUOUS
 62
           3
100
AcDbLine
 10
-14030.483668704899
 20
-10829.846991700619
 30
0.0
 11
-14029.846639992074
 21
-10829.286461220596
 31
0.0
  0
LINE
  5
1ED
100
AcDbEntity
  8
Frei
  6
CONTINUOUS
 62
           3
100
AcDbLine
 10
-14012.520280812159
 20
-10830.994465192673
 30
0.0
 11
-14030.483668704899
 21
-10829.846991700619
 31
0.0
  0
LINE
  5
1EE
100
AcDbEntity
  8
Frei
  6
CONTINUOUS
 62
           3
100
AcDbLine
 10
-14013.080811292182
 20
-10830.357436479846
 30
0.0
 11
-14012.520280812159
 21
-10830.994465192673
 31
0.0
  0
LINE
  5
1EF
100
AcDbEntity
  8
Frei
  6
CONTINUOUS
 62
           3
100
AcDbLine
 10
-14013.080811292182
 20
-10830.357436479846
 30
0.0
 11
-14029.846639992074
 21
-10829.286461220596
 31
0.0
  0
LINE
  5
1F0
100
AcDbEntity
  8
Frei
  6
CONTINUOUS
 62
           3
100
AcDbLine
 10
-14012.571279634029
 20
-10831.792837987907
 30
0.0
 11
-14013.208308346855
 21
-10832.35336846793
 31
0.0
  0
LINE
  5
1F1
100
AcDbEntity
  8
Frei
  6
CONTINUOUS
 62
           3
100
AcDbLine
 10
-14030.534667526768
 20
-10830.645364495853
 30
0.0
 11
-14012.571279634029
 21
-10831.792837987907
 31
0.0
  0
LINE
  5
1F2
100
AcDbEntity
  8
Frei
  6
CONTINUOUS
 62
           3
100
AcDbLine
 10
-14029.974137046747
 20
-10831.282393208678
 30
0.0
 11
-14030.534667526768
 21
-10830.645364495853
 31
0.0
  0
LINE
  5
1F3
100
AcDbEntity
  8
Frei
  6
CONTINUOUS
 62
           3
100
AcDbLine
 10
-14030.611165759572
 20
-10831.8429236887
 30
0.0
 11
-14029.974137046747
 21
-10831.282393208678
 31
0.0
  0
LINE
  5
1F4
100
AcDbEntity
  8
Frei
  6
CONTINUOUS
 62
           3
100
AcDbLine
 10
-14012.647777866832
 20
-10832.990397180756
 30
0.0
 11
-14030.611165759572
 21
-10831.8429236887
 31
0.0
  0
LINE
  5
1F5
100
AcDbEntity
  8
Frei
  6
CONTINUOUS
 62
           3
100
AcDbLine
 10
-14013.208308346855
 20
-10832.35336846793
 30
0.0
 11
-14012.647777866832
 21
-10832.990397180756
 31
0.0
  0
LINE
  5
1F6
100
AcDbEntity
  8
Frei
  6
CONTINUOUS
 62
           3
100
AcDbLine
 10
-14012.698776688701
 20
-10833.788769975989
 30
0.0
 11
-14013.335805401528
 21
-10834.349300456011
 31
0.0
  0
LINE
  5
1F7
100
AcDbEntity
  8
Frei
  6
CONTINUOUS
 62
           3
100
AcDbLine
 10
-14018.77930294257
 20
-10833.400355344198
 30
0.0
 11
-14012.698776688701
 21
-10833.788769975989
 31
0.0
  0
LINE
  5
1F8
100
AcDbEntity
  8
Frei
  6
CONTINUOUS
 62
           3
100
AcDbLine
 10
-14030.10163410142
 20
-10833.278325196761
 30
0.0
 11
-14030.662164581441
 21
-10832.641296483935
 31
0.0
  0
LINE
  5
1F9
100
AcDbEntity
  8
Frei
  6
CONTINUOUS
 62
           3
100
AcDbLine
 10
-14030.738662814245
 20
-10833.838855676784
 30
0.0
 11
-14030.10163410142
 21
-10833.278325196761
 31
0.0
  0
LINE
  5
1FA
100
AcDbEntity
  8
Frei
  6
CONTINUOUS
 62
           3
100
AcDbLine
 10
-14024.658136560378
 20
-10834.227270308573
 30
0.0
 11
-14030.738662814245
 21
-10833.838855676784
 31
0.0
  0
LINE
  5
1FB
100
AcDbEntity
  8
Frei
  6
CONTINUOUS
 62
           3
100
AcDbLine
 10
-14013.335805401528
 20
-10834.349300456011
 30
0.0
 11
-14012.775274921505
 21
-10834.986329168838
 31
0.0
  0
LINE
  5
1FC
100
AcDbEntity
  8
Frei
  6
CONTINUOUS
 62
           3
100
AcDbLine
 10
-14012.826273743374
 20
-10835.78470196407
 30
0.0
 11
-14013.463302456201
 21
-10836.345232444093
 31
0.0
  0
LINE
  5
1FD
100
AcDbEntity
  8
Frei
  6
CONTINUOUS
 62
           3
100
AcDbLine
 10
-14018.162101706948
 20
-10835.443857509621
 30
0.0
 11
-14012.826273743374
 21
-10835.78470196407
 31
0.0
  0
LINE
  5
1FE
100
AcDbEntity
  8
Frei
  6
CONTINUOUS
 62
           3
100
AcDbLine
 10
-14030.229131156093
 20
-10835.274257184843
 30
0.0
 11
-14030.789661636114
 21
-10834.637228472016
 31
0.0
  0
LINE
  5
1FF
100
AcDbEntity
  8
Frei
  6
CONTINUOUS
 62
           3
100
AcDbLine
 10
-14019.416331655397
 20
-10833.960885824221
 30
0.0
 11
-14013.335805401528
 21
-10834.349300456011
 31
0.0
  0
LINE
  5
200
100
AcDbEntity
  8
Frei
  6
CONTINUOUS
 62
           3
100
AcDbLine
 10
-14029.974137046747
 20
-10831.282393208678
 30
0.0
 11
-14013.208308346855
 21
-10832.35336846793
 31
0.0
  0
LINE
  5
201
100
AcDbEntity
  8
Frei
  6
CONTINUOUS
 62
           3
100
AcDbLine
 10
-14019.416331655397
 20
-10833.960885824221
 30
0.0
 11
-14018.855801175374
 21
-10834.597914537047
 31
0.0
  0
LINE
  5
202
100
AcDbEntity
  8
Frei
  6
CONTINUOUS
 62
           3
100
AcDbLine
 10
-14012.775274921505
 20
-10834.986329168838
 30
0.0
 11
-14018.855801175374
 21
-10834.597914537047
 31
0.0
  0
LINE
  5
203
100
AcDbEntity
  8
Frei
  6
CONTINUOUS
 62
           3
100
AcDbLine
 10
-14018.77930294257
 20
-10833.400355344198
 30
0.0
 11
-14019.416331655397
 21
-10833.960885824221
 31
0.0
  0
LINE
  5
204
100
AcDbEntity
  8
Frei
  6
CONTINUOUS
 62
           3
100
AcDbLine
 10
-14018.799130419777
 20
-10836.004387989644
 30
0.0
 11
-14018.162101706948
 21
-10835.443857509621
 31
0.0
  0
LINE
  5
205
100
AcDbEntity
  8
Frei
  6
CONTINUOUS
 62
           3
100
AcDbLine
 10
-14025.45383367254
 20
-10834.978072926466
 30
0.0
 11
-14024.893303192517
 21
-10835.615101639292
 31
0.0
  0
LINE
  5
206
100
AcDbEntity
  8
Frei
  6
CONTINUOUS
 62
           3
100
AcDbLine
 10
-14030.789661636114
 20
-10834.637228472016
 30
0.0
 11
-14025.45383367254
 21
-10834.978072926466
 31
0.0
  0
LINE
  5
207
100
AcDbEntity
  8
Frei
  6
CONTINUOUS
 62
           3
100
AcDbLine
 10
-14024.02110784755
 20
-10833.66673982855
 30
0.0
 11
-14024.658136560378
 21
-10834.227270308573
 31
0.0
  0
LINE
  5
208
100
AcDbEntity
  8
Frei
  6
CONTINUOUS
 62
           3
100
AcDbLine
 10
-14030.10163410142
 20
-10833.278325196761
 30
0.0
 11
-14024.02110784755
 21
-10833.66673982855
 31
0.0
  0
LINE
  5
209
100
AcDbEntity
  8
Frei
  6
CONTINUOUS
 62
           3
100
AcDbLine
 10
-14024.581638327574
 20
-10833.029711115723
 30
0.0
 11
-14024.02110784755
 21
-10833.66673982855
 31
0.0
  0
LINE
  5
20A
100
AcDbEntity
  8
Frei
  6
CONTINUOUS
 62
           3
100
AcDbLine
 10
-14030.662164581441
 20
-10832.641296483935
 30
0.0
 11
-14024.581638327574
 21
-10833.029711115723
 31
0.0
  0
LINE
  5
20B
100
AcDbEntity
  8
Frei
  6
CONTINUOUS
 62
           3
100
AcDbLine
 10
-14012.775274921505
 20
-10834.986329168838
 30
0.0
 11
-14012.698776688701
 21
-10833.788769975989
 31
0.0
  0
LINE
  5
20C
100
AcDbEntity
  8
Frei
  6
CONTINUOUS
 62
           3
100
AcDbLine
 10
-14012.571279634029
 20
-10831.792837987907
 30
0.0
 11
-14012.647777866832
 21
-10832.990397180756
 31
0.0
  0
LINE
  5
20D
100
AcDbEntity
  8
Frei
  6
CONTINUOUS
 62
           3
100
AcDbLine
 10
-14012.443782579356
 20
-10829.796905999825
 30
0.0
 11
-14012.520280812159
 21
-10830.994465192673
 31
0.0
  0
LINE
  5
20E
100
AcDbEntity
  8
Frei
  6
CONTINUOUS
 62
           3
100
AcDbLine
 10
-14012.316285524683
 20
-10827.800974011741
 30
0.0
 11
-14012.392783757487
 21
-10828.998533204591
 31
0.0
  0
LINE
  5
20F
100
AcDbEntity
  8
Frei
  6
CONTINUOUS
 62
           3
100
AcDbLine
 10
-14012.864522859776
 20
-10836.383481560495
 30
0.0
 11
-14012.826273743374
 21
-10835.78470196407
 31
0.0
  0
LINE
  5
210
100
AcDbEntity
  8
Frei
  6
CONTINUOUS
 62
           3
100
AcDbLine
 10
-14030.789661636114
 20
-10834.637228472016
 30
0.0
 11
-14030.827910752516
 21
-10835.236008068441
 31
0.0
  0
LINE
  5
211
100
AcDbEntity
  8
Frei
  6
CONTINUOUS
 62
           3
100
AcDbLine
 10
-14030.662164581441
 20
-10832.641296483935
 30
0.0
 11
-14030.738662814245
 21
-10833.838855676784
 31
0.0
  0
LINE
  5
212
100
AcDbEntity
  8
Frei
  6
CONTINUOUS
 62
           3
100
AcDbLine
 10
-14030.534667526768
 20
-10830.645364495853
 30
0.0
 11
-14030.611165759572
 21
-10831.8429236887
 31
0.0
  0
LINE
  5
213
100
AcDbEntity
  8
Frei
  6
CONTINUOUS
 62
           3
100
AcDbLine
 10
-14030.407170472095
 20
-10828.649432507771
 30
0.0
 11
-14030.483668704899
 21
-10829.846991700619
 31
0.0
  0
LINE
  5
214
100
AcDbEntity
  8
Frei
  6
CONTINUOUS
 62
           3
100
AcDbLine
 10
-14030.279673417423
 20
-10826.653500519687
 30
0.0
 11
-14030.356171650226
 21
-10827.851059712537
 31
0.0
  0
LINE
  5
215
100
AcDbEntity
  8
Frei
  6
CONTINUOUS
 62
           3
100
AcDbLine
 10
-14031.299649854805
 20
-10842.620956424345
 30
0.0
 11
-14031.376148087607
 21
-10843.818515617195
 31
0.0
  0
LINE
  5
216
100
AcDbEntity
  8
Frei
  6
CONTINUOUS
 62
           3
100
AcDbLine
 10
-14031.172152800133
 20
-10840.625024436264
 30
0.0
 11
-14031.248651032936
 21
-10841.822583629113
 31
0.0
  0
LINE
  5
217
100
AcDbEntity
  8
Frei
  6
CONTINUOUS
 62
           3
100
AcDbLine
 10
-14031.04465574546
 20
-10838.629092448182
 30
0.0
 11
-14031.121153978263
 21
-10839.826651641029
 31
0.0
  0
LINE
  5
218
100
AcDbEntity
  8
Frei
  6
CONTINUOUS
 62
           3
100
AcDbLine
 10
-14030.917158690787
 20
-10836.633160460098
 30
0.0
 11
-14030.993656923591
 21
-10837.830719652948
 31
0.0
  0
LINE
  5
219
100
AcDbEntity
  8
Frei
  6
CONTINUOUS
 62
           3
100
AcDbLine
 10
-14030.827910752516
 20
-10835.236008068441
 30
0.0
 11
-14030.866159868918
 21
-10835.834787664866
 31
0.0
  0
LINE
  5
21A
100
AcDbEntity
  8
Frei
  6
CONTINUOUS
 62
           3
100
AcDbLine
 10
-14012.902771976178
 20
-10836.98226115692
 30
0.0
 11
-14012.864522859776
 21
-10836.383481560495
 31
0.0
  0
LINE
  5
21B
100
AcDbEntity
  8
Frei
  6
CONTINUOUS
 62
           3
100
AcDbLine
 10
-14013.336261962064
 20
-10843.768429916399
 30
0.0
 11
-14013.412760194868
 21
-10844.965989109249
 31
0.0
  0
LINE
  5
21C
100
AcDbEntity
  8
Frei
  6
CONTINUOUS
 62
           3
100
AcDbLine
 10
-14013.208764907393
 20
-10841.772497928318
 30
0.0
 11
-14013.285263140197
 21
-10842.970057121167
 31
0.0
  0
LINE
  5
21D
100
AcDbEntity
  8
Frei
  6
CONTINUOUS
 62
           3
100
AcDbLine
 10
-14013.08126785272
 20
-10839.776565940236
 30
0.0
 11
-14013.157766085524
 21
-10840.974125133083
 31
0.0
  0
LINE
  5
21E
100
AcDbEntity
  8
Frei
  6
CONTINUOUS
 62
           3
100
AcDbLine
 10
-14013.030269030851
 20
-10838.978193145002
 30
0.0
 11
-14012.953770798047
 21
-10837.780633952154
 31
0.0
  0
LINE
  5
21F
100
AcDbEntity
  8
Frei
  6
CONTINUOUS
 62
           3
100
AcDbLine
 10
-14024.913130669722
 20
-10838.219134284738
 30
0.0
 11
-14030.993656923591
 21
-10837.830719652948
 31
0.0
  0
LINE
  5
220
100
AcDbEntity
  8
Frei
  6
CONTINUOUS
 62
           3
100
AcDbLine
 10
-14024.276101956895
 20
-10837.658603804715
 30
0.0
 11
-14024.913130669722
 21
-10838.219134284738
 31
0.0
  0
LINE
  5
221
100
AcDbEntity
  8
Frei
  6
CONTINUOUS
 62
           3
100
AcDbLine
 10
-14024.276101956895
 20
-10837.658603804715
 30
0.0
 11
-14030.356628210766
 21
-10837.270189172925
 31
0.0
  0
LINE
  5
222
100
AcDbEntity
  8
Frei
  6
CONTINUOUS
 62
           3
100
AcDbLine
 10
-14024.836632436918
 20
-10837.021575091889
 30
0.0
 11
-14024.276101956895
 21
-10837.658603804715
 31
0.0
  0
LINE
  5
223
100
AcDbEntity
  8
Frei
  6
CONTINUOUS
 62
           3
100
AcDbLine
 10
-14025.530331905344
 20
-10836.175632119315
 30
0.0
 11
-14030.866159868918
 21
-10835.834787664866
 31
0.0
  0
LINE
  5
224
100
AcDbEntity
  8
Frei
  6
CONTINUOUS
 62
           3
100
AcDbLine
 10
-14024.893303192517
 20
-10835.615101639292
 30
0.0
 11
-14025.530331905344
 21
-10836.175632119315
 31
0.0
  0
LINE
  5
225
100
AcDbEntity
  8
Frei
  6
CONTINUOUS
 62
           3
100
AcDbLine
 10
-14018.799130419777
 20
-10836.004387989644
 30
0.0
 11
-14013.463302456201
 21
-10836.345232444093
 31
0.0
  0
LINE
  5
226
100
AcDbEntity
  8
Frei
  6
CONTINUOUS
 62
           3
100
AcDbLine
 10
-14018.238599939752
 20
-10836.64141670247
 30
0.0
 11
-14018.799130419777
 21
-10836.004387989644
 31
0.0
  0
LINE
  5
227
100
AcDbEntity
  8
Frei
  6
CONTINUOUS
 62
           3
100
AcDbLine
 10
-14019.671325764741
 20
-10837.952749800386
 30
0.0
 11
-14019.11079528472
 21
-10838.589778513213
 31
0.0
  0
LINE
  5
228
100
AcDbEntity
  8
Frei
  6
CONTINUOUS
 62
           3
100
AcDbLine
 10
-14019.034297051916
 20
-10837.392219320363
 30
0.0
 11
-14012.953770798047
 21
-10837.780633952154
 31
0.0
  0
LINE
  5
229
100
AcDbEntity
  8
Frei
  6
CONTINUOUS
 62
           3
100
AcDbLine
 10
-14019.034297051916
 20
-10837.392219320363
 30
0.0
 11
-14019.671325764741
 21
-10837.952749800386
 31
0.0
  0
LINE
  5
22A
100
AcDbEntity
  8
Frei
  6
CONTINUOUS
 62
           3
100
AcDbLine
 10
-14013.718296565547
 20
-10840.337096420257
 30
0.0
 11
-14030.484125265439
 21
-10839.266121161007
 31
0.0
  0
LINE
  5
22B
100
AcDbEntity
  8
Frei
  6
CONTINUOUS
 62
           3
100
AcDbLine
 10
-14013.590799510874
 20
-10838.341164432175
 30
0.0
 11
-14019.671325764741
 21
-10837.952749800386
 31
0.0
  0
LINE
  5
22C
100
AcDbEntity
  8
Frei
  6
CONTINUOUS
 62
           3
100
AcDbLine
 10
-14030.229131156093
 20
-10835.274257184843
 30
0.0
 11
-14024.893303192517
 21
-10835.615101639292
 31
0.0
  0
LINE
  5
22D
100
AcDbEntity
  8
Frei
  6
CONTINUOUS
 62
           3
100
AcDbLine
 10
-14030.866159868918
 20
-10835.834787664866
 30
0.0
 11
-14030.229131156093
 21
-10835.274257184843
 31
0.0
  0
LINE
  5
22E
100
AcDbEntity
  8
Frei
  6
CONTINUOUS
 62
           3
100
AcDbLine
 10
-14012.902771976178
 20
-10836.98226115692
 30
0.0
 11
-14018.238599939752
 21
-10836.64141670247
 31
0.0
  0
LINE
  5
22F
100
AcDbEntity
  8
Frei
  6
CONTINUOUS
 62
           3
100
AcDbLine
 10
-14013.463302456201
 20
-10836.345232444093
 30
0.0
 11
-14012.902771976178
 21
-10836.98226115692
 31
0.0
  0
LINE
  5
230
100
AcDbEntity
  8
Frei
  6
CONTINUOUS
 62
           3
100
AcDbLine
 10
-14012.953770798047
 20
-10837.780633952154
 30
0.0
 11
-14013.590799510874
 21
-10838.341164432175
 31
0.0
  0
LINE
  5
231
100
AcDbEntity
  8
Frei
  6
CONTINUOUS
 62
           3
100
AcDbLine
 10
-14030.917158690787
 20
-10836.633160460098
 30
0.0
 11
-14024.836632436918
 21
-10837.021575091889
 31
0.0
  0
LINE
  5
232
100
AcDbEntity
  8
Frei
  6
CONTINUOUS
 62
           3
100
AcDbLine
 10
-14030.356628210766
 20
-10837.270189172925
 30
0.0
 11
-14030.917158690787
 21
-10836.633160460098
 31
0.0
  0
LINE
  5
233
100
AcDbEntity
  8
Frei
  6
CONTINUOUS
 62
           3
100
AcDbLine
 10
-14030.993656923591
 20
-10837.830719652948
 30
0.0
 11
-14030.356628210766
 21
-10837.270189172925
 31
0.0
  0
LINE
  5
234
100
AcDbEntity
  8
Frei
  6
CONTINUOUS
 62
           3
100
AcDbLine
 10
-14013.030269030851
 20
-10838.978193145002
 30
0.0
 11
-14019.11079528472
 21
-10838.589778513213
 31
0.0
  0
LINE
  5
235
100
AcDbEntity
  8
Frei
  6
CONTINUOUS
 62
           3
100
AcDbLine
 10
-14013.590799510874
 20
-10838.341164432175
 30
0.0
 11
-14013.030269030851
 21
-10838.978193145002
 31
0.0
  0
LINE
  5
236
100
AcDbEntity
  8
Frei
  6
CONTINUOUS
 62
           3
100
AcDbLine
 10
-14013.08126785272
 20
-10839.776565940236
 30
0.0
 11
-14013.718296565547
 21
-10840.337096420257
 31
0.0
  0
LINE
  5
237
100
AcDbEntity
  8
Frei
  6
CONTINUOUS
 62
           3
100
AcDbLine
 10
-14031.04465574546
 20
-10838.629092448182
 30
0.0
 11
-14013.08126785272
 21
-10839.776565940236
 31
0.0
  0
LINE
  5
238
100
AcDbEntity
  8
Frei
  6
CONTINUOUS
 62
           3
100
AcDbLine
 10
-14030.484125265439
 20
-10839.266121161007
 30
0.0
 11
-14031.04465574546
 21
-10838.629092448182
 31
0.0
  0
LINE
  5
239
100
AcDbEntity
  8
Frei
  6
CONTINUOUS
 62
           3
100
AcDbLine
 10
-14031.121153978263
 20
-10839.826651641029
 30
0.0
 11
-14030.484125265439
 21
-10839.266121161007
 31
0.0
  0
LINE
  5
23A
100
AcDbEntity
  8
Frei
  6
CONTINUOUS
 62
           3
100
AcDbLine
 10
-14013.157766085524
 20
-10840.974125133083
 30
0.0
 11
-14031.121153978263
 21
-10839.826651641029
 31
0.0
  0
LINE
  5
23B
100
AcDbEntity
  8
Frei
  6
CONTINUOUS
 62
           3
100
AcDbLine
 10
-14013.718296565547
 20
-10840.337096420257
 30
0.0
 11
-14013.157766085524
 21
-10840.974125133083
 31
0.0
  0
LINE
  5
23C
100
AcDbEntity
  8
Frei
  6
CONTINUOUS
 62
           3
100
AcDbLine
 10
-14030.61162232011
 20
-10841.262053149088
 30
0.0
 11
-14013.845793620219
 21
-10842.33302840834
 31
0.0
  0
LINE
  5
23D
100
AcDbEntity
  8
Frei
  6
CONTINUOUS
 62
           3
100
AcDbLine
 10
-14013.208764907393
 20
-10841.772497928318
 30
0.0
 11
-14013.845793620219
 21
-10842.33302840834
 31
0.0
  0
LINE
  5
23E
100
AcDbEntity
  8
Frei
  6
CONTINUOUS
 62
           3
100
AcDbLine
 10
-14031.172152800133
 20
-10840.625024436264
 30
0.0
 11
-14013.208764907393
 21
-10841.772497928318
 31
0.0
  0
LINE
  5
23F
100
AcDbEntity
  8
Frei
  6
CONTINUOUS
 62
           3
100
AcDbLine
 10
-14030.61162232011
 20
-10841.262053149088
 30
0.0
 11
-14031.172152800133
 21
-10840.625024436264
 31
0.0
  0
LINE
  5
240
100
AcDbEntity
  8
Frei
  6
CONTINUOUS
 62
           3
100
AcDbLine
 10
-14031.248651032936
 20
-10841.822583629113
 30
0.0
 11
-14030.61162232011
 21
-10841.262053149088
 31
0.0
  0
LINE
  5
241
100
AcDbEntity
  8
Frei
  6
CONTINUOUS
 62
           3
100
AcDbLine
 10
-14013.285263140197
 20
-10842.970057121167
 30
0.0
 11
-14031.248651032936
 21
-10841.822583629113
 31
0.0
  0
LINE
  5
242
100
AcDbEntity
  8
Frei
  6
CONTINUOUS
 62
           3
100
AcDbLine
 10
-14013.845793620219
 20
-10842.33302840834
 30
0.0
 11
-14013.285263140197
 21
-10842.970057121167
 31
0.0
  0
LINE
  5
243
100
AcDbEntity
  8
Frei
  6
CONTINUOUS
 62
           3
100
AcDbLine
 10
-14013.973290674892
 20
-10844.328960396422
 30
0.0
 11
-14030.739119374783
 21
-10843.257985137172
 31
0.0
  0
LINE
  5
244
100
AcDbEntity
  8
Frei
  6
CONTINUOUS
 62
           3
100
AcDbLine
 10
-14013.973290674892
 20
-10844.328960396422
 30
0.0
 11
-14013.336261962064
 21
-10843.768429916399
 31
0.0
  0
LINE
  5
245
100
AcDbEntity
  8
Frei
  6
CONTINUOUS
 62
           3
100
AcDbLine
 10
-14013.412760194868
 20
-10844.965989109249
 30
0.0
 11
-14013.973290674892
 21
-10844.328960396422
 31
0.0
  0
LINE
  5
246
100
AcDbEntity
  8
Frei
  6
CONTINUOUS
 62
           3
100
AcDbLine
 10
-14031.376148087607
 20
-10843.818515617195
 30
0.0
 11
-14013.412760194868
 21
-10844.965989109249
 31
0.0
  0
LINE
  5
247
100
AcDbEntity
  8
Frei
  6
CONTINUOUS
 62
           3
100
AcDbLine
 10
-14030.739119374783
 20
-10843.257985137172
 30
0.0
 11
-14031.376148087607
 21
-10843.818515617195
 31
0.0
  0
LINE
  5
248
100
AcDbEntity
  8
Frei
  6
CONTINUOUS
 62
           3
100
AcDbLine
 10
-14031.299649854805
 20
-10842.620956424345
 30
0.0
 11
-14030.739119374783
 21
-10843.257985137172
 31
0.0
  0
LINE
  5
249
100
AcDbEntity
  8
Frei
  6
CONTINUOUS
 62
           3
100
AcDbLine
 10
-14013.336261962064
 20
-10843.768429916399
 30
0.0
 11
-14031.299649854805
 21
-10842.620956424345
 31
0.0
  0
LINE
  5
24A
100
AcDbEntity
  8
Frei
  6
CONTINUOUS
 62
           7
100
AcDbLine
 10
-13987.446442201121
 20
-10850.150651429269
 30
0.0
 11
-13986.77546920137
 21
-10851.505581983465
 31
0.0
  0
LINE
  5
24B
100
AcDbEntity
  8
Frei
  6
CONTINUOUS
 62
           7
100
AcDbLine
 10
-13987.446442201121
 20
-10850.150651429269
 30
0.0
 11
-13991.681826781238
 21
-10849.880101599616
 31
0.0
  0
LINE
  5
24C
100
AcDbEntity
  8
Frei
  6
CONTINUOUS
 62
           7
100
AcDbLine
 10
-13986.525052030362
 20
-10847.585368741966
 30
0.0
 11
-13987.446442201121
 21
-10850.150651429269
 31
0.0
  0
LINE
  5
24D
100
AcDbEntity
  8
Frei
  6
CONTINUOUS
 62
           7
100
AcDbLine
 10
-13986.85755853043
 20
-10840.93183646444
 30
0.0
 11
-13986.270057921016
 21
-10843.593504765802
 31
0.0
  0
LINE
  5
24E
100
AcDbEntity
  8
Frei
  6
CONTINUOUS
 62
           7
100
AcDbLine
 10
-13986.85755853043
 20
-10840.93183646444
 30
0.0
 11
-13991.092943110549
 21
-10840.661286634788
 31
0.0
  0
LINE
  5
24F
100
AcDbEntity
  8
Frei
  6
CONTINUOUS
 62
           7
100
AcDbLine
 10
-13986.019640750008
 20
-10839.673291524305
 30
0.0
 11
-13986.85755853043
 21
-10840.93183646444
 31
0.0
  0
LINE
  5
250
100
AcDbEntity
  8
Frei
  6
CONTINUOUS
 62
           7
100
AcDbLine
 10
-13986.902966256042
 20
-10853.501513971547
 30
0.0
 11
-13987.740884036464
 21
-10854.760058911681
 31
0.0
  0
LINE
  5
251
100
AcDbEntity
  8
Frei
  6
CONTINUOUS
 62
           7
100
AcDbLine
 10
-13986.563116695086
 20
-10836.322428982026
 30
0.0
 11
-13990.798501275205
 21
-10836.051879152375
 31
0.0
  0
LINE
  5
252
100
AcDbEntity
  8
Frei
  6
CONTINUOUS
 62
           7
100
AcDbLine
 10
-13986.563116695086
 20
-10836.322428982026
 30
0.0
 11
-13985.892143695335
 21
-10837.677359536223
 31
0.0
  0
LINE
  5
253
100
AcDbEntity
  8
Frei
  6
CONTINUOUS
 62
           7
100
AcDbLine
 10
-13991.892796226248
 20
-10853.182771334865
 30
0.0
 11
-13991.976268616583
 21
-10854.48950908203
 31
0.0
  0
LINE
  5
254
100
AcDbEntity
  8
Frei
  6
CONTINUOUS
 62
           7
100
AcDbLine
 10
-13986.902966256042
 20
-10853.501513971547
 30
0.0
 11
-13986.77546920137
 21
-10851.505581983465
 31
0.0
  0
LINE
  5
255
100
AcDbEntity
  8
Frei
  6
CONTINUOUS
 62
           7
100
AcDbLine
 10
-13986.902966256042
 20
-10853.501513971547
 30
0.0
 11
-13991.892796226248
 21
-10853.182771334865
 31
0.0
  0
LINE
  5
256
100
AcDbEntity
  8
Frei
  6
CONTINUOUS
 62
           7
100
AcDbLine
 10
-13991.765299171575
 20
-10851.186839346783
 30
0.0
 11
-13991.892796226248
 21
-10853.182771334865
 31
0.0
  0
LINE
  5
257
100
AcDbEntity
  8
Frei
  6
CONTINUOUS
 62
           7
100
AcDbLine
 10
-13986.77546920137
 20
-10851.505581983465
 30
0.0
 11
-13986.525052030362
 21
-10847.585368741966
 31
0.0
  0
LINE
  5
258
100
AcDbEntity
  8
Frei
  6
CONTINUOUS
 62
           7
100
AcDbLine
 10
-13986.77546920137
 20
-10851.505581983465
 30
0.0
 11
-13991.765299171575
 21
-10851.186839346783
 31
0.0
  0
LINE
  5
259
100
AcDbEntity
  8
Frei
  6
CONTINUOUS
 62
           7
100
AcDbLine
 10
-13991.681826781238
 20
-10849.880101599616
 30
0.0
 11
-13991.765299171575
 21
-10851.186839346783
 31
0.0
  0
LINE
  5
25A
100
AcDbEntity
  8
Frei
  6
CONTINUOUS
 62
           7
100
AcDbLine
 10
-13991.514882000567
 20
-10847.266626105285
 30
0.0
 11
-13991.681826781238
 21
-10849.880101599616
 31
0.0
  0
LINE
  5
25B
100
AcDbEntity
  8
Frei
  6
CONTINUOUS
 62
           7
100
AcDbLine
 10
-13986.525052030362
 20
-10847.585368741966
 30
0.0
 11
-13986.270057921016
 21
-10843.593504765802
 31
0.0
  0
LINE
  5
25C
100
AcDbEntity
  8
Frei
  6
CONTINUOUS
 62
           7
100
AcDbLine
 10
-13986.525052030362
 20
-10847.585368741966
 30
0.0
 11
-13991.514882000567
 21
-10847.266626105285
 31
0.0
  0
LINE
  5
25D
100
AcDbEntity
  8
Frei
  6
CONTINUOUS
 62
           7
100
AcDbLine
 10
-13991.259887891221
 20
-10843.27476212912
 30
0.0
 11
-13991.514882000567
 21
-10847.266626105285
 31
0.0
  0
LINE
  5
25E
100
AcDbEntity
  8
Frei
  6
CONTINUOUS
 62
           7
100
AcDbLine
 10
-13986.270057921016
 20
-10843.593504765802
 30
0.0
 11
-13986.019640750008
 21
-10839.673291524305
 31
0.0
  0
LINE
  5
25F
100
AcDbEntity
  8
Frei
  6
CONTINUOUS
 62
           7
100
AcDbLine
 10
-13986.270057921016
 20
-10843.593504765802
 30
0.0
 11
-13991.259887891221
 21
-10843.27476212912
 31
0.0
  0
LINE
  5
260
100
AcDbEntity
  8
Frei
  6
CONTINUOUS
 62
           7
100
AcDbLine
 10
-13991.092943110549
 20
-10840.661286634788
 30
0.0
 11
-13991.259887891221
 21
-10843.27476212912
 31
0.0
  0
LINE
  5
261
100
AcDbEntity
  8
Frei
  6
CONTINUOUS
 62
           7
100
AcDbLine
 10
-13991.009470720213
 20
-10839.354548887623
 30
0.0
 11
-13991.092943110549
 21
-10840.661286634788
 31
0.0
  0
LINE
  5
262
100
AcDbEntity
  8
Frei
  6
CONTINUOUS
 62
           7
100
AcDbLine
 10
-13986.019640750008
 20
-10839.673291524305
 30
0.0
 11
-13985.892143695335
 21
-10837.677359536223
 31
0.0
  0
LINE
  5
263
100
AcDbEntity
  8
Frei
  6
CONTINUOUS
 62
           7
100
AcDbLine
 10
-13986.019640750008
 20
-10839.673291524305
 30
0.0
 11
-13991.009470720213
 21
-10839.354548887623
 31
0.0
  0
LINE
  5
264
100
AcDbEntity
  8
Frei
  6
CONTINUOUS
 62
           7
100
AcDbLine
 10
-13990.88197366554
 20
-10837.358616899541
 30
0.0
 11
-13991.009470720213
 21
-10839.354548887623
 31
0.0
  0
LINE
  5
265
100
AcDbEntity
  8
Frei
  6
CONTINUOUS
 62
           7
100
AcDbLine
 10
-13990.88197366554
 20
-10837.358616899541
 30
0.0
 11
-13985.892143695335
 21
-10837.677359536223
 31
0.0
  0
LINE
  5
266
100
AcDbEntity
  8
Frei
  6
CONTINUOUS
 62
           7
100
AcDbLine
 10
-13991.976268616583
 20
-10854.48950908203
 30
0.0
 11
-13987.740884036464
 21
-10854.760058911681
 31
0.0
  0
LINE
  5
267
100
AcDbEntity
  8
Frei
  6
CONTINUOUS
 62
           7
100
AcDbLine
 10
-13990.798501275205
 20
-10836.051879152375
 30
0.0
 11
-13990.88197366554
 21
-10837.358616899541
 31
0.0
  0
LINE
  5
268
100
AcDbEntity
  8
Frei
  6
CONTINUOUS
 62
           7
100
AcDbLine
 10
-14035.773719836041
 20
-10802.854856567772
 30
0.0
 11
-14036.108399604556
 21
-10808.094178036486
 31
0.0
  0
LINE
  5
269
100
AcDbEntity
  8
Frei
  6
CONTINUOUS
 62
           7
100
AcDbLine
 10
-14034.723010536334
 20
-10809.936241317064
 30
0.0
 11
-14034.499890690657
 21
-10806.44336033792
 31
0.0
  0
LINE
  5
26A
100
AcDbEntity
  8
Frei
  6
CONTINUOUS
 62
           7
100
AcDbLine
 10
-14035.477461506762
 20
-10809.888048153569
 30
0.0
 11
-14034.723010536334
 21
-10809.936241317064
 31
0.0
  0
LINE
  5
26B
100
AcDbEntity
  8
Frei
  6
CONTINUOUS
 62
           7
100
AcDbLine
 10
-14034.499890690657
 20
-10806.44336033792
 30
0.0
 11
-14034.053650999302
 21
-10799.457598379631
 31
0.0
  0
LINE
  5
26C
100
AcDbEntity
  8
Frei
  6
CONTINUOUS
 62
           7
100
AcDbLine
 10
-14035.254341661084
 20
-10806.395167174425
 30
0.0
 11
-14034.499890690657
 21
-10806.44336033792
 31
0.0
  0
LINE
  5
26D
100
AcDbEntity
  8
Frei
  6
CONTINUOUS
 62
           7
100
AcDbLine
 10
-14034.053650999302
 20
-10799.457598379631
 30
0.0
 11
-14033.830531153624
 21
-10795.964717400488
 31
0.0
  0
LINE
  5
26E
100
AcDbEntity
  8
Frei
  6
CONTINUOUS
 62
           7
100
AcDbLine
 10
-14034.808101969731
 20
-10799.409405216138
 30
0.0
 11
-14034.053650999302
 21
-10799.457598379631
 31
0.0
  0
LINE
  5
26F
100
AcDbEntity
  8
Frei
  6
CONTINUOUS
 62
           7
100
AcDbLine
 10
-14033.830531153624
 20
-10795.964717400488
 30
0.0
 11
-14033.479914253276
 21
-10790.475904433262
 31
0.0
  0
LINE
  5
270
100
AcDbEntity
  8
Frei
  6
CONTINUOUS
 62
           7
100
AcDbLine
 10
-14034.584982124054
 20
-10795.916524236995
 30
0.0
 11
-14033.830531153624
 21
-10795.964717400488
 31
0.0
  0
LINE
  5
271
100
AcDbEntity
  8
Frei
  6
CONTINUOUS
 62
           7
100
AcDbLine
 10
-13996.759706080118
 20
-10850.939747444767
 30
0.0
 11
-13995.994723752081
 21
-10838.964155516274
 31
0.0
  0
LINE
  5
272
100
AcDbEntity
  8
Frei
  6
CONTINUOUS
 62
           2
100
AcDbLine
 10
-13991.769876109913
 20
-10851.258490081449
 30
0.0
 11
-13996.759706080118
 21
-10850.939747444767
 31
0.0
  0
LINE
  5
273
100
AcDbEntity
  8
Frei
  6
CONTINUOUS
 62
           7
100
AcDbLine
 10
-13995.994723752081
 20
-10838.964155516274
 30
0.0
 11
-13995.930975224745
 21
-10837.966189522233
 31
0.0
  0
LINE
  5
274
100
AcDbEntity
  8
Frei
  6
CONTINUOUS
 62
           2
100
AcDbLine
 10
-13991.004893781876
 20
-10839.282898152956
 30
0.0
 11
-13995.994723752081
 21
-10838.964155516274
 31
0.0
  0
LINE
  5
275
100
AcDbEntity
  8
Frei
  6
CONTINUOUS
 62
           7
100
AcDbLine
 10
-13996.823454607455
 20
-10851.937713438809
 30
0.0
 11
-13996.759706080118
 21
-10850.939747444767
 31
0.0
  0
LINE
  5
276
100
AcDbEntity
  8
Frei
  6
CONTINUOUS
 62
           7
100
AcDbLine
 10
-13996.823454607455
 20
-10851.937713438809
 30
0.0
 11
-13991.833624637249
 21
-10852.256456075491
 31
0.0
  0
LINE
  5
277
100
AcDbEntity
  8
Frei
  6
CONTINUOUS
 62
           7
100
AcDbLine
 10
-13995.930975224745
 20
-10837.966189522233
 30
0.0
 11
-13995.899100961076
 21
-10837.467206525213
 31
0.0
  0
LINE
  5
278
100
AcDbEntity
  8
Frei
  6
CONTINUOUS
 62
           7
100
AcDbLine
 10
-13995.930975224745
 20
-10837.966189522233
 30
0.0
 11
-13990.941145254539
 21
-10838.284932158915
 31
0.0
  0
LINE
  5
279
100
AcDbEntity
  8
Frei
  6
CONTINUOUS
 62
           7
100
AcDbLine
 10
-14016.247966123923
 20
-10850.696905624918
 30
0.0
 11
-14035.245145378036
 21
-10849.48339513636
 31
0.0
  0
LINE
  5
27A
100
AcDbEntity
  8
Frei
  6
CONTINUOUS
 62
           7
100
AcDbLine
 10
-14008.92654359062
 20
-10853.168663098855
 30
0.0
 11
-14016.247966123923
 21
-10850.696905624918
 31
0.0
  0
LINE
  5
27B
100
AcDbEntity
  8
Frei
  6
CONTINUOUS
 62
           7
100
AcDbLine
 10
-14034.893387076345
 20
-10820.446758518163
 30
0.0
 11
-14035.392370073365
 21
-10820.414884254495
 31
0.0
  0
LINE
  5
27C
100
AcDbEntity
  8
Frei
  6
CONTINUOUS
 62
           7
100
AcDbLine
 10
-14034.893387076345
 20
-10820.446758518163
 30
0.0
 11
-14036.646471578093
 21
-10847.890823354293
 31
0.0
  0
LINE
  5
27D
100
AcDbEntity
  8
Frei
  6
CONTINUOUS
 62
           7
100
AcDbLine
 10
-14016.247966123923
 20
-10850.696905624918
 30
0.0
 11
-14010.295995527009
 21
-10851.077108319769
 31
0.0
  0
LINE
  5
27E
100
AcDbEntity
  8
Frei
  6
CONTINUOUS
 62
           7
100
AcDbLine
 10
-14006.950339243194
 20
-10822.231717283581
 30
0.0
 11
-14034.893387076345
 21
-10820.446758518163
 31
0.0
  0
LINE
  5
27F
100
AcDbEntity
  8
Frei
  6
CONTINUOUS
 62
           7
100
AcDbLine
 10
-14006.950339243194
 20
-10822.231717283581
 30
0.0
 11
-14008.703423744942
 21
-10849.675782119712
 31
0.0
  0
LINE
  5
280
100
AcDbEntity
  8
Frei
  6
CONTINUOUS
 62
           7
100
AcDbLine
 10
-14008.92654359062
 20
-10853.168663098855
 30
0.0
 11
-13998.447900653187
 21
-10853.838022635886
 31
0.0
  0
LINE
  5
281
100
AcDbEntity
  8
Frei
  6
CONTINUOUS
 62
           7
100
AcDbLine
 10
-13996.855328871123
 20
-10852.436696435829
 30
0.0
 11
-13996.823454607455
 21
-10851.937713438809
 31
0.0
  0
LINE
  5
282
100
AcDbEntity
  8
Frei
  6
CONTINUOUS
 62
           7
100
AcDbLine
 10
-14007.779070098566
 20
-10835.205275206115
 30
0.0
 11
-13997.300427161133
 21
-10835.874634743146
 31
0.0
  0
LINE
  5
283
100
AcDbEntity
  8
Frei
  6
CONTINUOUS
 62
           7
100
AcDbLine
 10
-14035.392370073365
 20
-10820.414884254495
 30
0.0
 11
-14035.328621546028
 21
-10819.416918260455
 31
0.0
  0
LINE
  5
284
100
AcDbEntity
  8
Frei
  6
CONTINUOUS
 62
           7
100
AcDbLine
 10
-14006.451356246173
 20
-10822.263591547249
 30
0.0
 11
-14006.950339243194
 21
-10822.231717283581
 31
0.0
  0
LINE
  5
285
100
AcDbEntity
  8
Frei
  6
CONTINUOUS
 62
           7
100
AcDbLine
 10
-14006.387607718836
 20
-10821.265625553207
 30
0.0
 11
-14006.451356246173
 21
-10822.263591547249
 31
0.0
  0
LINE
  5
286
100
AcDbEntity
  8
Frei
  6
CONTINUOUS
 62
           7
100
AcDbLine
 10
-14006.387607718836
 20
-10821.265625553207
 30
0.0
 11
-14035.328621546028
 21
-10819.416918260455
 31
0.0
  0
LINE
  5
287
100
AcDbEntity
  8
Frei
  6
CONTINUOUS
 62
           7
100
AcDbLine
 10
-14004.762020271761
 20
-10795.817492705159
 30
0.0
 11
-14004.726581181829
 21
-10795.262703314902
 31
0.0
  0
LINE
  5
288
100
AcDbEntity
  8
Frei
  6
CONTINUOUS
 62
           7
100
AcDbLine
 10
-14033.479914253276
 20
-10790.475904433262
 30
0.0
 11
-14006.525436761163
 21
-10793.144939723024
 31
0.0
  0
LINE
  5
289
100
AcDbEntity
  8
Frei
  6
CONTINUOUS
 62
           7
100
AcDbLine
 10
-14000.473424102254
 20
-10807.113861276293
 30
0.0
 11
-14000.505298365922
 21
-10807.612844273313
 31
0.0
  0
LINE
  5
28A
100
AcDbEntity
  8
Frei
  6
CONTINUOUS
 62
           1
100
AcDbLine
 10
-14000.473424102254
 20
-10807.113861276293
 30
0.0
 11
-14002.956713724523
 21
-10806.955232568187
 31
0.0
  0
LINE
  5
28B
100
AcDbEntity
  8
Frei
  6
CONTINUOUS
 62
           7
100
AcDbLine
 10
-14000.218429992909
 20
-10803.121997300128
 30
0.0
 11
-14000.473424102254
 21
-10807.113861276293
 31
0.0
  0
LINE
  5
28C
100
AcDbEntity
  8
Frei
  6
CONTINUOUS
 62
           1
100
AcDbLine
 10
-14000.218429992909
 20
-10803.121997300128
 30
0.0
 11
-14002.701719615177
 21
-10802.963368592022
 31
0.0
  0
LINE
  5
28D
100
AcDbEntity
  8
Frei
  6
CONTINUOUS
 62
           7
100
AcDbLine
 10
-14000.505298365922
 20
-10807.612844273313
 30
0.0
 11
-14000.537172629591
 21
-10808.111827270333
 31
0.0
  0
LINE
  5
28E
100
AcDbEntity
  8
Frei
  6
CONTINUOUS
 62
           1
100
AcDbLine
 10
-14000.505298365922
 20
-10807.612844273313
 30
0.0
 11
-14002.988587988191
 21
-10807.454215565207
 31
0.0
  0
LINE
  5
28F
100
AcDbEntity
  8
Frei
  6
CONTINUOUS
 62
           7
100
AcDbLine
 10
-14000.18655572924
 20
-10802.623014303108
 30
0.0
 11
-14000.218429992909
 21
-10803.121997300128
 31
0.0
  0
LINE
  5
290
100
AcDbEntity
  8
Frei
  6
CONTINUOUS
 62
           1
100
AcDbLine
 10
-14000.18655572924
 20
-10802.623014303108
 30
0.0
 11
-14002.669845351509
 21
-10802.464385595002
 31
0.0
  0
LINE
  5
291
100
AcDbEntity
  8
Frei
  6
CONTINUOUS
 62
           7
100
AcDbLine
 10
-14001.535138623633
 20
-10808.048078742999
 30
0.0
 11
-14001.152647459614
 21
-10802.060282778752
 31
0.0
  0
LINE
  5
292
100
AcDbEntity
  8
Frei
  6
CONTINUOUS
 62
           2
100
AcDbLine
 10
-14000.537172629591
 20
-10808.111827270333
 30
0.0
 11
-14001.535138623633
 21
-10808.048078742999
 31
0.0
  0
LINE
  5
293
100
AcDbEntity
  8
Frei
  6
CONTINUOUS
 62
           7
100
AcDbLine
 10
-14001.152647459614
 20
-10802.060282778752
 30
0.0
 11
-14001.088898932278
 21
-10801.06231678471
 31
0.0
  0
LINE
  5
294
100
AcDbEntity
  8
Frei
  6
CONTINUOUS
 62
           2
100
AcDbLine
 10
-14000.154681465572
 20
-10802.124031306088
 30
0.0
 11
-14001.152647459614
 21
-10802.060282778752
 31
0.0
  0
LINE
  5
295
100
AcDbEntity
  8
Frei
  6
CONTINUOUS
 62
           7
100
AcDbLine
 10
-14001.598887150967
 20
-10809.046044737039
 30
0.0
 11
-14001.535138623633
 21
-10808.048078742999
 31
0.0
  0
LINE
  5
296
100
AcDbEntity
  8
Frei
  6
CONTINUOUS
 62
           7
100
AcDbLine
 10
-14000.537172629591
 20
-10808.111827270333
 30
0.0
 11
-14001.598887150967
 21
-10809.046044737039
 31
0.0
  0
LINE
  5
297
100
AcDbEntity
  8
Frei
  6
CONTINUOUS
 62
           7
100
AcDbLine
 10
-14000.154681465572
 20
-10802.124031306088
 30
0.0
 11
-14000.18655572924
 21
-10802.623014303108
 31
0.0
  0
LINE
  5
298
100
AcDbEntity
  8
Frei
  6
CONTINUOUS
 62
           7
100
AcDbLine
 10
-14001.088898932278
 20
-10801.06231678471
 30
0.0
 11
-14000.770156295595
 21
-10796.072486814504
 31
0.0
  0
LINE
  5
299
100
AcDbEntity
  8
Frei
  6
CONTINUOUS
 62
           7
100
AcDbLine
 10
-14001.088898932278
 20
-10801.06231678471
 30
0.0
 11
-14000.154681465572
 21
-10802.124031306088
 31
0.0
  0
LINE
  5
29A
100
AcDbEntity
  8
Frei
  6
CONTINUOUS
 62
           7
100
AcDbLine
 10
-14035.328621546028
 20
-10819.416918260455
 30
0.0
 11
-14034.723010536334
 21
-10809.936241317064
 31
0.0
  0
LINE
  5
29B
100
AcDbEntity
  8
Frei
  6
CONTINUOUS
 62
           7
100
AcDbLine
 10
-14005.909493763815
 20
-10813.780880597898
 30
0.0
 11
-14006.387607718836
 21
-10821.265625553207
 31
0.0
  0
LINE
  5
29C
100
AcDbEntity
  8
Frei
  6
CONTINUOUS
 62
           7
100
AcDbLine
 10
-14003.700305750383
 20
-10794.883275238455
 30
0.0
 11
-14004.975276297109
 21
-10814.842595119277
 31
0.0
  0
LINE
  5
29D
100
AcDbEntity
  8
Frei
  6
CONTINUOUS
 62
           7
100
AcDbLine
 10
-14001.704373762301
 20
-10795.010772293128
 30
0.0
 11
-14002.979344309028
 21
-10814.97009217395
 31
0.0
  0
LINE
  5
29E
100
AcDbEntity
  8
Frei
  6
CONTINUOUS
 62
           7
100
AcDbLine
 10
-14001.917629787649
 20
-10814.035874707244
 30
0.0
 11
-14002.979344309028
 21
-10814.97009217395
 31
0.0
  0
LINE
  5
29F
100
AcDbEntity
  8
Frei
  6
CONTINUOUS
 62
           7
100
AcDbLine
 10
-14004.975276297109
 20
-10814.842595119277
 30
0.0
 11
-14005.909493763815
 21
-10813.780880597898
 31
0.0
  0
LINE
  5
2A0
100
AcDbEntity
  8
Frei
  6
CONTINUOUS
 62
           7
100
AcDbLine
 10
-14004.762020271761
 20
-10795.817492705159
 30
0.0
 11
-14003.700305750383
 21
-10794.883275238455
 31
0.0
  0
LINE
  5
2A1
100
AcDbEntity
  8
Frei
  6
CONTINUOUS
 62
           7
100
AcDbLine
 10
-14000.770156295595
 20
-10796.072486814504
 30
0.0
 11
-14001.704373762301
 21
-10795.010772293128
 31
0.0
  0
LINE
  5
2A2
100
AcDbEntity
  8
Frei
  6
CONTINUOUS
 62
           7
100
AcDbLine
 10
-14001.917629787649
 20
-10814.035874707244
 30
0.0
 11
-14001.598887150967
 21
-10809.046044737039
 31
0.0
  0
LINE
  5
2A3
100
AcDbEntity
  8
Frei
  6
CONTINUOUS
 62
           7
100
AcDbLine
 10
-14004.975276297109
 20
-10814.842595119277
 30
0.0
 11
-14002.979344309028
 21
-10814.97009217395
 31
0.0
  0
LINE
  5
2A4
100
AcDbEntity
  8
Frei
  6
CONTINUOUS
 62
           7
100
AcDbLine
 10
-14004.762020271761
 20
-10795.817492705159
 30
0.0
 11
-14005.909493763815
 21
-10813.780880597898
 31
0.0
  0
LINE
  5
2A5
100
AcDbEntity
  8
Frei
  6
CONTINUOUS
 62
           7
100
AcDbLine
 10
-14001.704373762301
 20
-10795.010772293128
 30
0.0
 11
-14003.700305750383
 21
-10794.883275238455
 31
0.0
  0
LINE
  5
2A6
100
AcDbEntity
  8
Frei
  6
CONTINUOUS
 62
           7
100
AcDbLine
 10
-14051.795060447706
 20
-10818.365067559404
 30
0.0
 11
-14041.316417510276
 21
-10819.034427096436
 31
0.0
  0
LINE
  5
2A7
100
AcDbEntity
  8
Frei
  6
CONTINUOUS
 62
           7
100
AcDbLine
 10
-14035.719835129032
 20
-10786.324669138756
 30
0.0
 11
-14049.691359045608
 21
-10785.432189756048
 31
0.0
  0
LINE
  5
2A8
100
AcDbEntity
  8
Frei
  6
CONTINUOUS
 62
           7
100
AcDbLine
 10
-14034.785617662328
 20
-10787.386383660134
 30
0.0
 11
-14036.219959527394
 21
-10809.840618526059
 31
0.0
  0
LINE
  5
2A9
100
AcDbEntity
  8
Frei
  6
CONTINUOUS
 62
           7
100
AcDbLine
 10
-14195.438415062292
 20
-10808.18731362893
 30
0.0
 11
-14194.004073197224
 21
-10785.733078763007
 31
0.0
  0
LINE
  5
2AA
100
AcDbEntity
  8
Frei
  6
CONTINUOUS
 62
           7
100
AcDbLine
 10
-14194.784992657094
 20
-10797.958162190009
 30
0.0
 11
-14194.450312888579
 21
-10792.718840721294
 31
0.0
  0
LINE
  5
2AB
100
AcDbEntity
  8
Frei
  6
CONTINUOUS
 62
           7
100
AcDbLine
 10
-14035.439040067526
 20
-10797.615535099056
 30
0.0
 11
-14035.773719836041
 21
-10802.854856567772
 31
0.0
  0
ARC
  5
2AC
100
AcDbEntity
  8
Frei
  6
CONTINUOUS
 62
           7
100
AcDbCircle
 10
-14203.037218503649
 20
-10792.170322444514
 30
0.0
 40
8.604407030244
100
AcDbArc
 50
332.343014671726
 51
356.344999999999
  0
ARC
  5
2AD
100
AcDbEntity
  8
Frei
  6
CONTINUOUS
 62
           7
100
AcDbCircle
 10
-14196.540796281566
 20
-10787.324603573066
 30
0.0
 40
2.430106011614
100
AcDbArc
 50
310.279521857266
 51
356.344999999999
  0
ARC
  5
2AE
100
AcDbEntity
  8
Frei
  6
CONTINUOUS
 62
           7
100
AcDbCircle
 10
-14197.210155818597
 20
-10797.803246510499
 30
0.0
 40
2.430106011614
100
AcDbArc
 50
310.279521857266
 51
356.344999999999
  0
ARC
  5
2AF
100
AcDbEntity
  8
Frei
  6
CONTINUOUS
 62
           7
100
AcDbCircle
 10
-14196.540796281566
 20
-10787.324603573066
 30
0.0
 40
2.430106011614
100
AcDbArc
 50
356.344999999999
 51
42.410478142733
  0
ARC
  5
2B0
100
AcDbEntity
  8
Frei
  6
CONTINUOUS
 62
           7
100
AcDbCircle
 10
-14197.210155818597
 20
-10797.803246510499
 30
0.0
 40
2.430106011614
100
AcDbArc
 50
356.344999999999
 51
42.410478142733
  0
ARC
  5
2B1
100
AcDbEntity
  8
Frei
  6
CONTINUOUS
 62
           7
100
AcDbCircle
 10
-14033.68323644305
 20
-10808.249093715998
 30
0.0
 40
2.430106011614
100
AcDbArc
 50
130.279521857263
 51
176.345
  0
ARC
  5
2B2
100
AcDbEntity
  8
Frei
  6
CONTINUOUS
 62
           7
100
AcDbCircle
 10
-14033.01387690602
 20
-10797.770450778567
 30
0.0
 40
2.430106011614
100
AcDbArc
 50
130.279521857263
 51
176.345
  0
ARC
  5
2B3
100
AcDbEntity
  8
Frei
  6
CONTINUOUS
 62
           7
100
AcDbCircle
 10
-14033.68323644305
 20
-10808.249093715998
 30
0.0
 40
2.430106011614
100
AcDbArc
 50
176.345
 51
222.410478142737
  0
ARC
  5
2B4
100
AcDbEntity
  8
Frei
  6
CONTINUOUS
 62
           7
100
AcDbCircle
 10
-14033.01387690602
 20
-10797.770450778567
 30
0.0
 40
2.430106011614
100
AcDbArc
 50
176.345
 51
222.410478142737
  0
ARC
  5
2B5
100
AcDbEntity
  8
Frei
  6
CONTINUOUS
 62
           7
100
AcDbCircle
 10
-14027.18681422097
 20
-10803.403374844551
 30
0.0
 40
8.604407030244
100
AcDbArc
 50
152.343014671724
 51
176.345
  0
ARC
  5
2B6
100
AcDbEntity
  8
Frei
  6
CONTINUOUS
 62
           7
100
AcDbCircle
 10
-14171.644558014497
 20
-10801.954375398454
 30
0.0
 40
4.481959213903
100
AcDbArc
 50
184.723955885586
 51
347.966044114414
  0
ARC
  5
2B7
100
AcDbEntity
  8
Frei
  6
CONTINUOUS
 62
           7
100
AcDbCircle
 10
-14203.037218503649
 20
-10792.170322444514
 30
0.0
 40
8.604407030244
100
AcDbArc
 50
356.344999999999
 51
20.346985328274
  0
ARC
  5
2B8
100
AcDbEntity
  8
Frei
  6
CONTINUOUS
 62
           7
100
AcDbCircle
 10
-14027.18681422097
 20
-10803.403374844551
 30
0.0
 40
8.604407030244
100
AcDbArc
 50
176.345
 51
200.346985328276
  0
POLYLINE
  5
2B9
100
AcDbEntity
  8
Frei
  6
CONTINUOUS
 62
           7
100
AcDb2dPolyline
 66
           1
 10
0.0
 20
0.0
 30
0.0
  0
VERTEX
  5
2BA
100
AcDbEntity
  8
Frei
  6
CONTINUOUS
 62
           7
100
AcDbVertex
100
AcDb2dVertex
 10
-14175.805262297012
 20
-10801.989535194369
 30
0.0
 42
0.046286845788
  0
VERTEX
  5
2BB
100
AcDbEntity
  8
Frei
  6
CONTINUOUS
 62
           7
100
AcDbVertex
100
AcDb2dVertex
 10
-14175.785511941403
 20
-10802.669357043485
 30
0.0
  0
VERTEX
  5
2BC
100
AcDbEntity
  8
Frei
  6
CONTINUOUS
 62
           7
100
AcDbVertex
100
AcDb2dVertex
 10
-14175.728366888696
 20
-10803.006293002905
 30
0.0
  0
VERTEX
  5
2BD
100
AcDbEntity
  8
Frei
  6
CONTINUOUS
 62
           7
100
AcDbVertex
100
AcDb2dVertex
 10
-14175.640522519661
 20
-10803.336561261716
 30
0.0
 42
0.045273723548
  0
VERTEX
  5
2BE
100
AcDbEntity
  8
Frei
  6
CONTINUOUS
 62
           7
100
AcDbVertex
100
AcDb2dVertex
 10
-14175.374699461998
 20
-10803.970875186507
 30
0.0
  0
VERTEX
  5
2BF
100
AcDbEntity
  8
Frei
  6
CONTINUOUS
 62
           7
100
AcDbVertex
100
AcDb2dVertex
 10
-14175.198361278395
 20
-10804.270369606207
 30
0.0
  0
VERTEX
  5
2C0
100
AcDbEntity
  8
Frei
  6
CONTINUOUS
 62
           7
100
AcDbVertex
100
AcDb2dVertex
 10
-14174.996119667503
 20
-10804.553025510237
 30
0.0
 42
0.04348253534
  0
VERTEX
  5
2C1
100
AcDbEntity
  8
Frei
  6
CONTINUOUS
 62
           7
100
AcDbVertex
100
AcDb2dVertex
 10
-14174.516286091664
 20
-10805.065323889896
 30
0.0
  0
VERTEX
  5
2C2
100
AcDbEntity
  8
Frei
  6
CONTINUOUS
 62
           7
100
AcDbVertex
100
AcDb2dVertex
 10
-14174.242137195599
 20
-10805.29084325236
 30
0.0
  0
VERTEX
  5
2C3
100
AcDbEntity
  8
Frei
  6
CONTINUOUS
 62
           7
100
AcDbVertex
100
AcDb2dVertex
 10
-14173.949778234881
 20
-10805.492204398457
 30
0.0
 42
0.041825507476
  0
VERTEX
  5
2C4
100
AcDbEntity
  8
Frei
  6
CONTINUOUS
 62
           7
100
AcDbVertex
100
AcDb2dVertex
 10
-14173.313809151705
 20
-10805.820696487681
 30
0.0
  0
VERTEX
  5
2C5
100
AcDbEntity
  8
Frei
  6
CONTINUOUS
 62
           7
100
AcDbVertex
100
AcDb2dVertex
 10
-14172.975306550346
 20
-10805.944938349381
 30
0.0
  0
VERTEX
  5
2C6
100
AcDbEntity
  8
Frei
  6
CONTINUOUS
 62
           7
100
AcDbVertex
100
AcDb2dVertex
 10
-14172.627702440921
 20
-10806.040819091659
 30
0.0
 42
0.040993490696
  0
VERTEX
  5
2C7
100
AcDbEntity
  8
Frei
  6
CONTINUOUS
 62
           7
100
AcDbVertex
100
AcDb2dVertex
 10
-14171.912305107746
 20
-10806.145883896457
 30
0.0
  0
VERTEX
  5
2C8
100
AcDbEntity
  8
Frei
  6
CONTINUOUS
 62
           7
100
AcDbVertex
100
AcDb2dVertex
 10
-14171.550558591764
 20
-10806.154130140705
 30
0.0
  0
VERTEX
  5
2C9
100
AcDbEntity
  8
Frei
  6
CONTINUOUS
 62
           7
100
AcDbVertex
100
AcDb2dVertex
 10
-14171.18935413814
 20
-10806.132698561145
 30
0.0
 42
0.041278481646
  0
VERTEX
  5
2CA
100
AcDbEntity
  8
Frei
  6
CONTINUOUS
 62
           7
100
AcDbVertex
100
AcDb2dVertex
 10
-14170.480816031482
 20
-10806.001663715469
 30
0.0
  0
VERTEX
  5
2CB
100
AcDbEntity
  8
Frei
  6
CONTINUOUS
 62
           7
100
AcDbVertex
100
AcDb2dVertex
 10
-14170.139386886161
 20
-10805.893297934274
 30
0.0
  0
VERTEX
  5
2CC
100
AcDbEntity
  8
Frei
  6
CONTINUOUS
 62
           7
100
AcDbVertex
100
AcDb2dVertex
 10
-14169.808219359607
 20
-10805.756760786904
 30
0.0
 42
0.042584509173
  0
VERTEX
  5
2CD
100
AcDbEntity
  8
Frei
  6
CONTINUOUS
 62
           7
100
AcDbVertex
100
AcDb2dVertex
 10
-14169.192000632043
 20
-10805.405431027009
 30
0.0
  0
VERTEX
  5
2CE
100
AcDbEntity
  8
Frei
  6
CONTINUOUS
 62
           7
100
AcDbVertex
100
AcDb2dVertex
 10
-14168.911704428461
 20
-10805.193671490926
 30
0.0
  0
VERTEX
  5
2CF
100
AcDbEntity
  8
Frei
  6
CONTINUOUS
 62
           7
100
AcDbVertex
100
AcDb2dVertex
 10
-14168.650883343002
 20
-10804.958349412756
 30
0.0
 42
0.044417198743
  0
VERTEX
  5
2D0
100
AcDbEntity
  8
Frei
  6
CONTINUOUS
 62
           7
100
AcDbVertex
100
AcDb2dVertex
 10
-14168.201309067488
 20
-10804.429100292762
 30
0.0
  0
VERTEX
  5
2D1
100
AcDbEntity
  8
Frei
  6
CONTINUOUS
 62
           7
100
AcDbVertex
100
AcDb2dVertex
 10
-14168.015622717563
 20
-10804.13923907113
 30
0.0
  0
VERTEX
  5
2D2
100
AcDbEntity
  8
Frei
  6
CONTINUOUS
 62
           7
100
AcDbVertex
100
AcDb2dVertex
 10
-14167.856937892378
 20
-10803.833764633724
 30
0.0
 42
0.045929593742
  0
VERTEX
  5
2D3
100
AcDbEntity
  8
Frei
  6
CONTINUOUS
 62
           7
100
AcDbVertex
100
AcDb2dVertex
 10
-14167.628233361556
 20
-10803.190431408386
 30
0.0
  0
VERTEX
  5
2D4
100
AcDbEntity
  8
Frei
  6
CONTINUOUS
 62
           7
100
AcDbVertex
100
AcDb2dVertex
 10
-14167.559613687386
 20
-10802.856998728075
 30
0.0
  0
VERTEX
  5
2D5
100
AcDbEntity
  8
Frei
  6
CONTINUOUS
 62
           7
100
AcDbVertex
100
AcDb2dVertex
 10
-14167.52214454647
 20
-10802.518647971259
 30
0.0
 42
0.046286845788
  0
VERTEX
  5
2D6
100
AcDbEntity
  8
Frei
  6
CONTINUOUS
 62
           7
100
AcDbVertex
100
AcDb2dVertex
 10
-14167.541894902079
 20
-10801.838826122143
 30
0.0
  0
VERTEX
  5
2D7
100
AcDbEntity
  8
Frei
  6
CONTINUOUS
 62
           7
100
AcDbVertex
100
AcDb2dVertex
 10
-14167.599039954786
 20
-10801.501890162725
 30
0.0
  0
VERTEX
  5
2D8
100
AcDbEntity
  8
Frei
  6
CONTINUOUS
 62
           7
100
AcDbVertex
100
AcDb2dVertex
 10
-14167.686884323821
 20
-10801.171621903914
 30
0.0
 42
0.045273723548
  0
VERTEX
  5
2D9
100
AcDbEntity
  8
Frei
  6
CONTINUOUS
 62
           7
100
AcDbVertex
100
AcDb2dVertex
 10
-14167.952707381484
 20
-10800.537307979121
 30
0.0
  0
VERTEX
  5
2DA
100
AcDbEntity
  8
Frei
  6
CONTINUOUS
 62
           7
100
AcDbVertex
100
AcDb2dVertex
 10
-14168.129045565087
 20
-10800.237813559421
 30
0.0
  0
VERTEX
  5
2DB
100
AcDbEntity
  8
Frei
  6
CONTINUOUS
 62
           7
100
AcDbVertex
100
AcDb2dVertex
 10
-14168.331287175979
 20
-10799.955157655391
 30
0.0
 42
0.04348253534
  0
VERTEX
  5
2DC
100
AcDbEntity
  8
Frei
  6
CONTINUOUS
 62
           7
100
AcDbVertex
100
AcDb2dVertex
 10
-14168.811120751816
 20
-10799.442859275732
 30
0.0
  0
VERTEX
  5
2DD
100
AcDbEntity
  8
Frei
  6
CONTINUOUS
 62
           7
100
AcDbVertex
100
AcDb2dVertex
 10
-14169.085269647881
 20
-10799.217339913268
 30
0.0
  0
VERTEX
  5
2DE
100
AcDbEntity
  8
Frei
  6
CONTINUOUS
 62
           7
100
AcDbVertex
100
AcDb2dVertex
 10
-14169.377628608601
 20
-10799.015978767171
 30
0.0
 42
0.041825507476
  0
VERTEX
  5
2DF
100
AcDbEntity
  8
Frei
  6
CONTINUOUS
 62
           7
100
AcDbVertex
100
AcDb2dVertex
 10
-14170.013597691777
 20
-10798.687486677947
 30
0.0
  0
VERTEX
  5
2E0
100
AcDbEntity
  8
Frei
  6
CONTINUOUS
 62
           7
100
AcDbVertex
100
AcDb2dVertex
 10
-14170.352100293134
 20
-10798.563244816247
 30
0.0
  0
VERTEX
  5
2E1
100
AcDbEntity
  8
Frei
  6
CONTINUOUS
 62
           7
100
AcDbVertex
100
AcDb2dVertex
 10
-14170.699704402561
 20
-10798.467364073969
 30
0.0
 42
0.040993490695
  0
VERTEX
  5
2E2
100
AcDbEntity
  8
Frei
  6
CONTINUOUS
 62
           7
100
AcDbVertex
100
AcDb2dVertex
 10
-14171.415101735736
 20
-10798.362299269173
 30
0.0
  0
VERTEX
  5
2E3
100
AcDbEntity
  8
Frei
  6
CONTINUOUS
 62
           7
100
AcDbVertex
100
AcDb2dVertex
 10
-14171.776848251719
 20
-10798.354053024923
 30
0.0
  0
VERTEX
  5
2E4
100
AcDbEntity
  8
Frei
  6
CONTINUOUS
 62
           7
100
AcDbVertex
100
AcDb2dVertex
 10
-14172.138052705342
 20
-10798.375484604483
 30
0.0
 42
0.041278481647
  0
VERTEX
  5
2E5
100
AcDbEntity
  8
Frei
  6
CONTINUOUS
 62
           7
100
AcDbVertex
100
AcDb2dVertex
 10
-14172.846590811998
 20
-10798.506519450159
 30
0.0
  0
VERTEX
  5
2E6
100
AcDbEntity
  8
Frei
  6
CONTINUOUS
 62
           7
100
AcDbVertex
100
AcDb2dVertex
 10
-14173.188019957321
 20
-10798.614885231354
 30
0.0
  0
VERTEX
  5
2E7
100
AcDbEntity
  8
Frei
  6
CONTINUOUS
 62
           7
100
AcDbVertex
100
AcDb2dVertex
 10
-14173.519187483873
 20
-10798.751422378724
 30
0.0
 42
0.042584509173
  0
VERTEX
  5
2E8
100
AcDbEntity
  8
Frei
  6
CONTINUOUS
 62
           7
100
AcDbVertex
100
AcDb2dVertex
 10
-14174.135406211437
 20
-10799.10275213862
 30
0.0
  0
VERTEX
  5
2E9
100
AcDbEntity
  8
Frei
  6
CONTINUOUS
 62
           7
100
AcDbVertex
100
AcDb2dVertex
 10
-14174.415702415021
 20
-10799.314511674702
 30
0.0
  0
VERTEX
  5
2EA
100
AcDbEntity
  8
Frei
  6
CONTINUOUS
 62
           7
100
AcDbVertex
100
AcDb2dVertex
 10
-14174.67652350048
 20
-10799.549833752872
 30
0.0
 42
0.044417198743
  0
VERTEX
  5
2EB
100
AcDbEntity
  8
Frei
  6
CONTINUOUS
 62
           7
100
AcDbVertex
100
AcDb2dVertex
 10
-14175.126097775992
 20
-10800.079082872864
 30
0.0
  0
VERTEX
  5
2EC
100
AcDbEntity
  8
Frei
  6
CONTINUOUS
 62
           7
100
AcDbVertex
100
AcDb2dVertex
 10
-14175.311784125917
 20
-10800.368944094498
 30
0.0
  0
VERTEX
  5
2ED
100
AcDbEntity
  8
Frei
  6
CONTINUOUS
 62
           7
100
AcDbVertex
100
AcDb2dVertex
 10
-14175.470468951105
 20
-10800.674418531904
 30
0.0
 42
0.045929593741
  0
VERTEX
  5
2EE
100
AcDbEntity
  8
Frei
  6
CONTINUOUS
 62
           7
100
AcDbVertex
100
AcDb2dVertex
 10
-14175.699173481924
 20
-10801.317751757242
 30
0.0
  0
VERTEX
  5
2EF
100
AcDbEntity
  8
Frei
  6
CONTINUOUS
 62
           7
100
AcDbVertex
100
AcDb2dVertex
 10
-14175.767793156096
 20
-10801.651184437553
 30
0.0
  0
VERTEX
  5
2F0
100
AcDbEntity
  8
Frei
  6
CONTINUOUS
 62
           7
100
AcDbVertex
100
AcDb2dVertex
 10
-14175.805262297012
 20
-10801.989535194369
 30
0.0
  0
SEQEND
  5
2F1
100
AcDbEntity
  8
Frei
  6
CONTINUOUS
 62
           7
  0
POLYLINE
  5
2F2
100
AcDbEntity
  8
Frei
  6
CONTINUOUS
 62
           7
100
AcDb2dPolyline
 66
           1
 10
0.0
 20
0.0
 30
0.0
  0
VERTEX
  5
2F3
100
AcDbEntity
  8
Frei
  6
CONTINUOUS
 62
           7
100
AcDbVertex
100
AcDb2dVertex
 10
-14171.409783680849
 20
-10798.279046554882
 30
0.0
 42
0.046286845788
  0
VERTEX
  5
2F4
100
AcDbEntity
  8
Frei
  6
CONTINUOUS
 62
           7
100
AcDbVertex
100
AcDb2dVertex
 10
-14172.185532666337
 20
-10798.301583809822
 30
0.0
  0
VERTEX
  5
2F5
100
AcDbEntity
  8
Frei
  6
CONTINUOUS
 62
           7
100
AcDbVertex
100
AcDb2dVertex
 10
-14172.570012407659
 20
-10798.366792388688
 30
0.0
  0
VERTEX
  5
2F6
100
AcDbEntity
  8
Frei
  6
CONTINUOUS
 62
           7
100
AcDbVertex
100
AcDb2dVertex
 10
-14172.946883593904
 20
-10798.467032150396
 30
0.0
 42
0.045273723548
  0
VERTEX
  5
2F7
100
AcDbEntity
  8
Frei
  6
CONTINUOUS
 62
           7
100
AcDbVertex
100
AcDb2dVertex
 10
-14173.670703200878
 20
-10798.7703645125
 30
0.0
  0
VERTEX
  5
2F8
100
AcDbEntity
  8
Frei
  6
CONTINUOUS
 62
           7
100
AcDbVertex
100
AcDb2dVertex
 10
-14174.012458165862
 20
-10798.971585122295
 30
0.0
  0
VERTEX
  5
2F9
100
AcDbEntity
  8
Frei
  6
CONTINUOUS
 62
           7
100
AcDbVertex
100
AcDb2dVertex
 10
-14174.334998594768
 20
-10799.202364295807
 30
0.0
 42
0.04348253534
  0
VERTEX
  5
2FA
100
AcDbEntity
  8
Frei
  6
CONTINUOUS
 62
           7
100
AcDbVertex
100
AcDb2dVertex
 10
-14174.919585496182
 20
-10799.749905405499
 30
0.0
  0
VERTEX
  5
2FB
100
AcDbEntity
  8
Frei
  6
CONTINUOUS
 62
           7
100
AcDbVertex
100
AcDb2dVertex
 10
-14175.176927058337
 20
-10800.062738434142
 30
0.0
  0
VERTEX
  5
2FC
100
AcDbEntity
  8
Frei
  6
CONTINUOUS
 62
           7
100
AcDbVertex
100
AcDb2dVertex
 10
-14175.406701527936
 20
-10800.39635108203
 30
0.0
 42
0.041825507476
  0
VERTEX
  5
2FD
100
AcDbEntity
  8
Frei
  6
CONTINUOUS
 62
           7
100
AcDbVertex
100
AcDb2dVertex
 10
-14175.781545915897
 20
-10801.122059400635
 30
0.0
  0
VERTEX
  5
2FE
100
AcDbEntity
  8
Frei
  6
CONTINUOUS
 62
           7
100
AcDbVertex
100
AcDb2dVertex
 10
-14175.923319085286
 20
-10801.508326846923
 30
0.0
  0
VERTEX
  5
2FF
100
AcDbEntity
  8
Frei
  6
CONTINUOUS
 62
           7
100
AcDbVertex
100
AcDb2dVertex
 10
-14176.03272920302
 20
-10801.904980081281
 30
0.0
 42
0.040993490695
  0
VERTEX
  5
300
100
AcDbEntity
  8
Frei
  6
CONTINUOUS
 62
           7
100
AcDbVertex
100
AcDb2dVertex
 10
-14176.152619312228
 20
-10802.721324475264
 30
0.0
  0
VERTEX
  5
301
100
AcDbEntity
  8
Frei
  6
CONTINUOUS
 62
           7
100
AcDbVertex
100
AcDb2dVertex
 10
-14176.162029153376
 20
-10803.134115698642
 30
0.0
  0
VERTEX
  5
302
100
AcDbEntity
  8
Frei
  6
CONTINUOUS
 62
           7
100
AcDbVertex
100
AcDb2dVertex
 10
-14176.13757344322
 20
-10803.546288371259
 30
0.0
 42
0.041278481646
  0
VERTEX
  5
303
100
AcDbEntity
  8
Frei
  6
CONTINUOUS
 62
           7
100
AcDbVertex
100
AcDb2dVertex
 10
-14175.988048757114
 20
-10804.354805658741
 30
0.0
  0
VERTEX
  5
304
100
AcDbEntity
  8
Frei
  6
CONTINUOUS
 62
           7
100
AcDbVertex
100
AcDb2dVertex
 10
-14175.864391882989
 20
-10804.74441260274
 30
0.0
  0
VERTEX
  5
305
100
AcDbEntity
  8
Frei
  6
CONTINUOUS
 62
           7
100
AcDbVertex
100
AcDb2dVertex
 10
-14175.708588485832
 20
-10805.122309949058
 30
0.0
 42
0.042584509173
  0
VERTEX
  5
306
100
AcDbEntity
  8
Frei
  6
CONTINUOUS
 62
           7
100
AcDbVertex
100
AcDb2dVertex
 10
-14175.307683888306
 20
-10805.825481012726
 30
0.0
  0
VERTEX
  5
307
100
AcDbEntity
  8
Frei
  6
CONTINUOUS
 62
           7
100
AcDbVertex
100
AcDb2dVertex
 10
-14175.066043750528
 20
-10806.145328772616
 30
0.0
  0
VERTEX
  5
308
100
AcDbEntity
  8
Frei
  6
CONTINUOUS
 62
           7
100
AcDbVertex
100
AcDb2dVertex
 10
-14174.797516247861
 20
-10806.442953352796
 30
0.0
 42
0.044417198743
  0
VERTEX
  5
309
100
AcDbEntity
  8
Frei
  6
CONTINUOUS
 62
           7
100
AcDbVertex
100
AcDb2dVertex
 10
-14174.193586750096
 20
-10806.955965384672
 30
0.0
  0
VERTEX
  5
30A
100
AcDbEntity
  8
Frei
  6
CONTINUOUS
 62
           7
100
AcDbVertex
100
AcDb2dVertex
 10
-14173.86282428798
 20
-10807.167853245825
 30
0.0
  0
VERTEX
  5
30B
100
AcDbEntity
  8
Frei
  6
CONTINUOUS
 62
           7
100
AcDbVertex
100
AcDb2dVertex
 10
-14173.514245487197
 20
-10807.348929497362
 30
0.0
 42
0.045929593742
  0
VERTEX
  5
30C
100
AcDbEntity
  8
Frei
  6
CONTINUOUS
 62
           7
100
AcDbVertex
100
AcDb2dVertex
 10
-14172.780133899676
 20
-10807.60990567515
 30
0.0
  0
VERTEX
  5
30D
100
AcDbEntity
  8
Frei
  6
CONTINUOUS
 62
           7
100
AcDbVertex
100
AcDb2dVertex
 10
-14172.399651772166
 20
-10807.6882080167
 30
0.0
  0
VERTEX
  5
30E
100
AcDbEntity
  8
Frei
  6
CONTINUOUS
 62
           7
100
AcDbVertex
100
AcDb2dVertex
 10
-14172.013557596641
 20
-10807.730964288936
 30
0.0
 42
0.046286845788
  0
VERTEX
  5
30F
100
AcDbEntity
  8
Frei
  6
CONTINUOUS
 62
           7
100
AcDbVertex
100
AcDb2dVertex
 10
-14171.237808611153
 20
-10807.708427033998
 30
0.0
  0
VERTEX
  5
310
100
AcDbEntity
  8
Frei
  6
CONTINUOUS
 62
           7
100
AcDbVertex
100
AcDb2dVertex
 10
-14170.853328869831
 20
-10807.643218455132
 30
0.0
  0
VERTEX
  5
311
100
AcDbEntity
  8
Frei
  6
CONTINUOUS
 62
           7
100
AcDbVertex
100
AcDb2dVertex
 10
-14170.476457683586
 20
-10807.542978693424
 30
0.0
 42
0.045273723548
  0
VERTEX
  5
312
100
AcDbEntity
  8
Frei
  6
CONTINUOUS
 62
           7
100
AcDbVertex
100
AcDb2dVertex
 10
-14169.752638076612
 20
-10807.239646331318
 30
0.0
  0
VERTEX
  5
313
100
AcDbEntity
  8
Frei
  6
CONTINUOUS
 62
           7
100
AcDbVertex
100
AcDb2dVertex
 10
-14169.410883111628
 20
-10807.038425721523
 30
0.0
  0
VERTEX
  5
314
100
AcDbEntity
  8
Frei
  6
CONTINUOUS
 62
           7
100
AcDbVertex
100
AcDb2dVertex
 10
-14169.088342682724
 20
-10806.807646548014
 30
0.0
 42
0.04348253534
  0
VERTEX
  5
315
100
AcDbEntity
  8
Frei
  6
CONTINUOUS
 62
           7
100
AcDbVertex
100
AcDb2dVertex
 10
-14168.503755781308
 20
-10806.260105438319
 30
0.0
  0
VERTEX
  5
316
100
AcDbEntity
  8
Frei
  6
CONTINUOUS
 62
           7
100
AcDbVertex
100
AcDb2dVertex
 10
-14168.246414219153
 20
-10805.947272409678
 30
0.0
  0
VERTEX
  5
317
100
AcDbEntity
  8
Frei
  6
CONTINUOUS
 62
           7
100
AcDbVertex
100
AcDb2dVertex
 10
-14168.016639749554
 20
-10805.61365976179
 30
0.0
 42
0.041825507476
  0
VERTEX
  5
318
100
AcDbEntity
  8
Frei
  6
CONTINUOUS
 62
           7
100
AcDbVertex
100
AcDb2dVertex
 10
-14167.641795361591
 20
-10804.887951443183
 30
0.0
  0
VERTEX
  5
319
100
AcDbEntity
  8
Frei
  6
CONTINUOUS
 62
           7
100
AcDbVertex
100
AcDb2dVertex
 10
-14167.500022192204
 20
-10804.501683996896
 30
0.0
  0
VERTEX
  5
31A
100
AcDbEntity
  8
Frei
  6
CONTINUOUS
 62
           7
100
AcDbVertex
100
AcDb2dVertex
 10
-14167.39061207447
 20
-10804.105030762537
 30
0.0
 42
0.040993490695
  0
VERTEX
  5
31B
100
AcDbEntity
  8
Frei
  6
CONTINUOUS
 62
           7
100
AcDbVertex
100
AcDb2dVertex
 10
-14167.270721965262
 20
-10803.288686368556
 30
0.0
  0
VERTEX
  5
31C
100
AcDbEntity
  8
Frei
  6
CONTINUOUS
 62
           7
100
AcDbVertex
100
AcDb2dVertex
 10
-14167.261312124112
 20
-10802.875895145176
 30
0.0
  0
VERTEX
  5
31D
100
AcDbEntity
  8
Frei
  6
CONTINUOUS
 62
           7
100
AcDbVertex
100
AcDb2dVertex
 10
-14167.28576783427
 20
-10802.463722472559
 30
0.0
 42
0.041278481646
  0
VERTEX
  5
31E
100
AcDbEntity
  8
Frei
  6
CONTINUOUS
 62
           7
100
AcDbVertex
100
AcDb2dVertex
 10
-14167.435292520377
 20
-10801.655205185079
 30
0.0
  0
VERTEX
  5
31F
100
AcDbEntity
  8
Frei
  6
CONTINUOUS
 62
           7
100
AcDbVertex
100
AcDb2dVertex
 10
-14167.558949394501
 20
-10801.265598241078
 30
0.0
  0
VERTEX
  5
320
100
AcDbEntity
  8
Frei
  6
CONTINUOUS
 62
           7
100
AcDbVertex
100
AcDb2dVertex
 10
-14167.714752791659
 20
-10800.887700894762
 30
0.0
 42
0.042584509173
  0
VERTEX
  5
321
100
AcDbEntity
  8
Frei
  6
CONTINUOUS
 62
           7
100
AcDbVertex
100
AcDb2dVertex
 10
-14168.115657389184
 20
-10800.184529831095
 30
0.0
  0
VERTEX
  5
322
100
AcDbEntity
  8
Frei
  6
CONTINUOUS
 62
           7
100
AcDbVertex
100
AcDb2dVertex
 10
-14168.35729752696
 20
-10799.864682071202
 30
0.0
  0
VERTEX
  5
323
100
AcDbEntity
  8
Frei
  6
CONTINUOUS
 62
           7
100
AcDbVertex
100
AcDb2dVertex
 10
-14168.625825029631
 20
-10799.567057491024
 30
0.0
 42
0.044417198743
  0
VERTEX
  5
324
100
AcDbEntity
  8
Frei
  6
CONTINUOUS
 62
           7
100
AcDbVertex
100
AcDb2dVertex
 10
-14169.229754527394
 20
-10799.054045459148
 30
0.0
  0
VERTEX
  5
325
100
AcDbEntity
  8
Frei
  6
CONTINUOUS
 62
           7
100
AcDbVertex
100
AcDb2dVertex
 10
-14169.56051698951
 20
-10798.842157597994
 30
0.0
  0
VERTEX
  5
326
100
AcDbEntity
  8
Frei
  6
CONTINUOUS
 62
           7
100
AcDbVertex
100
AcDb2dVertex
 10
-14169.909095790292
 20
-10798.661081346458
 30
0.0
 42
0.045929593741
  0
VERTEX
  5
327
100
AcDbEntity
  8
Frei
  6
CONTINUOUS
 62
           7
100
AcDbVertex
100
AcDb2dVertex
 10
-14170.643207377812
 20
-10798.400105168668
 30
0.0
  0
VERTEX
  5
328
100
AcDbEntity
  8
Frei
  6
CONTINUOUS
 62
           7
100
AcDbVertex
100
AcDb2dVertex
 10
-14171.023689505322
 20
-10798.321802827119
 30
0.0
  0
VERTEX
  5
329
100
AcDbEntity
  8
Frei
  6
CONTINUOUS
 62
           7
100
AcDbVertex
100
AcDb2dVertex
 10
-14171.409783680849
 20
-10798.279046554882
 30
0.0
  0
SEQEND
  5
32A
100
AcDbEntity
  8
Frei
  6
CONTINUOUS
 62
           7
  0
ARC
  5
32B
100
AcDbEntity
  8
Frei
  6
CONTINUOUS
 62
           7
100
AcDbCircle
 10
-14037.650032918158
 20
-10816.321436913582
 30
0.0
 40
0.5
100
AcDbArc
 50
273.494821982568
 51
356.344999999999
  0
ARC
  5
32C
100
AcDbEntity
  8
Frei
  6
CONTINUOUS
 62
           7
100
AcDbCircle
 10
-14037.323793271455
 20
-10811.214243274428
 30
0.0
 40
0.5
100
AcDbArc
 50
356.344999999999
 51
79.195178017423
  0
ARC
  5
32D
100
AcDbEntity
  8
Frei
  6
CONTINUOUS
 62
           7
100
AcDbCircle
 10
-14192.07501680944
 20
-10779.284134639151
 30
0.0
 40
0.5
100
AcDbArc
 50
93.494821982565
 51
176.345
  0
ARC
  5
32E
100
AcDbEntity
  8
Frei
  6
CONTINUOUS
 62
           7
100
AcDbCircle
 10
-14192.401256456144
 20
-10784.391328278307
 30
0.0
 40
0.5
100
AcDbArc
 50
176.345
 51
259.195178017419
  0
ARC
  5
32F
100
AcDbEntity
  8
Frei
  6
CONTINUOUS
 62
           7
100
AcDbCircle
 10
-14222.283167882792
 20
-10781.36552435558
 30
0.0
 40
2.0
100
AcDbArc
 50
88.345
 51
176.345
  0
ARC
  5
330
100
AcDbEntity
  8
Frei
  6
CONTINUOUS
 62
           7
100
AcDbCircle
 10
-14237.864116432051
 20
-10837.041427084105
 30
0.0
 40
1.5
100
AcDbArc
 50
176.345
 51
266.345
  0
ARC
  5
331
100
AcDbEntity
  8
Frei
  6
CONTINUOUS
 62
           7
100
AcDbCircle
 10
-14236.907888522006
 20
-10822.071937173487
 30
0.0
 40
1.5
100
AcDbArc
 50
86.345
 51
176.345
  0
ARC
  5
332
100
AcDbEntity
  8
Frei
  6
CONTINUOUS
 62
           7
100
AcDbCircle
 10
-14225.761027448885
 20
-10835.810477424058
 30
0.0
 40
1.5
100
AcDbArc
 50
176.345
 51
266.345
  0
ARC
  5
333
100
AcDbEntity
  8
Frei
  6
CONTINUOUS
 62
           7
100
AcDbCircle
 10
-14200.811877597856
 20
-10837.404190607467
 30
0.0
 40
1.5
100
AcDbArc
 50
266.345
 51
356.344999999999
  0
ARC
  5
334
100
AcDbEntity
  8
Frei
  6
CONTINUOUS
 62
           7
100
AcDbCircle
 10
-14035.149522587031
 20
-10847.986446145298
 30
0.0
 40
1.5
100
AcDbArc
 50
176.345
 51
266.345
  0
ARC
  5
335
100
AcDbEntity
  8
Frei
  6
CONTINUOUS
 62
           7
100
AcDbCircle
 10
-14010.200372736004
 20
-10849.580159328707
 30
0.0
 40
1.5
100
AcDbArc
 50
266.345
 51
356.344999999999
  0
ARC
  5
336
100
AcDbEntity
  8
Frei
  6
CONTINUOUS
 62
           7
100
AcDbCircle
 10
-13997.396049952138
 20
-10837.371583734208
 30
0.0
 40
1.5
100
AcDbArc
 50
356.344999999999
 51
86.345
  0
ARC
  5
337
100
AcDbEntity
  8
Frei
  6
CONTINUOUS
 62
           7
100
AcDbCircle
 10
-13998.352277862185
 20
-10852.341073644824
 30
0.0
 40
1.5
100
AcDbArc
 50
266.345
 51
356.344999999999
  0
ARC
  5
338
100
AcDbEntity
  8
Frei
  6
CONTINUOUS
 62
           7
100
AcDbCircle
 10
-14006.722513169911
 20
-10795.135206260229
 30
0.0
 40
2.0
100
AcDbArc
 50
356.344999999999
 51
84.345
  0
ARC
  5
339
100
AcDbEntity
  8
Frei
  6
CONTINUOUS
 62
           7
100
AcDbCircle
 10
-14035.783583656368
 20
-10787.322635132798
 30
0.0
 40
1.0
100
AcDbArc
 50
356.344999999999
 51
86.345
  0
ARC
  5
33A
100
AcDbEntity
  8
Frei
  6
CONTINUOUS
 62
           7
100
AcDbCircle
 10
-14037.759788003796
 20
-10818.259580948072
 30
0.0
 40
1.0
100
AcDbArc
 50
266.344999999999
 51
356.344999999999
  0
ARC
  5
33B
100
AcDbEntity
  8
Frei
  6
CONTINUOUS
 62
           7
100
AcDbCircle
 10
-14194.44044906825
 20
-10808.251062156267
 30
0.0
 40
1.0
100
AcDbArc
 50
176.345
 51
266.345
  0
ARC
  5
33C
100
AcDbEntity
  8
Frei
  6
CONTINUOUS
 62
           7
100
AcDbCircle
 10
-14192.464244720824
 20
-10777.314116340993
 30
0.0
 40
1.0
100
AcDbArc
 50
86.345
 51
176.345
  0
LINE
  5
33D
100
AcDbEntity
  8
Frei
  6
CONTINUOUS
 62
           7
100
AcDbLine
 10
-14473.163236357126
 20
-10760.301634407861
 30
0.0
 11
-14473.163236357126
 21
-10840.301634407861
 31
0.0
  0
LINE
  5
33E
100
AcDbEntity
  8
Frei
  6
CONTINUOUS
 62
           7
100
AcDbLine
 10
-13927.274351357128
 20
-10840.301634407861
 30
0.0
 11
-13927.274351357128
 21
-10760.301634407861
 31
0.0
  0
LINE
  5
33F
100
AcDbEntity
  8
Frei
  6
CONTINUOUS
 62
          15
100
AcDbLine
 10
-14376.46294998116
 20
-10760.301634407861
 30
0.0
 11
-14473.163236357126
 21
-10760.301634407861
 31
0.0
  0
LINE
  5
340
100
AcDbEntity
  8
Frei
  6
GESTRICHELT
 62
          15
100
AcDbLine
 10
-14368.672629116492
 20
-10760.301634407861
 30
0.0
 11
-14376.46294998116
 21
-10760.301634407861
 31
0.0
  0
LINE
  5
341
100
AcDbEntity
  8
Frei
  6
CONTINUOUS
 62
          15
100
AcDbLine
 10
-14253.950624658421
 20
-10760.301634407861
 30
0.0
 11
-14368.672629116492
 21
-10760.301634407861
 31
0.0
  0
LINE
  5
342
100
AcDbEntity
  8
Frei
  6
GESTRICHELT
 62
          15
100
AcDbLine
 10
-14157.60721591879
 20
-10760.301634407861
 30
0.0
 11
-14253.950624658421
 21
-10760.301634407861
 31
0.0
  0
LINE
  5
343
100
AcDbEntity
  8
Frei
  6
CONTINUOUS
 62
          15
100
AcDbLine
 10
-13927.274351357128
 20
-10760.301634407861
 30
0.0
 11
-14157.60721591879
 21
-10760.301634407861
 31
0.0
  0
LINE
  5
344
100
AcDbEntity
  8
Frei
  6
CONTINUOUS
 62
          15
100
AcDbLine
 10
-14036.161685902127
 20
-10840.301634407861
 30
0.0
 11
-14473.163236357126
 21
-10840.301634407861
 31
0.0
  0
LINE
  5
345
100
AcDbEntity
  8
Frei
  6
GESTRICHELT
 62
          15
100
AcDbLine
 10
-13986.059778323561
 20
-10840.301634407861
 30
0.0
 11
-14036.161685902127
 21
-10840.301634407861
 31
0.0
  0
LINE
  5
346
100
AcDbEntity
  8
Frei
  6
CONTINUOUS
 62
          15
100
AcDbLine
 10
-13927.274351357128
 20
-10840.301634407861
 30
0.0
 11
-13986.059778323561
 21
-10840.301634407861
 31
0.0
  0
TEXT
  5
347
100
AcDbEntity
  8
FREI
  6
CONTINUOUS
 62
          15
100
AcDbText
 10
-14620.204851668097
 20
-10928.976034237661
 30
0.0
 40
3.527777671814
  1
224-701
 41
0.899999979725
  7
GOTHICG
100
AcDbText
  0
ENDSEC
  0
SECTION
  2
OBJECTS
  0
DICTIONARY
  5
19
100
AcDbDictionary
  3
ACAD_GROUP
350
1A
  3
ACAD_MLINESTYLE
350
1B
  0
DICTIONARY
  5
1A
102
{ACAD_REACTORS
330
19
102
}
100
AcDbDictionary
  0
DICTIONARY
  5
1B
102
{ACAD_REACTORS
330
19
102
}
100
AcDbDictionary
  3
STANDARD
350
1C
  0
MLINESTYLE
  5
1C
102
{ACAD_REACTORS
330
1B
102
}
100
AcDbMlineStyle
  2
STANDARD
 70
           0
  3

 62
           0
 51
90.0
 52
90.0
 71
           2
 49
0.5
 62
         256
  6
BYLAYER
 49
-0.5
 62
         256
  6
BYLAYER
  0
ENDSEC
  0
EOF
