  0
SECTION
  2
HEADER
  9
$ACADVER
  1
AC1012
  9
$DWGCODEPAGE
  3
dos850
  9
$INSBASE
 10
0.0
 20
0.0
 30
0.0
  9
$EXTMIN
 10
-14702.368084559503
 20
-11744.938210221459
 30
0.0
  9
$EXTMAX
 10
-13932.026031092428
 20
-11233.138879067741
 30
0.0
  9
$LIMMIN
 10
-14702.368084559503
 20
-11744.938210221459
  9
$LIMMAX
 10
-13932.026031092428
 20
-11233.138879067741
  9
$ORTHOMODE
 70
           0
  9
$REGENMODE
 70
           1
  9
$FILLMODE
 70
           1
  9
$QTEXTMODE
 70
           0
  9
$MIRRTEXT
 70
           1
  9
$DRAGMODE
 70
           2
  9
$LTSCALE
 40
5.0
  9
$OSMODE
 70
           0
  9
$ATTMODE
 70
           1
  9
$TEXTSIZE
 40
0.2
  9
$TRACEWID
 40
0.05
  9
$TEXTSTYLE
  7
TXT
  9
$CLAYER
  8
0
  9
$CELTYPE
  6
CONTINUOUS
  9
$CECOLOR
 62
         256
  9
$CELTSCALE
 40
1.0
  9
$DELOBJ
 70
           1
  9
$DISPSILH
 70
           0
  9
$DIMSCALE
 40
1.0
  9
$DIMASZ
 40
3.5
  9
$DIMEXO
 40
0.0625
  9
$DIMDLI
 40
0.38
  9
$DIMRND
 40
0.0
  9
$DIMDLE
 40
0.0
  9
$DIMEXE
 40
0.18
  9
$DIMTP
 40
0.0
  9
$DIMTM
 40
0.0
  9
$DIMTXT
 40
3.5
  9
$DIMCEN
 40
0.09
  9
$DIMTSZ
 40
0.0
  9
$DIMTOL
 70
           0
  9
$DIMLIM
 70
           0
  9
$DIMTIH
 70
           1
  9
$DIMTOH
 70
           1
  9
$DIMSE1
 70
           0
  9
$DIMSE2
 70
           0
  9
$DIMTAD
 70
           0
  9
$DIMZIN
 70
           0
  9
$DIMBLK
  1

  9
$DIMASO
 70
           1
  9
$DIMSHO
 70
           1
  9
$DIMPOST
  1

  9
$DIMAPOST
  1

  9
$DIMALT
 70
           0
  9
$DIMALTD
 70
           2
  9
$DIMALTF
 40
25.4
  9
$DIMLFAC
 40
1.0
  9
$DIMTOFL
 70
           0
  9
$DIMTVP
 40
0.0
  9
$DIMTIX
 70
           0
  9
$DIMSOXD
 70
           0
  9
$DIMSAH
 70
           0
  9
$DIMBLK1
  1

  9
$DIMBLK2
  1

  9
$DIMSTYLE
  2
STANDARD
  9
$DIMCLRD
 70
           0
  9
$DIMCLRE
 70
           0
  9
$DIMCLRT
 70
           0
  9
$DIMTFAC
 40
1.0
  9
$DIMGAP
 40
0.09
  9
$DIMJUST
 70
           0
  9
$DIMSD1
 70
           0
  9
$DIMSD2
 70
           0
  9
$DIMTOLJ
 70
           1
  9
$DIMTZIN
 70
           0
  9
$DIMALTZ
 70
           0
  9
$DIMALTTZ
 70
           0
  9
$DIMFIT
 70
           3
  9
$DIMUPT
 70
           0
  9
$DIMUNIT
 70
           2
  9
$DIMDEC
 70
           4
  9
$DIMTDEC
 70
           4
  9
$DIMALTU
 70
           2
  9
$DIMALTTD
 70
           2
  9
$DIMTXSTY
  7
TXT
  9
$DIMAUNIT
 70
           0
  9
$LUNITS
 70
           2
  9
$LUPREC
 70
           3
  9
$SKETCHINC
 40
0.1
  9
$FILLETRAD
 40
0.0
  9
$AUNITS
 70
           0
  9
$AUPREC
 70
           3
  9
$MENU
  1
acad
  9
$ELEVATION
 40
0.0
  9
$PELEVATION
 40
0.0
  9
$THICKNESS
 40
0.0
  9
$LIMCHECK
 70
           0
  9
$BLIPMODE
 70
           1
  9
$CHAMFERA
 40
0.0
  9
$CHAMFERB
 40
0.0
  9
$CHAMFERC
 40
0.0
  9
$CHAMFERD
 40
0.0
  9
$SKPOLY
 70
           0
  9
$TDCREATE
 40
0.000000000
  9
$TDUPDATE
 40
0.000000000
  9
$TDINDWG
 40
0.0000000000
  9
$TDUSRTIMER
 40
0.0000000000
  9
$USRTIMER
 70
           1
  9
$ANGBASE
 50
0.0
  9
$ANGDIR
 70
           0
  9
$PDMODE
 70
           2
  9
$PDSIZE
 40
0.5
  9
$PLINEWID
 40
0.0
  9
$COORDS
 70
           0
  9
$SPLFRAME
 70
           0
  9
$SPLINETYPE
 70
           6
  9
$SPLINESEGS
 70
           8
  9
$ATTDIA
 70
           0
  9
$ATTREQ
 70
           1
  9
$HANDLING
 70
           1
  9
$HANDSEED
  5
3A4
  9
$SURFTAB1
 70
           6
  9
$SURFTAB2
 70
           6
  9
$SURFTYPE
 70
           6
  9
$SURFU
 70
           6
  9
$SURFV
 70
           6
  9
$UCSNAME
  2

  9
$UCSORG
 10
0.0
 20
0.0
 30
0.0
  9
$UCSXDIR
 10
1.0
 20
0.0
 30
0.0
  9
$UCSYDIR
 10
0.0
 20
1.0
 30
0.0
  9
$PUCSNAME
  2

  9
$PUCSORG
 10
0.0
 20
0.0
 30
0.0
  9
$PUCSXDIR
 10
1.0
 20
0.0
 30
0.0
  9
$PUCSYDIR
 10
0.0
 20
1.0
 30
0.0
  9
$USERI1
 70
           0
  9
$USERI2
 70
           0
  9
$USERI3
 70
           0
  9
$USERI4
 70
           0
  9
$USERI5
 70
           0
  9
$USERR1
 40
0.0
  9
$USERR2
 40
0.0
  9
$USERR3
 40
0.0
  9
$USERR4
 40
0.0
  9
$USERR5
 40
0.0
  9
$WORLDVIEW
 70
           1
  9
$SHADEDGE
 70
           3
  9
$SHADEDIF
 70
          70
  9
$TILEMODE
 70
           1
  9
$MAXACTVP
 70
          16
  9
$PINSBASE
 10
0.0
 20
0.0
 30
0.0
  9
$PLIMCHECK
 70
           0
  9
$PEXTMIN
 10
1.000000000000E+20
 20
1.000000000000E+20
 30
1.000000000000E+20
  9
$PEXTMAX
 10
-1.000000000000E+20
 20
-1.000000000000E+20
 30
-1.000000000000E+20
  9
$PLIMMIN
 10
0.0
 20
0.0
  9
$PLIMMAX
 10
12.0
 20
9.0
  9
$UNITMODE
 70
           0
  9
$VISRETAIN
 70
           0
  9
$PLINEGEN
 70
           1
  9
$PSLTSCALE
 70
           0
  9
$TREEDEPTH
 70
        3020
  9
$PICKSTYLE
 70
           1
  9
$CMLSTYLE
  2
STANDARD
  9
$CMLJUST
 70
           0
  9
$CMLSCALE
 40
1.0
  9
$SAVEIMAGES
 70
           0
  0
ENDSEC
  0
SECTION
  2
CLASSES
  0
CLASS
  1
LWPOLYLINE
  2
AcDbPolyline
  3
"AutoCAD"
 90
        0
280
           0
281
           1
  0
CLASS
  1
IMAGE
  2
AcDbRasterImage
  3
ISM
 90
      127
280
           0
281
           1
  0
CLASS
  1
OLE2FRAME
  2
AcDbOle2Frame
  3
""
 90
        0
280
           0
281
           1
  0
CLASS
  1
HATCH
  2
AcDbHatch
  3
"ACAD_SEDONA"
 90
        0
280
           0
281
           1
  0
CLASS
  1
DICTIONARYVAR
  2
AcDbDictionaryVar
  3
"AutoCAD"
 90
        0
280
           0
281
           0
  0
CLASS
  1
RASTERVARIABLES
  2
AcDbRasterVariables
  3
ISM
 90
        0
280
           0
281
           0
  0
CLASS
  1
IMAGEDEF
  2
AcDbRasterImageDef
  3
ISM
 90
        0
280
           0
281
           0
  0
CLASS
  1
IMAGEDEF_REACTOR
  2
AcDbRasterImageDefReactor
  3
ISM
 90
        1
280
           0
281
           0
  0
CLASS
  1
IDBUFFER
  2
AcDbIdBuffer
  3
"Acad"
 90
        0
280
           0
281
           0
  0
CLASS
  1
SPATIAL_FILTER
  2
AcDbSpatialFilter
  3
"Acad"
 90
        0
280
           0
281
           0
  0
CLASS
  1
XRECORD
  2
AcDbXrecord
  3
"<Built In>"
 90
        0
280
           0
281
           0
  0
ENDSEC
  0
SECTION
  2
TABLES
  0
TABLE
  2
VPORT
  5
7
100
AcDbSymbolTable
 70
           1
  0
VPORT
  5
15
100
AcDbSymbolTableRecord
100
AcDbViewportTableRecord
  2
*ACTIVE
 70
           0
 10
0.0
 20
0.0
 11
1.0
 21
1.0
 12
6.591288
 22
4.579184
 13
0.0
 23
0.0
 14
1.0
 24
1.0
 15
0.0
 25
0.0
 16
0.0
 26
0.0
 36
1.0
 17
0.0
 27
0.0
 37
0.0
 40
9.158369
 41
0.688564
 42
50.0
 43
0.0
 44
0.0
 50
0.0
 51
0.0
 71
           0
 72
         100
 73
           1
 74
           1
 75
           0
 76
           0
 77
           0
 78
           0
  0
ENDTAB
  0
TABLE
  2
LTYPE
  5
4
100
AcDbSymbolTable
 70
           5
  0
LTYPE
  5
11
100
AcDbSymbolTableRecord
100
AcDbLinetypeTableRecord
  2
BYBLOCK
 70
           0
  3

 72
          65
 73
           0
 40
0.0
  0
LTYPE
  5
12
100
AcDbSymbolTableRecord
100
AcDbLinetypeTableRecord
  2
BYLAYER
 70
           0
  3

 72
          65
 73
           0
 40
0.0
  0
LTYPE
  5
13
100
AcDbSymbolTableRecord
100
AcDbLinetypeTableRecord
  2
CONTINUOUS
 70
           0
  3
Solid line
 72
          65
 73
           0
 40
0.0
  0
LTYPE
  5
1D
100
AcDbSymbolTableRecord
100
AcDbLinetypeTableRecord
  2
GESTRICHELT
 70
           0
  3

 72
          65
 73
           2
 40
0.75
 49
0.5
 74
           0
 49
-0.25
 74
           0
  0
LTYPE
  5
1E
100
AcDbSymbolTableRecord
100
AcDbLinetypeTableRecord
  2
STRICHPUNKT
 70
           0
  3

 72
          65
 73
           4
 40
1.0
 49
0.5
 74
           0
 49
-0.25
 74
           0
 49
0.0
 74
           0
 49
-0.25
 74
           0
  0
ENDTAB
  0
TABLE
  2
LAYER
  5
2
100
AcDbSymbolTable
 70
           3
  0
LAYER
  5
14
100
AcDbSymbolTableRecord
100
AcDbLayerTableRecord
  2
0
 70
           0
 62
           7
  6
CONTINUOUS
  0
LAYER
  5
20
100
AcDbSymbolTableRecord
100
AcDbLayerTableRecord
  2
FREI
 70
           0
 62
           7
  6
CONTINUOUS
  0
LAYER
  5
21
100
AcDbSymbolTableRecord
100
AcDbLayerTableRecord
  2
Frei
 70
           0
 62
           7
  6
CONTINUOUS
  0
ENDTAB
  0
TABLE
  2
STYLE
  5
3
100
AcDbSymbolTable
 70
           2
  0
STYLE
  5
17
100
AcDbSymbolTableRecord
100
AcDbTextStyleTableRecord
  2
TXT
 70
           0
 40
3.5
 41
1.0
 50
0.0
 71
           0
 42
3.5
  3
TXT
  4

  0
STYLE
  5
1F
100
AcDbSymbolTableRecord
100
AcDbTextStyleTableRecord
  2
GOTHICG
 70
           0
 40
3.5
 41
1.0
 50
0.0
 71
           0
 42
3.5
  3
GOTHICG
  4

  0
ENDTAB
  0
TABLE
  2
VIEW
  5
5
100
AcDbSymbolTable
 70
           0
  0
ENDTAB
  0
TABLE
  2
UCS
  5
6
100
AcDbSymbolTable
 70
           0
  0
ENDTAB
  0
TABLE
  2
APPID
  5
8
100
AcDbSymbolTable
 70
           2
  0
APPID
  5
16
100
AcDbSymbolTableRecord
100
AcDbRegAppTableRecord
  2
ACAD
 70
           0
  0
APPID
  5
22
100
AcDbSymbolTableRecord
100
AcDbRegAppTableRecord
  2
MegaCADPntStyle
 70
           0
  0
ENDTAB
  0
TABLE
  2
DIMSTYLE
  5
9
100
AcDbSymbolTable
 70
           1
  0
DIMSTYLE
105
18
100
AcDbSymbolTableRecord
100
AcDbDimStyleTableRecord
  2
STANDARD
 70
           0
  3

  4

  5

  6

  7

 40
1.0
 41
0.18
 42
0.0625
 43
0.38
 44
0.18
 45
0.0
 46
0.0
 47
0.0
 48
0.0
140
0.18
141
0.09
142
0.0
143
25.4
144
1.0
145
0.0
146
1.0
147
0.09
 71
           0
 72
           0
 73
           1
 74
           1
 75
           0
 76
           0
 77
           0
 78
           0
170
           0
171
           2
172
           0
173
           0
174
           0
175
           0
176
           0
177
           0
178
           0
270
           2
271
           4
272
           4
273
           2
274
           2
340
17
275
           0
280
           0
281
           0
282
           0
283
           1
284
           0
285
           0
286
           0
287
           0
288
           0
  0
ENDTAB
  0
TABLE
  2
BLOCK_RECORD
  5
1
100
AcDbSymbolTable
 70
           3
  0
BLOCK_RECORD
  5
A
100
AcDbSymbolTableRecord
100
AcDbBlockTableRecord
  2
*MODEL_SPACE
  0
BLOCK_RECORD
  5
B
100
AcDbSymbolTableRecord
100
AcDbBlockTableRecord
  2
*PAPER_SPACE
  0
BLOCK_RECORD
  5
23
100
AcDbSymbolTableRecord
100
AcDbBlockTableRecord
  2
ELIPPSE
  0
BLOCK_RECORD
  5
24
100
AcDbSymbolTableRecord
100
AcDbBlockTableRecord
  2
MAK1
  0
BLOCK_RECORD
  5
25
100
AcDbSymbolTableRecord
100
AcDbBlockTableRecord
  2
MAK2
  0
ENDTAB
  0
ENDSEC
  0
SECTION
  2
BLOCKS
  0
BLOCK
  5
D
100
AcDbEntity
  8
0
100
AcDbBlockBegin
  2
*MODEL_SPACE
 70
           0
 10
0.0
 20
0.0
 30
0.0
  3
*MODEL_SPACE
  1

  0
ENDBLK
  5
E
100
AcDbEntity
  8
0
100
AcDbBlockEnd
  0
BLOCK
  5
F
100
AcDbEntity
 67
           1
  8
0
100
AcDbBlockBegin
  2
*PAPER_SPACE
 70
           0
 10
0.0
 20
0.0
 30
0.0
  3
*PAPER_SPACE
  1

  0
ENDBLK
  5
10
100
AcDbEntity
 67
           1
  8
0
100
AcDbBlockEnd
  0
BLOCK
  5
348
100
AcDbEntity
  8
0
100
AcDbBlockBegin
  2
ELIPPSE
 70
          64
 10
0.0
 20
0.0
 30
0.0
  3
ELIPPSE
  1

  0
CIRCLE
  5
349
100
AcDbEntity
  8
0
  6
BYBLOCK
 62
           0
100
AcDbCircle
 10
0.0
 20
0.0
 30
0.0
 40
1.0
  0
ENDBLK
  5
34A
100
AcDbEntity
  8
0
  6
BYBLOCK
 62
           0
100
AcDbBlockEnd
  0
BLOCK
  5
34B
100
AcDbEntity
  8
0
100
AcDbBlockBegin
  2
MAK1
 70
          64
 10
0.0
 20
0.0
 30
0.0
  3
MAK1
  1

  0
LINE
  5
34C
100
AcDbEntity
  8
Frei
  6
CONTINUOUS
 62
           2
100
AcDbLine
 10
191.903508353413
 20
615.106916893559
 30
0.0
 11
192.293358480829
 21
615.496767020979
 31
0.0
  0
LINE
  5
34D
100
AcDbEntity
  8
Frei
  6
CONTINUOUS
 62
           2
100
AcDbLine
 10
191.903508353413
 20
614.04625672178
 30
0.0
 11
193.35401865261
 21
615.496767020977
 31
0.0
  0
LINE
  5
34E
100
AcDbEntity
  8
Frei
  6
CONTINUOUS
 62
           2
100
AcDbLine
 10
191.903508353411
 20
612.985596549999
 30
0.0
 11
193.903508353411
 21
614.985596549997
 31
0.0
  0
LINE
  5
34F
100
AcDbEntity
  8
Frei
  6
CONTINUOUS
 62
           2
100
AcDbLine
 10
191.903508353413
 20
611.92493637822
 30
0.0
 11
193.903508353413
 21
613.924936378218
 31
0.0
  0
LINE
  5
350
100
AcDbEntity
  8
Frei
  6
CONTINUOUS
 62
           2
100
AcDbLine
 10
191.903508353413
 20
610.864276206439
 30
0.0
 11
193.903508353413
 21
612.864276206439
 31
0.0
  0
LINE
  5
351
100
AcDbEntity
  8
Frei
  6
CONTINUOUS
 62
           2
100
AcDbLine
 10
191.903508353413
 20
609.803616034662
 30
0.0
 11
193.903508353413
 21
611.80361603466
 31
0.0
  0
LINE
  5
352
100
AcDbEntity
  8
Frei
  6
CONTINUOUS
 62
           2
100
AcDbLine
 10
191.903508353411
 20
608.742955862881
 30
0.0
 11
193.903508353411
 21
610.742955862881
 31
0.0
  0
LINE
  5
353
100
AcDbEntity
  8
Frei
  6
CONTINUOUS
 62
           2
100
AcDbLine
 10
191.903508353413
 20
607.6822956911
 30
0.0
 11
193.903508353413
 21
609.6822956911
 31
0.0
  0
LINE
  5
354
100
AcDbEntity
  8
Frei
  6
CONTINUOUS
 62
           2
100
AcDbLine
 10
191.903508353413
 20
606.621635519319
 30
0.0
 11
193.903508353413
 21
608.621635519319
 31
0.0
  0
LINE
  5
355
100
AcDbEntity
  8
Frei
  6
CONTINUOUS
 62
           2
100
AcDbLine
 10
191.903508353413
 20
605.56097534754
 30
0.0
 11
193.903508353413
 21
607.56097534754
 31
0.0
  0
LINE
  5
356
100
AcDbEntity
  8
Frei
  6
CONTINUOUS
 62
           2
100
AcDbLine
 10
191.903508353411
 20
604.500315175759
 30
0.0
 11
193.903508353413
 21
606.500315175763
 31
0.0
  0
LINE
  5
357
100
AcDbEntity
  8
Frei
  6
CONTINUOUS
 62
           2
100
AcDbLine
 10
191.903508353413
 20
603.439655003982
 30
0.0
 11
193.903508353413
 21
605.439655003982
 31
0.0
  0
LINE
  5
358
100
AcDbEntity
  8
Frei
  6
CONTINUOUS
 62
           2
100
AcDbLine
 10
191.903508353413
 20
602.378994832203
 30
0.0
 11
193.903508353413
 21
604.378994832203
 31
0.0
  0
LINE
  5
359
100
AcDbEntity
  8
Frei
  6
CONTINUOUS
 62
           2
100
AcDbLine
 10
191.903508353413
 20
601.318334660422
 30
0.0
 11
193.903508353413
 21
603.318334660422
 31
0.0
  0
LINE
  5
35A
100
AcDbEntity
  8
Frei
  6
CONTINUOUS
 62
           2
100
AcDbLine
 10
191.903508353411
 20
600.257674488643
 30
0.0
 11
193.903508353413
 21
602.257674488641
 31
0.0
  0
LINE
  5
35B
100
AcDbEntity
  8
Frei
  6
CONTINUOUS
 62
           2
100
AcDbLine
 10
191.903508353413
 20
599.197014316862
 30
0.0
 11
193.903508353413
 21
601.19701431686
 31
0.0
  0
LINE
  5
35C
100
AcDbEntity
  8
Frei
  6
CONTINUOUS
 62
           2
100
AcDbLine
 10
191.903508353413
 20
598.136354145081
 30
0.0
 11
193.903508353413
 21
600.136354145083
 31
0.0
  0
LINE
  5
35D
100
AcDbEntity
  8
Frei
  6
CONTINUOUS
 62
           2
100
AcDbLine
 10
191.903508353413
 20
597.075693973304
 30
0.0
 11
193.903508353413
 21
599.075693973304
 31
0.0
  0
LINE
  5
35E
100
AcDbEntity
  8
Frei
  6
CONTINUOUS
 62
           2
100
AcDbLine
 10
191.903508353411
 20
596.015033801525
 30
0.0
 11
193.903508353413
 21
598.015033801523
 31
0.0
  0
LINE
  5
35F
100
AcDbEntity
  8
Frei
  6
CONTINUOUS
 62
           2
100
AcDbLine
 10
192.445901744646
 20
595.496767020977
 30
0.0
 11
193.903508353413
 21
596.954373629744
 31
0.0
  0
LINE
  5
360
100
AcDbEntity
  8
Frei
  6
CONTINUOUS
 62
           2
100
AcDbLine
 10
193.506561916425
 20
595.496767020977
 30
0.0
 11
193.903508353413
 21
595.893713457963
 31
0.0
  0
LINE
  5
361
100
AcDbEntity
  8
Frei
  6
CONTINUOUS
 62
           2
100
AcDbLine
 10
192.573740611429
 20
595.496767020977
 30
0.0
 11
191.903508353411
 21
596.166999278998
 31
0.0
  0
LINE
  5
362
100
AcDbEntity
  8
Frei
  6
CONTINUOUS
 62
           2
100
AcDbLine
 10
193.63440078321
 20
595.496767020977
 30
0.0
 11
191.903508353413
 21
597.227659450777
 31
0.0
  0
LINE
  5
363
100
AcDbEntity
  8
Frei
  6
CONTINUOUS
 62
           2
100
AcDbLine
 10
193.903508353413
 20
596.288319622556
 30
0.0
 11
191.903508353413
 21
598.288319622554
 31
0.0
  0
LINE
  5
364
100
AcDbEntity
  8
Frei
  6
CONTINUOUS
 62
           2
100
AcDbLine
 10
193.903508353413
 20
597.348979794335
 30
0.0
 11
191.903508353413
 21
599.348979794335
 31
0.0
  0
LINE
  5
365
100
AcDbEntity
  8
Frei
  6
CONTINUOUS
 62
           2
100
AcDbLine
 10
193.903508353415
 20
598.409639966114
 30
0.0
 11
191.903508353411
 21
600.409639966114
 31
0.0
  0
LINE
  5
366
100
AcDbEntity
  8
Frei
  6
CONTINUOUS
 62
           2
100
AcDbLine
 10
193.903508353411
 20
599.470300137895
 30
0.0
 11
191.903508353413
 21
601.470300137895
 31
0.0
  0
LINE
  5
367
100
AcDbEntity
  8
Frei
  6
CONTINUOUS
 62
           2
100
AcDbLine
 10
193.903508353413
 20
600.530960309674
 30
0.0
 11
191.903508353413
 21
602.530960309674
 31
0.0
  0
LINE
  5
368
100
AcDbEntity
  8
Frei
  6
CONTINUOUS
 62
           2
100
AcDbLine
 10
193.903508353413
 20
601.591620481455
 30
0.0
 11
191.903508353413
 21
603.591620481455
 31
0.0
  0
LINE
  5
369
100
AcDbEntity
  8
Frei
  6
CONTINUOUS
 62
           2
100
AcDbLine
 10
193.903508353415
 20
602.652280653234
 30
0.0
 11
191.903508353411
 21
604.652280653232
 31
0.0
  0
LINE
  5
36A
100
AcDbEntity
  8
Frei
  6
CONTINUOUS
 62
           2
100
AcDbLine
 10
193.903508353411
 20
603.712940825013
 30
0.0
 11
191.903508353413
 21
605.712940825013
 31
0.0
  0
LINE
  5
36B
100
AcDbEntity
  8
Frei
  6
CONTINUOUS
 62
           2
100
AcDbLine
 10
193.903508353411
 20
604.773600996792
 30
0.0
 11
191.903508353413
 21
606.773600996792
 31
0.0
  0
LINE
  5
36C
100
AcDbEntity
  8
Frei
  6
CONTINUOUS
 62
           2
100
AcDbLine
 10
193.903508353413
 20
605.834261168573
 30
0.0
 11
191.903508353413
 21
607.834261168573
 31
0.0
  0
LINE
  5
36D
100
AcDbEntity
  8
Frei
  6
CONTINUOUS
 62
           2
100
AcDbLine
 10
193.903508353413
 20
606.894921340352
 30
0.0
 11
191.903508353411
 21
608.894921340354
 31
0.0
  0
LINE
  5
36E
100
AcDbEntity
  8
Frei
  6
CONTINUOUS
 62
           2
100
AcDbLine
 10
193.903508353411
 20
607.955581512135
 30
0.0
 11
191.903508353413
 21
609.955581512133
 31
0.0
  0
LINE
  5
36F
100
AcDbEntity
  8
Frei
  6
CONTINUOUS
 62
           2
100
AcDbLine
 10
193.903508353411
 20
609.016241683914
 30
0.0
 11
191.903508353413
 21
611.016241683912
 31
0.0
  0
LINE
  5
370
100
AcDbEntity
  8
Frei
  6
CONTINUOUS
 62
           2
100
AcDbLine
 10
193.903508353413
 20
610.076901855691
 30
0.0
 11
191.903508353413
 21
612.076901855691
 31
0.0
  0
LINE
  5
371
100
AcDbEntity
  8
Frei
  6
CONTINUOUS
 62
           2
100
AcDbLine
 10
193.903508353413
 20
611.137562027472
 30
0.0
 11
191.903508353411
 21
613.137562027472
 31
0.0
  0
LINE
  5
372
100
AcDbEntity
  8
Frei
  6
CONTINUOUS
 62
           2
100
AcDbLine
 10
193.903508353413
 20
612.198222199251
 30
0.0
 11
191.903508353413
 21
614.198222199253
 31
0.0
  0
LINE
  5
373
100
AcDbEntity
  8
Frei
  6
CONTINUOUS
 62
           2
100
AcDbLine
 10
193.903508353411
 20
613.258882371032
 30
0.0
 11
191.903508353413
 21
615.258882371032
 31
0.0
  0
LINE
  5
374
100
AcDbEntity
  8
Frei
  6
CONTINUOUS
 62
           2
100
AcDbLine
 10
193.903508353413
 20
614.319542542811
 30
0.0
 11
192.726283875247
 21
615.496767020977
 31
0.0
  0
LINE
  5
375
100
AcDbEntity
  8
Frei
  6
CONTINUOUS
 62
           2
100
AcDbLine
 10
193.903508353413
 20
615.380202714592
 30
0.0
 11
193.786944047024
 21
615.496767020977
 31
0.0
  0
ENDBLK
  5
376
100
AcDbEntity
  8
0
  6
BYBLOCK
 62
           0
100
AcDbBlockEnd
  0
BLOCK
  5
377
100
AcDbEntity
  8
0
100
AcDbBlockBegin
  2
MAK2
 70
          64
 10
0.0
 20
0.0
 30
0.0
  3
MAK2
  1

  0
LINE
  5
378
100
AcDbEntity
  8
Frei
  6
CONTINUOUS
 62
           2
100
AcDbLine
 10
-32.096491646589
 20
614.9062131391
 30
0.0
 11
-31.505937764714
 21
615.496767020977
 31
0.0
  0
LINE
  5
379
100
AcDbEntity
  8
Frei
  6
CONTINUOUS
 62
           2
100
AcDbLine
 10
-32.096491646589
 20
613.845552967321
 30
0.0
 11
-30.445277592935
 21
615.496767020979
 31
0.0
  0
LINE
  5
37A
100
AcDbEntity
  8
Frei
  6
CONTINUOUS
 62
           2
100
AcDbLine
 10
-32.096491646591
 20
612.78489279554
 30
0.0
 11
-30.096491646591
 21
614.78489279554
 31
0.0
  0
LINE
  5
37B
100
AcDbEntity
  8
Frei
  6
CONTINUOUS
 62
           2
100
AcDbLine
 10
-32.096491646587
 20
611.724232623759
 30
0.0
 11
-30.096491646587
 21
613.724232623763
 31
0.0
  0
LINE
  5
37C
100
AcDbEntity
  8
Frei
  6
CONTINUOUS
 62
           2
100
AcDbLine
 10
-32.096491646589
 20
610.663572451982
 30
0.0
 11
-30.096491646589
 21
612.663572451982
 31
0.0
  0
LINE
  5
37D
100
AcDbEntity
  8
Frei
  6
CONTINUOUS
 62
           2
100
AcDbLine
 10
-32.096491646589
 20
609.602912280203
 30
0.0
 11
-30.096491646589
 21
611.602912280201
 31
0.0
  0
LINE
  5
37E
100
AcDbEntity
  8
Frei
  6
CONTINUOUS
 62
           2
100
AcDbLine
 10
-32.096491646591
 20
608.542252108422
 30
0.0
 11
-30.096491646591
 21
610.542252108422
 31
0.0
  0
LINE
  5
37F
100
AcDbEntity
  8
Frei
  6
CONTINUOUS
 62
           2
100
AcDbLine
 10
-32.096491646589
 20
607.481591936643
 30
0.0
 11
-30.096491646587
 21
609.481591936641
 31
0.0
  0
LINE
  5
380
100
AcDbEntity
  8
Frei
  6
CONTINUOUS
 62
           2
100
AcDbLine
 10
-32.096491646589
 20
606.420931764864
 30
0.0
 11
-30.096491646589
 21
608.420931764862
 31
0.0
  0
LINE
  5
381
100
AcDbEntity
  8
Frei
  6
CONTINUOUS
 62
           2
100
AcDbLine
 10
-32.096491646589
 20
605.360271593083
 30
0.0
 11
-30.096491646589
 21
607.360271593083
 31
0.0
  0
LINE
  5
382
100
AcDbEntity
  8
Frei
  6
CONTINUOUS
 62
           2
100
AcDbLine
 10
-32.096491646591
 20
604.299611421304
 30
0.0
 11
-30.096491646591
 21
606.299611421304
 31
0.0
  0
LINE
  5
383
100
AcDbEntity
  8
Frei
  6
CONTINUOUS
 62
           2
100
AcDbLine
 10
-32.096491646589
 20
603.238951249525
 30
0.0
 11
-30.096491646589
 21
605.238951249523
 31
0.0
  0
LINE
  5
384
100
AcDbEntity
  8
Frei
  6
CONTINUOUS
 62
           2
100
AcDbLine
 10
-32.096491646589
 20
602.178291077742
 30
0.0
 11
-30.096491646589
 21
604.178291077742
 31
0.0
  0
LINE
  5
385
100
AcDbEntity
  8
Frei
  6
CONTINUOUS
 62
           2
100
AcDbLine
 10
-32.096491646589
 20
601.117630905963
 30
0.0
 11
-30.096491646589
 21
603.117630905963
 31
0.0
  0
LINE
  5
386
100
AcDbEntity
  8
Frei
  6
CONTINUOUS
 62
           2
100
AcDbLine
 10
-32.096491646591
 20
600.056970734182
 30
0.0
 11
-30.096491646591
 21
602.056970734184
 31
0.0
  0
LINE
  5
387
100
AcDbEntity
  8
Frei
  6
CONTINUOUS
 62
           2
100
AcDbLine
 10
-32.096491646589
 20
598.996310562403
 30
0.0
 11
-30.096491646589
 21
600.996310562405
 31
0.0
  0
LINE
  5
388
100
AcDbEntity
  8
Frei
  6
CONTINUOUS
 62
           2
100
AcDbLine
 10
-32.096491646589
 20
597.935650390626
 30
0.0
 11
-30.096491646589
 21
599.935650390626
 31
0.0
  0
LINE
  5
389
100
AcDbEntity
  8
Frei
  6
CONTINUOUS
 62
           2
100
AcDbLine
 10
-32.096491646589
 20
596.874990218845
 30
0.0
 11
-30.096491646589
 21
598.874990218847
 31
0.0
  0
LINE
  5
38A
100
AcDbEntity
  8
Frei
  6
CONTINUOUS
 62
           2
100
AcDbLine
 10
-32.096491646591
 20
595.814330047066
 30
0.0
 11
-30.096491646591
 21
597.814330047064
 31
0.0
  0
LINE
  5
38B
100
AcDbEntity
  8
Frei
  6
CONTINUOUS
 62
           2
100
AcDbLine
 10
-31.353394500897
 20
595.496767020977
 30
0.0
 11
-30.096491646591
 21
596.753669875283
 31
0.0
  0
LINE
  5
38C
100
AcDbEntity
  8
Frei
  6
CONTINUOUS
 62
           2
100
AcDbLine
 10
-30.292734329116
 20
595.496767020977
 30
0.0
 11
-30.096491646589
 21
595.693009703504
 31
0.0
  0
LINE
  5
38D
100
AcDbEntity
  8
Frei
  6
CONTINUOUS
 62
           2
100
AcDbLine
 10
-31.225555634113
 20
595.496767020977
 30
0.0
 11
-32.096491646591
 21
596.367703033455
 31
0.0
  0
LINE
  5
38E
100
AcDbEntity
  8
Frei
  6
CONTINUOUS
 62
           2
100
AcDbLine
 10
-30.164895462332
 20
595.496767020977
 30
0.0
 11
-32.096491646589
 21
597.428363205232
 31
0.0
  0
LINE
  5
38F
100
AcDbEntity
  8
Frei
  6
CONTINUOUS
 62
           2
100
AcDbLine
 10
-30.096491646589
 20
596.489023377013
 30
0.0
 11
-32.096491646589
 21
598.489023377013
 31
0.0
  0
LINE
  5
390
100
AcDbEntity
  8
Frei
  6
CONTINUOUS
 62
           2
100
AcDbLine
 10
-30.096491646589
 20
597.549683548792
 30
0.0
 11
-32.096491646589
 21
599.549683548794
 31
0.0
  0
LINE
  5
391
100
AcDbEntity
  8
Frei
  6
CONTINUOUS
 62
           2
100
AcDbLine
 10
-30.096491646589
 20
598.610343720573
 30
0.0
 11
-32.096491646591
 21
600.610343720573
 31
0.0
  0
LINE
  5
392
100
AcDbEntity
  8
Frei
  6
CONTINUOUS
 62
           2
100
AcDbLine
 10
-30.096491646589
 20
599.671003892352
 30
0.0
 11
-32.096491646589
 21
601.671003892352
 31
0.0
  0
LINE
  5
393
100
AcDbEntity
  8
Frei
  6
CONTINUOUS
 62
           2
100
AcDbLine
 10
-30.096491646589
 20
600.731664064133
 30
0.0
 11
-32.096491646589
 21
602.731664064133
 31
0.0
  0
LINE
  5
394
100
AcDbEntity
  8
Frei
  6
CONTINUOUS
 62
           2
100
AcDbLine
 10
-30.096491646589
 20
601.792324235912
 30
0.0
 11
-32.096491646589
 21
603.79232423591
 31
0.0
  0
LINE
  5
395
100
AcDbEntity
  8
Frei
  6
CONTINUOUS
 62
           2
100
AcDbLine
 10
-30.096491646589
 20
602.852984407691
 30
0.0
 11
-32.096491646591
 21
604.852984407691
 31
0.0
  0
LINE
  5
396
100
AcDbEntity
  8
Frei
  6
CONTINUOUS
 62
           2
100
AcDbLine
 10
-30.096491646589
 20
603.91364457947
 30
0.0
 11
-32.096491646589
 21
605.91364457947
 31
0.0
  0
LINE
  5
397
100
AcDbEntity
  8
Frei
  6
CONTINUOUS
 62
           2
100
AcDbLine
 10
-30.096491646589
 20
604.974304751251
 30
0.0
 11
-32.096491646589
 21
606.974304751253
 31
0.0
  0
LINE
  5
398
100
AcDbEntity
  8
Frei
  6
CONTINUOUS
 62
           2
100
AcDbLine
 10
-30.096491646589
 20
606.034964923032
 30
0.0
 11
-32.096491646589
 21
608.034964923032
 31
0.0
  0
LINE
  5
399
100
AcDbEntity
  8
Frei
  6
CONTINUOUS
 62
           2
100
AcDbLine
 10
-30.096491646589
 20
607.095625094813
 30
0.0
 11
-32.096491646591
 21
609.095625094813
 31
0.0
  0
LINE
  5
39A
100
AcDbEntity
  8
Frei
  6
CONTINUOUS
 62
           2
100
AcDbLine
 10
-30.096491646589
 20
608.156285266592
 30
0.0
 11
-32.096491646589
 21
610.15628526659
 31
0.0
  0
LINE
  5
39B
100
AcDbEntity
  8
Frei
  6
CONTINUOUS
 62
           2
100
AcDbLine
 10
-30.096491646589
 20
609.216945438369
 30
0.0
 11
-32.096491646589
 21
611.216945438369
 31
0.0
  0
LINE
  5
39C
100
AcDbEntity
  8
Frei
  6
CONTINUOUS
 62
           2
100
AcDbLine
 10
-30.096491646589
 20
610.27760561015
 30
0.0
 11
-32.096491646589
 21
612.27760561015
 31
0.0
  0
LINE
  5
39D
100
AcDbEntity
  8
Frei
  6
CONTINUOUS
 62
           2
100
AcDbLine
 10
-30.096491646589
 20
611.338265781929
 30
0.0
 11
-32.096491646591
 21
613.338265781931
 31
0.0
  0
LINE
  5
39E
100
AcDbEntity
  8
Frei
  6
CONTINUOUS
 62
           2
100
AcDbLine
 10
-30.096491646589
 20
612.39892595371
 30
0.0
 11
-32.096491646589
 21
614.39892595371
 31
0.0
  0
LINE
  5
39F
100
AcDbEntity
  8
Frei
  6
CONTINUOUS
 62
           2
100
AcDbLine
 10
-30.096491646589
 20
613.459586125489
 30
0.0
 11
-32.096491646589
 21
615.459586125489
 31
0.0
  0
LINE
  5
3A0
100
AcDbEntity
  8
Frei
  6
CONTINUOUS
 62
           2
100
AcDbLine
 10
-30.096491646589
 20
614.52024629727
 30
0.0
 11
-31.073012370296
 21
615.496767020977
 31
0.0
  0
ENDBLK
  5
3A1
100
AcDbEntity
  8
0
  6
BYBLOCK
 62
           0
100
AcDbBlockEnd
  0
ENDSEC
  0
SECTION
  2
ENTITIES
  0
INSERT
  5
26
100
AcDbEntity
  8
FREI
  6
CONTINUOUS
 62
           7
100
AcDbBlockReference
  2
MAK1
 10
-14239.202173437434
 20
-12077.889753616162
 30
0.0
 50
356.344999999999
  0
INSERT
  5
27
100
AcDbEntity
  8
FREI
  6
CONTINUOUS
 62
           7
100
AcDbBlockReference
  2
MAK2
 10
-14239.202173437434
 20
-12077.889753616162
 30
0.0
 50
356.344999999999
  0
LINE
  5
28
100
AcDbEntity
  8
FREI
  6
CONTINUOUS
 62
          15
100
AcDbLine
 10
-14355.669292189641
 20
-11233.138879067741
 30
0.0
 11
-14587.563054849974
 21
-11329.192420591378
 31
0.0
  0
LINE
  5
29
100
AcDbEntity
  8
FREI
  6
CONTINUOUS
 62
          15
100
AcDbLine
 10
-14442.914916092426
 20
-11678.403918951873
 30
0.0
 11
-14415.355510285684
 21
-11744.938210221459
 31
0.0
  0
LINE
  5
2A
100
AcDbEntity
  8
FREI
  6
CONTINUOUS
 62
          15
100
AcDbLine
 10
-14587.563054849974
 20
-11329.192420591378
 30
0.0
 11
-14578.755137229122
 21
-11350.456614767907
 31
0.0
  0
LINE
  5
2B
100
AcDbEntity
  8
FREI
  6
CONTINUOUS
 62
          15
100
AcDbLine
 10
-14415.355510285684
 20
-11744.938210221459
 30
0.0
 11
-14183.461747625352
 21
-11648.884668697818
 31
0.0
  0
LINE
  5
2C
100
AcDbEntity
  8
FREI
  6
CONTINUOUS
 62
          15
100
AcDbLine
 10
-14269.447443351941
 20
-11441.296835904599
 30
0.0
 11
-14355.669292189641
 21
-11233.138879067741
 31
0.0
  0
LINE
  5
2D
100
AcDbEntity
  8
FREI
  6
GESTRICHELT
 62
          15
100
AcDbLine
 10
-14236.310358362094
 20
-11521.296835904599
 30
0.0
 11
-14269.447443351941
 21
-11441.296835904599
 31
0.0
  0
LINE
  5
2E
100
AcDbEntity
  8
FREI
  6
CONTINUOUS
 62
          15
100
AcDbLine
 10
-14183.461747625352
 20
-11648.884668697818
 30
0.0
 11
-14236.310358362094
 21
-11521.296835904599
 31
0.0
  0
LINE
  5
2F
100
AcDbEntity
  8
FREI
  6
STRICHPUNKT
 62
          15
100
AcDbLine
 10
-14299.408628955518
 20
-11696.911439459636
 30
0.0
 11
-14471.616173519809
 21
-11281.16564982956
 31
0.0
  0
LINE
  5
30
100
AcDbEntity
  8
FREI
  6
STRICHPUNKT
 62
          15
100
AcDbLine
 10
-14442.914916092426
 20
-11350.456614767903
 30
0.0
 11
-14586.421203229334
 21
-11696.911439459636
 31
0.0
  0
LINE
  5
31
100
AcDbEntity
  8
FREI
  6
CONTINUOUS
 62
          15
100
AcDbLine
 10
-14578.755137229122
 20
-11350.456614767907
 30
0.0
 11
-14702.368084559503
 21
-11648.884668697818
 31
0.0
  0
LINE
  5
32
100
AcDbEntity
  8
FREI
  6
CONTINUOUS
 62
          15
100
AcDbLine
 10
-14442.914916092426
 20
-11678.403918951873
 30
0.0
 11
-14470.47432189917
 21
-11744.938210221451
 31
0.0
  0
LINE
  5
33
100
AcDbEntity
  8
FREI
  6
CONTINUOUS
 62
          15
100
AcDbLine
 10
-14307.074694955732
 20
-11350.456614767903
 30
0.0
 11
-14578.755137229122
 21
-11350.456614767907
 31
0.0
  0
LINE
  5
34
100
AcDbEntity
  8
FREI
  6
CONTINUOUS
 62
          15
100
AcDbLine
 10
-14442.914916092426
 20
-11441.296835904599
 30
0.0
 11
-14442.914916092426
 21
-11350.456614767903
 31
0.0
  0
LINE
  5
35
100
AcDbEntity
  8
FREI
  6
GESTRICHELT
 62
          15
100
AcDbLine
 10
-14442.914916092426
 20
-11476.296835904599
 30
0.0
 11
-14442.914916092426
 21
-11441.296835904599
 31
0.0
  0
LINE
  5
36
100
AcDbEntity
  8
FREI
  6
GESTRICHELT
 62
          15
100
AcDbLine
 10
-14442.914916092426
 20
-11521.296835904599
 30
0.0
 11
-14442.914916092426
 21
-11496.296835904599
 31
0.0
  0
LINE
  5
37
100
AcDbEntity
  8
FREI
  6
CONTINUOUS
 62
          15
100
AcDbLine
 10
-14442.914916092426
 20
-11678.403918951873
 30
0.0
 11
-14442.914916092426
 21
-11521.296835904599
 31
0.0
  0
LINE
  5
38
100
AcDbEntity
  8
FREI
  6
CONTINUOUS
 62
          15
100
AcDbLine
 10
-14702.368084559503
 20
-11648.884668697818
 30
0.0
 11
-14470.47432189917
 21
-11744.938210221451
 31
0.0
  0
CIRCLE
  5
39
100
AcDbEntity
  8
FREI
  6
CONTINUOUS
 62
          15
100
AcDbCircle
 10
-14442.914916092426
 20
-11486.296835904599
 30
0.0
 40
10.0
  0
CIRCLE
  5
3A
100
AcDbEntity
  8
Frei
  6
CONTINUOUS
 62
           7
100
AcDbCircle
 10
-13952.025969092427
 20
-11486.296835904599
 30
0.0
 40
6.25
  0
CIRCLE
  5
3B
100
AcDbEntity
  8
FREI
  6
CONTINUOUS
 62
          15
100
AcDbCircle
 10
-14377.319469284126
 20
-11459.126312206678
 30
0.0
 40
8.25
  0
ARC
  5
3C
100
AcDbEntity
  8
FREI
  6
CONTINUOUS
 62
          15
100
AcDbCircle
 10
-14442.914916092426
 20
-11486.296835904599
 30
0.0
 40
20.25
100
AcDbArc
 50
110.885820858497
 51
319.617816039371
  0
ARC
  5
3D
100
AcDbEntity
  8
FREI
  6
CONTINUOUS
 62
          15
100
AcDbCircle
 10
-14377.319469284126
 20
-11459.126312206678
 30
0.0
 40
18.25
100
AcDbArc
 50
57.570939232536
 51
110.885820858496
  0
ARC
  5
3E
100
AcDbEntity
  8
FREI
  6
GESTRICHELT
 62
          15
100
AcDbCircle
 10
-14377.319469284126
 20
-11459.126312206678
 30
0.0
 40
18.25
100
AcDbArc
 50
295.074360346149
 51
57.570939232536
  0
ARC
  5
3F
100
AcDbEntity
  8
FREI
  6
CONTINUOUS
 62
          15
100
AcDbCircle
 10
-14377.319469284126
 20
-11459.126312206678
 30
0.0
 40
18.25
100
AcDbArc
 50
237.615639653848
 51
295.074360346149
  0
ARC
  5
40
100
AcDbEntity
  8
FREI
  6
GESTRICHELT
 62
          15
100
AcDbCircle
 10
-14377.319469284126
 20
-11459.126312206678
 30
0.0
 40
18.25
100
AcDbArc
 50
211.802481262961
 51
237.615639653848
  0
LINE
  5
41
100
AcDbEntity
  8
FREI
  6
CONTINUOUS
 62
          15
100
AcDbLine
 10
-14385.186237986438
 20
-11442.59461608647
 30
0.0
 11
-14383.825718352929
 21
-11442.075469909163
 31
0.0
  0
LINE
  5
42
100
AcDbEntity
  8
FREI
  6
GESTRICHELT
 62
          15
100
AcDbLine
 10
-14393.969207486905
 20
-11445.946015749703
 30
0.0
 11
-14385.186237986438
 21
-11442.59461608647
 31
0.0
  0
LINE
  5
43
100
AcDbEntity
  8
FREI
  6
CONTINUOUS
 62
          15
100
AcDbLine
 10
-14450.134178757811
 20
-11467.377408149823
 30
0.0
 11
-14393.969207486905
 21
-11445.946015749703
 31
0.0
  0
LINE
  5
44
100
AcDbEntity
  8
FREI
  6
CONTINUOUS
 62
          15
100
AcDbLine
 10
-14400.8876428152
 20
-11468.139474818861
 30
0.0
 11
-14427.489685088591
 21
-11499.416468082301
 31
0.0
  0
ARC
  5
45
100
AcDbEntity
  8
FREI
  6
CONTINUOUS
 62
          15
100
AcDbCircle
 10
-14397.078943801907
 20
-11471.378890171381
 30
0.0
 40
5.0
100
AcDbArc
 50
84.4865011185
 51
139.617816039369
  0
ARC
  5
46
100
AcDbEntity
  8
FREI
  6
GESTRICHELT
 62
          15
100
AcDbCircle
 10
-14397.078943801907
 20
-11471.378890171381
 30
0.0
 40
5.0
100
AcDbArc
 50
31.802481262955
 51
84.4865011185
  0
LINE
  5
47
100
AcDbEntity
  8
Frei
  6
GESTRICHELT
 62
           7
100
AcDbLine
 10
-13975.008678651684
 20
-11484.828550081391
 30
0.0
 11
-13973.733708104957
 21
-11464.869230200567
 31
0.0
  0
LINE
  5
48
100
AcDbEntity
  8
Frei
  6
GESTRICHELT
 62
           7
100
AcDbLine
 10
-13973.733708104957
 20
-11464.869230200567
 30
0.0
 11
-13977.725572081121
 21
-11464.614236091224
 31
0.0
  0
LINE
  5
49
100
AcDbEntity
  8
Frei
  6
CONTINUOUS
 62
           7
100
AcDbLine
 10
-13976.960589753086
 20
-11452.638644162729
 30
0.0
 11
-14006.500383176703
 21
-11450.751687753575
 31
0.0
  0
LINE
  5
4A
100
AcDbEntity
  8
Frei
  6
CONTINUOUS
 62
           7
100
AcDbLine
 10
-14006.500383176703
 20
-11450.751687753575
 30
0.0
 11
-14006.532257440371
 21
-11451.250670750595
 31
0.0
  0
LINE
  5
4B
100
AcDbEntity
  8
Frei
  6
CONTINUOUS
 62
           7
100
AcDbLine
 10
-14006.532257440371
 20
-11451.250670750595
 30
0.0
 11
-14228.770986957707
 21
-11437.054589545496
 31
0.0
  0
LINE
  5
4C
100
AcDbEntity
  8
Frei
  6
CONTINUOUS
 62
           7
100
AcDbLine
 10
-14228.770986957707
 20
-11437.054589545496
 30
0.0
 11
-14228.739112694038
 21
-11436.555606548476
 31
0.0
  0
LINE
  5
4D
100
AcDbEntity
  8
Frei
  6
CONTINUOUS
 62
           7
100
AcDbLine
 10
-14228.739112694038
 20
-11436.555606548476
 30
0.0
 11
-14258.278906117655
 21
-11434.66865013932
 31
0.0
  0
LINE
  5
4E
100
AcDbEntity
  8
Frei
  6
CONTINUOUS
 62
           7
100
AcDbLine
 10
-14258.278906117655
 20
-11434.66865013932
 30
0.0
 11
-14259.043888445691
 21
-11446.644242067814
 31
0.0
  0
LINE
  5
4F
100
AcDbEntity
  8
Frei
  6
CONTINUOUS
 62
           7
100
AcDbLine
 10
-14259.043888445691
 20
-11446.644242067814
 30
0.0
 11
-14270.520497377165
 21
-11445.911134003445
 31
0.0
  0
LINE
  5
50
100
AcDbEntity
  8
Frei
  6
CONTINUOUS
 62
           7
100
AcDbLine
 10
-14270.520497377165
 20
-11445.911134003445
 30
0.0
 11
-14270.5842459045
 21
-11446.909099997487
 31
0.0
  0
LINE
  5
51
100
AcDbEntity
  8
Frei
  6
CONTINUOUS
 62
           7
100
AcDbLine
 10
-14270.5842459045
 20
-11446.909099997487
 30
0.0
 11
-14287.05068480618
 21
-11445.857249296438
 31
0.0
  0
LINE
  5
52
100
AcDbEntity
  8
Frei
  6
CONTINUOUS
 62
           7
100
AcDbLine
 10
-14287.05068480618
 20
-11445.857249296438
 30
0.0
 11
-14289.47312884496
 21
-11483.779957069999
 31
0.0
  0
LINE
  5
53
100
AcDbEntity
  8
Frei
  6
CONTINUOUS
 62
           7
100
AcDbLine
 10
-14289.47312884496
 20
-11483.779957069999
 30
0.0
 11
-14273.00668994328
 21
-11484.831807771048
 31
0.0
  0
LINE
  5
54
100
AcDbEntity
  8
Frei
  6
CONTINUOUS
 62
           7
100
AcDbLine
 10
-14273.00668994328
 20
-11484.831807771048
 30
0.0
 11
-14273.070438470617
 21
-11485.82977376509
 31
0.0
  0
LINE
  5
55
100
AcDbEntity
  8
Frei
  6
CONTINUOUS
 62
           7
100
AcDbLine
 10
-14273.070438470617
 20
-11485.82977376509
 30
0.0
 11
-14261.593829539144
 21
-11486.562881829457
 31
0.0
  0
LINE
  5
56
100
AcDbEntity
  8
Frei
  6
CONTINUOUS
 62
           7
100
AcDbLine
 10
-14261.593829539144
 20
-11486.562881829457
 30
0.0
 11
-14262.358811867181
 21
-11498.538473757952
 31
0.0
  0
LINE
  5
57
100
AcDbEntity
  8
Frei
  6
CONTINUOUS
 62
           7
100
AcDbLine
 10
-14262.358811867181
 20
-11498.538473757952
 30
0.0
 11
-14232.819018443564
 21
-11500.425430167106
 31
0.0
  0
LINE
  5
58
100
AcDbEntity
  8
Frei
  6
CONTINUOUS
 62
           7
100
AcDbLine
 10
-14232.819018443564
 20
-11500.425430167106
 30
0.0
 11
-14232.787144179896
 21
-11499.926447170086
 31
0.0
  0
LINE
  5
59
100
AcDbEntity
  8
Frei
  6
CONTINUOUS
 62
           7
100
AcDbLine
 10
-14012.390497261184
 20
-11514.00486052218
 30
0.0
 11
-14010.548414662559
 21
-11514.122528375185
 31
0.0
  0
LINE
  5
5A
100
AcDbEntity
  8
Frei
  6
GESTRICHELT
 62
           7
100
AcDbLine
 10
-14040.333546580647
 20
-11512.219925024579
 30
0.0
 11
-14012.390497261184
 21
-11514.00486052218
 31
0.0
  0
LINE
  5
5B
100
AcDbEntity
  8
Frei
  6
CONTINUOUS
 62
           7
100
AcDbLine
 10
-14203.002012261808
 20
-11501.82905052069
 30
0.0
 11
-14040.333546580647
 21
-11512.219925024579
 31
0.0
  0
LINE
  5
5C
100
AcDbEntity
  8
Frei
  6
GESTRICHELT
 62
           7
100
AcDbLine
 10
-14230.945061581271
 20
-11500.044115023089
 30
0.0
 11
-14203.002012261808
 21
-11501.82905052069
 31
0.0
  0
LINE
  5
5D
100
AcDbEntity
  8
Frei
  6
CONTINUOUS
 62
           7
100
AcDbLine
 10
-14232.787144179896
 20
-11499.926447170086
 30
0.0
 11
-14230.945061581271
 21
-11500.044115023089
 31
0.0
  0
LINE
  5
5E
100
AcDbEntity
  8
Frei
  6
CONTINUOUS
 62
           7
100
AcDbLine
 10
-14010.548414662559
 20
-11514.122528375185
 30
0.0
 11
-14010.580288926227
 21
-11514.621511372205
 31
0.0
  0
LINE
  5
5F
100
AcDbEntity
  8
Frei
  6
CONTINUOUS
 62
           7
100
AcDbLine
 10
-14010.580288926227
 20
-11514.621511372205
 30
0.0
 11
-13981.040495502612
 21
-11516.508467781359
 31
0.0
  0
LINE
  5
60
100
AcDbEntity
  8
Frei
  6
GESTRICHELT
 62
           7
100
AcDbLine
 10
-13980.275513174574
 20
-11504.532875852867
 30
0.0
 11
-13976.283649198411
 21
-11504.787869962212
 31
0.0
  0
LINE
  5
61
100
AcDbEntity
  8
Frei
  6
GESTRICHELT
 62
           7
100
AcDbLine
 10
-13976.283649198411
 20
-11504.787869962212
 30
0.0
 11
-13975.008678651684
 21
-11484.828550081391
 31
0.0
  0
LINE
  5
62
100
AcDbEntity
  8
Frei
  6
CONTINUOUS
 62
           7
100
AcDbLine
 10
-14009.381822522828
 20
-11495.859843211892
 30
0.0
 11
-14010.548414662559
 21
-11514.122528375185
 31
0.0
  0
LINE
  5
63
100
AcDbEntity
  8
Frei
  6
GESTRICHELT
 62
           7
100
AcDbLine
 10
-14008.106851976103
 20
-11475.900523331071
 30
0.0
 11
-14009.381822522828
 21
-11495.859843211892
 31
0.0
  0
LINE
  5
64
100
AcDbEntity
  8
Frei
  6
CONTINUOUS
 62
           7
100
AcDbLine
 10
-14006.532257440371
 20
-11451.250670750595
 30
0.0
 11
-14008.106851976103
 21
-11475.900523331071
 31
0.0
  0
LINE
  5
65
100
AcDbEntity
  8
Frei
  6
CONTINUOUS
 62
           7
100
AcDbLine
 10
-14231.620540219117
 20
-11481.663576951471
 30
0.0
 11
-14232.787144179896
 21
-11499.926447170086
 31
0.0
  0
LINE
  5
66
100
AcDbEntity
  8
Frei
  6
GESTRICHELT
 62
           7
100
AcDbLine
 10
-14230.34556967239
 20
-11461.704257070649
 30
0.0
 11
-14231.620540219117
 21
-11481.663576951471
 31
0.0
  0
LINE
  5
67
100
AcDbEntity
  8
Frei
  6
CONTINUOUS
 62
           7
100
AcDbLine
 10
-14228.770986957707
 20
-11437.054589545496
 30
0.0
 11
-14230.34556967239
 21
-11461.704257070649
 31
0.0
  0
LINE
  5
68
100
AcDbEntity
  8
Frei
  6
CONTINUOUS
 62
           7
100
AcDbLine
 10
-14259.043888445691
 20
-11446.644242067814
 30
0.0
 11
-14261.593829539144
 21
-11486.562881829457
 31
0.0
  0
LINE
  5
69
100
AcDbEntity
  8
Frei
  6
CONTINUOUS
 62
           7
100
AcDbLine
 10
-14270.520497377165
 20
-11445.911134003445
 30
0.0
 11
-14273.070438470617
 21
-11485.82977376509
 31
0.0
  0
LINE
  5
6A
100
AcDbEntity
  8
Frei
  6
GESTRICHELT
 62
           7
100
AcDbLine
 10
-14304.966794542466
 20
-11455.735215527327
 30
0.0
 11
-14327.750295851447
 21
-11454.279840630103
 31
0.0
  0
LINE
  5
6B
100
AcDbEntity
  8
Frei
  6
CONTINUOUS
 62
           7
100
AcDbLine
 10
-14296.733612553249
 20
-11456.261138484862
 30
0.0
 11
-14304.966794542466
 21
-11455.735215527327
 31
0.0
  0
LINE
  5
6C
100
AcDbEntity
  8
Frei
  6
GESTRICHELT
 62
           7
100
AcDbLine
 10
-14305.986770979849
 20
-11471.702671431985
 30
0.0
 11
-14328.770272288828
 21
-11470.247296534759
 31
0.0
  0
LINE
  5
6D
100
AcDbEntity
  8
Frei
  6
CONTINUOUS
 62
           7
100
AcDbLine
 10
-14297.75358899063
 20
-11472.22859438952
 30
0.0
 11
-14305.986770979849
 21
-11471.702671431985
 31
0.0
  0
LINE
  5
6E
100
AcDbEntity
  8
Frei
  6
CONTINUOUS
 62
           7
100
AcDbLine
 10
-14328.727181932507
 20
-11455.139454039856
 30
0.0
 11
-14327.750295851447
 21
-11454.279840630103
 31
0.0
  0
LINE
  5
6F
100
AcDbEntity
  8
Frei
  6
CONTINUOUS
 62
           7
100
AcDbLine
 10
-14329.629843230003
 20
-11469.270373085001
 30
0.0
 11
-14328.770272288828
 21
-11470.247296534759
 31
0.0
  0
LINE
  5
70
100
AcDbEntity
  8
Frei
  6
GESTRICHELT
 62
           7
100
AcDbLine
 10
-14328.727181932507
 20
-11455.139454039856
 30
0.0
 11
-14329.629843230003
 21
-11469.270373085001
 31
0.0
  0
LINE
  5
71
100
AcDbEntity
  8
Frei
  6
CONTINUOUS
 62
           7
100
AcDbLine
 10
-14305.02545211241
 20
-11456.653483957085
 30
0.0
 11
-14296.792270123191
 21
-11457.17940691462
 31
0.0
  0
LINE
  5
72
100
AcDbEntity
  8
Frei
  6
GESTRICHELT
 62
           7
100
AcDbLine
 10
-14328.727181932507
 20
-11455.139454039856
 30
0.0
 11
-14305.02545211241
 21
-11456.653483957085
 31
0.0
  0
LINE
  5
73
100
AcDbEntity
  8
Frei
  6
CONTINUOUS
 62
           7
100
AcDbLine
 10
-14305.928113409906
 20
-11470.78440300223
 30
0.0
 11
-14297.694931420687
 21
-11471.310325959763
 31
0.0
  0
LINE
  5
74
100
AcDbEntity
  8
Frei
  6
GESTRICHELT
 62
           7
100
AcDbLine
 10
-14329.629843230003
 20
-11469.270373085001
 30
0.0
 11
-14305.928113409906
 21
-11470.78440300223
 31
0.0
  0
LINE
  5
75
100
AcDbEntity
  8
Frei
  6
GESTRICHELT
 62
           7
100
AcDbLine
 10
-14327.750295851447
 20
-11454.279840630103
 30
0.0
 11
-14328.770272288828
 21
-11470.247296534759
 31
0.0
  0
LINE
  5
76
100
AcDbEntity
  8
Frei
  6
CONTINUOUS
 62
           7
100
AcDbLine
 10
-14287.624421552206
 20
-11454.838943242807
 30
0.0
 11
-14296.606115498576
 21
-11454.265206496781
 31
0.0
  0
LINE
  5
77
100
AcDbEntity
  8
Frei
  6
CONTINUOUS
 62
           7
100
AcDbLine
 10
-14296.606115498576
 20
-11454.265206496781
 30
0.0
 11
-14297.881086045303
 21
-11474.224526377602
 31
0.0
  0
LINE
  5
78
100
AcDbEntity
  8
Frei
  6
CONTINUOUS
 62
           7
100
AcDbLine
 10
-14297.881086045303
 20
-11474.224526377602
 30
0.0
 11
-14288.899392098932
 21
-11474.798263123628
 31
0.0
  0
LINE
  5
79
100
AcDbEntity
  8
Frei
  6
CONTINUOUS
 62
           7
100
AcDbLine
 10
-14296.90778436718
 20
-11458.987751234801
 30
0.0
 11
-14290.254674413687
 21
-11459.41274162954
 31
0.0
  0
LINE
  5
7A
100
AcDbEntity
  8
Frei
  6
CONTINUOUS
 62
           7
100
AcDbLine
 10
-14297.579417176697
 20
-11469.501981639582
 30
0.0
 11
-14290.926307223202
 21
-11469.926972034318
 31
0.0
  0
LINE
  5
7B
100
AcDbEntity
  8
Frei
  6
CONTINUOUS
 62
           7
100
AcDbLine
 10
-14290.254674413687
 20
-11459.41274162954
 30
0.0
 11
-14290.926307223202
 21
-11469.926972034318
 31
0.0
  0
LINE
  5
7C
100
AcDbEntity
  8
Frei
  6
CONTINUOUS
 62
           7
100
AcDbLine
 10
-14296.90778436718
 20
-11458.987751234801
 30
0.0
 11
-14290.926307223202
 21
-11469.926972034318
 31
0.0
  0
LINE
  5
7D
100
AcDbEntity
  8
Frei
  6
CONTINUOUS
 62
           7
100
AcDbLine
 10
-14290.254674413687
 20
-11459.41274162954
 30
0.0
 11
-14297.579417176697
 21
-11469.501981639582
 31
0.0
  0
CIRCLE
  5
7E
100
AcDbEntity
  8
Frei
  6
CONTINUOUS
 62
           7
100
AcDbCircle
 10
-14246.889197558201
 20
-11475.978752280693
 30
0.0
 40
5.7225
  0
ARC
  5
7F
100
AcDbEntity
  8
Frei
  6
CONTINUOUS
 62
           7
100
AcDbCircle
 10
-14246.889197558201
 20
-11475.978752280693
 30
0.0
 40
6.5785
100
AcDbArc
 50
106.345
 51
16.345
  0
CIRCLE
  5
80
100
AcDbEntity
  8
Frei
  6
CONTINUOUS
 62
           7
100
AcDbCircle
 10
-13992.430204062064
 20
-11475.198365639986
 30
0.0
 40
5.7225
  0
ARC
  5
81
100
AcDbEntity
  8
Frei
  6
CONTINUOUS
 62
           7
100
AcDbCircle
 10
-13992.430204062064
 20
-11475.198365639986
 30
0.0
 40
6.57849
100
AcDbArc
 50
106.345
 51
16.345
  0
LINE
  5
82
100
AcDbEntity
  8
Frei
  6
CONTINUOUS
 62
           7
100
AcDbLine
 10
-14235.630133567909
 20
-11454.072944485672
 30
0.0
 11
-14244.568388971544
 21
-11461.937831092959
 31
0.0
  0
LINE
  5
83
100
AcDbEntity
  8
Frei
  6
CONTINUOUS
 62
           7
100
AcDbLine
 10
-14236.621058034842
 20
-11452.946783892845
 30
0.0
 11
-14245.559316625904
 21
-11460.811720398433
 31
0.0
  0
CIRCLE
  5
84
100
AcDbEntity
  8
Frei
  6
CONTINUOUS
 62
           7
100
AcDbCircle
 10
-14240.594723821936
 20
-11457.442312482732
 30
0.0
 40
6.0
  0
LINE
  5
85
100
AcDbEntity
  8
Frei
  6
CONTINUOUS
 62
           7
100
AcDbLine
 10
-13993.759785604565
 20
-11490.365416646806
 30
0.0
 11
-14002.698343585424
 21
-11498.230334027834
 31
0.0
  0
LINE
  5
86
100
AcDbEntity
  8
Frei
  6
CONTINUOUS
 62
           7
100
AcDbLine
 10
-13994.751012648723
 20
-11489.239286827722
 30
0.0
 11
-14003.689567442156
 21
-11497.104154310451
 31
0.0
  0
CIRCLE
  5
87
100
AcDbEntity
  8
Frei
  6
CONTINUOUS
 62
           7
100
AcDbCircle
 10
-13998.724677798331
 20
-11493.734805437949
 30
0.0
 40
6.0
  0
LINE
  5
88
100
AcDbEntity
  8
Frei
  6
CONTINUOUS
 62
           7
100
AcDbLine
 10
-14305.084830623029
 20
-11449.858938518568
 30
0.0
 11
-14308.580206517159
 21
-11449.635659301572
 31
0.0
  0
LINE
  5
89
100
AcDbEntity
  8
Frei
  6
CONTINUOUS
 62
           7
100
AcDbLine
 10
-14312.075582411288
 20
-11449.412380084577
 30
0.0
 11
-14308.580206517159
 21
-11449.635659301572
 31
0.0
  0
LINE
  5
8A
100
AcDbEntity
  8
Frei
  6
CONTINUOUS
 62
           7
100
AcDbLine
 10
-14313.842283598475
 20
-11477.069610457034
 30
0.0
 11
-14310.346907704346
 21
-11477.29288967403
 31
0.0
  0
LINE
  5
8B
100
AcDbEntity
  8
Frei
  6
CONTINUOUS
 62
           7
100
AcDbLine
 10
-14306.851531810218
 20
-11477.516168891025
 30
0.0
 11
-14310.346907704346
 21
-11477.29288967403
 31
0.0
  0
LINE
  5
8C
100
AcDbEntity
  8
Frei
  6
CONTINUOUS
 62
           7
100
AcDbLine
 10
-14305.526505282342
 20
-11456.773236132021
 30
0.0
 11
-14309.02188117647
 21
-11456.549956915027
 31
0.0
  0
LINE
  5
8D
100
AcDbEntity
  8
Frei
  6
CONTINUOUS
 62
           7
100
AcDbLine
 10
-14312.5172570706
 20
-11456.326677698031
 30
0.0
 11
-14309.02188117647
 21
-11456.549956915027
 31
0.0
  0
LINE
  5
8E
100
AcDbEntity
  8
Frei
  6
CONTINUOUS
 62
           7
100
AcDbLine
 10
-14313.400608939164
 20
-11470.155312843579
 30
0.0
 11
-14309.905233045034
 21
-11470.378592060575
 31
0.0
  0
LINE
  5
8F
100
AcDbEntity
  8
Frei
  6
CONTINUOUS
 62
           7
100
AcDbLine
 10
-14306.409857150906
 20
-11470.601871277571
 30
0.0
 11
-14309.905233045034
 21
-11470.378592060575
 31
0.0
  0
ARC
  5
90
100
AcDbEntity
  8
Frei
  6
CONTINUOUS
 62
           7
100
AcDbCircle
 10
-14354.359352674472
 20
-11460.596400363964
 30
0.0
 40
48.982199999993
100
AcDbArc
 50
357.204436999999
 51
4.476610000001
  0
ARC
  5
91
100
AcDbEntity
  8
Frei
  6
CONTINUOUS
 62
           7
100
AcDbCircle
 10
-14264.567761547025
 20
-11466.332148611638
 30
0.0
 40
48.982200000003
100
AcDbArc
 50
168.213
 51
175.486
  0
ARC
  5
92
100
AcDbEntity
  8
Frei
  6
CONTINUOUS
 62
           7
100
AcDbCircle
 10
-14264.567761547025
 20
-11466.332148611638
 30
0.0
 40
48.982200000003
100
AcDbArc
 50
177.203999999999
 51
184.476999999999
  0
ARC
  5
93
100
AcDbEntity
  8
Frei
  6
CONTINUOUS
 62
           7
100
AcDbCircle
 10
-14354.359352674472
 20
-11460.596400363964
 30
0.0
 40
48.982199999993
100
AcDbArc
 50
348.213389999999
 51
355.485563
  0
LINE
  5
94
100
AcDbEntity
  8
Frei
  6
CONTINUOUS
 62
           7
100
AcDbLine
 10
-14305.4354351486
 20
-11462.985381259139
 30
0.0
 11
-14305.476782761158
 21
-11463.718943479656
 31
0.0
  0
LINE
  5
95
100
AcDbEntity
  8
Frei
  6
CONTINUOUS
 62
           7
100
AcDbLine
 10
-14313.398006221854
 20
-11462.476744509228
 30
0.0
 11
-14313.450331460348
 21
-11463.209605495946
 31
0.0
  0
LINE
  5
96
100
AcDbEntity
  8
Frei
  6
CONTINUOUS
 62
           7
100
AcDbLine
 10
-14313.491679072906
 20
-11463.943167716463
 30
0.0
 11
-14313.450331460348
 21
-11463.209605495946
 31
0.0
  0
LINE
  5
97
100
AcDbEntity
  8
Frei
  6
CONTINUOUS
 62
           7
100
AcDbLine
 10
-14305.52910799965
 20
-11464.451804466375
 30
0.0
 11
-14305.476782761158
 21
-11463.718943479656
 31
0.0
  0
ARC
  5
98
100
AcDbEntity
  8
Frei
  6
CONTINUOUS
 62
           7
100
AcDbCircle
 10
-14317.589631692081
 20
-11452.531411692142
 30
0.0
 40
12.801500000001
100
AcDbArc
 50
340.626499999999
 51
356.344999999999
  0
ARC
  5
99
100
AcDbEntity
  8
Frei
  6
CONTINUOUS
 62
           7
100
AcDbCircle
 10
-14300.012416720394
 20
-11453.654217054058
 30
0.0
 40
12.787200000001
100
AcDbArc
 50
176.345000000001
 51
192.063999999999
  0
ARC
  5
9A
100
AcDbEntity
  8
Frei
  6
CONTINUOUS
 62
           7
100
AcDbCircle
 10
-14301.337442610786
 20
-11474.397139833402
 30
0.0
 40
12.8015
100
AcDbArc
 50
160.626
 51
176.345000000001
  0
ARC
  5
9B
100
AcDbEntity
  8
Frei
  6
CONTINUOUS
 62
           7
100
AcDbCircle
 10
-14318.914657582471
 20
-11473.274334471485
 30
0.0
 40
12.787200000001
100
AcDbArc
 50
356.344999999998
 51
12.063499999999
  0
ARC
  5
9C
100
AcDbEntity
  8
Frei
  6
CONTINUOUS
 62
           7
100
AcDbCircle
 10
-14317.589631692081
 20
-11452.531411692142
 30
0.0
 40
12.787200000001
100
AcDbArc
 50
356.344999999998
 51
12.063499999999
  0
ARC
  5
9D
100
AcDbEntity
  8
Frei
  6
CONTINUOUS
 62
           7
100
AcDbCircle
 10
-14300.012416720394
 20
-11453.654217054058
 30
0.0
 40
12.8015
100
AcDbArc
 50
160.626
 51
176.345000000001
  0
ARC
  5
9E
100
AcDbEntity
  8
Frei
  6
CONTINUOUS
 62
           7
100
AcDbCircle
 10
-14301.337442610784
 20
-11474.397139833402
 30
0.0
 40
12.787200000001
100
AcDbArc
 50
176.345000000001
 51
192.063999999999
  0
ARC
  5
9F
100
AcDbEntity
  8
Frei
  6
CONTINUOUS
 62
           7
100
AcDbCircle
 10
-14318.914657582471
 20
-11473.274334471485
 30
0.0
 40
12.801500000001
100
AcDbArc
 50
340.626499999999
 51
356.344999999999
  0
LINE
  5
A0
100
AcDbEntity
  8
Frei
  6
CONTINUOUS
 62
           7
100
AcDbLine
 10
-14304.814269815963
 20
-11453.347482089985
 30
0.0
 11
-14305.476782761158
 21
-11463.718943479656
 31
0.0
  0
LINE
  5
A1
100
AcDbEntity
  8
Frei
  6
CONTINUOUS
 62
           7
100
AcDbLine
 10
-14312.787818515151
 20
-11452.838144106274
 30
0.0
 11
-14313.450331460348
 21
-11463.209605495946
 31
0.0
  0
LINE
  5
A2
100
AcDbEntity
  8
Frei
  6
CONTINUOUS
 62
           7
100
AcDbLine
 10
-14314.112844405543
 20
-11473.581066885616
 30
0.0
 11
-14313.450331460348
 21
-11463.209605495946
 31
0.0
  0
LINE
  5
A3
100
AcDbEntity
  8
Frei
  6
CONTINUOUS
 62
           7
100
AcDbLine
 10
-14306.139295706353
 20
-11474.090404869328
 30
0.0
 11
-14305.476782761158
 21
-11463.718943479656
 31
0.0
  0
LINE
  5
A4
100
AcDbEntity
  8
Frei
  6
CONTINUOUS
 62
           7
100
AcDbLine
 10
-14313.960319679038
 20
-11471.193333448275
 30
0.0
 11
-14313.909320857168
 21
-11470.39496065304
 31
0.0
  0
LINE
  5
A5
100
AcDbEntity
  8
Frei
  6
CONTINUOUS
 62
           7
100
AcDbLine
 10
-14313.909320857168
 20
-11470.39496065304
 30
0.0
 11
-14312.991342063526
 21
-11456.024250338849
 31
0.0
  0
LINE
  5
A6
100
AcDbEntity
  8
Frei
  6
CONTINUOUS
 62
           7
100
AcDbLine
 10
-14312.991342063526
 20
-11456.024250338849
 30
0.0
 11
-14312.940343241657
 21
-11455.225877543617
 31
0.0
  0
LINE
  5
A7
100
AcDbEntity
  8
Frei
  6
CONTINUOUS
 62
           7
100
AcDbLine
 10
-14312.940343241657
 20
-11455.225877543617
 30
0.0
 11
-14312.659849721376
 21
-11450.834827169836
 31
0.0
  0
LINE
  5
A8
100
AcDbEntity
  8
Frei
  6
CONTINUOUS
 62
           7
100
AcDbLine
 10
-14346.405219707043
 20
-11477.13710852584
 30
0.0
 11
-14344.669860687865
 21
-11477.247960581453
 31
0.0
  0
LINE
  5
A9
100
AcDbEntity
  8
Frei
  6
CONTINUOUS
 62
           7
100
AcDbLine
 10
-14342.629907813103
 20
-11445.313048772139
 30
0.0
 11
-14344.365266832281
 21
-11445.202196716526
 31
0.0
  0
LINE
  5
AA
100
AcDbEntity
  8
Frei
  6
CONTINUOUS
 62
           7
100
AcDbLine
 10
-14344.669860687865
 20
-11477.247960581453
 30
0.0
 11
-14339.619050947564
 21
-11477.570598511727
 31
0.0
  0
LINE
  5
AB
100
AcDbEntity
  8
Frei
  6
CONTINUOUS
 62
           7
100
AcDbLine
 10
-14337.579098072802
 20
-11445.635686702411
 30
0.0
 11
-14342.629907813103
 21
-11445.313048772139
 31
0.0
  0
LINE
  5
AC
100
AcDbEntity
  8
Frei
  6
CONTINUOUS
 62
           7
100
AcDbLine
 10
-14391.650091040005
 20
-11442.18171513038
 30
0.0
 11
-14344.365266832281
 21
-11445.202196716526
 31
0.0
  0
LINE
  5
AD
100
AcDbEntity
  8
Frei
  6
CONTINUOUS
 62
           7
100
AcDbLine
 10
-14393.690043914768
 20
-11474.116626939694
 30
0.0
 11
-14346.405219707043
 21
-11477.13710852584
 31
0.0
  0
LINE
  5
AE
100
AcDbEntity
  8
Frei
  6
CONTINUOUS
 62
           7
100
AcDbLine
 10
-14336.53453534556
 20
-11448.107303320914
 30
0.0
 11
-14338.268495289109
 21
-11475.251978358832
 31
0.0
  0
LINE
  5
AF
100
AcDbEntity
  8
Frei
  6
CONTINUOUS
 62
           7
100
AcDbLine
 10
-14313.780910681422
 20
-11449.560769744183
 30
0.0
 11
-14317.400705721433
 21
-11449.329542824189
 31
0.0
  0
LINE
  5
B0
100
AcDbEntity
  8
Frei
  6
CONTINUOUS
 62
           7
100
AcDbLine
 10
-14314.240813199318
 20
-11475.584383822055
 30
0.0
 11
-14313.960319679038
 21
-11471.193333448275
 31
0.0
  0
LINE
  5
B1
100
AcDbEntity
  8
Frei
  6
CONTINUOUS
 62
           7
100
AcDbLine
 10
-14337.070936096259
 20
-11475.328476591636
 30
0.0
 11
-14334.621875808505
 21
-11475.484918782688
 31
0.0
  0
LINE
  5
B2
100
AcDbEntity
  8
Frei
  6
CONTINUOUS
 62
           7
100
AcDbLine
 10
-14332.785918221218
 20
-11446.743498154303
 30
0.0
 11
-14332.887915864956
 21
-11448.340243744769
 31
0.0
  0
LINE
  5
B3
100
AcDbEntity
  8
Frei
  6
CONTINUOUS
 62
           7
100
AcDbLine
 10
-14332.887915864956
 20
-11448.340243744769
 30
0.0
 11
-14335.33697615271
 21
-11448.183801553718
 31
0.0
  0
LINE
  5
B4
100
AcDbEntity
  8
Frei
  6
CONTINUOUS
 62
           7
100
AcDbLine
 10
-14332.887915864956
 20
-11448.340243744769
 30
0.0
 11
-14334.621875808505
 21
-11475.484918782688
 31
0.0
  0
LINE
  5
B5
100
AcDbEntity
  8
Frei
  6
CONTINUOUS
 62
           7
100
AcDbLine
 10
-14334.621875808505
 20
-11475.484918782688
 30
0.0
 11
-14334.723873452243
 21
-11477.081664373152
 31
0.0
  0
LINE
  5
B6
100
AcDbEntity
  8
Frei
  6
CONTINUOUS
 62
           7
100
AcDbLine
 10
-14319.23666330872
 20
-11478.070963452574
 30
0.0
 11
-14319.134665664982
 21
-11476.474217862107
 31
0.0
  0
LINE
  5
B7
100
AcDbEntity
  8
Frei
  6
CONTINUOUS
 62
           7
100
AcDbLine
 10
-14319.134665664982
 20
-11476.474217862107
 30
0.0
 11
-14315.514870624971
 21
-11476.705444782101
 31
0.0
  0
LINE
  5
B8
100
AcDbEntity
  8
Frei
  6
CONTINUOUS
 62
           7
100
AcDbLine
 10
-14319.134665664982
 20
-11476.474217862107
 30
0.0
 11
-14317.400705721433
 21
-11449.329542824189
 31
0.0
  0
LINE
  5
B9
100
AcDbEntity
  8
Frei
  6
CONTINUOUS
 62
           7
100
AcDbLine
 10
-14317.400705721433
 20
-11449.329542824189
 30
0.0
 11
-14317.298708077697
 21
-11447.732797233724
 31
0.0
  0
LINE
  5
BA
100
AcDbEntity
  8
Frei
  6
CONTINUOUS
 62
           7
100
AcDbLine
 10
-14332.785918221218
 20
-11446.743498154303
 30
0.0
 11
-14317.298708077697
 21
-11447.732797233724
 31
0.0
  0
LINE
  5
BB
100
AcDbEntity
  8
Frei
  6
CONTINUOUS
 62
           7
100
AcDbLine
 10
-14334.723873452243
 20
-11477.081664373152
 30
0.0
 11
-14319.23666330872
 21
-11478.070963452574
 31
0.0
  0
ARC
  5
BC
100
AcDbEntity
  8
Frei
  6
CONTINUOUS
 62
           7
100
AcDbCircle
 10
-14366.363961876854
 20
-11459.829564457259
 30
0.0
 40
27.821476415485
100
AcDbArc
 50
321.238694434247
 51
31.451305565753
  0
ARC
  5
BD
100
AcDbEntity
  8
Frei
  6
CONTINUOUS
 62
           7
100
AcDbCircle
 10
-14353.203500938202
 20
-11460.670234388816
 30
0.0
 40
39.547005383793
100
AcDbArc
 50
152.48007458395
 51
200.20992541605
  0
ARC
  5
BE
100
AcDbEntity
  8
Frei
  6
CONTINUOUS
 62
           7
100
AcDbCircle
 10
-14367.318326324112
 20
-11459.768601129434
 30
0.0
 40
30.02221399786
100
AcDbArc
 50
144.140772496028
 51
208.549227503973
  0
CIRCLE
  5
BF
100
AcDbEntity
  8
Frei
  6
CONTINUOUS
 62
           7
100
AcDbCircle
 10
-14377.320155078978
 20
-11459.12969974642
 30
0.0
 40
6.8
  0
ARC
  5
C0
100
AcDbEntity
  8
Frei
  6
CONTINUOUS
 62
           7
100
AcDbCircle
 10
-14337.655596305605
 20
-11446.833245895261
 30
0.0
 40
1.2
100
AcDbArc
 50
356.344999999999
 51
86.345
  0
ARC
  5
C1
100
AcDbEntity
  8
Frei
  6
CONTINUOUS
 62
           7
100
AcDbCircle
 10
-14335.260477919906
 20
-11446.986242360868
 30
0.0
 40
1.2
100
AcDbArc
 50
176.345
 51
266.344999999999
  0
ARC
  5
C2
100
AcDbEntity
  8
Frei
  6
CONTINUOUS
 62
           7
100
AcDbCircle
 10
-14313.857408914226
 20
-11450.758328937032
 30
0.0
 40
1.2
100
AcDbArc
 50
356.344999999999
 51
86.345
  0
ARC
  5
C3
100
AcDbEntity
  8
Frei
  6
CONTINUOUS
 62
           7
100
AcDbCircle
 10
-14315.438372392167
 20
-11475.507885589252
 30
0.0
 40
1.2
100
AcDbArc
 50
266.344999999999
 51
356.344999999999
  0
ARC
  5
C4
100
AcDbEntity
  8
Frei
  6
CONTINUOUS
 62
           7
100
AcDbCircle
 10
-14337.147434329063
 20
-11476.526035784485
 30
0.0
 40
1.2
100
AcDbArc
 50
86.345
 51
176.345
  0
ARC
  5
C5
100
AcDbEntity
  8
Frei
  6
CONTINUOUS
 62
           7
100
AcDbCircle
 10
-14339.54255271476
 20
-11476.373039318878
 30
0.0
 40
1.2
100
AcDbArc
 50
266.344999999999
 51
356.344999999999
  0
LINE
  5
C6
100
AcDbEntity
  8
FREI
  6
CONTINUOUS
 62
           7
100
AcDbLine
 10
-13976.960572870787
 20
-11452.638379874883
 30
0.0
 11
-13981.04051238491
 21
-11516.508732069206
 31
0.0
  0
LINE
  5
C7
100
AcDbEntity
  8
FREI
  6
CONTINUOUS
 62
           7
100
AcDbLine
 10
-13973.632636715609
 20
-11510.467128095912
 30
0.0
 11
-13973.908243983053
 21
-11514.781685499998
 31
0.0
  0
LINE
  5
C8
100
AcDbEntity
  8
FREI
  6
CONTINUOUS
 62
           7
100
AcDbLine
 10
-13970.106042878053
 20
-11455.259253157745
 30
0.0
 11
-13970.381650145497
 21
-11459.573810561835
 31
0.0
  0
LINE
  5
C9
100
AcDbEntity
  8
FREI
  6
CONTINUOUS
 62
           7
100
AcDbLine
 10
-13970.381650145497
 20
-11459.573810561835
 30
0.0
 11
-13970.956349469081
 21
-11468.570573400139
 31
0.0
  0
LINE
  5
CA
100
AcDbEntity
  8
FREI
  6
CONTINUOUS
 62
           7
100
AcDbLine
 10
-13973.057937392025
 20
-11501.470365257603
 30
0.0
 11
-13973.632636715609
 21
-11510.467128095912
 31
0.0
  0
LINE
  5
CB
100
AcDbEntity
  8
Frei
  6
CONTINUOUS
 62
           7
100
AcDbLine
 10
-13975.964187028843
 20
-11516.655403532195
 30
0.0
 11
-13981.04051238491
 21
-11516.508732069206
 31
0.0
  0
LINE
  5
CC
100
AcDbEntity
  8
Frei
  6
CONTINUOUS
 62
           7
100
AcDbLine
 10
-13971.906868114304
 20
-11453.139170720622
 30
0.0
 11
-13976.960596512883
 21
-11452.638749985528
 31
0.0
  0
LINE
  5
CD
100
AcDbEntity
  8
FREI
  6
CONTINUOUS
 62
           7
100
AcDbLine
 10
-13972.526516144866
 20
-11510.499087497836
 30
0.0
 11
-13973.632636715609
 21
-11510.467128095912
 31
0.0
  0
LINE
  5
CE
100
AcDbEntity
  8
Frei
  6
CONTINUOUS
 62
           7
100
AcDbLine
 10
-13966.579215549675
 20
-11462.862974838494
 30
0.0
 11
-13967.15271270485
 21
-11471.840918054753
 31
0.0
  0
LINE
  5
CF
100
AcDbEntity
  8
FREI
  6
CONTINUOUS
 62
           7
100
AcDbLine
 10
-13970.381650145497
 20
-11459.573810561835
 30
0.0
 11
-13969.28045340405
 21
-11459.682851182812
 31
0.0
  0
LINE
  5
D0
100
AcDbEntity
  8
Frei
  6
CONTINUOUS
 62
           7
100
AcDbLine
 10
-13968.857382510414
 20
-11498.52706388594
 30
0.0
 11
-13968.869104421005
 21
-11498.710567233282
 31
0.0
  0
LINE
  5
D1
100
AcDbEntity
  8
FREI
  6
CONTINUOUS
 62
           7
100
AcDbLine
 10
-13951.051034039692
 20
-11474.323322640448
 30
0.0
 11
-13966.246620486261
 21
-11473.086032502892
 31
0.0
  0
LINE
  5
D2
100
AcDbEntity
  8
FREI
  6
CONTINUOUS
 62
           7
100
AcDbLine
 10
-13952.582440654391
 20
-11498.29707997064
 30
0.0
 11
-13967.811951163343
 21
-11497.590861875891
 31
0.0
  0
LINE
  5
D3
100
AcDbEntity
  8
FREI
  6
CONTINUOUS
 62
           7
100
AcDbLine
 10
-13966.910292403114
 20
-11472.757037533001
 30
0.0
 11
-13968.512089492597
 21
-11497.832738752308
 31
0.0
  0
LINE
  5
D4
100
AcDbEntity
  8
Frei
  6
CONTINUOUS
 62
           7
100
AcDbLine
 10
-13969.120721210724
 20
-11470.693795601737
 30
0.0
 11
-13968.07052683403
 21
-11470.779306953953
 31
0.0
  0
LINE
  5
D5
100
AcDbEntity
  8
Frei
  6
CONTINUOUS
 62
           7
100
AcDbLine
 10
-13967.15271270485
 20
-11471.840918054753
 30
0.0
 11
-13967.164434615441
 21
-11472.024421402093
 31
0.0
  0
LINE
  5
D6
100
AcDbEntity
  8
Frei
  6
CONTINUOUS
 62
           7
100
AcDbLine
 10
-13968.869104421005
 20
-11498.710567233282
 30
0.0
 11
-13969.442601576182
 21
-11507.688510449541
 31
0.0
  0
LINE
  5
D7
100
AcDbEntity
  8
Frei
  6
CONTINUOUS
 62
           7
100
AcDbLine
 10
-13969.914535768075
 20
-11499.646769243331
 30
0.0
 11
-13970.967074697883
 21
-11499.597961237503
 31
0.0
  0
ARC
  5
D8
100
AcDbEntity
  8
FREI
  6
CONTINUOUS
 62
           7
100
AcDbCircle
 10
-13952.025969092427
 20
-11486.296835904599
 30
0.0
 40
12.0131394
100
AcDbArc
 50
267.344999999997
 51
85.345000000003
  0
ARC
  5
D9
100
AcDbEntity
  8
Frei
  6
CONTINUOUS
 62
           7
100
AcDbCircle
 10
-13972.104160311865
 20
-11455.131616500172
 30
0.0
 40
2.0021899
100
AcDbArc
 50
356.344999999993
 51
84.345000000031
  0
ARC
  5
DA
100
AcDbEntity
  8
Frei
  6
CONTINUOUS
 62
           7
100
AcDbCircle
 10
-13969.576391700393
 20
-11462.671519852136
 30
0.0
 40
3.00328485
100
AcDbArc
 50
356.345000000004
 51
84.344999999982
  0
ARC
  5
DB
100
AcDbEntity
  8
Frei
  6
CONTINUOUS
 62
           7
100
AcDbCircle
 10
-13972.439777726901
 20
-11507.497055463182
 30
0.0
 40
3.00328485
100
AcDbArc
 50
268.344999999994
 51
356.344999999999
  0
ARC
  5
DC
100
AcDbEntity
  8
Frei
  6
CONTINUOUS
 62
           7
100
AcDbCircle
 10
-13975.906361416864
 20
-11514.654048842427
 30
0.0
 40
2.0021899
100
AcDbArc
 50
268.344999999968
 51
356.345000000006
  0
ARC
  5
DD
100
AcDbEntity
  8
Frei
  6
CONTINUOUS
 62
           7
100
AcDbCircle
 10
-13968.151771421757
 20
-11471.777099725967
 30
0.0
 40
1.00109495
100
AcDbArc
 50
356.344999999999
 51
85.34500000007
  0
ARC
  5
DE
100
AcDbEntity
  8
Frei
  6
CONTINUOUS
 62
           7
100
AcDbCircle
 10
-13968.958232035267
 20
-11468.698210057712
 30
0.0
 40
2.0021899
100
AcDbArc
 50
176.345000000006
 51
265.345000000015
  0
ARC
  5
DF
100
AcDbEntity
  8
Frei
  6
CONTINUOUS
 62
           7
100
AcDbCircle
 10
-13966.165375898534
 20
-11472.08823973088
 30
0.0
 40
1.001094950001
100
AcDbArc
 50
221.917995999261
 51
265.345000000022
  0
ARC
  5
E0
100
AcDbEntity
  8
Frei
  6
CONTINUOUS
 62
           7
100
AcDbCircle
 10
-13966.165375898536
 20
-11472.08823973088
 30
0.0
 40
1.001094949999
100
AcDbArc
 50
176.344999999987
 51
221.917995999281
  0
ARC
  5
E1
100
AcDbEntity
  8
Frei
  6
CONTINUOUS
 62
           7
100
AcDbCircle
 10
-13971.059819958211
 20
-11501.598001915176
 30
0.0
 40
2.002189899999
100
AcDbArc
 50
87.344999999931
 51
176.344999999993
  0
ARC
  5
E2
100
AcDbEntity
  8
Frei
  6
CONTINUOUS
 62
           7
100
AcDbCircle
 10
-13969.868163137911
 20
-11498.646748904495
 30
0.0
 40
1.001094949999
100
AcDbArc
 50
267.344999999922
 51
356.345000000012
  0
ARC
  5
E3
100
AcDbEntity
  8
Frei
  6
CONTINUOUS
 62
           7
100
AcDbCircle
 10
-13967.858323793507
 20
-11498.590882214727
 30
0.0
 40
1.00109495
100
AcDbArc
 50
130.772004000806
 51
176.344999999987
  0
ARC
  5
E4
100
AcDbEntity
  8
Frei
  6
CONTINUOUS
 62
           7
100
AcDbCircle
 10
-13967.858323793507
 20
-11498.590882214728
 30
0.0
 40
1.001094950001
100
AcDbArc
 50
87.345000000004
 51
130.772004000779
  0
LINE
  5
E5
100
AcDbEntity
  8
Frei
  6
CONTINUOUS
 62
           7
100
AcDbLine
 10
-14046.068097245576
 20
-11500.029628593174
 30
0.0
 11
-14042.575216266432
 21
-11500.252748438852
 31
0.0
  0
LINE
  5
E6
100
AcDbEntity
  8
Frei
  6
CONTINUOUS
 62
           7
100
AcDbLine
 10
-14045.940600190903
 20
-11498.033696605093
 30
0.0
 11
-14046.068097245576
 21
-11500.029628593174
 31
0.0
  0
LINE
  5
E7
100
AcDbEntity
  8
Frei
  6
CONTINUOUS
 62
           7
100
AcDbLine
 10
-14040.971639262694
 20
-11490.835820022798
 30
0.0
 11
-14041.513501745054
 21
-11499.318530972147
 31
0.0
  0
LINE
  5
E8
100
AcDbEntity
  8
Frei
  6
CONTINUOUS
 62
           7
100
AcDbLine
 10
-14045.46248623588
 20
-11490.548951649784
 30
0.0
 11
-14040.971639262694
 21
-11490.835820022798
 31
0.0
  0
LINE
  5
E9
100
AcDbEntity
  8
Frei
  6
CONTINUOUS
 62
           7
100
AcDbLine
 10
-14045.494360499548
 20
-11491.047934646804
 30
0.0
 11
-14045.46248623588
 21
-11490.548951649784
 31
0.0
  0
LINE
  5
EA
100
AcDbEntity
  8
Frei
  6
CONTINUOUS
 62
           7
100
AcDbLine
 10
-14041.981741015405
 20
-11491.718309032496
 30
0.0
 11
-14045.494360499548
 21
-11491.047934646804
 31
0.0
  0
LINE
  5
EB
100
AcDbEntity
  8
Frei
  6
CONTINUOUS
 62
           7
100
AcDbLine
 10
-14041.707735569418
 20
-11494.295932857391
 30
0.0
 11
-14041.576490009735
 21
-11492.241319034832
 31
0.0
  0
LINE
  5
EC
100
AcDbEntity
  8
Frei
  6
CONTINUOUS
 62
           7
100
AcDbLine
 10
-14045.940600190903
 20
-11498.033696605093
 30
0.0
 11
-14045.494360499548
 21
-11491.047934646804
 31
0.0
  0
LINE
  5
ED
100
AcDbEntity
  8
Frei
  6
CONTINUOUS
 62
           7
100
AcDbLine
 10
-14042.371233486259
 20
-11497.815708566077
 30
0.0
 11
-14045.940600190903
 21
-11498.033696605093
 31
0.0
  0
LINE
  5
EE
100
AcDbEntity
  8
Frei
  6
CONTINUOUS
 62
           7
100
AcDbLine
 10
-14041.771484096755
 20
-11495.293898851432
 30
0.0
 11
-14041.902729656438
 21
-11497.348512673989
 31
0.0
  0
LINE
  5
EF
100
AcDbEntity
  8
Frei
  6
CONTINUOUS
 62
           2
100
AcDbLine
 10
-14043.322700470964
 20
-11494.693790467967
 30
0.0
 11
-14040.551494283263
 21
-11494.870810841874
 31
0.0
  0
LINE
  5
F0
100
AcDbEntity
  8
Frei
  6
CONTINUOUS
 62
           7
100
AcDbLine
 10
-14043.290826207296
 20
-11494.194807470947
 30
0.0
 11
-14041.707735569418
 21
-11494.295932857391
 31
0.0
  0
LINE
  5
F1
100
AcDbEntity
  8
Frei
  6
CONTINUOUS
 62
           7
100
AcDbLine
 10
-14043.322700470964
 20
-11494.693790467967
 30
0.0
 11
-14043.290826207296
 21
-11494.194807470947
 31
0.0
  0
LINE
  5
F2
100
AcDbEntity
  8
Frei
  6
CONTINUOUS
 62
           7
100
AcDbLine
 10
-14043.354574734632
 20
-11495.192773464989
 30
0.0
 11
-14043.322700470964
 21
-11494.693790467967
 31
0.0
  0
LINE
  5
F3
100
AcDbEntity
  8
Frei
  6
CONTINUOUS
 62
           7
100
AcDbLine
 10
-14041.771484096755
 20
-11495.293898851432
 30
0.0
 11
-14043.354574734632
 21
-11495.192773464989
 31
0.0
  0
LINE
  5
F4
100
AcDbEntity
  8
Frei
  6
CONTINUOUS
 62
           7
100
AcDbLine
 10
-14185.28435341431
 20
-11491.136709029755
 30
0.0
 11
-14183.180652012212
 21
-11458.203831226399
 31
0.0
  0
LINE
  5
F5
100
AcDbEntity
  8
Frei
  6
CONTINUOUS
 62
           7
100
AcDbLine
 10
-14199.255877330887
 20
-11490.244229647047
 30
0.0
 11
-14185.28435341431
 21
-11491.136709029755
 31
0.0
  0
LINE
  5
F6
100
AcDbEntity
  8
Frei
  6
CONTINUOUS
 62
           7
100
AcDbLine
 10
-14193.160311952623
 20
-11457.566345953035
 30
0.0
 11
-14183.679635009232
 21
-11458.171956962731
 31
0.0
  0
LINE
  5
F7
100
AcDbEntity
  8
Frei
  6
CONTINUOUS
 62
           7
100
AcDbLine
 10
-14193.287809007295
 20
-11459.562277941119
 30
0.0
 11
-14193.160311952623
 21
-11457.566345953035
 31
0.0
  0
LINE
  5
F8
100
AcDbEntity
  8
Frei
  6
CONTINUOUS
 62
           7
100
AcDbLine
 10
-14193.73404869865
 20
-11466.548039899406
 30
0.0
 11
-14193.765922962319
 21
-11467.047022896426
 31
0.0
  0
LINE
  5
F9
100
AcDbEntity
  8
Frei
  6
CONTINUOUS
 62
           7
100
AcDbLine
 10
-14198.755752932524
 20
-11466.728280259746
 30
0.0
 11
-14198.213890450164
 21
-11458.245569310395
 31
0.0
  0
LINE
  5
FA
100
AcDbEntity
  8
Frei
  6
CONTINUOUS
 62
           7
100
AcDbLine
 10
-14193.765922962319
 20
-11467.047022896426
 30
0.0
 11
-14198.755752932524
 21
-11466.728280259746
 31
0.0
  0
LINE
  5
FB
100
AcDbEntity
  8
Frei
  6
CONTINUOUS
 62
           7
100
AcDbLine
 10
-14197.152175928788
 20
-11457.311351843691
 30
0.0
 11
-14193.160311952623
 21
-11457.566345953035
 31
0.0
  0
LINE
  5
FC
100
AcDbEntity
  8
Frei
  6
CONTINUOUS
 62
           7
100
AcDbLine
 10
-14197.246668182794
 20
-11465.877665513714
 30
0.0
 11
-14193.73404869865
 21
-11466.548039899406
 31
0.0
  0
LINE
  5
FD
100
AcDbEntity
  8
Frei
  6
CONTINUOUS
 62
           7
100
AcDbLine
 10
-14197.52067362878
 20
-11463.300041688819
 30
0.0
 11
-14197.651919188464
 21
-11465.354655511377
 31
0.0
  0
LINE
  5
FE
100
AcDbEntity
  8
Frei
  6
CONTINUOUS
 62
           7
100
AcDbLine
 10
-14193.287809007295
 20
-11459.562277941119
 30
0.0
 11
-14193.73404869865
 21
-11466.548039899406
 31
0.0
  0
LINE
  5
FF
100
AcDbEntity
  8
Frei
  6
CONTINUOUS
 62
           7
100
AcDbLine
 10
-14196.857175711939
 20
-11459.780265980133
 30
0.0
 11
-14193.287809007295
 21
-11459.562277941119
 31
0.0
  0
LINE
  5
100
100
AcDbEntity
  8
Frei
  6
CONTINUOUS
 62
           7
100
AcDbLine
 10
-14197.456925101444
 20
-11462.302075694779
 30
0.0
 11
-14197.325679541762
 21
-11460.247461872221
 31
0.0
  0
LINE
  5
101
100
AcDbEntity
  8
Frei
  6
CONTINUOUS
 62
           2
100
AcDbLine
 10
-14195.905708727234
 20
-11462.902184078242
 30
0.0
 11
-14198.676914914937
 21
-11462.725163704336
 31
0.0
  0
LINE
  5
102
100
AcDbEntity
  8
Frei
  6
CONTINUOUS
 62
           7
100
AcDbLine
 10
-14195.937582990902
 20
-11463.401167075262
 30
0.0
 11
-14197.52067362878
 21
-11463.300041688819
 31
0.0
  0
LINE
  5
103
100
AcDbEntity
  8
Frei
  6
CONTINUOUS
 62
           7
100
AcDbLine
 10
-14195.905708727234
 20
-11462.902184078242
 30
0.0
 11
-14195.937582990902
 21
-11463.401167075262
 31
0.0
  0
LINE
  5
104
100
AcDbEntity
  8
Frei
  6
CONTINUOUS
 62
           7
100
AcDbLine
 10
-14195.873834463566
 20
-11462.403201081221
 30
0.0
 11
-14195.905708727234
 21
-11462.902184078242
 31
0.0
  0
LINE
  5
105
100
AcDbEntity
  8
Frei
  6
CONTINUOUS
 62
           7
100
AcDbLine
 10
-14197.456925101444
 20
-11462.302075694779
 30
0.0
 11
-14195.873834463566
 21
-11462.403201081221
 31
0.0
  0
LINE
  5
106
100
AcDbEntity
  8
Frei
  6
CONTINUOUS
 62
           7
100
AcDbLine
 10
-14159.547607709452
 20
-11496.087458520837
 30
0.0
 11
-14159.57948197312
 21
-11496.586441517857
 31
0.0
  0
LINE
  5
107
100
AcDbEntity
  8
Frei
  6
CONTINUOUS
 62
           7
100
AcDbLine
 10
-14159.57948197312
 20
-11496.586441517857
 30
0.0
 11
-14082.736100431954
 21
-11501.495078122754
 31
0.0
  0
LINE
  5
108
100
AcDbEntity
  8
Frei
  6
CONTINUOUS
 62
           7
100
AcDbLine
 10
-14082.736100431954
 20
-11501.495078122754
 30
0.0
 11
-14079.739919647145
 21
-11454.590676402824
 31
0.0
  0
LINE
  5
109
100
AcDbEntity
  8
Frei
  6
CONTINUOUS
 62
           7
100
AcDbLine
 10
-14079.739919647145
 20
-11454.590676402824
 30
0.0
 11
-14156.583301188313
 21
-11449.682039797926
 31
0.0
  0
LINE
  5
10A
100
AcDbEntity
  8
Frei
  6
CONTINUOUS
 62
           7
100
AcDbLine
 10
-14183.679635009232
 20
-11458.171956962731
 30
0.0
 11
-14183.180652012212
 21
-11458.203831226399
 31
0.0
  0
LINE
  5
10B
100
AcDbEntity
  8
Frei
  6
CONTINUOUS
 62
           7
100
AcDbLine
 10
-14157.581267182353
 20
-11449.61829127059
 30
0.0
 11
-14183.029400030402
 21
-11447.992703823513
 31
0.0
  0
LINE
  5
10C
100
AcDbEntity
  8
Frei
  6
CONTINUOUS
 62
           7
100
AcDbLine
 10
-14185.526597818189
 20
-11494.928979807111
 30
0.0
 11
-14185.28435341431
 21
-11491.136709029755
 31
0.0
  0
LINE
  5
10D
100
AcDbEntity
  8
Frei
  6
CONTINUOUS
 62
           7
100
AcDbLine
 10
-14183.679635009232
 20
-11458.171956962731
 30
0.0
 11
-14183.029400030402
 21
-11447.992703823513
 31
0.0
  0
LINE
  5
10E
100
AcDbEntity
  8
Frei
  6
CONTINUOUS
 62
           7
100
AcDbLine
 10
-14159.547607709452
 20
-11496.087458520837
 30
0.0
 11
-14160.545573703494
 21
-11496.0237099935
 31
0.0
  0
LINE
  5
10F
100
AcDbEntity
  8
Frei
  6
CONTINUOUS
 62
           7
100
AcDbLine
 10
-14156.615175451981
 20
-11450.181022794945
 30
0.0
 11
-14159.547607709452
 21
-11496.087458520837
 31
0.0
  0
LINE
  5
110
100
AcDbEntity
  8
Frei
  6
CONTINUOUS
 62
           7
100
AcDbLine
 10
-14156.615175451981
 20
-11450.181022794945
 30
0.0
 11
-14157.613141446021
 21
-11450.11727426761
 31
0.0
  0
LINE
  5
111
100
AcDbEntity
  8
Frei
  6
CONTINUOUS
 62
           7
100
AcDbLine
 10
-14156.583301188313
 20
-11449.682039797926
 30
0.0
 11
-14156.615175451981
 21
-11450.181022794945
 31
0.0
  0
LINE
  5
112
100
AcDbEntity
  8
Frei
  6
CONTINUOUS
 62
           7
100
AcDbLine
 10
-14160.545573703494
 20
-11496.0237099935
 30
0.0
 11
-14157.581267182353
 21
-11449.61829127059
 31
0.0
  0
LINE
  5
113
100
AcDbEntity
  8
Frei
  6
CONTINUOUS
 62
           7
100
AcDbLine
 10
-14160.577447967162
 20
-11496.52269299052
 30
0.0
 11
-14160.545573703494
 21
-11496.0237099935
 31
0.0
  0
LINE
  5
114
100
AcDbEntity
  8
Frei
  6
CONTINUOUS
 62
           7
100
AcDbLine
 10
-14185.526597818189
 20
-11494.928979807111
 30
0.0
 11
-14160.577447967162
 21
-11496.52269299052
 31
0.0
  0
LINE
  5
115
100
AcDbEntity
  8
Frei
  6
CONTINUOUS
 62
           7
100
AcDbLine
 10
-14081.738134437912
 20
-11501.558826650091
 30
0.0
 11
-14056.788984586885
 21
-11503.1525398335
 31
0.0
  0
LINE
  5
116
100
AcDbEntity
  8
Frei
  6
CONTINUOUS
 62
           7
100
AcDbLine
 10
-14081.706260174244
 20
-11501.059843653071
 30
0.0
 11
-14081.738134437912
 21
-11501.558826650091
 31
0.0
  0
LINE
  5
117
100
AcDbEntity
  8
Frei
  6
CONTINUOUS
 62
           7
100
AcDbLine
 10
-14078.741953653105
 20
-11454.654424930161
 30
0.0
 11
-14081.706260174244
 21
-11501.059843653071
 31
0.0
  0
LINE
  5
118
100
AcDbEntity
  8
Frei
  6
CONTINUOUS
 62
           7
100
AcDbLine
 10
-14078.773827916773
 20
-11455.153407927179
 30
0.0
 11
-14079.771793910813
 21
-11455.089659399842
 31
0.0
  0
LINE
  5
119
100
AcDbEntity
  8
Frei
  6
CONTINUOUS
 62
           7
100
AcDbLine
 10
-14081.706260174244
 20
-11501.059843653071
 30
0.0
 11
-14082.704226168285
 21
-11500.996095125734
 31
0.0
  0
LINE
  5
11A
100
AcDbEntity
  8
Frei
  6
CONTINUOUS
 62
           7
100
AcDbLine
 10
-14053.293820805056
 20
-11456.280012377236
 30
0.0
 11
-14053.944055783888
 21
-11466.459265516454
 31
0.0
  0
LINE
  5
11B
100
AcDbEntity
  8
Frei
  6
CONTINUOUS
 62
           7
100
AcDbLine
 10
-14053.293820805056
 20
-11456.280012377236
 30
0.0
 11
-14078.741953653105
 21
-11454.654424930161
 31
0.0
  0
LINE
  5
11C
100
AcDbEntity
  8
Frei
  6
CONTINUOUS
 62
           7
100
AcDbLine
 10
-14054.443038780908
 20
-11466.427391252786
 30
0.0
 11
-14053.944055783888
 21
-11466.459265516454
 31
0.0
  0
LINE
  5
11D
100
AcDbEntity
  8
Frei
  6
CONTINUOUS
 62
           7
100
AcDbLine
 10
-14054.443038780908
 20
-11466.427391252786
 30
0.0
 11
-14056.788984586885
 21
-11503.1525398335
 31
0.0
  0
LINE
  5
11E
100
AcDbEntity
  8
Frei
  6
CONTINUOUS
 62
           7
100
AcDbLine
 10
-14230.000436162809
 20
-11461.726303666526
 30
0.0
 11
-14231.996368150893
 21
-11461.598806611853
 31
0.0
  0
LINE
  5
11F
100
AcDbEntity
  8
Frei
  6
CONTINUOUS
 62
           7
100
AcDbLine
 10
-14230.213692188159
 20
-11480.751406080644
 30
0.0
 11
-14229.066218696105
 21
-11462.788018187905
 31
0.0
  0
LINE
  5
120
100
AcDbEntity
  8
Frei
  6
CONTINUOUS
 62
           7
100
AcDbLine
 10
-14233.271338697619
 20
-11481.558126492677
 30
0.0
 11
-14231.275406709536
 21
-11481.68562354735
 31
0.0
  0
LINE
  5
121
100
AcDbEntity
  8
Frei
  6
CONTINUOUS
 62
           7
100
AcDbLine
 10
-14233.886813527641
 20
-11475.506582001093
 30
0.0
 11
-14234.205556164323
 21
-11480.496411971299
 31
0.0
  0
LINE
  5
122
100
AcDbEntity
  8
Frei
  6
CONTINUOUS
 62
           7
100
AcDbLine
 10
-14231.996368150893
 20
-11461.598806611853
 30
0.0
 11
-14233.058082672269
 21
-11462.533024078559
 31
0.0
  0
LINE
  5
123
100
AcDbEntity
  8
Frei
  6
CONTINUOUS
 62
           7
100
AcDbLine
 10
-14230.000436162809
 20
-11461.726303666526
 30
0.0
 11
-14229.066218696105
 21
-11462.788018187905
 31
0.0
  0
LINE
  5
124
100
AcDbEntity
  8
Frei
  6
CONTINUOUS
 62
           7
100
AcDbLine
 10
-14230.213692188159
 20
-11480.751406080644
 30
0.0
 11
-14231.275406709536
 21
-11481.68562354735
 31
0.0
  0
LINE
  5
125
100
AcDbEntity
  8
Frei
  6
CONTINUOUS
 62
           7
100
AcDbLine
 10
-14233.271338697619
 20
-11481.558126492677
 30
0.0
 11
-14234.205556164323
 21
-11480.496411971299
 31
0.0
  0
LINE
  5
126
100
AcDbEntity
  8
Frei
  6
CONTINUOUS
 62
           7
100
AcDbLine
 10
-14233.271338697619
 20
-11481.558126492677
 30
0.0
 11
-14231.996368150893
 21
-11461.598806611853
 31
0.0
  0
LINE
  5
127
100
AcDbEntity
  8
Frei
  6
CONTINUOUS
 62
           7
100
AcDbLine
 10
-14231.275406709536
 20
-11481.68562354735
 30
0.0
 11
-14230.000436162809
 21
-11461.726303666526
 31
0.0
  0
LINE
  5
128
100
AcDbEntity
  8
Frei
  6
CONTINUOUS
 62
           7
100
AcDbLine
 10
-14230.691806143181
 20
-11488.236151035953
 30
0.0
 11
-14230.213692188159
 21
-11480.751406080644
 31
0.0
  0
LINE
  5
129
100
AcDbEntity
  8
Frei
  6
CONTINUOUS
 62
           7
100
AcDbLine
 10
-14201.145181306294
 20
-11480.604181385315
 30
0.0
 11
-14201.75079231599
 21
-11490.084858328706
 31
0.0
  0
LINE
  5
12A
100
AcDbEntity
  8
Frei
  6
CONTINUOUS
 62
           7
100
AcDbLine
 10
-14234.438539830327
 20
-11468.45707151547
 30
0.0
 11
-14233.376825308951
 21
-11467.522854048764
 31
0.0
  0
LINE
  5
12B
100
AcDbEntity
  8
Frei
  6
CONTINUOUS
 62
           7
100
AcDbLine
 10
-14233.058082672269
 20
-11462.533024078559
 30
0.0
 11
-14233.376825308951
 21
-11467.522854048764
 31
0.0
  0
LINE
  5
12C
100
AcDbEntity
  8
Frei
  6
CONTINUOUS
 62
           7
100
AcDbLine
 10
-14234.470414093996
 20
-11468.95605451249
 30
0.0
 11
-14234.438539830327
 21
-11468.45707151547
 31
0.0
  0
LINE
  5
12D
100
AcDbEntity
  8
Frei
  6
CONTINUOUS
 62
           7
100
AcDbLine
 10
-14233.886813527641
 20
-11475.506582001093
 30
0.0
 11
-14234.821030994346
 21
-11474.444867479715
 31
0.0
  0
LINE
  5
12E
100
AcDbEntity
  8
Frei
  6
CONTINUOUS
 62
           7
100
AcDbLine
 10
-14233.823065000306
 20
-11474.508616007051
 30
0.0
 11
-14233.886813527641
 21
-11475.506582001093
 31
0.0
  0
LINE
  5
12F
100
AcDbEntity
  8
Frei
  6
CONTINUOUS
 62
           2
100
AcDbLine
 10
-14233.440573836288
 20
-11468.520820042806
 30
0.0
 11
-14234.438539830327
 21
-11468.45707151547
 31
0.0
  0
LINE
  5
130
100
AcDbEntity
  8
Frei
  6
CONTINUOUS
 62
           7
100
AcDbLine
 10
-14233.376825308951
 20
-11467.522854048764
 30
0.0
 11
-14233.440573836288
 21
-11468.520820042806
 31
0.0
  0
LINE
  5
131
100
AcDbEntity
  8
Frei
  6
CONTINUOUS
 62
           2
100
AcDbLine
 10
-14233.823065000306
 20
-11474.508616007051
 30
0.0
 11
-14234.821030994346
 21
-11474.444867479715
 31
0.0
  0
LINE
  5
132
100
AcDbEntity
  8
Frei
  6
CONTINUOUS
 62
           7
100
AcDbLine
 10
-14233.440573836288
 20
-11468.520820042806
 30
0.0
 11
-14233.823065000306
 21
-11474.508616007051
 31
0.0
  0
LINE
  5
133
100
AcDbEntity
  8
Frei
  6
CONTINUOUS
 62
           1
100
AcDbLine
 10
-14231.987124471727
 20
-11469.114683220596
 30
0.0
 11
-14234.470414093996
 21
-11468.95605451249
 31
0.0
  0
LINE
  5
134
100
AcDbEntity
  8
Frei
  6
CONTINUOUS
 62
           7
100
AcDbLine
 10
-14234.502288357664
 20
-11469.45503750951
 30
0.0
 11
-14234.470414093996
 21
-11468.95605451249
 31
0.0
  0
LINE
  5
135
100
AcDbEntity
  8
Frei
  6
CONTINUOUS
 62
           1
100
AcDbLine
 10
-14232.305867108409
 20
-11474.104513190801
 30
0.0
 11
-14234.789156730678
 21
-11473.945884482695
 31
0.0
  0
LINE
  5
136
100
AcDbEntity
  8
Frei
  6
CONTINUOUS
 62
           7
100
AcDbLine
 10
-14234.821030994346
 20
-11474.444867479715
 30
0.0
 11
-14234.789156730678
 21
-11473.945884482695
 31
0.0
  0
LINE
  5
137
100
AcDbEntity
  8
Frei
  6
CONTINUOUS
 62
           1
100
AcDbLine
 10
-14232.018998735395
 20
-11469.613666217618
 30
0.0
 11
-14234.502288357664
 21
-11469.45503750951
 31
0.0
  0
LINE
  5
138
100
AcDbEntity
  8
Frei
  6
CONTINUOUS
 62
           7
100
AcDbLine
 10
-14234.75728246701
 20
-11473.446901485675
 30
0.0
 11
-14234.502288357664
 21
-11469.45503750951
 31
0.0
  0
LINE
  5
139
100
AcDbEntity
  8
Frei
  6
CONTINUOUS
 62
           1
100
AcDbLine
 10
-14232.273992844741
 20
-11473.605530193781
 30
0.0
 11
-14234.75728246701
 21
-11473.446901485675
 31
0.0
  0
LINE
  5
13A
100
AcDbEntity
  8
Frei
  6
CONTINUOUS
 62
           7
100
AcDbLine
 10
-14234.789156730678
 20
-11473.945884482695
 30
0.0
 11
-14234.75728246701
 21
-11473.446901485675
 31
0.0
  0
LINE
  5
13B
100
AcDbEntity
  8
Frei
  6
CONTINUOUS
 62
           7
100
AcDbLine
 10
-14226.977085253015
 20
-11460.361560149036
 30
0.0
 11
-14199.902085023235
 21
-11461.143844501514
 31
0.0
  0
LINE
  5
13C
100
AcDbEntity
  8
Frei
  6
CONTINUOUS
 62
           7
100
AcDbLine
 10
-14229.030779606173
 20
-11462.233228797646
 30
0.0
 11
-14229.066218696105
 21
-11462.788018187905
 31
0.0
  0
LINE
  5
13D
100
AcDbEntity
  8
Frei
  6
CONTINUOUS
 62
           7
100
AcDbLine
 10
-14201.75079231599
 20
-11490.084858328706
 30
0.0
 11
-14230.691806143181
 21
-11488.236151035953
 31
0.0
  0
LINE
  5
13E
100
AcDbEntity
  8
Frei
  6
CONTINUOUS
 62
           7
100
AcDbLine
 10
-14230.755554670517
 20
-11489.234117029993
 30
0.0
 11
-14230.691806143181
 21
-11488.236151035953
 31
0.0
  0
LINE
  5
13F
100
AcDbEntity
  8
Frei
  6
CONTINUOUS
 62
           7
100
AcDbLine
 10
-14230.256571673497
 20
-11489.265991293662
 30
0.0
 11
-14230.755554670517
 21
-11489.234117029993
 31
0.0
  0
LINE
  5
140
100
AcDbEntity
  8
Frei
  6
CONTINUOUS
 62
           7
100
AcDbLine
 10
-14201.75079231599
 20
-11490.084858328706
 30
0.0
 11
-14201.814540843327
 21
-11491.082824322748
 31
0.0
  0
LINE
  5
141
100
AcDbEntity
  8
Frei
  6
CONTINUOUS
 62
           7
100
AcDbLine
 10
-14241.563945466301
 20
-11501.570189679165
 30
0.0
 11
-14231.085302528869
 21
-11502.239549216196
 31
0.0
  0
LINE
  5
142
100
AcDbEntity
  8
Frei
  6
CONTINUOUS
 62
           7
100
AcDbLine
 10
-14244.080870894744
 20
-11517.442022792819
 30
0.0
 11
-14244.112745158413
 21
-11517.941005789839
 31
0.0
  0
LINE
  5
143
100
AcDbEntity
  8
Frei
  6
CONTINUOUS
 62
           7
100
AcDbLine
 10
-14242.711418958355
 20
-11519.533577571905
 30
0.0
 11
-14232.232776020923
 21
-11520.202937108936
 31
0.0
  0
LINE
  5
144
100
AcDbEntity
  8
Frei
  6
CONTINUOUS
 62
           7
100
AcDbLine
 10
-14232.009656175247
 20
-11516.710056129792
 30
0.0
 11
-14230.256571673497
 21
-11489.265991293662
 31
0.0
  0
LINE
  5
145
100
AcDbEntity
  8
Frei
  6
CONTINUOUS
 62
           7
100
AcDbLine
 10
-14202.313523840347
 20
-11491.05095005908
 30
0.0
 11
-14230.256571673497
 21
-11489.265991293662
 31
0.0
  0
LINE
  5
146
100
AcDbEntity
  8
Frei
  6
CONTINUOUS
 62
           7
100
AcDbLine
 10
-14230.60832997519
 20
-11518.302627911859
 30
0.0
 11
-14224.656359378276
 21
-11518.682830606707
 31
0.0
  0
LINE
  5
147
100
AcDbEntity
  8
Frei
  6
CONTINUOUS
 62
           7
100
AcDbLine
 10
-14204.066608342095
 20
-11518.49501489521
 30
0.0
 11
-14202.313523840347
 21
-11491.05095005908
 31
0.0
  0
LINE
  5
148
100
AcDbEntity
  8
Frei
  6
CONTINUOUS
 62
           7
100
AcDbLine
 10
-14201.814540843327
 20
-11491.082824322748
 30
0.0
 11
-14202.313523840347
 21
-11491.05095005908
 31
0.0
  0
LINE
  5
149
100
AcDbEntity
  8
Frei
  6
CONTINUOUS
 62
           7
100
AcDbLine
 10
-14224.656359378276
 20
-11518.682830606707
 30
0.0
 11
-14232.232776020923
 21
-11520.202937108936
 31
0.0
  0
LINE
  5
14A
100
AcDbEntity
  8
Frei
  6
CONTINUOUS
 62
           7
100
AcDbLine
 10
-14205.659180124161
 20
-11519.896341095267
 30
0.0
 11
-14224.656359378276
 21
-11518.682830606707
 31
0.0
  0
LINE
  5
14B
100
AcDbEntity
  8
Frei
  6
CONTINUOUS
 62
           7
100
AcDbLine
 10
-14248.178221482241
 20
-11503.15175623956
 30
0.0
 11
-14243.188391512036
 21
-11503.470498876242
 31
0.0
  0
LINE
  5
14C
100
AcDbEntity
  8
Frei
  6
CONTINUOUS
 62
           7
100
AcDbLine
 10
-14243.156517248368
 20
-11502.971515879222
 30
0.0
 11
-14243.188391512036
 21
-11503.470498876242
 31
0.0
  0
LINE
  5
14D
100
AcDbEntity
  8
Frei
  6
CONTINUOUS
 62
           7
100
AcDbLine
 10
-14249.07070086495
 20
-11517.123280156136
 30
0.0
 11
-14244.080870894744
 21
-11517.442022792819
 31
0.0
  0
LINE
  5
14E
100
AcDbEntity
  8
Frei
  6
CONTINUOUS
 62
           7
100
AcDbLine
 10
-14244.017122367408
 20
-11516.444056798777
 30
0.0
 11
-14244.080870894744
 21
-11517.442022792819
 31
0.0
  0
LINE
  5
14F
100
AcDbEntity
  8
Frei
  6
CONTINUOUS
 62
           2
100
AcDbLine
 10
-14243.252140039373
 20
-11504.468464870284
 30
0.0
 11
-14248.241970009578
 21
-11504.149722233602
 31
0.0
  0
LINE
  5
150
100
AcDbEntity
  8
Frei
  6
CONTINUOUS
 62
           7
100
AcDbLine
 10
-14243.188391512036
 20
-11503.470498876242
 30
0.0
 11
-14243.252140039373
 21
-11504.468464870284
 31
0.0
  0
LINE
  5
151
100
AcDbEntity
  8
Frei
  6
CONTINUOUS
 62
           2
100
AcDbLine
 10
-14244.017122367408
 20
-11516.444056798777
 30
0.0
 11
-14249.006952337613
 21
-11516.125314162095
 31
0.0
  0
LINE
  5
152
100
AcDbEntity
  8
Frei
  6
CONTINUOUS
 62
           7
100
AcDbLine
 10
-14243.252140039373
 20
-11504.468464870284
 30
0.0
 11
-14244.017122367408
 21
-11516.444056798777
 31
0.0
  0
LINE
  5
153
100
AcDbEntity
  8
Frei
  6
CONTINUOUS
 62
           7
100
AcDbLine
 10
-14200.252701923586
 20
-11466.632657468741
 30
0.0
 11
-14199.498250953155
 21
-11466.680850632234
 31
0.0
  0
LINE
  5
154
100
AcDbEntity
  8
Frei
  6
CONTINUOUS
 62
           7
100
AcDbLine
 10
-14199.902085023235
 20
-11461.143844501514
 30
0.0
 11
-14200.252701923586
 21
-11466.632657468741
 31
0.0
  0
LINE
  5
155
100
AcDbEntity
  8
Frei
  6
CONTINUOUS
 62
           7
100
AcDbLine
 10
-14200.475821769263
 20
-11470.125538447885
 30
0.0
 11
-14199.721370798832
 21
-11470.173731611378
 31
0.0
  0
LINE
  5
156
100
AcDbEntity
  8
Frei
  6
CONTINUOUS
 62
           7
100
AcDbLine
 10
-14200.252701923586
 20
-11466.632657468741
 30
0.0
 11
-14200.475821769263
 21
-11470.125538447885
 31
0.0
  0
LINE
  5
157
100
AcDbEntity
  8
Frei
  6
CONTINUOUS
 62
           7
100
AcDbLine
 10
-14200.922061460617
 20
-11477.111300406172
 30
0.0
 11
-14200.167610490187
 21
-11477.159493569665
 31
0.0
  0
LINE
  5
158
100
AcDbEntity
  8
Frei
  6
CONTINUOUS
 62
           7
100
AcDbLine
 10
-14200.475821769263
 20
-11470.125538447885
 30
0.0
 11
-14200.922061460617
 21
-11477.111300406172
 31
0.0
  0
LINE
  5
159
100
AcDbEntity
  8
Frei
  6
CONTINUOUS
 62
           7
100
AcDbLine
 10
-14201.145181306294
 20
-11480.604181385315
 30
0.0
 11
-14200.390730335865
 21
-11480.65237454881
 31
0.0
  0
LINE
  5
15A
100
AcDbEntity
  8
Frei
  6
CONTINUOUS
 62
           7
100
AcDbLine
 10
-14200.922061460617
 20
-11477.111300406172
 30
0.0
 11
-14201.145181306294
 21
-11480.604181385315
 31
0.0
  0
LINE
  5
15B
100
AcDbEntity
  8
Frei
  6
CONTINUOUS
 62
           7
100
AcDbLine
 10
-14199.201992623879
 20
-11473.714042218033
 30
0.0
 11
-14198.867312855362
 21
-11468.474720749316
 31
0.0
  0
LINE
  5
15C
100
AcDbEntity
  8
Frei
  6
CONTINUOUS
 62
           7
100
AcDbLine
 10
-14248.119049893243
 20
-11502.225440980186
 30
0.0
 11
-14248.035577502906
 21
-11500.918703233021
 31
0.0
  0
LINE
  5
15D
100
AcDbEntity
  8
Frei
  6
CONTINUOUS
 62
           7
100
AcDbLine
 10
-14253.448729424403
 20
-11519.085783333025
 30
0.0
 11
-14249.213344844284
 21
-11519.356333162676
 31
0.0
  0
LINE
  5
15E
100
AcDbEntity
  8
Frei
  6
CONTINUOUS
 62
           7
100
AcDbLine
 10
-14253.108879863448
 20
-11501.906698343506
 30
0.0
 11
-14248.119049893243
 21
-11502.225440980186
 31
0.0
  0
LINE
  5
15F
100
AcDbEntity
  8
Frei
  6
CONTINUOUS
 62
           7
100
AcDbLine
 10
-14248.246546947914
 20
-11504.221372968268
 30
0.0
 11
-14248.119049893243
 21
-11502.225440980186
 31
0.0
  0
LINE
  5
160
100
AcDbEntity
  8
Frei
  6
CONTINUOUS
 62
           7
100
AcDbLine
 10
-14248.246546947914
 20
-11504.221372968268
 30
0.0
 11
-14253.236376918121
 21
-11503.902630331588
 31
0.0
  0
LINE
  5
161
100
AcDbEntity
  8
Frei
  6
CONTINUOUS
 62
           7
100
AcDbLine
 10
-14253.108879863448
 20
-11501.906698343506
 30
0.0
 11
-14253.236376918121
 21
-11503.902630331588
 31
0.0
  0
LINE
  5
162
100
AcDbEntity
  8
Frei
  6
CONTINUOUS
 62
           7
100
AcDbLine
 10
-14248.330019338251
 20
-11505.528110715435
 30
0.0
 11
-14248.246546947914
 21
-11504.221372968268
 31
0.0
  0
LINE
  5
163
100
AcDbEntity
  8
Frei
  6
CONTINUOUS
 62
           7
100
AcDbLine
 10
-14248.496964118922
 20
-11508.141586209766
 30
0.0
 11
-14248.330019338251
 21
-11505.528110715435
 31
0.0
  0
LINE
  5
164
100
AcDbEntity
  8
Frei
  6
CONTINUOUS
 62
           7
100
AcDbLine
 10
-14248.496964118922
 20
-11508.141586209766
 30
0.0
 11
-14253.486794089127
 21
-11507.822843573083
 31
0.0
  0
LINE
  5
165
100
AcDbEntity
  8
Frei
  6
CONTINUOUS
 62
           7
100
AcDbLine
 10
-14253.236376918121
 20
-11503.902630331588
 30
0.0
 11
-14253.486794089127
 21
-11507.822843573083
 31
0.0
  0
LINE
  5
166
100
AcDbEntity
  8
Frei
  6
CONTINUOUS
 62
           7
100
AcDbLine
 10
-14248.751958228268
 20
-11512.133450185931
 30
0.0
 11
-14248.496964118922
 21
-11508.141586209766
 31
0.0
  0
LINE
  5
167
100
AcDbEntity
  8
Frei
  6
CONTINUOUS
 62
           7
100
AcDbLine
 10
-14248.751958228268
 20
-11512.133450185931
 30
0.0
 11
-14253.741788198473
 21
-11511.814707549249
 31
0.0
  0
LINE
  5
168
100
AcDbEntity
  8
Frei
  6
CONTINUOUS
 62
           7
100
AcDbLine
 10
-14253.486794089127
 20
-11507.822843573083
 30
0.0
 11
-14253.741788198473
 21
-11511.814707549249
 31
0.0
  0
LINE
  5
169
100
AcDbEntity
  8
Frei
  6
CONTINUOUS
 62
           7
100
AcDbLine
 10
-14248.91890300894
 20
-11514.746925680263
 30
0.0
 11
-14248.751958228268
 21
-11512.133450185931
 31
0.0
  0
LINE
  5
16A
100
AcDbEntity
  8
Frei
  6
CONTINUOUS
 62
           7
100
AcDbLine
 10
-14249.002375399275
 20
-11516.053663427429
 30
0.0
 11
-14248.91890300894
 21
-11514.746925680263
 31
0.0
  0
LINE
  5
16B
100
AcDbEntity
  8
Frei
  6
CONTINUOUS
 62
           7
100
AcDbLine
 10
-14249.002375399275
 20
-11516.053663427429
 30
0.0
 11
-14253.992205369481
 21
-11515.734920790746
 31
0.0
  0
LINE
  5
16C
100
AcDbEntity
  8
Frei
  6
CONTINUOUS
 62
           7
100
AcDbLine
 10
-14253.741788198473
 20
-11511.814707549249
 30
0.0
 11
-14253.992205369481
 21
-11515.734920790746
 31
0.0
  0
LINE
  5
16D
100
AcDbEntity
  8
Frei
  6
CONTINUOUS
 62
           7
100
AcDbLine
 10
-14249.129872453948
 20
-11518.04959541551
 30
0.0
 11
-14249.002375399275
 21
-11516.053663427429
 31
0.0
  0
LINE
  5
16E
100
AcDbEntity
  8
Frei
  6
CONTINUOUS
 62
           7
100
AcDbLine
 10
-14249.129872453948
 20
-11518.04959541551
 30
0.0
 11
-14254.119702424154
 21
-11517.730852778828
 31
0.0
  0
LINE
  5
16F
100
AcDbEntity
  8
Frei
  6
CONTINUOUS
 62
           7
100
AcDbLine
 10
-14253.992205369481
 20
-11515.734920790746
 30
0.0
 11
-14254.119702424154
 21
-11517.730852778828
 31
0.0
  0
LINE
  5
170
100
AcDbEntity
  8
Frei
  6
CONTINUOUS
 62
           7
100
AcDbLine
 10
-14249.213344844284
 20
-11519.356333162676
 30
0.0
 11
-14249.129872453948
 21
-11518.04959541551
 31
0.0
  0
LINE
  5
171
100
AcDbEntity
  8
Frei
  6
CONTINUOUS
 62
           7
100
AcDbLine
 10
-14253.108879863448
 20
-11501.906698343506
 30
0.0
 11
-14252.270962083025
 21
-11500.64815340337
 31
0.0
  0
LINE
  5
172
100
AcDbEntity
  8
Frei
  6
CONTINUOUS
 62
           7
100
AcDbLine
 10
-14248.035577502906
 20
-11500.918703233021
 30
0.0
 11
-14252.270962083025
 21
-11500.64815340337
 31
0.0
  0
LINE
  5
173
100
AcDbEntity
  8
Frei
  6
CONTINUOUS
 62
           7
100
AcDbLine
 10
-14253.448729424403
 20
-11519.085783333025
 30
0.0
 11
-14254.119702424154
 21
-11517.730852778828
 31
0.0
  0
LINE
  5
174
100
AcDbEntity
  8
Frei
  6
CONTINUOUS
 62
           7
100
AcDbLine
 10
-14252.56540391837
 20
-11505.257560885782
 30
0.0
 11
-14253.236376918121
 21
-11503.902630331588
 31
0.0
  0
LINE
  5
175
100
AcDbEntity
  8
Frei
  6
CONTINUOUS
 62
           7
100
AcDbLine
 10
-14248.330019338251
 20
-11505.528110715435
 30
0.0
 11
-14252.56540391837
 21
-11505.257560885782
 31
0.0
  0
LINE
  5
176
100
AcDbEntity
  8
Frei
  6
CONTINUOUS
 62
           7
100
AcDbLine
 10
-14253.486794089127
 20
-11507.822843573083
 30
0.0
 11
-14252.56540391837
 21
-11505.257560885782
 31
0.0
  0
LINE
  5
177
100
AcDbEntity
  8
Frei
  6
CONTINUOUS
 62
           7
100
AcDbLine
 10
-14253.154287589059
 20
-11514.476375850611
 30
0.0
 11
-14253.741788198473
 21
-11511.814707549249
 31
0.0
  0
LINE
  5
178
100
AcDbEntity
  8
Frei
  6
CONTINUOUS
 62
           7
100
AcDbLine
 10
-14248.91890300894
 20
-11514.746925680263
 30
0.0
 11
-14253.154287589059
 21
-11514.476375850611
 31
0.0
  0
LINE
  5
179
100
AcDbEntity
  8
Frei
  6
CONTINUOUS
 62
           7
100
AcDbLine
 10
-14253.992205369481
 20
-11515.734920790746
 30
0.0
 11
-14253.154287589059
 21
-11514.476375850611
 31
0.0
  0
LINE
  5
17A
100
AcDbEntity
  8
Frei
  6
CONTINUOUS
 62
           3
100
AcDbLine
 10
-14208.699446559218
 20
-11512.587662691898
 30
0.0
 11
-14226.662834451958
 21
-11511.440189199844
 31
0.0
  0
LINE
  5
17B
100
AcDbEntity
  8
Frei
  6
CONTINUOUS
 62
           3
100
AcDbLine
 10
-14209.336475272043
 20
-11513.148193171921
 30
0.0
 11
-14208.699446559218
 21
-11512.587662691898
 31
0.0
  0
LINE
  5
17C
100
AcDbEntity
  8
Frei
  6
CONTINUOUS
 62
           3
100
AcDbLine
 10
-14208.775944792022
 20
-11513.785221884747
 30
0.0
 11
-14209.336475272043
 21
-11513.148193171921
 31
0.0
  0
LINE
  5
17D
100
AcDbEntity
  8
Frei
  6
CONTINUOUS
 62
           3
100
AcDbLine
 10
-14226.739332684761
 20
-11512.637748392694
 30
0.0
 11
-14208.775944792022
 21
-11513.785221884747
 31
0.0
  0
LINE
  5
17E
100
AcDbEntity
  8
Frei
  6
CONTINUOUS
 62
           3
100
AcDbLine
 10
-14226.102303971935
 20
-11512.077217912671
 30
0.0
 11
-14226.739332684761
 21
-11512.637748392694
 31
0.0
  0
LINE
  5
17F
100
AcDbEntity
  8
Frei
  6
CONTINUOUS
 62
           3
100
AcDbLine
 10
-14226.662834451958
 20
-11511.440189199844
 30
0.0
 11
-14226.102303971935
 21
-11512.077217912671
 31
0.0
  0
LINE
  5
180
100
AcDbEntity
  8
Frei
  6
CONTINUOUS
 62
           3
100
AcDbLine
 10
-14209.336475272043
 20
-11513.148193171921
 30
0.0
 11
-14226.102303971935
 21
-11512.077217912671
 31
0.0
  0
LINE
  5
181
100
AcDbEntity
  8
Frei
  6
CONTINUOUS
 62
           3
100
AcDbLine
 10
-14226.611835630089
 20
-11510.641816404612
 30
0.0
 11
-14225.974806917262
 21
-11510.081285924587
 31
0.0
  0
LINE
  5
182
100
AcDbEntity
  8
Frei
  6
CONTINUOUS
 62
           3
100
AcDbLine
 10
-14208.648447737349
 20
-11511.789289896666
 30
0.0
 11
-14226.611835630089
 21
-11510.641816404612
 31
0.0
  0
LINE
  5
183
100
AcDbEntity
  8
Frei
  6
CONTINUOUS
 62
           3
100
AcDbLine
 10
-14209.20897821737
 20
-11511.152261183839
 30
0.0
 11
-14208.648447737349
 21
-11511.789289896666
 31
0.0
  0
LINE
  5
184
100
AcDbEntity
  8
Frei
  6
CONTINUOUS
 62
           3
100
AcDbLine
 10
-14208.571949504545
 20
-11510.591730703816
 30
0.0
 11
-14209.20897821737
 21
-11511.152261183839
 31
0.0
  0
LINE
  5
185
100
AcDbEntity
  8
Frei
  6
CONTINUOUS
 62
           3
100
AcDbLine
 10
-14226.535337397285
 20
-11509.444257211762
 30
0.0
 11
-14208.571949504545
 21
-11510.591730703816
 31
0.0
  0
LINE
  5
186
100
AcDbEntity
  8
Frei
  6
CONTINUOUS
 62
           3
100
AcDbLine
 10
-14225.974806917262
 20
-11510.081285924587
 30
0.0
 11
-14226.535337397285
 21
-11509.444257211762
 31
0.0
  0
LINE
  5
187
100
AcDbEntity
  8
Frei
  6
CONTINUOUS
 62
           3
100
AcDbLine
 10
-14225.974806917262
 20
-11510.081285924587
 30
0.0
 11
-14209.20897821737
 21
-11511.152261183839
 31
0.0
  0
LINE
  5
188
100
AcDbEntity
  8
Frei
  6
CONTINUOUS
 62
           3
100
AcDbLine
 10
-14226.484338575416
 20
-11508.645884416528
 30
0.0
 11
-14225.847309862589
 21
-11508.085353936505
 31
0.0
  0
LINE
  5
189
100
AcDbEntity
  8
Frei
  6
CONTINUOUS
 62
           3
100
AcDbLine
 10
-14208.520950682676
 20
-11509.793357908582
 30
0.0
 11
-14226.484338575416
 21
-11508.645884416528
 31
0.0
  0
LINE
  5
18A
100
AcDbEntity
  8
Frei
  6
CONTINUOUS
 62
           3
100
AcDbLine
 10
-14209.081481162697
 20
-11509.156329195755
 30
0.0
 11
-14208.520950682676
 21
-11509.793357908582
 31
0.0
  0
LINE
  5
18B
100
AcDbEntity
  8
Frei
  6
CONTINUOUS
 62
           3
100
AcDbLine
 10
-14208.444452449872
 20
-11508.595798715734
 30
0.0
 11
-14209.081481162697
 21
-11509.156329195755
 31
0.0
  0
LINE
  5
18C
100
AcDbEntity
  8
Frei
  6
CONTINUOUS
 62
           3
100
AcDbLine
 10
-14226.407840342612
 20
-11507.448325223681
 30
0.0
 11
-14208.444452449872
 21
-11508.595798715734
 31
0.0
  0
LINE
  5
18D
100
AcDbEntity
  8
Frei
  6
CONTINUOUS
 62
           3
100
AcDbLine
 10
-14225.847309862589
 20
-11508.085353936505
 30
0.0
 11
-14226.407840342612
 21
-11507.448325223681
 31
0.0
  0
LINE
  5
18E
100
AcDbEntity
  8
Frei
  6
CONTINUOUS
 62
           3
100
AcDbLine
 10
-14226.356841520743
 20
-11506.649952428446
 30
0.0
 11
-14225.719812807916
 21
-11506.089421948423
 31
0.0
  0
LINE
  5
18F
100
AcDbEntity
  8
Frei
  6
CONTINUOUS
 62
           3
100
AcDbLine
 10
-14220.276315266874
 20
-11507.038367060237
 30
0.0
 11
-14226.356841520743
 21
-11506.649952428446
 31
0.0
  0
LINE
  5
190
100
AcDbEntity
  8
Frei
  6
CONTINUOUS
 62
           3
100
AcDbLine
 10
-14208.953984108024
 20
-11507.160397207674
 30
0.0
 11
-14208.393453628003
 21
-11507.7974259205
 31
0.0
  0
LINE
  5
191
100
AcDbEntity
  8
Frei
  6
CONTINUOUS
 62
           3
100
AcDbLine
 10
-14208.316955395199
 20
-11506.599866727651
 30
0.0
 11
-14208.953984108024
 21
-11507.160397207674
 31
0.0
  0
LINE
  5
192
100
AcDbEntity
  8
Frei
  6
CONTINUOUS
 62
           3
100
AcDbLine
 10
-14214.397481649066
 20
-11506.211452095862
 30
0.0
 11
-14208.316955395199
 21
-11506.599866727651
 31
0.0
  0
LINE
  5
193
100
AcDbEntity
  8
Frei
  6
CONTINUOUS
 62
           3
100
AcDbLine
 10
-14225.719812807916
 20
-11506.089421948423
 30
0.0
 11
-14226.280343287939
 21
-11505.452393235597
 31
0.0
  0
LINE
  5
194
100
AcDbEntity
  8
Frei
  6
CONTINUOUS
 62
           3
100
AcDbLine
 10
-14226.22934446607
 20
-11504.654020440365
 30
0.0
 11
-14225.592315753243
 21
-11504.093489960342
 31
0.0
  0
LINE
  5
195
100
AcDbEntity
  8
Frei
  6
CONTINUOUS
 62
           3
100
AcDbLine
 10
-14220.893516502496
 20
-11504.994864894814
 30
0.0
 11
-14226.22934446607
 21
-11504.654020440365
 31
0.0
  0
LINE
  5
196
100
AcDbEntity
  8
Frei
  6
CONTINUOUS
 62
           3
100
AcDbLine
 10
-14208.826487053351
 20
-11505.164465219592
 30
0.0
 11
-14208.26595657333
 21
-11505.801493932418
 31
0.0
  0
LINE
  5
197
100
AcDbEntity
  8
Frei
  6
CONTINUOUS
 62
           3
100
AcDbLine
 10
-14214.162315016927
 20
-11504.823620765143
 30
0.0
 11
-14208.826487053351
 21
-11505.164465219592
 31
0.0
  0
LINE
  5
198
100
AcDbEntity
  8
Frei
  6
CONTINUOUS
 62
           3
100
AcDbLine
 10
-14219.639286554047
 20
-11506.477836580214
 30
0.0
 11
-14225.719812807916
 21
-11506.089421948423
 31
0.0
  0
LINE
  5
199
100
AcDbEntity
  8
Frei
  6
CONTINUOUS
 62
           3
100
AcDbLine
 10
-14209.081481162697
 20
-11509.156329195755
 30
0.0
 11
-14225.847309862589
 21
-11508.085353936505
 31
0.0
  0
LINE
  5
19A
100
AcDbEntity
  8
Frei
  6
CONTINUOUS
 62
           3
100
AcDbLine
 10
-14219.639286554047
 20
-11506.477836580214
 30
0.0
 11
-14220.19981703407
 21
-11505.840807867387
 31
0.0
  0
LINE
  5
19B
100
AcDbEntity
  8
Frei
  6
CONTINUOUS
 62
           3
100
AcDbLine
 10
-14226.280343287939
 20
-11505.452393235597
 30
0.0
 11
-14220.19981703407
 21
-11505.840807867387
 31
0.0
  0
LINE
  5
19C
100
AcDbEntity
  8
Frei
  6
CONTINUOUS
 62
           3
100
AcDbLine
 10
-14220.276315266874
 20
-11507.038367060237
 30
0.0
 11
-14219.639286554047
 21
-11506.477836580214
 31
0.0
  0
LINE
  5
19D
100
AcDbEntity
  8
Frei
  6
CONTINUOUS
 62
           3
100
AcDbLine
 10
-14220.256487789668
 20
-11504.434334414791
 30
0.0
 11
-14220.893516502496
 21
-11504.994864894814
 31
0.0
  0
LINE
  5
19E
100
AcDbEntity
  8
Frei
  6
CONTINUOUS
 62
           3
100
AcDbLine
 10
-14225.592315753243
 20
-11504.093489960342
 30
0.0
 11
-14220.256487789668
 21
-11504.434334414791
 31
0.0
  0
LINE
  5
19F
100
AcDbEntity
  8
Frei
  6
CONTINUOUS
 62
           3
100
AcDbLine
 10
-14213.601784536904
 20
-11505.460649477969
 30
0.0
 11
-14214.162315016927
 21
-11504.823620765143
 31
0.0
  0
LINE
  5
1A0
100
AcDbEntity
  8
Frei
  6
CONTINUOUS
 62
           3
100
AcDbLine
 10
-14208.26595657333
 20
-11505.801493932418
 30
0.0
 11
-14213.601784536904
 21
-11505.460649477969
 31
0.0
  0
LINE
  5
1A1
100
AcDbEntity
  8
Frei
  6
CONTINUOUS
 62
           3
100
AcDbLine
 10
-14215.034510361895
 20
-11506.771982575885
 30
0.0
 11
-14214.397481649066
 21
-11506.211452095862
 31
0.0
  0
LINE
  5
1A2
100
AcDbEntity
  8
Frei
  6
CONTINUOUS
 62
           3
100
AcDbLine
 10
-14208.953984108024
 20
-11507.160397207674
 30
0.0
 11
-14215.034510361895
 21
-11506.771982575885
 31
0.0
  0
LINE
  5
1A3
100
AcDbEntity
  8
Frei
  6
CONTINUOUS
 62
           3
100
AcDbLine
 10
-14214.47397988187
 20
-11507.409011288712
 30
0.0
 11
-14215.034510361895
 21
-11506.771982575885
 31
0.0
  0
LINE
  5
1A4
100
AcDbEntity
  8
Frei
  6
CONTINUOUS
 62
           3
100
AcDbLine
 10
-14208.393453628003
 20
-11507.7974259205
 30
0.0
 11
-14214.47397988187
 21
-11507.409011288712
 31
0.0
  0
LINE
  5
1A5
100
AcDbEntity
  8
Frei
  6
CONTINUOUS
 62
           3
100
AcDbLine
 10
-14226.280343287939
 20
-11505.452393235597
 30
0.0
 11
-14226.356841520743
 21
-11506.649952428446
 31
0.0
  0
LINE
  5
1A6
100
AcDbEntity
  8
Frei
  6
CONTINUOUS
 62
           3
100
AcDbLine
 10
-14226.484338575416
 20
-11508.645884416528
 30
0.0
 11
-14226.407840342612
 21
-11507.448325223681
 31
0.0
  0
LINE
  5
1A7
100
AcDbEntity
  8
Frei
  6
CONTINUOUS
 62
           3
100
AcDbLine
 10
-14226.611835630089
 20
-11510.641816404612
 30
0.0
 11
-14226.535337397285
 21
-11509.444257211762
 31
0.0
  0
LINE
  5
1A8
100
AcDbEntity
  8
Frei
  6
CONTINUOUS
 62
           3
100
AcDbLine
 10
-14226.739332684761
 20
-11512.637748392694
 30
0.0
 11
-14226.662834451958
 21
-11511.440189199844
 31
0.0
  0
LINE
  5
1A9
100
AcDbEntity
  8
Frei
  6
CONTINUOUS
 62
           3
100
AcDbLine
 10
-14226.191095349668
 20
-11504.05524084394
 30
0.0
 11
-14226.22934446607
 21
-11504.654020440365
 31
0.0
  0
LINE
  5
1AA
100
AcDbEntity
  8
Frei
  6
CONTINUOUS
 62
           3
100
AcDbLine
 10
-14208.26595657333
 20
-11505.801493932418
 30
0.0
 11
-14208.227707456928
 21
-11505.202714335994
 31
0.0
  0
LINE
  5
1AB
100
AcDbEntity
  8
Frei
  6
CONTINUOUS
 62
           3
100
AcDbLine
 10
-14208.393453628003
 20
-11507.7974259205
 30
0.0
 11
-14208.316955395199
 21
-11506.599866727651
 31
0.0
  0
LINE
  5
1AC
100
AcDbEntity
  8
Frei
  6
CONTINUOUS
 62
           3
100
AcDbLine
 10
-14208.520950682676
 20
-11509.793357908582
 30
0.0
 11
-14208.444452449872
 21
-11508.595798715734
 31
0.0
  0
LINE
  5
1AD
100
AcDbEntity
  8
Frei
  6
CONTINUOUS
 62
           3
100
AcDbLine
 10
-14208.648447737349
 20
-11511.789289896666
 30
0.0
 11
-14208.571949504545
 21
-11510.591730703816
 31
0.0
  0
LINE
  5
1AE
100
AcDbEntity
  8
Frei
  6
CONTINUOUS
 62
           3
100
AcDbLine
 10
-14208.775944792022
 20
-11513.785221884747
 30
0.0
 11
-14208.699446559218
 21
-11512.587662691898
 31
0.0
  0
LINE
  5
1AF
100
AcDbEntity
  8
Frei
  6
CONTINUOUS
 62
           3
100
AcDbLine
 10
-14207.755968354641
 20
-11497.817765980089
 30
0.0
 11
-14207.679470121837
 21
-11496.62020678724
 31
0.0
  0
LINE
  5
1B0
100
AcDbEntity
  8
Frei
  6
CONTINUOUS
 62
           3
100
AcDbLine
 10
-14207.883465409312
 20
-11499.813697968171
 30
0.0
 11
-14207.806967176508
 21
-11498.616138775322
 31
0.0
  0
LINE
  5
1B1
100
AcDbEntity
  8
Frei
  6
CONTINUOUS
 62
           3
100
AcDbLine
 10
-14208.010962463984
 20
-11501.809629956255
 30
0.0
 11
-14207.934464231181
 21
-11500.612070763405
 31
0.0
  0
LINE
  5
1B2
100
AcDbEntity
  8
Frei
  6
CONTINUOUS
 62
           3
100
AcDbLine
 10
-14208.138459518657
 20
-11503.805561944337
 30
0.0
 11
-14208.061961285854
 21
-11502.608002751487
 31
0.0
  0
LINE
  5
1B3
100
AcDbEntity
  8
Frei
  6
CONTINUOUS
 62
           3
100
AcDbLine
 10
-14208.227707456928
 20
-11505.202714335994
 30
0.0
 11
-14208.189458340526
 21
-11504.603934739569
 31
0.0
  0
LINE
  5
1B4
100
AcDbEntity
  8
Frei
  6
CONTINUOUS
 62
           3
100
AcDbLine
 10
-14226.152846233266
 20
-11503.456461247515
 30
0.0
 11
-14226.191095349668
 21
-11504.05524084394
 31
0.0
  0
LINE
  5
1B5
100
AcDbEntity
  8
Frei
  6
CONTINUOUS
 62
           3
100
AcDbLine
 10
-14225.71935624738
 20
-11496.670292488036
 30
0.0
 11
-14225.642858014577
 21
-11495.472733295186
 31
0.0
  0
LINE
  5
1B6
100
AcDbEntity
  8
Frei
  6
CONTINUOUS
 62
           3
100
AcDbLine
 10
-14225.846853302051
 20
-11498.666224476117
 30
0.0
 11
-14225.770355069249
 21
-11497.46866528327
 31
0.0
  0
LINE
  5
1B7
100
AcDbEntity
  8
Frei
  6
CONTINUOUS
 62
           3
100
AcDbLine
 10
-14225.974350356724
 20
-11500.662156464199
 30
0.0
 11
-14225.897852123921
 21
-11499.464597271352
 31
0.0
  0
LINE
  5
1B8
100
AcDbEntity
  8
Frei
  6
CONTINUOUS
 62
           3
100
AcDbLine
 10
-14226.025349178593
 20
-11501.460529259433
 30
0.0
 11
-14226.101847411397
 21
-11502.658088452283
 31
0.0
  0
LINE
  5
1B9
100
AcDbEntity
  8
Frei
  6
CONTINUOUS
 62
           3
100
AcDbLine
 10
-14214.142487539722
 20
-11502.219588119697
 30
0.0
 11
-14208.061961285854
 21
-11502.608002751487
 31
0.0
  0
LINE
  5
1BA
100
AcDbEntity
  8
Frei
  6
CONTINUOUS
 62
           3
100
AcDbLine
 10
-14214.779516252549
 20
-11502.78011859972
 30
0.0
 11
-14214.142487539722
 21
-11502.219588119697
 31
0.0
  0
LINE
  5
1BB
100
AcDbEntity
  8
Frei
  6
CONTINUOUS
 62
           3
100
AcDbLine
 10
-14214.779516252549
 20
-11502.78011859972
 30
0.0
 11
-14208.698989998678
 21
-11503.16853323151
 31
0.0
  0
LINE
  5
1BC
100
AcDbEntity
  8
Frei
  6
CONTINUOUS
 62
           3
100
AcDbLine
 10
-14214.218985772526
 20
-11503.417147312546
 30
0.0
 11
-14214.779516252549
 21
-11502.78011859972
 31
0.0
  0
LINE
  5
1BD
100
AcDbEntity
  8
Frei
  6
CONTINUOUS
 62
           3
100
AcDbLine
 10
-14213.525286304101
 20
-11504.26309028512
 30
0.0
 11
-14208.189458340526
 21
-11504.603934739569
 31
0.0
  0
LINE
  5
1BE
100
AcDbEntity
  8
Frei
  6
CONTINUOUS
 62
           3
100
AcDbLine
 10
-14214.162315016927
 20
-11504.823620765143
 30
0.0
 11
-14213.525286304101
 21
-11504.26309028512
 31
0.0
  0
LINE
  5
1BF
100
AcDbEntity
  8
Frei
  6
CONTINUOUS
 62
           3
100
AcDbLine
 10
-14220.817018269692
 20
-11503.797305701964
 30
0.0
 11
-14220.256487789668
 21
-11504.434334414791
 31
0.0
  0
LINE
  5
1C0
100
AcDbEntity
  8
Frei
  6
CONTINUOUS
 62
           3
100
AcDbLine
 10
-14219.384292444704
 20
-11502.485972604049
 30
0.0
 11
-14219.944822924725
 21
-11501.848943891222
 31
0.0
  0
LINE
  5
1C1
100
AcDbEntity
  8
Frei
  6
CONTINUOUS
 62
           3
100
AcDbLine
 10
-14220.021321157528
 20
-11503.046503084071
 30
0.0
 11
-14226.101847411397
 21
-11502.658088452283
 31
0.0
  0
LINE
  5
1C2
100
AcDbEntity
  8
Frei
  6
CONTINUOUS
 62
           3
100
AcDbLine
 10
-14220.021321157528
 20
-11503.046503084071
 30
0.0
 11
-14219.384292444704
 21
-11502.485972604049
 31
0.0
  0
LINE
  5
1C3
100
AcDbEntity
  8
Frei
  6
CONTINUOUS
 62
           3
100
AcDbLine
 10
-14225.337321643898
 20
-11500.101625984176
 30
0.0
 11
-14208.571492944007
 21
-11501.172601243428
 31
0.0
  0
LINE
  5
1C4
100
AcDbEntity
  8
Frei
  6
CONTINUOUS
 62
           3
100
AcDbLine
 10
-14225.464818698571
 20
-11502.09755797226
 30
0.0
 11
-14219.384292444704
 21
-11502.485972604049
 31
0.0
  0
LINE
  5
1C5
100
AcDbEntity
  8
Frei
  6
CONTINUOUS
 62
           3
100
AcDbLine
 10
-14208.189458340526
 20
-11504.603934739569
 30
0.0
 11
-14208.826487053351
 21
-11505.164465219592
 31
0.0
  0
LINE
  5
1C6
100
AcDbEntity
  8
Frei
  6
CONTINUOUS
 62
           3
100
AcDbLine
 10
-14226.152846233266
 20
-11503.456461247515
 30
0.0
 11
-14220.817018269692
 21
-11503.797305701964
 31
0.0
  0
LINE
  5
1C7
100
AcDbEntity
  8
Frei
  6
CONTINUOUS
 62
           3
100
AcDbLine
 10
-14225.592315753243
 20
-11504.093489960342
 30
0.0
 11
-14226.152846233266
 21
-11503.456461247515
 31
0.0
  0
LINE
  5
1C8
100
AcDbEntity
  8
Frei
  6
CONTINUOUS
 62
           3
100
AcDbLine
 10
-14226.101847411397
 20
-11502.658088452283
 30
0.0
 11
-14225.464818698571
 21
-11502.09755797226
 31
0.0
  0
LINE
  5
1C9
100
AcDbEntity
  8
Frei
  6
CONTINUOUS
 62
           3
100
AcDbLine
 10
-14208.138459518657
 20
-11503.805561944337
 30
0.0
 11
-14214.218985772526
 21
-11503.417147312546
 31
0.0
  0
LINE
  5
1CA
100
AcDbEntity
  8
Frei
  6
CONTINUOUS
 62
           3
100
AcDbLine
 10
-14208.698989998678
 20
-11503.16853323151
 30
0.0
 11
-14208.138459518657
 21
-11503.805561944337
 31
0.0
  0
LINE
  5
1CB
100
AcDbEntity
  8
Frei
  6
CONTINUOUS
 62
           3
100
AcDbLine
 10
-14208.061961285854
 20
-11502.608002751487
 30
0.0
 11
-14208.698989998678
 21
-11503.16853323151
 31
0.0
  0
LINE
  5
1CC
100
AcDbEntity
  8
Frei
  6
CONTINUOUS
 62
           3
100
AcDbLine
 10
-14226.025349178593
 20
-11501.460529259433
 30
0.0
 11
-14219.944822924725
 21
-11501.848943891222
 31
0.0
  0
LINE
  5
1CD
100
AcDbEntity
  8
Frei
  6
CONTINUOUS
 62
           3
100
AcDbLine
 10
-14225.464818698571
 20
-11502.09755797226
 30
0.0
 11
-14226.025349178593
 21
-11501.460529259433
 31
0.0
  0
LINE
  5
1CE
100
AcDbEntity
  8
Frei
  6
CONTINUOUS
 62
           3
100
AcDbLine
 10
-14225.974350356724
 20
-11500.662156464199
 30
0.0
 11
-14225.337321643898
 21
-11500.101625984176
 31
0.0
  0
LINE
  5
1CF
100
AcDbEntity
  8
Frei
  6
CONTINUOUS
 62
           3
100
AcDbLine
 10
-14208.010962463984
 20
-11501.809629956255
 30
0.0
 11
-14225.974350356724
 21
-11500.662156464199
 31
0.0
  0
LINE
  5
1D0
100
AcDbEntity
  8
Frei
  6
CONTINUOUS
 62
           3
100
AcDbLine
 10
-14208.571492944007
 20
-11501.172601243428
 30
0.0
 11
-14208.010962463984
 21
-11501.809629956255
 31
0.0
  0
LINE
  5
1D1
100
AcDbEntity
  8
Frei
  6
CONTINUOUS
 62
           3
100
AcDbLine
 10
-14207.934464231181
 20
-11500.612070763405
 30
0.0
 11
-14208.571492944007
 21
-11501.172601243428
 31
0.0
  0
LINE
  5
1D2
100
AcDbEntity
  8
Frei
  6
CONTINUOUS
 62
           3
100
AcDbLine
 10
-14225.897852123921
 20
-11499.464597271352
 30
0.0
 11
-14207.934464231181
 21
-11500.612070763405
 31
0.0
  0
LINE
  5
1D3
100
AcDbEntity
  8
Frei
  6
CONTINUOUS
 62
           3
100
AcDbLine
 10
-14225.337321643898
 20
-11500.101625984176
 30
0.0
 11
-14225.897852123921
 21
-11499.464597271352
 31
0.0
  0
LINE
  5
1D4
100
AcDbEntity
  8
Frei
  6
CONTINUOUS
 62
           3
100
AcDbLine
 10
-14208.443995889334
 20
-11499.176669255345
 30
0.0
 11
-14225.209824589225
 21
-11498.105693996094
 31
0.0
  0
LINE
  5
1D5
100
AcDbEntity
  8
Frei
  6
CONTINUOUS
 62
           3
100
AcDbLine
 10
-14225.846853302051
 20
-11498.666224476117
 30
0.0
 11
-14225.209824589225
 21
-11498.105693996094
 31
0.0
  0
LINE
  5
1D6
100
AcDbEntity
  8
Frei
  6
CONTINUOUS
 62
           3
100
AcDbLine
 10
-14207.883465409312
 20
-11499.813697968171
 30
0.0
 11
-14225.846853302051
 21
-11498.666224476117
 31
0.0
  0
LINE
  5
1D7
100
AcDbEntity
  8
Frei
  6
CONTINUOUS
 62
           3
100
AcDbLine
 10
-14208.443995889334
 20
-11499.176669255345
 30
0.0
 11
-14207.883465409312
 21
-11499.813697968171
 31
0.0
  0
LINE
  5
1D8
100
AcDbEntity
  8
Frei
  6
CONTINUOUS
 62
           3
100
AcDbLine
 10
-14207.806967176508
 20
-11498.616138775322
 30
0.0
 11
-14208.443995889334
 21
-11499.176669255345
 31
0.0
  0
LINE
  5
1D9
100
AcDbEntity
  8
Frei
  6
CONTINUOUS
 62
           3
100
AcDbLine
 10
-14225.770355069249
 20
-11497.46866528327
 30
0.0
 11
-14207.806967176508
 21
-11498.616138775322
 31
0.0
  0
LINE
  5
1DA
100
AcDbEntity
  8
Frei
  6
CONTINUOUS
 62
           3
100
AcDbLine
 10
-14225.209824589225
 20
-11498.105693996094
 30
0.0
 11
-14225.770355069249
 21
-11497.46866528327
 31
0.0
  0
LINE
  5
1DB
100
AcDbEntity
  8
Frei
  6
CONTINUOUS
 62
           3
100
AcDbLine
 10
-14225.082327534552
 20
-11496.109762008013
 30
0.0
 11
-14208.316498834662
 21
-11497.180737267263
 31
0.0
  0
LINE
  5
1DC
100
AcDbEntity
  8
Frei
  6
CONTINUOUS
 62
           3
100
AcDbLine
 10
-14225.082327534552
 20
-11496.109762008013
 30
0.0
 11
-14225.71935624738
 21
-11496.670292488036
 31
0.0
  0
LINE
  5
1DD
100
AcDbEntity
  8
Frei
  6
CONTINUOUS
 62
           3
100
AcDbLine
 10
-14225.642858014577
 20
-11495.472733295186
 30
0.0
 11
-14225.082327534552
 21
-11496.109762008013
 31
0.0
  0
LINE
  5
1DE
100
AcDbEntity
  8
Frei
  6
CONTINUOUS
 62
           3
100
AcDbLine
 10
-14207.679470121837
 20
-11496.62020678724
 30
0.0
 11
-14225.642858014577
 21
-11495.472733295186
 31
0.0
  0
LINE
  5
1DF
100
AcDbEntity
  8
Frei
  6
CONTINUOUS
 62
           3
100
AcDbLine
 10
-14208.316498834662
 20
-11497.180737267263
 30
0.0
 11
-14207.679470121837
 21
-11496.62020678724
 31
0.0
  0
LINE
  5
1E0
100
AcDbEntity
  8
Frei
  6
CONTINUOUS
 62
           3
100
AcDbLine
 10
-14207.755968354641
 20
-11497.817765980089
 30
0.0
 11
-14208.316498834662
 21
-11497.180737267263
 31
0.0
  0
LINE
  5
1E1
100
AcDbEntity
  8
Frei
  6
CONTINUOUS
 62
           3
100
AcDbLine
 10
-14225.71935624738
 20
-11496.670292488036
 30
0.0
 11
-14207.755968354641
 21
-11497.817765980089
 31
0.0
  0
LINE
  5
1E2
100
AcDbEntity
  8
Frei
  6
CONTINUOUS
 62
           3
100
AcDbLine
 10
-14035.107851385526
 20
-11508.846261209275
 30
0.0
 11
-14017.144463492787
 21
-11509.993734701329
 31
0.0
  0
LINE
  5
1E3
100
AcDbEntity
  8
Frei
  6
CONTINUOUS
 62
           3
100
AcDbLine
 10
-14034.470822672702
 20
-11508.285730729252
 30
0.0
 11
-14035.107851385526
 21
-11508.846261209275
 31
0.0
  0
LINE
  5
1E4
100
AcDbEntity
  8
Frei
  6
CONTINUOUS
 62
           3
100
AcDbLine
 10
-14035.031353152723
 20
-11507.648702016426
 30
0.0
 11
-14034.470822672702
 21
-11508.285730729252
 31
0.0
  0
LINE
  5
1E5
100
AcDbEntity
  8
Frei
  6
CONTINUOUS
 62
           3
100
AcDbLine
 10
-14017.067965259983
 20
-11508.79617550848
 30
0.0
 11
-14035.031353152723
 21
-11507.648702016426
 31
0.0
  0
LINE
  5
1E6
100
AcDbEntity
  8
Frei
  6
CONTINUOUS
 62
           3
100
AcDbLine
 10
-14017.704993972809
 20
-11509.356705988503
 30
0.0
 11
-14017.067965259983
 21
-11508.79617550848
 31
0.0
  0
LINE
  5
1E7
100
AcDbEntity
  8
Frei
  6
CONTINUOUS
 62
           3
100
AcDbLine
 10
-14017.144463492787
 20
-11509.993734701329
 30
0.0
 11
-14017.704993972809
 21
-11509.356705988503
 31
0.0
  0
LINE
  5
1E8
100
AcDbEntity
  8
Frei
  6
CONTINUOUS
 62
           3
100
AcDbLine
 10
-14034.470822672702
 20
-11508.285730729252
 30
0.0
 11
-14017.704993972809
 21
-11509.356705988503
 31
0.0
  0
LINE
  5
1E9
100
AcDbEntity
  8
Frei
  6
CONTINUOUS
 62
           3
100
AcDbLine
 10
-14017.195462314656
 20
-11510.792107496563
 30
0.0
 11
-14017.832491027482
 21
-11511.352637976584
 31
0.0
  0
LINE
  5
1EA
100
AcDbEntity
  8
Frei
  6
CONTINUOUS
 62
           3
100
AcDbLine
 10
-14035.158850207396
 20
-11509.644634004509
 30
0.0
 11
-14017.195462314656
 21
-11510.792107496563
 31
0.0
  0
LINE
  5
1EB
100
AcDbEntity
  8
Frei
  6
CONTINUOUS
 62
           3
100
AcDbLine
 10
-14034.598319727374
 20
-11510.281662717334
 30
0.0
 11
-14035.158850207396
 21
-11509.644634004509
 31
0.0
  0
LINE
  5
1EC
100
AcDbEntity
  8
Frei
  6
CONTINUOUS
 62
           3
100
AcDbLine
 10
-14035.235348440199
 20
-11510.842193197357
 30
0.0
 11
-14034.598319727374
 21
-11510.281662717334
 31
0.0
  0
LINE
  5
1ED
100
AcDbEntity
  8
Frei
  6
CONTINUOUS
 62
           3
100
AcDbLine
 10
-14017.271960547459
 20
-11511.989666689411
 30
0.0
 11
-14035.235348440199
 21
-11510.842193197357
 31
0.0
  0
LINE
  5
1EE
100
AcDbEntity
  8
Frei
  6
CONTINUOUS
 62
           3
100
AcDbLine
 10
-14017.832491027482
 20
-11511.352637976584
 30
0.0
 11
-14017.271960547459
 21
-11511.989666689411
 31
0.0
  0
LINE
  5
1EF
100
AcDbEntity
  8
Frei
  6
CONTINUOUS
 62
           3
100
AcDbLine
 10
-14017.832491027482
 20
-11511.352637976584
 30
0.0
 11
-14034.598319727374
 21
-11510.281662717334
 31
0.0
  0
LINE
  5
1F0
100
AcDbEntity
  8
Frei
  6
CONTINUOUS
 62
           3
100
AcDbLine
 10
-14017.322959369329
 20
-11512.788039484645
 30
0.0
 11
-14017.959988082155
 21
-11513.348569964668
 31
0.0
  0
LINE
  5
1F1
100
AcDbEntity
  8
Frei
  6
CONTINUOUS
 62
           3
100
AcDbLine
 10
-14035.286347262068
 20
-11511.640565992591
 30
0.0
 11
-14017.322959369329
 21
-11512.788039484645
 31
0.0
  0
LINE
  5
1F2
100
AcDbEntity
  8
Frei
  6
CONTINUOUS
 62
           3
100
AcDbLine
 10
-14034.725816782047
 20
-11512.277594705416
 30
0.0
 11
-14035.286347262068
 21
-11511.640565992591
 31
0.0
  0
LINE
  5
1F3
100
AcDbEntity
  8
Frei
  6
CONTINUOUS
 62
           3
100
AcDbLine
 10
-14035.362845494872
 20
-11512.838125185439
 30
0.0
 11
-14034.725816782047
 21
-11512.277594705416
 31
0.0
  0
LINE
  5
1F4
100
AcDbEntity
  8
Frei
  6
CONTINUOUS
 62
           3
100
AcDbLine
 10
-14017.399457602132
 20
-11513.985598677495
 30
0.0
 11
-14035.362845494872
 21
-11512.838125185439
 31
0.0
  0
LINE
  5
1F5
100
AcDbEntity
  8
Frei
  6
CONTINUOUS
 62
           3
100
AcDbLine
 10
-14017.959988082155
 20
-11513.348569964668
 30
0.0
 11
-14017.399457602132
 21
-11513.985598677495
 31
0.0
  0
LINE
  5
1F6
100
AcDbEntity
  8
Frei
  6
CONTINUOUS
 62
           3
100
AcDbLine
 10
-14017.450456424001
 20
-11514.783971472727
 30
0.0
 11
-14018.087485136828
 21
-11515.34450195275
 31
0.0
  0
LINE
  5
1F7
100
AcDbEntity
  8
Frei
  6
CONTINUOUS
 62
           3
100
AcDbLine
 10
-14023.53098267787
 20
-11514.395556840936
 30
0.0
 11
-14017.450456424001
 21
-11514.783971472727
 31
0.0
  0
LINE
  5
1F8
100
AcDbEntity
  8
Frei
  6
CONTINUOUS
 62
           3
100
AcDbLine
 10
-14034.85331383672
 20
-11514.2735266935
 30
0.0
 11
-14035.413844316741
 21
-11513.636497980673
 31
0.0
  0
LINE
  5
1F9
100
AcDbEntity
  8
Frei
  6
CONTINUOUS
 62
           3
100
AcDbLine
 10
-14035.490342549545
 20
-11514.834057173523
 30
0.0
 11
-14034.85331383672
 21
-11514.2735266935
 31
0.0
  0
LINE
  5
1FA
100
AcDbEntity
  8
Frei
  6
CONTINUOUS
 62
           3
100
AcDbLine
 10
-14029.409816295678
 20
-11515.222471805311
 30
0.0
 11
-14035.490342549545
 21
-11514.834057173523
 31
0.0
  0
LINE
  5
1FB
100
AcDbEntity
  8
Frei
  6
CONTINUOUS
 62
           3
100
AcDbLine
 10
-14018.087485136828
 20
-11515.34450195275
 30
0.0
 11
-14017.526954656805
 21
-11515.981530665576
 31
0.0
  0
LINE
  5
1FC
100
AcDbEntity
  8
Frei
  6
CONTINUOUS
 62
           3
100
AcDbLine
 10
-14017.577953478674
 20
-11516.779903460809
 30
0.0
 11
-14018.214982191501
 21
-11517.340433940832
 31
0.0
  0
LINE
  5
1FD
100
AcDbEntity
  8
Frei
  6
CONTINUOUS
 62
           3
100
AcDbLine
 10
-14022.913781442248
 20
-11516.439059006359
 30
0.0
 11
-14017.577953478674
 21
-11516.779903460809
 31
0.0
  0
LINE
  5
1FE
100
AcDbEntity
  8
Frei
  6
CONTINUOUS
 62
           3
100
AcDbLine
 10
-14034.980810891393
 20
-11516.269458681581
 30
0.0
 11
-14035.541341371414
 21
-11515.632429968755
 31
0.0
  0
LINE
  5
1FF
100
AcDbEntity
  8
Frei
  6
CONTINUOUS
 62
           3
100
AcDbLine
 10
-14024.168011390697
 20
-11514.956087320959
 30
0.0
 11
-14018.087485136828
 21
-11515.34450195275
 31
0.0
  0
LINE
  5
200
100
AcDbEntity
  8
Frei
  6
CONTINUOUS
 62
           3
100
AcDbLine
 10
-14034.725816782047
 20
-11512.277594705416
 30
0.0
 11
-14017.959988082155
 21
-11513.348569964668
 31
0.0
  0
LINE
  5
201
100
AcDbEntity
  8
Frei
  6
CONTINUOUS
 62
           3
100
AcDbLine
 10
-14024.168011390697
 20
-11514.956087320959
 30
0.0
 11
-14023.607480910674
 21
-11515.593116033786
 31
0.0
  0
LINE
  5
202
100
AcDbEntity
  8
Frei
  6
CONTINUOUS
 62
           3
100
AcDbLine
 10
-14017.526954656805
 20
-11515.981530665576
 30
0.0
 11
-14023.607480910674
 21
-11515.593116033786
 31
0.0
  0
LINE
  5
203
100
AcDbEntity
  8
Frei
  6
CONTINUOUS
 62
           3
100
AcDbLine
 10
-14023.53098267787
 20
-11514.395556840936
 30
0.0
 11
-14024.168011390697
 21
-11514.956087320959
 31
0.0
  0
LINE
  5
204
100
AcDbEntity
  8
Frei
  6
CONTINUOUS
 62
           3
100
AcDbLine
 10
-14023.550810155077
 20
-11516.999589486382
 30
0.0
 11
-14022.913781442248
 21
-11516.439059006359
 31
0.0
  0
LINE
  5
205
100
AcDbEntity
  8
Frei
  6
CONTINUOUS
 62
           3
100
AcDbLine
 10
-14030.20551340784
 20
-11515.973274423204
 30
0.0
 11
-14029.644982927817
 21
-11516.610303136031
 31
0.0
  0
LINE
  5
206
100
AcDbEntity
  8
Frei
  6
CONTINUOUS
 62
           3
100
AcDbLine
 10
-14035.541341371414
 20
-11515.632429968755
 30
0.0
 11
-14030.20551340784
 21
-11515.973274423204
 31
0.0
  0
LINE
  5
207
100
AcDbEntity
  8
Frei
  6
CONTINUOUS
 62
           3
100
AcDbLine
 10
-14028.77278758285
 20
-11514.661941325288
 30
0.0
 11
-14029.409816295678
 21
-11515.222471805311
 31
0.0
  0
LINE
  5
208
100
AcDbEntity
  8
Frei
  6
CONTINUOUS
 62
           3
100
AcDbLine
 10
-14034.85331383672
 20
-11514.2735266935
 30
0.0
 11
-14028.77278758285
 21
-11514.661941325288
 31
0.0
  0
LINE
  5
209
100
AcDbEntity
  8
Frei
  6
CONTINUOUS
 62
           3
100
AcDbLine
 10
-14029.333318062874
 20
-11514.024912612462
 30
0.0
 11
-14028.77278758285
 21
-11514.661941325288
 31
0.0
  0
LINE
  5
20A
100
AcDbEntity
  8
Frei
  6
CONTINUOUS
 62
           3
100
AcDbLine
 10
-14035.413844316741
 20
-11513.636497980673
 30
0.0
 11
-14029.333318062874
 21
-11514.024912612462
 31
0.0
  0
LINE
  5
20B
100
AcDbEntity
  8
Frei
  6
CONTINUOUS
 62
           3
100
AcDbLine
 10
-14017.526954656805
 20
-11515.981530665576
 30
0.0
 11
-14017.450456424001
 21
-11514.783971472727
 31
0.0
  0
LINE
  5
20C
100
AcDbEntity
  8
Frei
  6
CONTINUOUS
 62
           3
100
AcDbLine
 10
-14017.322959369329
 20
-11512.788039484645
 30
0.0
 11
-14017.399457602132
 21
-11513.985598677495
 31
0.0
  0
LINE
  5
20D
100
AcDbEntity
  8
Frei
  6
CONTINUOUS
 62
           3
100
AcDbLine
 10
-14017.195462314656
 20
-11510.792107496563
 30
0.0
 11
-14017.271960547459
 21
-11511.989666689411
 31
0.0
  0
LINE
  5
20E
100
AcDbEntity
  8
Frei
  6
CONTINUOUS
 62
           3
100
AcDbLine
 10
-14017.067965259983
 20
-11508.79617550848
 30
0.0
 11
-14017.144463492787
 21
-11509.993734701329
 31
0.0
  0
LINE
  5
20F
100
AcDbEntity
  8
Frei
  6
CONTINUOUS
 62
           3
100
AcDbLine
 10
-14017.616202595076
 20
-11517.378683057234
 30
0.0
 11
-14017.577953478674
 21
-11516.779903460809
 31
0.0
  0
LINE
  5
210
100
AcDbEntity
  8
Frei
  6
CONTINUOUS
 62
           3
100
AcDbLine
 10
-14035.541341371414
 20
-11515.632429968755
 30
0.0
 11
-14035.579590487816
 21
-11516.23120956518
 31
0.0
  0
LINE
  5
211
100
AcDbEntity
  8
Frei
  6
CONTINUOUS
 62
           3
100
AcDbLine
 10
-14035.413844316741
 20
-11513.636497980673
 30
0.0
 11
-14035.490342549545
 21
-11514.834057173523
 31
0.0
  0
LINE
  5
212
100
AcDbEntity
  8
Frei
  6
CONTINUOUS
 62
           3
100
AcDbLine
 10
-14035.286347262068
 20
-11511.640565992591
 30
0.0
 11
-14035.362845494872
 21
-11512.838125185439
 31
0.0
  0
LINE
  5
213
100
AcDbEntity
  8
Frei
  6
CONTINUOUS
 62
           3
100
AcDbLine
 10
-14035.158850207396
 20
-11509.644634004509
 30
0.0
 11
-14035.235348440199
 21
-11510.842193197357
 31
0.0
  0
LINE
  5
214
100
AcDbEntity
  8
Frei
  6
CONTINUOUS
 62
           3
100
AcDbLine
 10
-14035.031353152723
 20
-11507.648702016426
 30
0.0
 11
-14035.107851385526
 21
-11508.846261209275
 31
0.0
  0
LINE
  5
215
100
AcDbEntity
  8
Frei
  6
CONTINUOUS
 62
           3
100
AcDbLine
 10
-14036.051329590106
 20
-11523.616157921084
 30
0.0
 11
-14036.127827822907
 21
-11524.813717113933
 31
0.0
  0
LINE
  5
216
100
AcDbEntity
  8
Frei
  6
CONTINUOUS
 62
           3
100
AcDbLine
 10
-14035.923832535433
 20
-11521.620225933002
 30
0.0
 11
-14036.000330768236
 21
-11522.817785125852
 31
0.0
  0
LINE
  5
217
100
AcDbEntity
  8
Frei
  6
CONTINUOUS
 62
           3
100
AcDbLine
 10
-14035.79633548076
 20
-11519.62429394492
 30
0.0
 11
-14035.872833713564
 21
-11520.821853137768
 31
0.0
  0
LINE
  5
218
100
AcDbEntity
  8
Frei
  6
CONTINUOUS
 62
           3
100
AcDbLine
 10
-14035.668838426087
 20
-11517.628361956837
 30
0.0
 11
-14035.745336658891
 21
-11518.825921149686
 31
0.0
  0
LINE
  5
219
100
AcDbEntity
  8
Frei
  6
CONTINUOUS
 62
           3
100
AcDbLine
 10
-14035.579590487816
 20
-11516.23120956518
 30
0.0
 11
-14035.617839604218
 21
-11516.829989161604
 31
0.0
  0
LINE
  5
21A
100
AcDbEntity
  8
Frei
  6
CONTINUOUS
 62
           3
100
AcDbLine
 10
-14017.654451711478
 20
-11517.977462653658
 30
0.0
 11
-14017.616202595076
 21
-11517.378683057234
 31
0.0
  0
LINE
  5
21B
100
AcDbEntity
  8
Frei
  6
CONTINUOUS
 62
           3
100
AcDbLine
 10
-14018.087941697364
 20
-11524.763631413138
 30
0.0
 11
-14018.164439930168
 21
-11525.961190605987
 31
0.0
  0
LINE
  5
21C
100
AcDbEntity
  8
Frei
  6
CONTINUOUS
 62
           3
100
AcDbLine
 10
-14017.960444642693
 20
-11522.767699425056
 30
0.0
 11
-14018.036942875497
 21
-11523.965258617905
 31
0.0
  0
LINE
  5
21D
100
AcDbEntity
  8
Frei
  6
CONTINUOUS
 62
           3
100
AcDbLine
 10
-14017.83294758802
 20
-11520.771767436974
 30
0.0
 11
-14017.909445820824
 21
-11521.969326629822
 31
0.0
  0
LINE
  5
21E
100
AcDbEntity
  8
Frei
  6
CONTINUOUS
 62
           3
100
AcDbLine
 10
-14017.781948766151
 20
-11519.97339464174
 30
0.0
 11
-14017.705450533347
 21
-11518.775835448892
 31
0.0
  0
LINE
  5
21F
100
AcDbEntity
  8
Frei
  6
CONTINUOUS
 62
           3
100
AcDbLine
 10
-14029.664810405022
 20
-11519.214335781477
 30
0.0
 11
-14035.745336658891
 21
-11518.825921149686
 31
0.0
  0
LINE
  5
220
100
AcDbEntity
  8
Frei
  6
CONTINUOUS
 62
           3
100
AcDbLine
 10
-14029.027781692195
 20
-11518.653805301454
 30
0.0
 11
-14029.664810405022
 21
-11519.214335781477
 31
0.0
  0
LINE
  5
221
100
AcDbEntity
  8
Frei
  6
CONTINUOUS
 62
           3
100
AcDbLine
 10
-14029.027781692195
 20
-11518.653805301454
 30
0.0
 11
-14035.108307946066
 21
-11518.265390669663
 31
0.0
  0
LINE
  5
222
100
AcDbEntity
  8
Frei
  6
CONTINUOUS
 62
           3
100
AcDbLine
 10
-14029.588312172218
 20
-11518.016776588627
 30
0.0
 11
-14029.027781692195
 21
-11518.653805301454
 31
0.0
  0
LINE
  5
223
100
AcDbEntity
  8
Frei
  6
CONTINUOUS
 62
           3
100
AcDbLine
 10
-14030.282011640644
 20
-11517.170833616054
 30
0.0
 11
-14035.617839604218
 21
-11516.829989161604
 31
0.0
  0
LINE
  5
224
100
AcDbEntity
  8
Frei
  6
CONTINUOUS
 62
           3
100
AcDbLine
 10
-14029.644982927817
 20
-11516.610303136031
 30
0.0
 11
-14030.282011640644
 21
-11517.170833616054
 31
0.0
  0
LINE
  5
225
100
AcDbEntity
  8
Frei
  6
CONTINUOUS
 62
           3
100
AcDbLine
 10
-14023.550810155077
 20
-11516.999589486382
 30
0.0
 11
-14018.214982191501
 21
-11517.340433940832
 31
0.0
  0
LINE
  5
226
100
AcDbEntity
  8
Frei
  6
CONTINUOUS
 62
           3
100
AcDbLine
 10
-14022.990279675052
 20
-11517.636618199209
 30
0.0
 11
-14023.550810155077
 21
-11516.999589486382
 31
0.0
  0
LINE
  5
227
100
AcDbEntity
  8
Frei
  6
CONTINUOUS
 62
           3
100
AcDbLine
 10
-14024.423005500041
 20
-11518.947951297125
 30
0.0
 11
-14023.86247502002
 21
-11519.584980009951
 31
0.0
  0
LINE
  5
228
100
AcDbEntity
  8
Frei
  6
CONTINUOUS
 62
           3
100
AcDbLine
 10
-14023.785976787216
 20
-11518.387420817102
 30
0.0
 11
-14017.705450533347
 21
-11518.775835448892
 31
0.0
  0
LINE
  5
229
100
AcDbEntity
  8
Frei
  6
CONTINUOUS
 62
           3
100
AcDbLine
 10
-14023.785976787216
 20
-11518.387420817102
 30
0.0
 11
-14024.423005500041
 21
-11518.947951297125
 31
0.0
  0
LINE
  5
22A
100
AcDbEntity
  8
Frei
  6
CONTINUOUS
 62
           3
100
AcDbLine
 10
-14018.469976300847
 20
-11521.332297916995
 30
0.0
 11
-14035.235805000739
 21
-11520.261322657745
 31
0.0
  0
LINE
  5
22B
100
AcDbEntity
  8
Frei
  6
CONTINUOUS
 62
           3
100
AcDbLine
 10
-14018.342479246174
 20
-11519.336365928913
 30
0.0
 11
-14024.423005500041
 21
-11518.947951297125
 31
0.0
  0
LINE
  5
22C
100
AcDbEntity
  8
Frei
  6
CONTINUOUS
 62
           3
100
AcDbLine
 10
-14034.980810891393
 20
-11516.269458681581
 30
0.0
 11
-14029.644982927817
 21
-11516.610303136031
 31
0.0
  0
LINE
  5
22D
100
AcDbEntity
  8
Frei
  6
CONTINUOUS
 62
           3
100
AcDbLine
 10
-14035.617839604218
 20
-11516.829989161604
 30
0.0
 11
-14034.980810891393
 21
-11516.269458681581
 31
0.0
  0
LINE
  5
22E
100
AcDbEntity
  8
Frei
  6
CONTINUOUS
 62
           3
100
AcDbLine
 10
-14017.654451711478
 20
-11517.977462653658
 30
0.0
 11
-14022.990279675052
 21
-11517.636618199209
 31
0.0
  0
LINE
  5
22F
100
AcDbEntity
  8
Frei
  6
CONTINUOUS
 62
           3
100
AcDbLine
 10
-14018.214982191501
 20
-11517.340433940832
 30
0.0
 11
-14017.654451711478
 21
-11517.977462653658
 31
0.0
  0
LINE
  5
230
100
AcDbEntity
  8
Frei
  6
CONTINUOUS
 62
           3
100
AcDbLine
 10
-14017.705450533347
 20
-11518.775835448892
 30
0.0
 11
-14018.342479246174
 21
-11519.336365928913
 31
0.0
  0
LINE
  5
231
100
AcDbEntity
  8
Frei
  6
CONTINUOUS
 62
           3
100
AcDbLine
 10
-14035.668838426087
 20
-11517.628361956837
 30
0.0
 11
-14029.588312172218
 21
-11518.016776588627
 31
0.0
  0
LINE
  5
232
100
AcDbEntity
  8
Frei
  6
CONTINUOUS
 62
           3
100
AcDbLine
 10
-14035.108307946066
 20
-11518.265390669663
 30
0.0
 11
-14035.668838426087
 21
-11517.628361956837
 31
0.0
  0
LINE
  5
233
100
AcDbEntity
  8
Frei
  6
CONTINUOUS
 62
           3
100
AcDbLine
 10
-14035.745336658891
 20
-11518.825921149686
 30
0.0
 11
-14035.108307946066
 21
-11518.265390669663
 31
0.0
  0
LINE
  5
234
100
AcDbEntity
  8
Frei
  6
CONTINUOUS
 62
           3
100
AcDbLine
 10
-14017.781948766151
 20
-11519.97339464174
 30
0.0
 11
-14023.86247502002
 21
-11519.584980009951
 31
0.0
  0
LINE
  5
235
100
AcDbEntity
  8
Frei
  6
CONTINUOUS
 62
           3
100
AcDbLine
 10
-14018.342479246174
 20
-11519.336365928913
 30
0.0
 11
-14017.781948766151
 21
-11519.97339464174
 31
0.0
  0
LINE
  5
236
100
AcDbEntity
  8
Frei
  6
CONTINUOUS
 62
           3
100
AcDbLine
 10
-14017.83294758802
 20
-11520.771767436974
 30
0.0
 11
-14018.469976300847
 21
-11521.332297916995
 31
0.0
  0
LINE
  5
237
100
AcDbEntity
  8
Frei
  6
CONTINUOUS
 62
           3
100
AcDbLine
 10
-14035.79633548076
 20
-11519.62429394492
 30
0.0
 11
-14017.83294758802
 21
-11520.771767436974
 31
0.0
  0
LINE
  5
238
100
AcDbEntity
  8
Frei
  6
CONTINUOUS
 62
           3
100
AcDbLine
 10
-14035.235805000739
 20
-11520.261322657745
 30
0.0
 11
-14035.79633548076
 21
-11519.62429394492
 31
0.0
  0
LINE
  5
239
100
AcDbEntity
  8
Frei
  6
CONTINUOUS
 62
           3
100
AcDbLine
 10
-14035.872833713564
 20
-11520.821853137768
 30
0.0
 11
-14035.235805000739
 21
-11520.261322657745
 31
0.0
  0
LINE
  5
23A
100
AcDbEntity
  8
Frei
  6
CONTINUOUS
 62
           3
100
AcDbLine
 10
-14017.909445820824
 20
-11521.969326629822
 30
0.0
 11
-14035.872833713564
 21
-11520.821853137768
 31
0.0
  0
LINE
  5
23B
100
AcDbEntity
  8
Frei
  6
CONTINUOUS
 62
           3
100
AcDbLine
 10
-14018.469976300847
 20
-11521.332297916995
 30
0.0
 11
-14017.909445820824
 21
-11521.969326629822
 31
0.0
  0
LINE
  5
23C
100
AcDbEntity
  8
Frei
  6
CONTINUOUS
 62
           3
100
AcDbLine
 10
-14035.36330205541
 20
-11522.257254645827
 30
0.0
 11
-14018.597473355519
 21
-11523.328229905079
 31
0.0
  0
LINE
  5
23D
100
AcDbEntity
  8
Frei
  6
CONTINUOUS
 62
           3
100
AcDbLine
 10
-14017.960444642693
 20
-11522.767699425056
 30
0.0
 11
-14018.597473355519
 21
-11523.328229905079
 31
0.0
  0
LINE
  5
23E
100
AcDbEntity
  8
Frei
  6
CONTINUOUS
 62
           3
100
AcDbLine
 10
-14035.923832535433
 20
-11521.620225933002
 30
0.0
 11
-14017.960444642693
 21
-11522.767699425056
 31
0.0
  0
LINE
  5
23F
100
AcDbEntity
  8
Frei
  6
CONTINUOUS
 62
           3
100
AcDbLine
 10
-14035.36330205541
 20
-11522.257254645827
 30
0.0
 11
-14035.923832535433
 21
-11521.620225933002
 31
0.0
  0
LINE
  5
240
100
AcDbEntity
  8
Frei
  6
CONTINUOUS
 62
           3
100
AcDbLine
 10
-14036.000330768236
 20
-11522.817785125852
 30
0.0
 11
-14035.36330205541
 21
-11522.257254645827
 31
0.0
  0
LINE
  5
241
100
AcDbEntity
  8
Frei
  6
CONTINUOUS
 62
           3
100
AcDbLine
 10
-14018.036942875497
 20
-11523.965258617905
 30
0.0
 11
-14036.000330768236
 21
-11522.817785125852
 31
0.0
  0
LINE
  5
242
100
AcDbEntity
  8
Frei
  6
CONTINUOUS
 62
           3
100
AcDbLine
 10
-14018.597473355519
 20
-11523.328229905079
 30
0.0
 11
-14018.036942875497
 21
-11523.965258617905
 31
0.0
  0
LINE
  5
243
100
AcDbEntity
  8
Frei
  6
CONTINUOUS
 62
           3
100
AcDbLine
 10
-14018.724970410192
 20
-11525.324161893161
 30
0.0
 11
-14035.490799110083
 21
-11524.25318663391
 31
0.0
  0
LINE
  5
244
100
AcDbEntity
  8
Frei
  6
CONTINUOUS
 62
           3
100
AcDbLine
 10
-14018.724970410192
 20
-11525.324161893161
 30
0.0
 11
-14018.087941697364
 21
-11524.763631413138
 31
0.0
  0
LINE
  5
245
100
AcDbEntity
  8
Frei
  6
CONTINUOUS
 62
           3
100
AcDbLine
 10
-14018.164439930168
 20
-11525.961190605987
 30
0.0
 11
-14018.724970410192
 21
-11525.324161893161
 31
0.0
  0
LINE
  5
246
100
AcDbEntity
  8
Frei
  6
CONTINUOUS
 62
           3
100
AcDbLine
 10
-14036.127827822907
 20
-11524.813717113933
 30
0.0
 11
-14018.164439930168
 21
-11525.961190605987
 31
0.0
  0
LINE
  5
247
100
AcDbEntity
  8
Frei
  6
CONTINUOUS
 62
           3
100
AcDbLine
 10
-14035.490799110083
 20
-11524.25318663391
 30
0.0
 11
-14036.127827822907
 21
-11524.813717113933
 31
0.0
  0
LINE
  5
248
100
AcDbEntity
  8
Frei
  6
CONTINUOUS
 62
           3
100
AcDbLine
 10
-14036.051329590106
 20
-11523.616157921084
 30
0.0
 11
-14035.490799110083
 21
-11524.25318663391
 31
0.0
  0
LINE
  5
249
100
AcDbEntity
  8
Frei
  6
CONTINUOUS
 62
           3
100
AcDbLine
 10
-14018.087941697364
 20
-11524.763631413138
 30
0.0
 11
-14036.051329590106
 21
-11523.616157921084
 31
0.0
  0
LINE
  5
24A
100
AcDbEntity
  8
Frei
  6
CONTINUOUS
 62
           7
100
AcDbLine
 10
-13992.198121936421
 20
-11531.145852926007
 30
0.0
 11
-13991.52714893667
 21
-11532.500783480204
 31
0.0
  0
LINE
  5
24B
100
AcDbEntity
  8
Frei
  6
CONTINUOUS
 62
           7
100
AcDbLine
 10
-13992.198121936421
 20
-11531.145852926007
 30
0.0
 11
-13996.433506516538
 21
-11530.875303096354
 31
0.0
  0
LINE
  5
24C
100
AcDbEntity
  8
Frei
  6
CONTINUOUS
 62
           7
100
AcDbLine
 10
-13991.276731765662
 20
-11528.580570238704
 30
0.0
 11
-13992.198121936421
 21
-11531.145852926007
 31
0.0
  0
LINE
  5
24D
100
AcDbEntity
  8
Frei
  6
CONTINUOUS
 62
           7
100
AcDbLine
 10
-13991.60923826573
 20
-11521.927037961179
 30
0.0
 11
-13991.021737656316
 21
-11524.588706262541
 31
0.0
  0
LINE
  5
24E
100
AcDbEntity
  8
Frei
  6
CONTINUOUS
 62
           7
100
AcDbLine
 10
-13991.60923826573
 20
-11521.927037961179
 30
0.0
 11
-13995.844622845849
 21
-11521.656488131526
 31
0.0
  0
LINE
  5
24F
100
AcDbEntity
  8
Frei
  6
CONTINUOUS
 62
           7
100
AcDbLine
 10
-13990.771320485308
 20
-11520.668493021043
 30
0.0
 11
-13991.60923826573
 21
-11521.927037961179
 31
0.0
  0
LINE
  5
250
100
AcDbEntity
  8
Frei
  6
CONTINUOUS
 62
           7
100
AcDbLine
 10
-13991.654645991342
 20
-11534.496715468285
 30
0.0
 11
-13992.492563771764
 21
-11535.755260408419
 31
0.0
  0
LINE
  5
251
100
AcDbEntity
  8
Frei
  6
CONTINUOUS
 62
           7
100
AcDbLine
 10
-13991.314796430386
 20
-11517.317630478765
 30
0.0
 11
-13995.550181010505
 21
-11517.047080649114
 31
0.0
  0
LINE
  5
252
100
AcDbEntity
  8
Frei
  6
CONTINUOUS
 62
           7
100
AcDbLine
 10
-13991.314796430386
 20
-11517.317630478765
 30
0.0
 11
-13990.643823430635
 21
-11518.672561032961
 31
0.0
  0
LINE
  5
253
100
AcDbEntity
  8
Frei
  6
CONTINUOUS
 62
           7
100
AcDbLine
 10
-13996.644475961548
 20
-11534.177972831603
 30
0.0
 11
-13996.727948351883
 21
-11535.484710578768
 31
0.0
  0
LINE
  5
254
100
AcDbEntity
  8
Frei
  6
CONTINUOUS
 62
           7
100
AcDbLine
 10
-13991.654645991342
 20
-11534.496715468285
 30
0.0
 11
-13991.52714893667
 21
-11532.500783480204
 31
0.0
  0
LINE
  5
255
100
AcDbEntity
  8
Frei
  6
CONTINUOUS
 62
           7
100
AcDbLine
 10
-13991.654645991342
 20
-11534.496715468285
 30
0.0
 11
-13996.644475961548
 21
-11534.177972831603
 31
0.0
  0
LINE
  5
256
100
AcDbEntity
  8
Frei
  6
CONTINUOUS
 62
           7
100
AcDbLine
 10
-13996.516978906875
 20
-11532.182040843521
 30
0.0
 11
-13996.644475961548
 21
-11534.177972831603
 31
0.0
  0
LINE
  5
257
100
AcDbEntity
  8
Frei
  6
CONTINUOUS
 62
           7
100
AcDbLine
 10
-13991.52714893667
 20
-11532.500783480204
 30
0.0
 11
-13991.276731765662
 21
-11528.580570238704
 31
0.0
  0
LINE
  5
258
100
AcDbEntity
  8
Frei
  6
CONTINUOUS
 62
           7
100
AcDbLine
 10
-13991.52714893667
 20
-11532.500783480204
 30
0.0
 11
-13996.516978906875
 21
-11532.182040843521
 31
0.0
  0
LINE
  5
259
100
AcDbEntity
  8
Frei
  6
CONTINUOUS
 62
           7
100
AcDbLine
 10
-13996.433506516538
 20
-11530.875303096354
 30
0.0
 11
-13996.516978906875
 21
-11532.182040843521
 31
0.0
  0
LINE
  5
25A
100
AcDbEntity
  8
Frei
  6
CONTINUOUS
 62
           7
100
AcDbLine
 10
-13996.266561735867
 20
-11528.261827602024
 30
0.0
 11
-13996.433506516538
 21
-11530.875303096354
 31
0.0
  0
LINE
  5
25B
100
AcDbEntity
  8
Frei
  6
CONTINUOUS
 62
           7
100
AcDbLine
 10
-13991.276731765662
 20
-11528.580570238704
 30
0.0
 11
-13991.021737656316
 21
-11524.588706262541
 31
0.0
  0
LINE
  5
25C
100
AcDbEntity
  8
Frei
  6
CONTINUOUS
 62
           7
100
AcDbLine
 10
-13991.276731765662
 20
-11528.580570238704
 30
0.0
 11
-13996.266561735867
 21
-11528.261827602024
 31
0.0
  0
LINE
  5
25D
100
AcDbEntity
  8
Frei
  6
CONTINUOUS
 62
           7
100
AcDbLine
 10
-13996.011567626521
 20
-11524.269963625859
 30
0.0
 11
-13996.266561735867
 21
-11528.261827602024
 31
0.0
  0
LINE
  5
25E
100
AcDbEntity
  8
Frei
  6
CONTINUOUS
 62
           7
100
AcDbLine
 10
-13991.021737656316
 20
-11524.588706262541
 30
0.0
 11
-13990.771320485308
 21
-11520.668493021043
 31
0.0
  0
LINE
  5
25F
100
AcDbEntity
  8
Frei
  6
CONTINUOUS
 62
           7
100
AcDbLine
 10
-13991.021737656316
 20
-11524.588706262541
 30
0.0
 11
-13996.011567626521
 21
-11524.269963625859
 31
0.0
  0
LINE
  5
260
100
AcDbEntity
  8
Frei
  6
CONTINUOUS
 62
           7
100
AcDbLine
 10
-13995.844622845849
 20
-11521.656488131526
 30
0.0
 11
-13996.011567626521
 21
-11524.269963625859
 31
0.0
  0
LINE
  5
261
100
AcDbEntity
  8
Frei
  6
CONTINUOUS
 62
           7
100
AcDbLine
 10
-13995.761150455513
 20
-11520.349750384361
 30
0.0
 11
-13995.844622845849
 21
-11521.656488131526
 31
0.0
  0
LINE
  5
262
100
AcDbEntity
  8
Frei
  6
CONTINUOUS
 62
           7
100
AcDbLine
 10
-13990.771320485308
 20
-11520.668493021043
 30
0.0
 11
-13990.643823430635
 21
-11518.672561032961
 31
0.0
  0
LINE
  5
263
100
AcDbEntity
  8
Frei
  6
CONTINUOUS
 62
           7
100
AcDbLine
 10
-13990.771320485308
 20
-11520.668493021043
 30
0.0
 11
-13995.761150455513
 21
-11520.349750384361
 31
0.0
  0
LINE
  5
264
100
AcDbEntity
  8
Frei
  6
CONTINUOUS
 62
           7
100
AcDbLine
 10
-13995.633653400841
 20
-11518.353818396279
 30
0.0
 11
-13995.761150455513
 21
-11520.349750384361
 31
0.0
  0
LINE
  5
265
100
AcDbEntity
  8
Frei
  6
CONTINUOUS
 62
           7
100
AcDbLine
 10
-13995.633653400841
 20
-11518.353818396279
 30
0.0
 11
-13990.643823430635
 21
-11518.672561032961
 31
0.0
  0
LINE
  5
266
100
AcDbEntity
  8
Frei
  6
CONTINUOUS
 62
           7
100
AcDbLine
 10
-13996.727948351883
 20
-11535.484710578768
 30
0.0
 11
-13992.492563771764
 21
-11535.755260408419
 31
0.0
  0
LINE
  5
267
100
AcDbEntity
  8
Frei
  6
CONTINUOUS
 62
           7
100
AcDbLine
 10
-13995.550181010505
 20
-11517.047080649114
 30
0.0
 11
-13995.633653400841
 21
-11518.353818396279
 31
0.0
  0
LINE
  5
268
100
AcDbEntity
  8
Frei
  6
CONTINUOUS
 62
           7
100
AcDbLine
 10
-14040.525399571341
 20
-11483.85005806451
 30
0.0
 11
-14040.860079339856
 21
-11489.089379533225
 31
0.0
  0
LINE
  5
269
100
AcDbEntity
  8
Frei
  6
CONTINUOUS
 62
           7
100
AcDbLine
 10
-14039.474690271634
 20
-11490.931442813802
 30
0.0
 11
-14039.251570425957
 21
-11487.438561834659
 31
0.0
  0
LINE
  5
26A
100
AcDbEntity
  8
Frei
  6
CONTINUOUS
 62
           7
100
AcDbLine
 10
-14040.229141242062
 20
-11490.883249650307
 30
0.0
 11
-14039.474690271634
 21
-11490.931442813802
 31
0.0
  0
LINE
  5
26B
100
AcDbEntity
  8
Frei
  6
CONTINUOUS
 62
           7
100
AcDbLine
 10
-14039.251570425957
 20
-11487.438561834659
 30
0.0
 11
-14038.805330734602
 21
-11480.45279987637
 31
0.0
  0
LINE
  5
26C
100
AcDbEntity
  8
Frei
  6
CONTINUOUS
 62
           7
100
AcDbLine
 10
-14040.006021396384
 20
-11487.390368671164
 30
0.0
 11
-14039.251570425957
 21
-11487.438561834659
 31
0.0
  0
LINE
  5
26D
100
AcDbEntity
  8
Frei
  6
CONTINUOUS
 62
           7
100
AcDbLine
 10
-14038.805330734602
 20
-11480.45279987637
 30
0.0
 11
-14038.582210888924
 21
-11476.959918897226
 31
0.0
  0
LINE
  5
26E
100
AcDbEntity
  8
Frei
  6
CONTINUOUS
 62
           7
100
AcDbLine
 10
-14039.559781705031
 20
-11480.404606712877
 30
0.0
 11
-14038.805330734602
 21
-11480.45279987637
 31
0.0
  0
LINE
  5
26F
100
AcDbEntity
  8
Frei
  6
CONTINUOUS
 62
           7
100
AcDbLine
 10
-14038.582210888924
 20
-11476.959918897226
 30
0.0
 11
-14038.231593988576
 21
-11471.471105930001
 31
0.0
  0
LINE
  5
270
100
AcDbEntity
  8
Frei
  6
CONTINUOUS
 62
           7
100
AcDbLine
 10
-14039.336661859354
 20
-11476.911725733733
 30
0.0
 11
-14038.582210888924
 21
-11476.959918897226
 31
0.0
  0
LINE
  5
271
100
AcDbEntity
  8
Frei
  6
CONTINUOUS
 62
           7
100
AcDbLine
 10
-14001.511385815418
 20
-11531.934948941505
 30
0.0
 11
-14000.746403487381
 21
-11519.959357013013
 31
0.0
  0
LINE
  5
272
100
AcDbEntity
  8
Frei
  6
CONTINUOUS
 62
           2
100
AcDbLine
 10
-13996.521555845213
 20
-11532.253691578187
 30
0.0
 11
-14001.511385815418
 21
-11531.934948941505
 31
0.0
  0
LINE
  5
273
100
AcDbEntity
  8
Frei
  6
CONTINUOUS
 62
           7
100
AcDbLine
 10
-14000.746403487381
 20
-11519.959357013013
 30
0.0
 11
-14000.682654960045
 21
-11518.961391018971
 31
0.0
  0
LINE
  5
274
100
AcDbEntity
  8
Frei
  6
CONTINUOUS
 62
           2
100
AcDbLine
 10
-13995.756573517176
 20
-11520.278099649695
 30
0.0
 11
-14000.746403487381
 21
-11519.959357013013
 31
0.0
  0
LINE
  5
275
100
AcDbEntity
  8
Frei
  6
CONTINUOUS
 62
           7
100
AcDbLine
 10
-14001.575134342755
 20
-11532.932914935547
 30
0.0
 11
-14001.511385815418
 21
-11531.934948941505
 31
0.0
  0
LINE
  5
276
100
AcDbEntity
  8
Frei
  6
CONTINUOUS
 62
           7
100
AcDbLine
 10
-14001.575134342755
 20
-11532.932914935547
 30
0.0
 11
-13996.585304372549
 21
-11533.251657572229
 31
0.0
  0
LINE
  5
277
100
AcDbEntity
  8
Frei
  6
CONTINUOUS
 62
           7
100
AcDbLine
 10
-14000.682654960045
 20
-11518.961391018971
 30
0.0
 11
-14000.650780696376
 21
-11518.462408021951
 31
0.0
  0
LINE
  5
278
100
AcDbEntity
  8
Frei
  6
CONTINUOUS
 62
           7
100
AcDbLine
 10
-14000.682654960045
 20
-11518.961391018971
 30
0.0
 11
-13995.692824989839
 21
-11519.280133655653
 31
0.0
  0
LINE
  5
279
100
AcDbEntity
  8
Frei
  6
CONTINUOUS
 62
           7
100
AcDbLine
 10
-14020.999645859223
 20
-11531.692107121657
 30
0.0
 11
-14039.996825113336
 21
-11530.478596633098
 31
0.0
  0
LINE
  5
27A
100
AcDbEntity
  8
Frei
  6
CONTINUOUS
 62
           7
100
AcDbLine
 10
-14013.67822332592
 20
-11534.163864595594
 30
0.0
 11
-14020.999645859223
 21
-11531.692107121657
 31
0.0
  0
LINE
  5
27B
100
AcDbEntity
  8
Frei
  6
CONTINUOUS
 62
           7
100
AcDbLine
 10
-14039.645066811645
 20
-11501.441960014901
 30
0.0
 11
-14040.144049808665
 21
-11501.410085751233
 31
0.0
  0
LINE
  5
27C
100
AcDbEntity
  8
Frei
  6
CONTINUOUS
 62
           7
100
AcDbLine
 10
-14039.645066811645
 20
-11501.441960014901
 30
0.0
 11
-14041.398151313393
 21
-11528.886024851032
 31
0.0
  0
LINE
  5
27D
100
AcDbEntity
  8
Frei
  6
CONTINUOUS
 62
           7
100
AcDbLine
 10
-14020.999645859223
 20
-11531.692107121657
 30
0.0
 11
-14015.047675262309
 21
-11532.072309816507
 31
0.0
  0
LINE
  5
27E
100
AcDbEntity
  8
Frei
  6
CONTINUOUS
 62
           7
100
AcDbLine
 10
-14011.702018978494
 20
-11503.226918780319
 30
0.0
 11
-14039.645066811645
 21
-11501.441960014901
 31
0.0
  0
LINE
  5
27F
100
AcDbEntity
  8
Frei
  6
CONTINUOUS
 62
           7
100
AcDbLine
 10
-14011.702018978494
 20
-11503.226918780319
 30
0.0
 11
-14013.455103480243
 21
-11530.67098361645
 31
0.0
  0
LINE
  5
280
100
AcDbEntity
  8
Frei
  6
CONTINUOUS
 62
           7
100
AcDbLine
 10
-14013.67822332592
 20
-11534.163864595594
 30
0.0
 11
-14003.199580388487
 21
-11534.833224132624
 31
0.0
  0
LINE
  5
281
100
AcDbEntity
  8
Frei
  6
CONTINUOUS
 62
           7
100
AcDbLine
 10
-14001.607008606423
 20
-11533.431897932567
 30
0.0
 11
-14001.575134342755
 21
-11532.932914935547
 31
0.0
  0
LINE
  5
282
100
AcDbEntity
  8
Frei
  6
CONTINUOUS
 62
           7
100
AcDbLine
 10
-14012.530749833866
 20
-11516.200476702854
 30
0.0
 11
-14002.052106896434
 21
-11516.869836239885
 31
0.0
  0
LINE
  5
283
100
AcDbEntity
  8
Frei
  6
CONTINUOUS
 62
           7
100
AcDbLine
 10
-14040.144049808665
 20
-11501.410085751233
 30
0.0
 11
-14040.080301281329
 21
-11500.412119757193
 31
0.0
  0
LINE
  5
284
100
AcDbEntity
  8
Frei
  6
CONTINUOUS
 62
           7
100
AcDbLine
 10
-14011.203035981473
 20
-11503.258793043988
 30
0.0
 11
-14011.702018978494
 21
-11503.226918780319
 31
0.0
  0
LINE
  5
285
100
AcDbEntity
  8
Frei
  6
CONTINUOUS
 62
           7
100
AcDbLine
 10
-14011.139287454136
 20
-11502.260827049946
 30
0.0
 11
-14011.203035981473
 21
-11503.258793043988
 31
0.0
  0
LINE
  5
286
100
AcDbEntity
  8
Frei
  6
CONTINUOUS
 62
           7
100
AcDbLine
 10
-14011.139287454136
 20
-11502.260827049946
 30
0.0
 11
-14040.080301281329
 21
-11500.412119757193
 31
0.0
  0
LINE
  5
287
100
AcDbEntity
  8
Frei
  6
CONTINUOUS
 62
           7
100
AcDbLine
 10
-14009.513700007061
 20
-11476.812694201897
 30
0.0
 11
-14009.478260917129
 21
-11476.25790481164
 31
0.0
  0
LINE
  5
288
100
AcDbEntity
  8
Frei
  6
CONTINUOUS
 62
           7
100
AcDbLine
 10
-14038.231593988576
 20
-11471.471105930001
 30
0.0
 11
-14011.277116496463
 21
-11474.140141219763
 31
0.0
  0
LINE
  5
289
100
AcDbEntity
  8
Frei
  6
CONTINUOUS
 62
           7
100
AcDbLine
 10
-14005.225103837554
 20
-11488.109062773032
 30
0.0
 11
-14005.256978101223
 21
-11488.608045770052
 31
0.0
  0
LINE
  5
28A
100
AcDbEntity
  8
Frei
  6
CONTINUOUS
 62
           1
100
AcDbLine
 10
-14005.225103837554
 20
-11488.109062773032
 30
0.0
 11
-14007.708393459823
 21
-11487.950434064926
 31
0.0
  0
LINE
  5
28B
100
AcDbEntity
  8
Frei
  6
CONTINUOUS
 62
           7
100
AcDbLine
 10
-14004.970109728209
 20
-11484.117198796866
 30
0.0
 11
-14005.225103837554
 21
-11488.109062773032
 31
0.0
  0
LINE
  5
28C
100
AcDbEntity
  8
Frei
  6
CONTINUOUS
 62
           1
100
AcDbLine
 10
-14004.970109728209
 20
-11484.117198796866
 30
0.0
 11
-14007.453399350477
 21
-11483.95857008876
 31
0.0
  0
LINE
  5
28D
100
AcDbEntity
  8
Frei
  6
CONTINUOUS
 62
           7
100
AcDbLine
 10
-14005.256978101223
 20
-11488.608045770052
 30
0.0
 11
-14005.288852364891
 21
-11489.107028767072
 31
0.0
  0
LINE
  5
28E
100
AcDbEntity
  8
Frei
  6
CONTINUOUS
 62
           1
100
AcDbLine
 10
-14005.256978101223
 20
-11488.608045770052
 30
0.0
 11
-14007.740267723491
 21
-11488.449417061945
 31
0.0
  0
LINE
  5
28F
100
AcDbEntity
  8
Frei
  6
CONTINUOUS
 62
           7
100
AcDbLine
 10
-14004.93823546454
 20
-11483.618215799846
 30
0.0
 11
-14004.970109728209
 21
-11484.117198796866
 31
0.0
  0
LINE
  5
290
100
AcDbEntity
  8
Frei
  6
CONTINUOUS
 62
           1
100
AcDbLine
 10
-14004.93823546454
 20
-11483.618215799846
 30
0.0
 11
-14007.421525086809
 21
-11483.45958709174
 31
0.0
  0
LINE
  5
291
100
AcDbEntity
  8
Frei
  6
CONTINUOUS
 62
           7
100
AcDbLine
 10
-14006.286818358933
 20
-11489.043280239737
 30
0.0
 11
-14005.904327194914
 21
-11483.05548427549
 31
0.0
  0
LINE
  5
292
100
AcDbEntity
  8
Frei
  6
CONTINUOUS
 62
           2
100
AcDbLine
 10
-14005.288852364891
 20
-11489.107028767072
 30
0.0
 11
-14006.286818358933
 21
-11489.043280239737
 31
0.0
  0
LINE
  5
293
100
AcDbEntity
  8
Frei
  6
CONTINUOUS
 62
           7
100
AcDbLine
 10
-14005.904327194914
 20
-11483.05548427549
 30
0.0
 11
-14005.840578667578
 21
-11482.057518281448
 31
0.0
  0
LINE
  5
294
100
AcDbEntity
  8
Frei
  6
CONTINUOUS
 62
           2
100
AcDbLine
 10
-14004.906361200872
 20
-11483.119232802826
 30
0.0
 11
-14005.904327194914
 21
-11483.05548427549
 31
0.0
  0
LINE
  5
295
100
AcDbEntity
  8
Frei
  6
CONTINUOUS
 62
           7
100
AcDbLine
 10
-14006.350566886267
 20
-11490.041246233777
 30
0.0
 11
-14006.286818358933
 21
-11489.043280239737
 31
0.0
  0
LINE
  5
296
100
AcDbEntity
  8
Frei
  6
CONTINUOUS
 62
           7
100
AcDbLine
 10
-14005.288852364891
 20
-11489.107028767072
 30
0.0
 11
-14006.350566886267
 21
-11490.041246233777
 31
0.0
  0
LINE
  5
297
100
AcDbEntity
  8
Frei
  6
CONTINUOUS
 62
           7
100
AcDbLine
 10
-14004.906361200872
 20
-11483.119232802826
 30
0.0
 11
-14004.93823546454
 21
-11483.618215799846
 31
0.0
  0
LINE
  5
298
100
AcDbEntity
  8
Frei
  6
CONTINUOUS
 62
           7
100
AcDbLine
 10
-14005.840578667578
 20
-11482.057518281448
 30
0.0
 11
-14005.521836030895
 21
-11477.067688311243
 31
0.0
  0
LINE
  5
299
100
AcDbEntity
  8
Frei
  6
CONTINUOUS
 62
           7
100
AcDbLine
 10
-14005.840578667578
 20
-11482.057518281448
 30
0.0
 11
-14004.906361200872
 21
-11483.119232802826
 31
0.0
  0
LINE
  5
29A
100
AcDbEntity
  8
Frei
  6
CONTINUOUS
 62
           7
100
AcDbLine
 10
-14040.080301281329
 20
-11500.412119757193
 30
0.0
 11
-14039.474690271634
 21
-11490.931442813802
 31
0.0
  0
LINE
  5
29B
100
AcDbEntity
  8
Frei
  6
CONTINUOUS
 62
           7
100
AcDbLine
 10
-14010.661173499115
 20
-11494.776082094637
 30
0.0
 11
-14011.139287454136
 21
-11502.260827049946
 31
0.0
  0
LINE
  5
29C
100
AcDbEntity
  8
Frei
  6
CONTINUOUS
 62
           7
100
AcDbLine
 10
-14008.451985485683
 20
-11475.878476735194
 30
0.0
 11
-14009.726956032409
 21
-11495.837796616015
 31
0.0
  0
LINE
  5
29D
100
AcDbEntity
  8
Frei
  6
CONTINUOUS
 62
           7
100
AcDbLine
 10
-14006.456053497601
 20
-11476.005973789866
 30
0.0
 11
-14007.731024044328
 21
-11495.965293670688
 31
0.0
  0
LINE
  5
29E
100
AcDbEntity
  8
Frei
  6
CONTINUOUS
 62
           7
100
AcDbLine
 10
-14006.669309522949
 20
-11495.031076203983
 30
0.0
 11
-14007.731024044328
 21
-11495.965293670688
 31
0.0
  0
LINE
  5
29F
100
AcDbEntity
  8
Frei
  6
CONTINUOUS
 62
           7
100
AcDbLine
 10
-14009.726956032409
 20
-11495.837796616015
 30
0.0
 11
-14010.661173499115
 21
-11494.776082094637
 31
0.0
  0
LINE
  5
2A0
100
AcDbEntity
  8
Frei
  6
CONTINUOUS
 62
           7
100
AcDbLine
 10
-14009.513700007061
 20
-11476.812694201897
 30
0.0
 11
-14008.451985485683
 21
-11475.878476735194
 31
0.0
  0
LINE
  5
2A1
100
AcDbEntity
  8
Frei
  6
CONTINUOUS
 62
           7
100
AcDbLine
 10
-14005.521836030895
 20
-11477.067688311243
 30
0.0
 11
-14006.456053497601
 21
-11476.005973789866
 31
0.0
  0
LINE
  5
2A2
100
AcDbEntity
  8
Frei
  6
CONTINUOUS
 62
           7
100
AcDbLine
 10
-14006.669309522949
 20
-11495.031076203983
 30
0.0
 11
-14006.350566886267
 21
-11490.041246233777
 31
0.0
  0
LINE
  5
2A3
100
AcDbEntity
  8
Frei
  6
CONTINUOUS
 62
           7
100
AcDbLine
 10
-14009.726956032409
 20
-11495.837796616015
 30
0.0
 11
-14007.731024044328
 21
-11495.965293670688
 31
0.0
  0
LINE
  5
2A4
100
AcDbEntity
  8
Frei
  6
CONTINUOUS
 62
           7
100
AcDbLine
 10
-14009.513700007061
 20
-11476.812694201897
 30
0.0
 11
-14010.661173499115
 21
-11494.776082094637
 31
0.0
  0
LINE
  5
2A5
100
AcDbEntity
  8
Frei
  6
CONTINUOUS
 62
           7
100
AcDbLine
 10
-14006.456053497601
 20
-11476.005973789866
 30
0.0
 11
-14008.451985485683
 21
-11475.878476735194
 31
0.0
  0
LINE
  5
2A6
100
AcDbEntity
  8
Frei
  6
CONTINUOUS
 62
           7
100
AcDbLine
 10
-14056.546740183006
 20
-11499.360269056142
 30
0.0
 11
-14046.068097245576
 21
-11500.029628593174
 31
0.0
  0
LINE
  5
2A7
100
AcDbEntity
  8
Frei
  6
CONTINUOUS
 62
           7
100
AcDbLine
 10
-14040.471514864332
 20
-11467.319870635494
 30
0.0
 11
-14054.443038780908
 21
-11466.427391252786
 31
0.0
  0
LINE
  5
2A8
100
AcDbEntity
  8
Frei
  6
CONTINUOUS
 62
           7
100
AcDbLine
 10
-14039.537297397628
 20
-11468.381585156872
 30
0.0
 11
-14040.971639262694
 21
-11490.835820022798
 31
0.0
  0
LINE
  5
2A9
100
AcDbEntity
  8
Frei
  6
CONTINUOUS
 62
           7
100
AcDbLine
 10
-14200.190094797592
 20
-11489.182515125669
 30
0.0
 11
-14198.755752932524
 21
-11466.728280259746
 31
0.0
  0
LINE
  5
2AA
100
AcDbEntity
  8
Frei
  6
CONTINUOUS
 62
           7
100
AcDbLine
 10
-14199.536672392394
 20
-11478.953363686747
 30
0.0
 11
-14199.201992623879
 21
-11473.714042218033
 31
0.0
  0
LINE
  5
2AB
100
AcDbEntity
  8
Frei
  6
CONTINUOUS
 62
           7
100
AcDbLine
 10
-14040.190719802826
 20
-11478.610736595794
 30
0.0
 11
-14040.525399571341
 21
-11483.85005806451
 31
0.0
  0
ARC
  5
2AC
100
AcDbEntity
  8
Frei
  6
CONTINUOUS
 62
           7
100
AcDbCircle
 10
-14207.788898238949
 20
-11473.165523941252
 30
0.0
 40
8.604407030244
100
AcDbArc
 50
332.343014671726
 51
356.344999999999
  0
ARC
  5
2AD
100
AcDbEntity
  8
Frei
  6
CONTINUOUS
 62
           7
100
AcDbCircle
 10
-14201.292476016866
 20
-11468.319805069805
 30
0.0
 40
2.430106011614
100
AcDbArc
 50
310.279521857266
 51
356.344999999999
  0
ARC
  5
2AE
100
AcDbEntity
  8
Frei
  6
CONTINUOUS
 62
           7
100
AcDbCircle
 10
-14201.961835553897
 20
-11478.798448007237
 30
0.0
 40
2.430106011614
100
AcDbArc
 50
310.279521857266
 51
356.344999999999
  0
ARC
  5
2AF
100
AcDbEntity
  8
Frei
  6
CONTINUOUS
 62
           7
100
AcDbCircle
 10
-14201.292476016866
 20
-11468.319805069805
 30
0.0
 40
2.430106011614
100
AcDbArc
 50
356.344999999999
 51
42.410478142733
  0
ARC
  5
2B0
100
AcDbEntity
  8
Frei
  6
CONTINUOUS
 62
           7
100
AcDbCircle
 10
-14201.961835553897
 20
-11478.798448007237
 30
0.0
 40
2.430106011614
100
AcDbArc
 50
356.344999999999
 51
42.410478142733
  0
ARC
  5
2B1
100
AcDbEntity
  8
Frei
  6
CONTINUOUS
 62
           7
100
AcDbCircle
 10
-14038.43491617835
 20
-11489.244295212737
 30
0.0
 40
2.430106011614
100
AcDbArc
 50
130.279521857263
 51
176.345
  0
ARC
  5
2B2
100
AcDbEntity
  8
Frei
  6
CONTINUOUS
 62
           7
100
AcDbCircle
 10
-14037.76555664132
 20
-11478.765652275306
 30
0.0
 40
2.430106011614
100
AcDbArc
 50
130.279521857263
 51
176.345
  0
ARC
  5
2B3
100
AcDbEntity
  8
Frei
  6
CONTINUOUS
 62
           7
100
AcDbCircle
 10
-14038.43491617835
 20
-11489.244295212737
 30
0.0
 40
2.430106011614
100
AcDbArc
 50
176.345
 51
222.410478142737
  0
ARC
  5
2B4
100
AcDbEntity
  8
Frei
  6
CONTINUOUS
 62
           7
100
AcDbCircle
 10
-14037.76555664132
 20
-11478.765652275306
 30
0.0
 40
2.430106011614
100
AcDbArc
 50
176.345
 51
222.410478142737
  0
ARC
  5
2B5
100
AcDbEntity
  8
Frei
  6
CONTINUOUS
 62
           7
100
AcDbCircle
 10
-14031.93849395627
 20
-11484.398576341289
 30
0.0
 40
8.604407030244
100
AcDbArc
 50
152.343014671724
 51
176.345
  0
ARC
  5
2B6
100
AcDbEntity
  8
Frei
  6
CONTINUOUS
 62
           7
100
AcDbCircle
 10
-14176.396237749797
 20
-11482.949576895193
 30
0.0
 40
4.481959213903
100
AcDbArc
 50
184.723955885586
 51
347.966044114414
  0
ARC
  5
2B7
100
AcDbEntity
  8
Frei
  6
CONTINUOUS
 62
           7
100
AcDbCircle
 10
-14207.788898238949
 20
-11473.165523941252
 30
0.0
 40
8.604407030244
100
AcDbArc
 50
356.344999999999
 51
20.346985328274
  0
ARC
  5
2B8
100
AcDbEntity
  8
Frei
  6
CONTINUOUS
 62
           7
100
AcDbCircle
 10
-14031.93849395627
 20
-11484.398576341289
 30
0.0
 40
8.604407030244
100
AcDbArc
 50
176.345
 51
200.346985328276
  0
POLYLINE
  5
2B9
100
AcDbEntity
  8
Frei
  6
CONTINUOUS
 62
           7
100
AcDb2dPolyline
 66
           1
 10
0.0
 20
0.0
 30
0.0
  0
VERTEX
  5
2BA
100
AcDbEntity
  8
Frei
  6
CONTINUOUS
 62
           7
100
AcDbVertex
100
AcDb2dVertex
 10
-14180.556942032312
 20
-11482.984736691107
 30
0.0
 42
0.046286845788
  0
VERTEX
  5
2BB
100
AcDbEntity
  8
Frei
  6
CONTINUOUS
 62
           7
100
AcDbVertex
100
AcDb2dVertex
 10
-14180.537191676704
 20
-11483.664558540224
 30
0.0
  0
VERTEX
  5
2BC
100
AcDbEntity
  8
Frei
  6
CONTINUOUS
 62
           7
100
AcDbVertex
100
AcDb2dVertex
 10
-14180.480046623996
 20
-11484.001494499644
 30
0.0
  0
VERTEX
  5
2BD
100
AcDbEntity
  8
Frei
  6
CONTINUOUS
 62
           7
100
AcDbVertex
100
AcDb2dVertex
 10
-14180.392202254961
 20
-11484.331762758455
 30
0.0
 42
0.045273723548
  0
VERTEX
  5
2BE
100
AcDbEntity
  8
Frei
  6
CONTINUOUS
 62
           7
100
AcDbVertex
100
AcDb2dVertex
 10
-14180.126379197298
 20
-11484.966076683246
 30
0.0
  0
VERTEX
  5
2BF
100
AcDbEntity
  8
Frei
  6
CONTINUOUS
 62
           7
100
AcDbVertex
100
AcDb2dVertex
 10
-14179.950041013695
 20
-11485.265571102946
 30
0.0
  0
VERTEX
  5
2C0
100
AcDbEntity
  8
Frei
  6
CONTINUOUS
 62
           7
100
AcDbVertex
100
AcDb2dVertex
 10
-14179.747799402803
 20
-11485.548227006975
 30
0.0
 42
0.04348253534
  0
VERTEX
  5
2C1
100
AcDbEntity
  8
Frei
  6
CONTINUOUS
 62
           7
100
AcDbVertex
100
AcDb2dVertex
 10
-14179.267965826964
 20
-11486.060525386634
 30
0.0
  0
VERTEX
  5
2C2
100
AcDbEntity
  8
Frei
  6
CONTINUOUS
 62
           7
100
AcDbVertex
100
AcDb2dVertex
 10
-14178.993816930899
 20
-11486.286044749098
 30
0.0
  0
VERTEX
  5
2C3
100
AcDbEntity
  8
Frei
  6
CONTINUOUS
 62
           7
100
AcDbVertex
100
AcDb2dVertex
 10
-14178.701457970181
 20
-11486.487405895195
 30
0.0
 42
0.041825507476
  0
VERTEX
  5
2C4
100
AcDbEntity
  8
Frei
  6
CONTINUOUS
 62
           7
100
AcDbVertex
100
AcDb2dVertex
 10
-14178.065488887005
 20
-11486.815897984419
 30
0.0
  0
VERTEX
  5
2C5
100
AcDbEntity
  8
Frei
  6
CONTINUOUS
 62
           7
100
AcDbVertex
100
AcDb2dVertex
 10
-14177.726986285646
 20
-11486.94013984612
 30
0.0
  0
VERTEX
  5
2C6
100
AcDbEntity
  8
Frei
  6
CONTINUOUS
 62
           7
100
AcDbVertex
100
AcDb2dVertex
 10
-14177.379382176221
 20
-11487.036020588397
 30
0.0
 42
0.040993490696
  0
VERTEX
  5
2C7
100
AcDbEntity
  8
Frei
  6
CONTINUOUS
 62
           7
100
AcDbVertex
100
AcDb2dVertex
 10
-14176.663984843046
 20
-11487.141085393196
 30
0.0
  0
VERTEX
  5
2C8
100
AcDbEntity
  8
Frei
  6
CONTINUOUS
 62
           7
100
AcDbVertex
100
AcDb2dVertex
 10
-14176.302238327064
 20
-11487.149331637444
 30
0.0
  0
VERTEX
  5
2C9
100
AcDbEntity
  8
Frei
  6
CONTINUOUS
 62
           7
100
AcDbVertex
100
AcDb2dVertex
 10
-14175.94103387344
 20
-11487.127900057883
 30
0.0
 42
0.041278481646
  0
VERTEX
  5
2CA
100
AcDbEntity
  8
Frei
  6
CONTINUOUS
 62
           7
100
AcDbVertex
100
AcDb2dVertex
 10
-14175.232495766782
 20
-11486.996865212208
 30
0.0
  0
VERTEX
  5
2CB
100
AcDbEntity
  8
Frei
  6
CONTINUOUS
 62
           7
100
AcDbVertex
100
AcDb2dVertex
 10
-14174.891066621462
 20
-11486.888499431012
 30
0.0
  0
VERTEX
  5
2CC
100
AcDbEntity
  8
Frei
  6
CONTINUOUS
 62
           7
100
AcDbVertex
100
AcDb2dVertex
 10
-14174.559899094907
 20
-11486.751962283643
 30
0.0
 42
0.042584509173
  0
VERTEX
  5
2CD
100
AcDbEntity
  8
Frei
  6
CONTINUOUS
 62
           7
100
AcDbVertex
100
AcDb2dVertex
 10
-14173.943680367343
 20
-11486.400632523748
 30
0.0
  0
VERTEX
  5
2CE
100
AcDbEntity
  8
Frei
  6
CONTINUOUS
 62
           7
100
AcDbVertex
100
AcDb2dVertex
 10
-14173.663384163761
 20
-11486.188872987665
 30
0.0
  0
VERTEX
  5
2CF
100
AcDbEntity
  8
Frei
  6
CONTINUOUS
 62
           7
100
AcDbVertex
100
AcDb2dVertex
 10
-14173.402563078302
 20
-11485.953550909495
 30
0.0
 42
0.044417198743
  0
VERTEX
  5
2D0
100
AcDbEntity
  8
Frei
  6
CONTINUOUS
 62
           7
100
AcDbVertex
100
AcDb2dVertex
 10
-14172.952988802788
 20
-11485.424301789501
 30
0.0
  0
VERTEX
  5
2D1
100
AcDbEntity
  8
Frei
  6
CONTINUOUS
 62
           7
100
AcDbVertex
100
AcDb2dVertex
 10
-14172.767302452863
 20
-11485.134440567868
 30
0.0
  0
VERTEX
  5
2D2
100
AcDbEntity
  8
Frei
  6
CONTINUOUS
 62
           7
100
AcDbVertex
100
AcDb2dVertex
 10
-14172.608617627679
 20
-11484.828966130463
 30
0.0
 42
0.045929593742
  0
VERTEX
  5
2D3
100
AcDbEntity
  8
Frei
  6
CONTINUOUS
 62
           7
100
AcDbVertex
100
AcDb2dVertex
 10
-14172.379913096856
 20
-11484.185632905124
 30
0.0
  0
VERTEX
  5
2D4
100
AcDbEntity
  8
Frei
  6
CONTINUOUS
 62
           7
100
AcDbVertex
100
AcDb2dVertex
 10
-14172.311293422687
 20
-11483.852200224814
 30
0.0
  0
VERTEX
  5
2D5
100
AcDbEntity
  8
Frei
  6
CONTINUOUS
 62
           7
100
AcDbVertex
100
AcDb2dVertex
 10
-14172.27382428177
 20
-11483.513849467998
 30
0.0
 42
0.046286845788
  0
VERTEX
  5
2D6
100
AcDbEntity
  8
Frei
  6
CONTINUOUS
 62
           7
100
AcDbVertex
100
AcDb2dVertex
 10
-14172.293574637379
 20
-11482.834027618881
 30
0.0
  0
VERTEX
  5
2D7
100
AcDbEntity
  8
Frei
  6
CONTINUOUS
 62
           7
100
AcDbVertex
100
AcDb2dVertex
 10
-14172.350719690086
 20
-11482.497091659463
 30
0.0
  0
VERTEX
  5
2D8
100
AcDbEntity
  8
Frei
  6
CONTINUOUS
 62
           7
100
AcDbVertex
100
AcDb2dVertex
 10
-14172.438564059121
 20
-11482.166823400652
 30
0.0
 42
0.045273723548
  0
VERTEX
  5
2D9
100
AcDbEntity
  8
Frei
  6
CONTINUOUS
 62
           7
100
AcDbVertex
100
AcDb2dVertex
 10
-14172.704387116784
 20
-11481.532509475859
 30
0.0
  0
VERTEX
  5
2DA
100
AcDbEntity
  8
Frei
  6
CONTINUOUS
 62
           7
100
AcDbVertex
100
AcDb2dVertex
 10
-14172.880725300387
 20
-11481.233015056159
 30
0.0
  0
VERTEX
  5
2DB
100
AcDbEntity
  8
Frei
  6
CONTINUOUS
 62
           7
100
AcDbVertex
100
AcDb2dVertex
 10
-14173.082966911279
 20
-11480.95035915213
 30
0.0
 42
0.04348253534
  0
VERTEX
  5
2DC
100
AcDbEntity
  8
Frei
  6
CONTINUOUS
 62
           7
100
AcDbVertex
100
AcDb2dVertex
 10
-14173.562800487116
 20
-11480.438060772471
 30
0.0
  0
VERTEX
  5
2DD
100
AcDbEntity
  8
Frei
  6
CONTINUOUS
 62
           7
100
AcDbVertex
100
AcDb2dVertex
 10
-14173.836949383181
 20
-11480.212541410006
 30
0.0
  0
VERTEX
  5
2DE
100
AcDbEntity
  8
Frei
  6
CONTINUOUS
 62
           7
100
AcDbVertex
100
AcDb2dVertex
 10
-14174.129308343901
 20
-11480.011180263909
 30
0.0
 42
0.041825507476
  0
VERTEX
  5
2DF
100
AcDbEntity
  8
Frei
  6
CONTINUOUS
 62
           7
100
AcDbVertex
100
AcDb2dVertex
 10
-14174.765277427077
 20
-11479.682688174686
 30
0.0
  0
VERTEX
  5
2E0
100
AcDbEntity
  8
Frei
  6
CONTINUOUS
 62
           7
100
AcDbVertex
100
AcDb2dVertex
 10
-14175.103780028434
 20
-11479.558446312985
 30
0.0
  0
VERTEX
  5
2E1
100
AcDbEntity
  8
Frei
  6
CONTINUOUS
 62
           7
100
AcDbVertex
100
AcDb2dVertex
 10
-14175.451384137861
 20
-11479.462565570708
 30
0.0
 42
0.040993490695
  0
VERTEX
  5
2E2
100
AcDbEntity
  8
Frei
  6
CONTINUOUS
 62
           7
100
AcDbVertex
100
AcDb2dVertex
 10
-14176.166781471036
 20
-11479.357500765911
 30
0.0
  0
VERTEX
  5
2E3
100
AcDbEntity
  8
Frei
  6
CONTINUOUS
 62
           7
100
AcDbVertex
100
AcDb2dVertex
 10
-14176.528527987019
 20
-11479.349254521661
 30
0.0
  0
VERTEX
  5
2E4
100
AcDbEntity
  8
Frei
  6
CONTINUOUS
 62
           7
100
AcDbVertex
100
AcDb2dVertex
 10
-14176.889732440643
 20
-11479.370686101222
 30
0.0
 42
0.041278481647
  0
VERTEX
  5
2E5
100
AcDbEntity
  8
Frei
  6
CONTINUOUS
 62
           7
100
AcDbVertex
100
AcDb2dVertex
 10
-14177.598270547298
 20
-11479.501720946897
 30
0.0
  0
VERTEX
  5
2E6
100
AcDbEntity
  8
Frei
  6
CONTINUOUS
 62
           7
100
AcDbVertex
100
AcDb2dVertex
 10
-14177.939699692621
 20
-11479.610086728093
 30
0.0
  0
VERTEX
  5
2E7
100
AcDbEntity
  8
Frei
  6
CONTINUOUS
 62
           7
100
AcDbVertex
100
AcDb2dVertex
 10
-14178.270867219173
 20
-11479.746623875462
 30
0.0
 42
0.042584509173
  0
VERTEX
  5
2E8
100
AcDbEntity
  8
Frei
  6
CONTINUOUS
 62
           7
100
AcDbVertex
100
AcDb2dVertex
 10
-14178.887085946737
 20
-11480.097953635359
 30
0.0
  0
VERTEX
  5
2E9
100
AcDbEntity
  8
Frei
  6
CONTINUOUS
 62
           7
100
AcDbVertex
100
AcDb2dVertex
 10
-14179.167382150321
 20
-11480.30971317144
 30
0.0
  0
VERTEX
  5
2EA
100
AcDbEntity
  8
Frei
  6
CONTINUOUS
 62
           7
100
AcDbVertex
100
AcDb2dVertex
 10
-14179.428203235781
 20
-11480.54503524961
 30
0.0
 42
0.044417198743
  0
VERTEX
  5
2EB
100
AcDbEntity
  8
Frei
  6
CONTINUOUS
 62
           7
100
AcDbVertex
100
AcDb2dVertex
 10
-14179.877777511292
 20
-11481.074284369603
 30
0.0
  0
VERTEX
  5
2EC
100
AcDbEntity
  8
Frei
  6
CONTINUOUS
 62
           7
100
AcDbVertex
100
AcDb2dVertex
 10
-14180.063463861217
 20
-11481.364145591237
 30
0.0
  0
VERTEX
  5
2ED
100
AcDbEntity
  8
Frei
  6
CONTINUOUS
 62
           7
100
AcDbVertex
100
AcDb2dVertex
 10
-14180.222148686405
 20
-11481.669620028642
 30
0.0
 42
0.045929593741
  0
VERTEX
  5
2EE
100
AcDbEntity
  8
Frei
  6
CONTINUOUS
 62
           7
100
AcDbVertex
100
AcDb2dVertex
 10
-14180.450853217224
 20
-11482.312953253981
 30
0.0
  0
VERTEX
  5
2EF
100
AcDbEntity
  8
Frei
  6
CONTINUOUS
 62
           7
100
AcDbVertex
100
AcDb2dVertex
 10
-14180.519472891396
 20
-11482.646385934291
 30
0.0
  0
VERTEX
  5
2F0
100
AcDbEntity
  8
Frei
  6
CONTINUOUS
 62
           7
100
AcDbVertex
100
AcDb2dVertex
 10
-14180.556942032312
 20
-11482.984736691107
 30
0.0
  0
SEQEND
  5
2F1
100
AcDbEntity
  8
Frei
  6
CONTINUOUS
 62
           7
  0
POLYLINE
  5
2F2
100
AcDbEntity
  8
Frei
  6
CONTINUOUS
 62
           7
100
AcDb2dPolyline
 66
           1
 10
0.0
 20
0.0
 30
0.0
  0
VERTEX
  5
2F3
100
AcDbEntity
  8
Frei
  6
CONTINUOUS
 62
           7
100
AcDbVertex
100
AcDb2dVertex
 10
-14176.161463416149
 20
-11479.274248051621
 30
0.0
 42
0.046286845788
  0
VERTEX
  5
2F4
100
AcDbEntity
  8
Frei
  6
CONTINUOUS
 62
           7
100
AcDbVertex
100
AcDb2dVertex
 10
-14176.937212401637
 20
-11479.29678530656
 30
0.0
  0
VERTEX
  5
2F5
100
AcDbEntity
  8
Frei
  6
CONTINUOUS
 62
           7
100
AcDbVertex
100
AcDb2dVertex
 10
-14177.321692142959
 20
-11479.361993885426
 30
0.0
  0
VERTEX
  5
2F6
100
AcDbEntity
  8
Frei
  6
CONTINUOUS
 62
           7
100
AcDbVertex
100
AcDb2dVertex
 10
-14177.698563329204
 20
-11479.462233647135
 30
0.0
 42
0.045273723548
  0
VERTEX
  5
2F7
100
AcDbEntity
  8
Frei
  6
CONTINUOUS
 62
           7
100
AcDbVertex
100
AcDb2dVertex
 10
-14178.422382936178
 20
-11479.765566009239
 30
0.0
  0
VERTEX
  5
2F8
100
AcDbEntity
  8
Frei
  6
CONTINUOUS
 62
           7
100
AcDbVertex
100
AcDb2dVertex
 10
-14178.764137901162
 20
-11479.966786619034
 30
0.0
  0
VERTEX
  5
2F9
100
AcDbEntity
  8
Frei
  6
CONTINUOUS
 62
           7
100
AcDbVertex
100
AcDb2dVertex
 10
-14179.086678330068
 20
-11480.197565792545
 30
0.0
 42
0.04348253534
  0
VERTEX
  5
2FA
100
AcDbEntity
  8
Frei
  6
CONTINUOUS
 62
           7
100
AcDbVertex
100
AcDb2dVertex
 10
-14179.671265231482
 20
-11480.745106902237
 30
0.0
  0
VERTEX
  5
2FB
100
AcDbEntity
  8
Frei
  6
CONTINUOUS
 62
           7
100
AcDbVertex
100
AcDb2dVertex
 10
-14179.928606793637
 20
-11481.057939930881
 30
0.0
  0
VERTEX
  5
2FC
100
AcDbEntity
  8
Frei
  6
CONTINUOUS
 62
           7
100
AcDbVertex
100
AcDb2dVertex
 10
-14180.158381263236
 20
-11481.391552578769
 30
0.0
 42
0.041825507476
  0
VERTEX
  5
2FD
100
AcDbEntity
  8
Frei
  6
CONTINUOUS
 62
           7
100
AcDbVertex
100
AcDb2dVertex
 10
-14180.533225651197
 20
-11482.117260897374
 30
0.0
  0
VERTEX
  5
2FE
100
AcDbEntity
  8
Frei
  6
CONTINUOUS
 62
           7
100
AcDbVertex
100
AcDb2dVertex
 10
-14180.674998820587
 20
-11482.503528343661
 30
0.0
  0
VERTEX
  5
2FF
100
AcDbEntity
  8
Frei
  6
CONTINUOUS
 62
           7
100
AcDbVertex
100
AcDb2dVertex
 10
-14180.78440893832
 20
-11482.900181578019
 30
0.0
 42
0.040993490695
  0
VERTEX
  5
300
100
AcDbEntity
  8
Frei
  6
CONTINUOUS
 62
           7
100
AcDbVertex
100
AcDb2dVertex
 10
-14180.904299047528
 20
-11483.716525972002
 30
0.0
  0
VERTEX
  5
301
100
AcDbEntity
  8
Frei
  6
CONTINUOUS
 62
           7
100
AcDbVertex
100
AcDb2dVertex
 10
-14180.913708888676
 20
-11484.12931719538
 30
0.0
  0
VERTEX
  5
302
100
AcDbEntity
  8
Frei
  6
CONTINUOUS
 62
           7
100
AcDbVertex
100
AcDb2dVertex
 10
-14180.88925317852
 20
-11484.541489867997
 30
0.0
 42
0.041278481646
  0
VERTEX
  5
303
100
AcDbEntity
  8
Frei
  6
CONTINUOUS
 62
           7
100
AcDbVertex
100
AcDb2dVertex
 10
-14180.739728492414
 20
-11485.350007155479
 30
0.0
  0
VERTEX
  5
304
100
AcDbEntity
  8
Frei
  6
CONTINUOUS
 62
           7
100
AcDbVertex
100
AcDb2dVertex
 10
-14180.616071618289
 20
-11485.739614099479
 30
0.0
  0
VERTEX
  5
305
100
AcDbEntity
  8
Frei
  6
CONTINUOUS
 62
           7
100
AcDbVertex
100
AcDb2dVertex
 10
-14180.460268221132
 20
-11486.117511445796
 30
0.0
 42
0.042584509173
  0
VERTEX
  5
306
100
AcDbEntity
  8
Frei
  6
CONTINUOUS
 62
           7
100
AcDbVertex
100
AcDb2dVertex
 10
-14180.059363623606
 20
-11486.820682509464
 30
0.0
  0
VERTEX
  5
307
100
AcDbEntity
  8
Frei
  6
CONTINUOUS
 62
           7
100
AcDbVertex
100
AcDb2dVertex
 10
-14179.817723485829
 20
-11487.140530269355
 30
0.0
  0
VERTEX
  5
308
100
AcDbEntity
  8
Frei
  6
CONTINUOUS
 62
           7
100
AcDbVertex
100
AcDb2dVertex
 10
-14179.549195983162
 20
-11487.438154849535
 30
0.0
 42
0.044417198743
  0
VERTEX
  5
309
100
AcDbEntity
  8
Frei
  6
CONTINUOUS
 62
           7
100
AcDbVertex
100
AcDb2dVertex
 10
-14178.945266485396
 20
-11487.95116688141
 30
0.0
  0
VERTEX
  5
30A
100
AcDbEntity
  8
Frei
  6
CONTINUOUS
 62
           7
100
AcDbVertex
100
AcDb2dVertex
 10
-14178.61450402328
 20
-11488.163054742563
 30
0.0
  0
VERTEX
  5
30B
100
AcDbEntity
  8
Frei
  6
CONTINUOUS
 62
           7
100
AcDbVertex
100
AcDb2dVertex
 10
-14178.265925222497
 20
-11488.344130994101
 30
0.0
 42
0.045929593742
  0
VERTEX
  5
30C
100
AcDbEntity
  8
Frei
  6
CONTINUOUS
 62
           7
100
AcDbVertex
100
AcDb2dVertex
 10
-14177.531813634976
 20
-11488.605107171888
 30
0.0
  0
VERTEX
  5
30D
100
AcDbEntity
  8
Frei
  6
CONTINUOUS
 62
           7
100
AcDbVertex
100
AcDb2dVertex
 10
-14177.151331507466
 20
-11488.683409513438
 30
0.0
  0
VERTEX
  5
30E
100
AcDbEntity
  8
Frei
  6
CONTINUOUS
 62
           7
100
AcDbVertex
100
AcDb2dVertex
 10
-14176.765237331942
 20
-11488.726165785674
 30
0.0
 42
0.046286845788
  0
VERTEX
  5
30F
100
AcDbEntity
  8
Frei
  6
CONTINUOUS
 62
           7
100
AcDbVertex
100
AcDb2dVertex
 10
-14175.989488346453
 20
-11488.703628530737
 30
0.0
  0
VERTEX
  5
310
100
AcDbEntity
  8
Frei
  6
CONTINUOUS
 62
           7
100
AcDbVertex
100
AcDb2dVertex
 10
-14175.605008605131
 20
-11488.638419951871
 30
0.0
  0
VERTEX
  5
311
100
AcDbEntity
  8
Frei
  6
CONTINUOUS
 62
           7
100
AcDbVertex
100
AcDb2dVertex
 10
-14175.228137418886
 20
-11488.538180190162
 30
0.0
 42
0.045273723548
  0
VERTEX
  5
312
100
AcDbEntity
  8
Frei
  6
CONTINUOUS
 62
           7
100
AcDbVertex
100
AcDb2dVertex
 10
-14174.504317811912
 20
-11488.234847828056
 30
0.0
  0
VERTEX
  5
313
100
AcDbEntity
  8
Frei
  6
CONTINUOUS
 62
           7
100
AcDbVertex
100
AcDb2dVertex
 10
-14174.162562846928
 20
-11488.033627218261
 30
0.0
  0
VERTEX
  5
314
100
AcDbEntity
  8
Frei
  6
CONTINUOUS
 62
           7
100
AcDbVertex
100
AcDb2dVertex
 10
-14173.840022418024
 20
-11487.802848044752
 30
0.0
 42
0.04348253534
  0
VERTEX
  5
315
100
AcDbEntity
  8
Frei
  6
CONTINUOUS
 62
           7
100
AcDbVertex
100
AcDb2dVertex
 10
-14173.255435516608
 20
-11487.255306935058
 30
0.0
  0
VERTEX
  5
316
100
AcDbEntity
  8
Frei
  6
CONTINUOUS
 62
           7
100
AcDbVertex
100
AcDb2dVertex
 10
-14172.998093954453
 20
-11486.942473906416
 30
0.0
  0
VERTEX
  5
317
100
AcDbEntity
  8
Frei
  6
CONTINUOUS
 62
           7
100
AcDbVertex
100
AcDb2dVertex
 10
-14172.768319484854
 20
-11486.608861258528
 30
0.0
 42
0.041825507476
  0
VERTEX
  5
318
100
AcDbEntity
  8
Frei
  6
CONTINUOUS
 62
           7
100
AcDbVertex
100
AcDb2dVertex
 10
-14172.393475096891
 20
-11485.883152939921
 30
0.0
  0
VERTEX
  5
319
100
AcDbEntity
  8
Frei
  6
CONTINUOUS
 62
           7
100
AcDbVertex
100
AcDb2dVertex
 10
-14172.251701927504
 20
-11485.496885493634
 30
0.0
  0
VERTEX
  5
31A
100
AcDbEntity
  8
Frei
  6
CONTINUOUS
 62
           7
100
AcDbVertex
100
AcDb2dVertex
 10
-14172.142291809771
 20
-11485.100232259276
 30
0.0
 42
0.040993490695
  0
VERTEX
  5
31B
100
AcDbEntity
  8
Frei
  6
CONTINUOUS
 62
           7
100
AcDbVertex
100
AcDb2dVertex
 10
-14172.022401700562
 20
-11484.283887865295
 30
0.0
  0
VERTEX
  5
31C
100
AcDbEntity
  8
Frei
  6
CONTINUOUS
 62
           7
100
AcDbVertex
100
AcDb2dVertex
 10
-14172.012991859412
 20
-11483.871096641915
 30
0.0
  0
VERTEX
  5
31D
100
AcDbEntity
  8
Frei
  6
CONTINUOUS
 62
           7
100
AcDbVertex
100
AcDb2dVertex
 10
-14172.03744756957
 20
-11483.458923969298
 30
0.0
 42
0.041278481646
  0
VERTEX
  5
31E
100
AcDbEntity
  8
Frei
  6
CONTINUOUS
 62
           7
100
AcDbVertex
100
AcDb2dVertex
 10
-14172.186972255677
 20
-11482.650406681818
 30
0.0
  0
VERTEX
  5
31F
100
AcDbEntity
  8
Frei
  6
CONTINUOUS
 62
           7
100
AcDbVertex
100
AcDb2dVertex
 10
-14172.310629129801
 20
-11482.260799737816
 30
0.0
  0
VERTEX
  5
320
100
AcDbEntity
  8
Frei
  6
CONTINUOUS
 62
           7
100
AcDbVertex
100
AcDb2dVertex
 10
-14172.466432526959
 20
-11481.8829023915
 30
0.0
 42
0.042584509173
  0
VERTEX
  5
321
100
AcDbEntity
  8
Frei
  6
CONTINUOUS
 62
           7
100
AcDbVertex
100
AcDb2dVertex
 10
-14172.867337124484
 20
-11481.179731327833
 30
0.0
  0
VERTEX
  5
322
100
AcDbEntity
  8
Frei
  6
CONTINUOUS
 62
           7
100
AcDbVertex
100
AcDb2dVertex
 10
-14173.10897726226
 20
-11480.85988356794
 30
0.0
  0
VERTEX
  5
323
100
AcDbEntity
  8
Frei
  6
CONTINUOUS
 62
           7
100
AcDbVertex
100
AcDb2dVertex
 10
-14173.377504764931
 20
-11480.562258987762
 30
0.0
 42
0.044417198743
  0
VERTEX
  5
324
100
AcDbEntity
  8
Frei
  6
CONTINUOUS
 62
           7
100
AcDbVertex
100
AcDb2dVertex
 10
-14173.981434262694
 20
-11480.049246955887
 30
0.0
  0
VERTEX
  5
325
100
AcDbEntity
  8
Frei
  6
CONTINUOUS
 62
           7
100
AcDbVertex
100
AcDb2dVertex
 10
-14174.31219672481
 20
-11479.837359094732
 30
0.0
  0
VERTEX
  5
326
100
AcDbEntity
  8
Frei
  6
CONTINUOUS
 62
           7
100
AcDbVertex
100
AcDb2dVertex
 10
-14174.660775525592
 20
-11479.656282843196
 30
0.0
 42
0.045929593741
  0
VERTEX
  5
327
100
AcDbEntity
  8
Frei
  6
CONTINUOUS
 62
           7
100
AcDbVertex
100
AcDb2dVertex
 10
-14175.394887113112
 20
-11479.395306665407
 30
0.0
  0
VERTEX
  5
328
100
AcDbEntity
  8
Frei
  6
CONTINUOUS
 62
           7
100
AcDbVertex
100
AcDb2dVertex
 10
-14175.775369240622
 20
-11479.317004323857
 30
0.0
  0
VERTEX
  5
329
100
AcDbEntity
  8
Frei
  6
CONTINUOUS
 62
           7
100
AcDbVertex
100
AcDb2dVertex
 10
-14176.161463416149
 20
-11479.274248051621
 30
0.0
  0
SEQEND
  5
32A
100
AcDbEntity
  8
Frei
  6
CONTINUOUS
 62
           7
  0
ARC
  5
32B
100
AcDbEntity
  8
Frei
  6
CONTINUOUS
 62
           7
100
AcDbCircle
 10
-14042.401712653458
 20
-11497.316638410321
 30
0.0
 40
0.5
100
AcDbArc
 50
273.494821982568
 51
356.344999999999
  0
ARC
  5
32C
100
AcDbEntity
  8
Frei
  6
CONTINUOUS
 62
           7
100
AcDbCircle
 10
-14042.075473006755
 20
-11492.209444771166
 30
0.0
 40
0.5
100
AcDbArc
 50
356.344999999999
 51
79.195178017423
  0
ARC
  5
32D
100
AcDbEntity
  8
Frei
  6
CONTINUOUS
 62
           7
100
AcDbCircle
 10
-14196.82669654474
 20
-11460.279336135889
 30
0.0
 40
0.5
100
AcDbArc
 50
93.494821982565
 51
176.345
  0
ARC
  5
32E
100
AcDbEntity
  8
Frei
  6
CONTINUOUS
 62
           7
100
AcDbCircle
 10
-14197.152936191444
 20
-11465.386529775045
 30
0.0
 40
0.5
100
AcDbArc
 50
176.345
 51
259.195178017419
  0
ARC
  5
32F
100
AcDbEntity
  8
Frei
  6
CONTINUOUS
 62
           7
100
AcDbCircle
 10
-14227.034847618092
 20
-11462.360725852319
 30
0.0
 40
2.0
100
AcDbArc
 50
88.345
 51
176.345
  0
ARC
  5
330
100
AcDbEntity
  8
Frei
  6
CONTINUOUS
 62
           7
100
AcDbCircle
 10
-14242.615796167351
 20
-11518.036628580843
 30
0.0
 40
1.5
100
AcDbArc
 50
176.345
 51
266.345
  0
ARC
  5
331
100
AcDbEntity
  8
Frei
  6
CONTINUOUS
 62
           7
100
AcDbCircle
 10
-14241.659568257306
 20
-11503.067138670225
 30
0.0
 40
1.5
100
AcDbArc
 50
86.345
 51
176.345
  0
ARC
  5
332
100
AcDbEntity
  8
Frei
  6
CONTINUOUS
 62
           7
100
AcDbCircle
 10
-14230.512707184185
 20
-11516.805678920797
 30
0.0
 40
1.5
100
AcDbArc
 50
176.345
 51
266.345
  0
ARC
  5
333
100
AcDbEntity
  8
Frei
  6
CONTINUOUS
 62
           7
100
AcDbCircle
 10
-14205.563557333156
 20
-11518.399392104206
 30
0.0
 40
1.5
100
AcDbArc
 50
266.345
 51
356.344999999999
  0
ARC
  5
334
100
AcDbEntity
  8
Frei
  6
CONTINUOUS
 62
           7
100
AcDbCircle
 10
-14039.901202322331
 20
-11528.981647642036
 30
0.0
 40
1.5
100
AcDbArc
 50
176.345
 51
266.345
  0
ARC
  5
335
100
AcDbEntity
  8
Frei
  6
CONTINUOUS
 62
           7
100
AcDbCircle
 10
-14014.952052471304
 20
-11530.575360825445
 30
0.0
 40
1.5
100
AcDbArc
 50
266.345
 51
356.344999999999
  0
ARC
  5
336
100
AcDbEntity
  8
Frei
  6
CONTINUOUS
 62
           7
100
AcDbCircle
 10
-14002.147729687438
 20
-11518.366785230946
 30
0.0
 40
1.5
100
AcDbArc
 50
356.344999999999
 51
86.345
  0
ARC
  5
337
100
AcDbEntity
  8
Frei
  6
CONTINUOUS
 62
           7
100
AcDbCircle
 10
-14003.103957597485
 20
-11533.336275141563
 30
0.0
 40
1.5
100
AcDbArc
 50
266.345
 51
356.344999999999
  0
ARC
  5
338
100
AcDbEntity
  8
Frei
  6
CONTINUOUS
 62
           7
100
AcDbCircle
 10
-14011.474192905211
 20
-11476.130407756968
 30
0.0
 40
2.0
100
AcDbArc
 50
356.344999999999
 51
84.345
  0
ARC
  5
339
100
AcDbEntity
  8
Frei
  6
CONTINUOUS
 62
           7
100
AcDbCircle
 10
-14040.535263391668
 20
-11468.317836629536
 30
0.0
 40
1.0
100
AcDbArc
 50
356.344999999999
 51
86.345
  0
ARC
  5
33A
100
AcDbEntity
  8
Frei
  6
CONTINUOUS
 62
           7
100
AcDbCircle
 10
-14042.511467739096
 20
-11499.25478244481
 30
0.0
 40
1.0
100
AcDbArc
 50
266.344999999999
 51
356.344999999999
  0
ARC
  5
33B
100
AcDbEntity
  8
Frei
  6
CONTINUOUS
 62
           7
100
AcDbCircle
 10
-14199.19212880355
 20
-11489.246263653005
 30
0.0
 40
1.0
100
AcDbArc
 50
176.345
 51
266.345
  0
ARC
  5
33C
100
AcDbEntity
  8
Frei
  6
CONTINUOUS
 62
           7
100
AcDbCircle
 10
-14197.215924456124
 20
-11458.309317837731
 30
0.0
 40
1.0
100
AcDbArc
 50
86.345
 51
176.345
  0
LINE
  5
33D
100
AcDbEntity
  8
Frei
  6
CONTINUOUS
 62
           7
100
AcDbLine
 10
-14477.914916092426
 20
-11441.296835904599
 30
0.0
 11
-14477.914916092426
 21
-11521.296835904599
 31
0.0
  0
LINE
  5
33E
100
AcDbEntity
  8
Frei
  6
CONTINUOUS
 62
           7
100
AcDbLine
 10
-13932.026031092428
 20
-11521.296835904599
 30
0.0
 11
-13932.026031092428
 21
-11441.296835904599
 31
0.0
  0
LINE
  5
33F
100
AcDbEntity
  8
Frei
  6
CONTINUOUS
 62
          15
100
AcDbLine
 10
-14381.21462971646
 20
-11441.296835904599
 30
0.0
 11
-14477.914916092426
 21
-11441.296835904599
 31
0.0
  0
LINE
  5
340
100
AcDbEntity
  8
Frei
  6
GESTRICHELT
 62
          15
100
AcDbLine
 10
-14373.424308851792
 20
-11441.296835904599
 30
0.0
 11
-14381.21462971646
 21
-11441.296835904599
 31
0.0
  0
LINE
  5
341
100
AcDbEntity
  8
Frei
  6
CONTINUOUS
 62
          15
100
AcDbLine
 10
-14258.702304393721
 20
-11441.296835904599
 30
0.0
 11
-14373.424308851792
 21
-11441.296835904599
 31
0.0
  0
LINE
  5
342
100
AcDbEntity
  8
Frei
  6
GESTRICHELT
 62
          15
100
AcDbLine
 10
-14162.35889565409
 20
-11441.296835904599
 30
0.0
 11
-14258.702304393721
 21
-11441.296835904599
 31
0.0
  0
LINE
  5
343
100
AcDbEntity
  8
Frei
  6
CONTINUOUS
 62
          15
100
AcDbLine
 10
-13932.026031092428
 20
-11441.296835904599
 30
0.0
 11
-14162.35889565409
 21
-11441.296835904599
 31
0.0
  0
LINE
  5
344
100
AcDbEntity
  8
Frei
  6
CONTINUOUS
 62
          15
100
AcDbLine
 10
-14040.913365637427
 20
-11521.296835904599
 30
0.0
 11
-14477.914916092426
 21
-11521.296835904599
 31
0.0
  0
LINE
  5
345
100
AcDbEntity
  8
Frei
  6
GESTRICHELT
 62
          15
100
AcDbLine
 10
-13990.811458058861
 20
-11521.296835904599
 30
0.0
 11
-14040.913365637427
 21
-11521.296835904599
 31
0.0
  0
LINE
  5
346
100
AcDbEntity
  8
Frei
  6
CONTINUOUS
 62
          15
100
AcDbLine
 10
-13932.026031092428
 20
-11521.296835904599
 30
0.0
 11
-13990.811458058861
 21
-11521.296835904599
 31
0.0
  0
TEXT
  5
347
100
AcDbEntity
  8
FREI
  6
CONTINUOUS
 62
          15
100
AcDbText
 10
-14406.478695773452
 20
-11329.712576540122
 30
0.0
 40
3.527777671814
  1
250-701
 41
0.899999979725
  7
GOTHICG
100
AcDbText
  0
ENDSEC
  0
SECTION
  2
OBJECTS
  0
DICTIONARY
  5
19
100
AcDbDictionary
  3
ACAD_GROUP
350
1A
  3
ACAD_MLINESTYLE
350
1B
  0
DICTIONARY
  5
1A
102
{ACAD_REACTORS
330
19
102
}
100
AcDbDictionary
  0
DICTIONARY
  5
1B
102
{ACAD_REACTORS
330
19
102
}
100
AcDbDictionary
  3
STANDARD
350
1C
  0
MLINESTYLE
  5
1C
102
{ACAD_REACTORS
330
1B
102
}
100
AcDbMlineStyle
  2
STANDARD
 70
           0
  3

 62
           0
 51
90.0
 52
90.0
 71
           2
 49
0.5
 62
         256
  6
BYLAYER
 49
-0.5
 62
         256
  6
BYLAYER
  0
ENDSEC
  0
EOF
