  0
SECTION
  2
HEADER
  9
$ACADVER
  1
AC1012
  9
$DWGCODEPAGE
  3
dos850
  9
$INSBASE
 10
0.0
 20
0.0
 30
0.0
  9
$EXTMIN
 10
-14912.763386001527
 20
-13452.021457424411
 30
0.0
  9
$EXTMAX
 10
-14090.623086794289
 20
-12837.938796726421
 30
0.0
  9
$LIMMIN
 10
-14912.763386001527
 20
-13452.021457424411
  9
$LIMMAX
 10
-14090.623086794289
 20
-12837.938796726421
  9
$ORTHOMODE
 70
           0
  9
$REGENMODE
 70
           1
  9
$FILLMODE
 70
           1
  9
$QTEXTMODE
 70
           0
  9
$MIRRTEXT
 70
           1
  9
$DRAGMODE
 70
           2
  9
$LTSCALE
 40
5.0
  9
$OSMODE
 70
           0
  9
$ATTMODE
 70
           1
  9
$TEXTSIZE
 40
0.2
  9
$TRACEWID
 40
0.05
  9
$TEXTSTYLE
  7
TXT
  9
$CLAYER
  8
0
  9
$CELTYPE
  6
CONTINUOUS
  9
$CECOLOR
 62
         256
  9
$CELTSCALE
 40
1.0
  9
$DELOBJ
 70
           1
  9
$DISPSILH
 70
           0
  9
$DIMSCALE
 40
1.0
  9
$DIMASZ
 40
3.5
  9
$DIMEXO
 40
0.0625
  9
$DIMDLI
 40
0.38
  9
$DIMRND
 40
0.0
  9
$DIMDLE
 40
0.0
  9
$DIMEXE
 40
0.18
  9
$DIMTP
 40
0.0
  9
$DIMTM
 40
0.0
  9
$DIMTXT
 40
3.5
  9
$DIMCEN
 40
0.09
  9
$DIMTSZ
 40
0.0
  9
$DIMTOL
 70
           0
  9
$DIMLIM
 70
           0
  9
$DIMTIH
 70
           1
  9
$DIMTOH
 70
           1
  9
$DIMSE1
 70
           0
  9
$DIMSE2
 70
           0
  9
$DIMTAD
 70
           0
  9
$DIMZIN
 70
           0
  9
$DIMBLK
  1

  9
$DIMASO
 70
           1
  9
$DIMSHO
 70
           1
  9
$DIMPOST
  1

  9
$DIMAPOST
  1

  9
$DIMALT
 70
           0
  9
$DIMALTD
 70
           2
  9
$DIMALTF
 40
25.4
  9
$DIMLFAC
 40
1.0
  9
$DIMTOFL
 70
           0
  9
$DIMTVP
 40
0.0
  9
$DIMTIX
 70
           0
  9
$DIMSOXD
 70
           0
  9
$DIMSAH
 70
           0
  9
$DIMBLK1
  1

  9
$DIMBLK2
  1

  9
$DIMSTYLE
  2
STANDARD
  9
$DIMCLRD
 70
           0
  9
$DIMCLRE
 70
           0
  9
$DIMCLRT
 70
           0
  9
$DIMTFAC
 40
1.0
  9
$DIMGAP
 40
0.09
  9
$DIMJUST
 70
           0
  9
$DIMSD1
 70
           0
  9
$DIMSD2
 70
           0
  9
$DIMTOLJ
 70
           1
  9
$DIMTZIN
 70
           0
  9
$DIMALTZ
 70
           0
  9
$DIMALTTZ
 70
           0
  9
$DIMFIT
 70
           3
  9
$DIMUPT
 70
           0
  9
$DIMUNIT
 70
           2
  9
$DIMDEC
 70
           4
  9
$DIMTDEC
 70
           4
  9
$DIMALTU
 70
           2
  9
$DIMALTTD
 70
           2
  9
$DIMTXSTY
  7
TXT
  9
$DIMAUNIT
 70
           0
  9
$LUNITS
 70
           2
  9
$LUPREC
 70
           3
  9
$SKETCHINC
 40
0.1
  9
$FILLETRAD
 40
0.0
  9
$AUNITS
 70
           0
  9
$AUPREC
 70
           3
  9
$MENU
  1
acad
  9
$ELEVATION
 40
0.0
  9
$PELEVATION
 40
0.0
  9
$THICKNESS
 40
0.0
  9
$LIMCHECK
 70
           0
  9
$BLIPMODE
 70
           1
  9
$CHAMFERA
 40
0.0
  9
$CHAMFERB
 40
0.0
  9
$CHAMFERC
 40
0.0
  9
$CHAMFERD
 40
0.0
  9
$SKPOLY
 70
           0
  9
$TDCREATE
 40
0.000000000
  9
$TDUPDATE
 40
0.000000000
  9
$TDINDWG
 40
0.0000000000
  9
$TDUSRTIMER
 40
0.0000000000
  9
$USRTIMER
 70
           1
  9
$ANGBASE
 50
0.0
  9
$ANGDIR
 70
           0
  9
$PDMODE
 70
           2
  9
$PDSIZE
 40
0.5
  9
$PLINEWID
 40
0.0
  9
$COORDS
 70
           0
  9
$SPLFRAME
 70
           0
  9
$SPLINETYPE
 70
           6
  9
$SPLINESEGS
 70
           8
  9
$ATTDIA
 70
           0
  9
$ATTREQ
 70
           1
  9
$HANDLING
 70
           1
  9
$HANDSEED
  5
3A4
  9
$SURFTAB1
 70
           6
  9
$SURFTAB2
 70
           6
  9
$SURFTYPE
 70
           6
  9
$SURFU
 70
           6
  9
$SURFV
 70
           6
  9
$UCSNAME
  2

  9
$UCSORG
 10
0.0
 20
0.0
 30
0.0
  9
$UCSXDIR
 10
1.0
 20
0.0
 30
0.0
  9
$UCSYDIR
 10
0.0
 20
1.0
 30
0.0
  9
$PUCSNAME
  2

  9
$PUCSORG
 10
0.0
 20
0.0
 30
0.0
  9
$PUCSXDIR
 10
1.0
 20
0.0
 30
0.0
  9
$PUCSYDIR
 10
0.0
 20
1.0
 30
0.0
  9
$USERI1
 70
           0
  9
$USERI2
 70
           0
  9
$USERI3
 70
           0
  9
$USERI4
 70
           0
  9
$USERI5
 70
           0
  9
$USERR1
 40
0.0
  9
$USERR2
 40
0.0
  9
$USERR3
 40
0.0
  9
$USERR4
 40
0.0
  9
$USERR5
 40
0.0
  9
$WORLDVIEW
 70
           1
  9
$SHADEDGE
 70
           3
  9
$SHADEDIF
 70
          70
  9
$TILEMODE
 70
           1
  9
$MAXACTVP
 70
          16
  9
$PINSBASE
 10
0.0
 20
0.0
 30
0.0
  9
$PLIMCHECK
 70
           0
  9
$PEXTMIN
 10
1.000000000000E+20
 20
1.000000000000E+20
 30
1.000000000000E+20
  9
$PEXTMAX
 10
-1.000000000000E+20
 20
-1.000000000000E+20
 30
-1.000000000000E+20
  9
$PLIMMIN
 10
0.0
 20
0.0
  9
$PLIMMAX
 10
12.0
 20
9.0
  9
$UNITMODE
 70
           0
  9
$VISRETAIN
 70
           0
  9
$PLINEGEN
 70
           1
  9
$PSLTSCALE
 70
           0
  9
$TREEDEPTH
 70
        3020
  9
$PICKSTYLE
 70
           1
  9
$CMLSTYLE
  2
STANDARD
  9
$CMLJUST
 70
           0
  9
$CMLSCALE
 40
1.0
  9
$SAVEIMAGES
 70
           0
  0
ENDSEC
  0
SECTION
  2
CLASSES
  0
CLASS
  1
LWPOLYLINE
  2
AcDbPolyline
  3
"AutoCAD"
 90
        0
280
           0
281
           1
  0
CLASS
  1
IMAGE
  2
AcDbRasterImage
  3
ISM
 90
      127
280
           0
281
           1
  0
CLASS
  1
OLE2FRAME
  2
AcDbOle2Frame
  3
""
 90
        0
280
           0
281
           1
  0
CLASS
  1
HATCH
  2
AcDbHatch
  3
"ACAD_SEDONA"
 90
        0
280
           0
281
           1
  0
CLASS
  1
DICTIONARYVAR
  2
AcDbDictionaryVar
  3
"AutoCAD"
 90
        0
280
           0
281
           0
  0
CLASS
  1
RASTERVARIABLES
  2
AcDbRasterVariables
  3
ISM
 90
        0
280
           0
281
           0
  0
CLASS
  1
IMAGEDEF
  2
AcDbRasterImageDef
  3
ISM
 90
        0
280
           0
281
           0
  0
CLASS
  1
IMAGEDEF_REACTOR
  2
AcDbRasterImageDefReactor
  3
ISM
 90
        1
280
           0
281
           0
  0
CLASS
  1
IDBUFFER
  2
AcDbIdBuffer
  3
"Acad"
 90
        0
280
           0
281
           0
  0
CLASS
  1
SPATIAL_FILTER
  2
AcDbSpatialFilter
  3
"Acad"
 90
        0
280
           0
281
           0
  0
CLASS
  1
XRECORD
  2
AcDbXrecord
  3
"<Built In>"
 90
        0
280
           0
281
           0
  0
ENDSEC
  0
SECTION
  2
TABLES
  0
TABLE
  2
VPORT
  5
7
100
AcDbSymbolTable
 70
           1
  0
VPORT
  5
15
100
AcDbSymbolTableRecord
100
AcDbViewportTableRecord
  2
*ACTIVE
 70
           0
 10
0.0
 20
0.0
 11
1.0
 21
1.0
 12
6.591288
 22
4.579184
 13
0.0
 23
0.0
 14
1.0
 24
1.0
 15
0.0
 25
0.0
 16
0.0
 26
0.0
 36
1.0
 17
0.0
 27
0.0
 37
0.0
 40
9.158369
 41
0.688564
 42
50.0
 43
0.0
 44
0.0
 50
0.0
 51
0.0
 71
           0
 72
         100
 73
           1
 74
           1
 75
           0
 76
           0
 77
           0
 78
           0
  0
ENDTAB
  0
TABLE
  2
LTYPE
  5
4
100
AcDbSymbolTable
 70
           5
  0
LTYPE
  5
11
100
AcDbSymbolTableRecord
100
AcDbLinetypeTableRecord
  2
BYBLOCK
 70
           0
  3

 72
          65
 73
           0
 40
0.0
  0
LTYPE
  5
12
100
AcDbSymbolTableRecord
100
AcDbLinetypeTableRecord
  2
BYLAYER
 70
           0
  3

 72
          65
 73
           0
 40
0.0
  0
LTYPE
  5
13
100
AcDbSymbolTableRecord
100
AcDbLinetypeTableRecord
  2
CONTINUOUS
 70
           0
  3
Solid line
 72
          65
 73
           0
 40
0.0
  0
LTYPE
  5
1D
100
AcDbSymbolTableRecord
100
AcDbLinetypeTableRecord
  2
GESTRICHELT
 70
           0
  3

 72
          65
 73
           2
 40
0.75
 49
0.5
 74
           0
 49
-0.25
 74
           0
  0
LTYPE
  5
1E
100
AcDbSymbolTableRecord
100
AcDbLinetypeTableRecord
  2
STRICHPUNKT
 70
           0
  3

 72
          65
 73
           4
 40
1.0
 49
0.5
 74
           0
 49
-0.25
 74
           0
 49
0.0
 74
           0
 49
-0.25
 74
           0
  0
ENDTAB
  0
TABLE
  2
LAYER
  5
2
100
AcDbSymbolTable
 70
           3
  0
LAYER
  5
14
100
AcDbSymbolTableRecord
100
AcDbLayerTableRecord
  2
0
 70
           0
 62
           7
  6
CONTINUOUS
  0
LAYER
  5
20
100
AcDbSymbolTableRecord
100
AcDbLayerTableRecord
  2
FREI
 70
           0
 62
           7
  6
CONTINUOUS
  0
LAYER
  5
21
100
AcDbSymbolTableRecord
100
AcDbLayerTableRecord
  2
Frei
 70
           0
 62
           7
  6
CONTINUOUS
  0
ENDTAB
  0
TABLE
  2
STYLE
  5
3
100
AcDbSymbolTable
 70
           2
  0
STYLE
  5
17
100
AcDbSymbolTableRecord
100
AcDbTextStyleTableRecord
  2
TXT
 70
           0
 40
3.5
 41
1.0
 50
0.0
 71
           0
 42
3.5
  3
TXT
  4

  0
STYLE
  5
1F
100
AcDbSymbolTableRecord
100
AcDbTextStyleTableRecord
  2
GOTHICG
 70
           0
 40
3.5
 41
1.0
 50
0.0
 71
           0
 42
3.5
  3
GOTHICG
  4

  0
ENDTAB
  0
TABLE
  2
VIEW
  5
5
100
AcDbSymbolTable
 70
           0
  0
ENDTAB
  0
TABLE
  2
UCS
  5
6
100
AcDbSymbolTable
 70
           0
  0
ENDTAB
  0
TABLE
  2
APPID
  5
8
100
AcDbSymbolTable
 70
           2
  0
APPID
  5
16
100
AcDbSymbolTableRecord
100
AcDbRegAppTableRecord
  2
ACAD
 70
           0
  0
APPID
  5
22
100
AcDbSymbolTableRecord
100
AcDbRegAppTableRecord
  2
MegaCADPntStyle
 70
           0
  0
ENDTAB
  0
TABLE
  2
DIMSTYLE
  5
9
100
AcDbSymbolTable
 70
           1
  0
DIMSTYLE
105
18
100
AcDbSymbolTableRecord
100
AcDbDimStyleTableRecord
  2
STANDARD
 70
           0
  3

  4

  5

  6

  7

 40
1.0
 41
0.18
 42
0.0625
 43
0.38
 44
0.18
 45
0.0
 46
0.0
 47
0.0
 48
0.0
140
0.18
141
0.09
142
0.0
143
25.4
144
1.0
145
0.0
146
1.0
147
0.09
 71
           0
 72
           0
 73
           1
 74
           1
 75
           0
 76
           0
 77
           0
 78
           0
170
           0
171
           2
172
           0
173
           0
174
           0
175
           0
176
           0
177
           0
178
           0
270
           2
271
           4
272
           4
273
           2
274
           2
340
17
275
           0
280
           0
281
           0
282
           0
283
           1
284
           0
285
           0
286
           0
287
           0
288
           0
  0
ENDTAB
  0
TABLE
  2
BLOCK_RECORD
  5
1
100
AcDbSymbolTable
 70
           3
  0
BLOCK_RECORD
  5
A
100
AcDbSymbolTableRecord
100
AcDbBlockTableRecord
  2
*MODEL_SPACE
  0
BLOCK_RECORD
  5
B
100
AcDbSymbolTableRecord
100
AcDbBlockTableRecord
  2
*PAPER_SPACE
  0
BLOCK_RECORD
  5
23
100
AcDbSymbolTableRecord
100
AcDbBlockTableRecord
  2
ELIPPSE
  0
BLOCK_RECORD
  5
24
100
AcDbSymbolTableRecord
100
AcDbBlockTableRecord
  2
MAK1
  0
BLOCK_RECORD
  5
25
100
AcDbSymbolTableRecord
100
AcDbBlockTableRecord
  2
MAK2
  0
ENDTAB
  0
ENDSEC
  0
SECTION
  2
BLOCKS
  0
BLOCK
  5
D
100
AcDbEntity
  8
0
100
AcDbBlockBegin
  2
*MODEL_SPACE
 70
           0
 10
0.0
 20
0.0
 30
0.0
  3
*MODEL_SPACE
  1

  0
ENDBLK
  5
E
100
AcDbEntity
  8
0
100
AcDbBlockEnd
  0
BLOCK
  5
F
100
AcDbEntity
 67
           1
  8
0
100
AcDbBlockBegin
  2
*PAPER_SPACE
 70
           0
 10
0.0
 20
0.0
 30
0.0
  3
*PAPER_SPACE
  1

  0
ENDBLK
  5
10
100
AcDbEntity
 67
           1
  8
0
100
AcDbBlockEnd
  0
BLOCK
  5
348
100
AcDbEntity
  8
0
100
AcDbBlockBegin
  2
ELIPPSE
 70
          64
 10
0.0
 20
0.0
 30
0.0
  3
ELIPPSE
  1

  0
CIRCLE
  5
349
100
AcDbEntity
  8
0
  6
BYBLOCK
 62
           0
100
AcDbCircle
 10
0.0
 20
0.0
 30
0.0
 40
1.0
  0
ENDBLK
  5
34A
100
AcDbEntity
  8
0
  6
BYBLOCK
 62
           0
100
AcDbBlockEnd
  0
BLOCK
  5
34B
100
AcDbEntity
  8
0
100
AcDbBlockBegin
  2
MAK1
 70
          64
 10
0.0
 20
0.0
 30
0.0
  3
MAK1
  1

  0
LINE
  5
34C
100
AcDbEntity
  8
Frei
  6
CONTINUOUS
 62
           2
100
AcDbLine
 10
191.903508353413
 20
615.106916893557
 30
0.0
 11
192.293358480829
 21
615.496767020977
 31
0.0
  0
LINE
  5
34D
100
AcDbEntity
  8
Frei
  6
CONTINUOUS
 62
           2
100
AcDbLine
 10
191.903508353413
 20
614.04625672178
 30
0.0
 11
193.35401865261
 21
615.496767020975
 31
0.0
  0
LINE
  5
34E
100
AcDbEntity
  8
Frei
  6
CONTINUOUS
 62
           2
100
AcDbLine
 10
191.903508353413
 20
612.985596549999
 30
0.0
 11
193.903508353413
 21
614.985596549997
 31
0.0
  0
LINE
  5
34F
100
AcDbEntity
  8
Frei
  6
CONTINUOUS
 62
           2
100
AcDbLine
 10
191.903508353415
 20
611.924936378218
 30
0.0
 11
193.903508353413
 21
613.924936378218
 31
0.0
  0
LINE
  5
350
100
AcDbEntity
  8
Frei
  6
CONTINUOUS
 62
           2
100
AcDbLine
 10
191.903508353413
 20
610.864276206437
 30
0.0
 11
193.903508353413
 21
612.864276206437
 31
0.0
  0
LINE
  5
351
100
AcDbEntity
  8
Frei
  6
CONTINUOUS
 62
           2
100
AcDbLine
 10
191.903508353413
 20
609.803616034658
 30
0.0
 11
193.903508353413
 21
611.80361603466
 31
0.0
  0
LINE
  5
352
100
AcDbEntity
  8
Frei
  6
CONTINUOUS
 62
           2
100
AcDbLine
 10
191.903508353413
 20
608.742955862877
 30
0.0
 11
193.903508353413
 21
610.742955862881
 31
0.0
  0
LINE
  5
353
100
AcDbEntity
  8
Frei
  6
CONTINUOUS
 62
           2
100
AcDbLine
 10
191.903508353415
 20
607.6822956911
 30
0.0
 11
193.903508353413
 21
609.6822956911
 31
0.0
  0
LINE
  5
354
100
AcDbEntity
  8
Frei
  6
CONTINUOUS
 62
           2
100
AcDbLine
 10
191.903508353413
 20
606.621635519319
 30
0.0
 11
193.903508353413
 21
608.621635519317
 31
0.0
  0
LINE
  5
355
100
AcDbEntity
  8
Frei
  6
CONTINUOUS
 62
           2
100
AcDbLine
 10
191.903508353413
 20
605.56097534754
 30
0.0
 11
193.903508353413
 21
607.560975347538
 31
0.0
  0
LINE
  5
356
100
AcDbEntity
  8
Frei
  6
CONTINUOUS
 62
           2
100
AcDbLine
 10
191.903508353413
 20
604.500315175759
 30
0.0
 11
193.903508353415
 21
606.500315175759
 31
0.0
  0
LINE
  5
357
100
AcDbEntity
  8
Frei
  6
CONTINUOUS
 62
           2
100
AcDbLine
 10
191.903508353415
 20
603.43965500398
 30
0.0
 11
193.903508353413
 21
605.43965500398
 31
0.0
  0
LINE
  5
358
100
AcDbEntity
  8
Frei
  6
CONTINUOUS
 62
           2
100
AcDbLine
 10
191.903508353413
 20
602.378994832201
 30
0.0
 11
193.903508353415
 21
604.378994832201
 31
0.0
  0
LINE
  5
359
100
AcDbEntity
  8
Frei
  6
CONTINUOUS
 62
           2
100
AcDbLine
 10
191.903508353413
 20
601.318334660422
 30
0.0
 11
193.903508353413
 21
603.31833466042
 31
0.0
  0
LINE
  5
35A
100
AcDbEntity
  8
Frei
  6
CONTINUOUS
 62
           2
100
AcDbLine
 10
191.903508353413
 20
600.257674488643
 30
0.0
 11
193.903508353415
 21
602.257674488641
 31
0.0
  0
LINE
  5
35B
100
AcDbEntity
  8
Frei
  6
CONTINUOUS
 62
           2
100
AcDbLine
 10
191.903508353415
 20
599.197014316862
 30
0.0
 11
193.903508353413
 21
601.19701431686
 31
0.0
  0
LINE
  5
35C
100
AcDbEntity
  8
Frei
  6
CONTINUOUS
 62
           2
100
AcDbLine
 10
191.903508353413
 20
598.136354145079
 30
0.0
 11
193.903508353415
 21
600.136354145081
 31
0.0
  0
LINE
  5
35D
100
AcDbEntity
  8
Frei
  6
CONTINUOUS
 62
           2
100
AcDbLine
 10
191.903508353413
 20
597.0756939733
 30
0.0
 11
193.903508353413
 21
599.075693973304
 31
0.0
  0
LINE
  5
35E
100
AcDbEntity
  8
Frei
  6
CONTINUOUS
 62
           2
100
AcDbLine
 10
191.903508353411
 20
596.015033801521
 30
0.0
 11
193.903508353415
 21
598.015033801523
 31
0.0
  0
LINE
  5
35F
100
AcDbEntity
  8
Frei
  6
CONTINUOUS
 62
           2
100
AcDbLine
 10
192.445901744646
 20
595.496767020975
 30
0.0
 11
193.903508353413
 21
596.954373629744
 31
0.0
  0
LINE
  5
360
100
AcDbEntity
  8
Frei
  6
CONTINUOUS
 62
           2
100
AcDbLine
 10
193.506561916425
 20
595.496767020973
 30
0.0
 11
193.903508353415
 21
595.893713457963
 31
0.0
  0
LINE
  5
361
100
AcDbEntity
  8
Frei
  6
CONTINUOUS
 62
           2
100
AcDbLine
 10
192.573740611431
 20
595.496767020977
 30
0.0
 11
191.903508353415
 21
596.166999278996
 31
0.0
  0
LINE
  5
362
100
AcDbEntity
  8
Frei
  6
CONTINUOUS
 62
           2
100
AcDbLine
 10
193.63440078321
 20
595.496767020975
 30
0.0
 11
191.903508353413
 21
597.227659450773
 31
0.0
  0
LINE
  5
363
100
AcDbEntity
  8
Frei
  6
CONTINUOUS
 62
           2
100
AcDbLine
 10
193.903508353415
 20
596.288319622552
 30
0.0
 11
191.903508353413
 21
598.288319622552
 31
0.0
  0
LINE
  5
364
100
AcDbEntity
  8
Frei
  6
CONTINUOUS
 62
           2
100
AcDbLine
 10
193.903508353413
 20
597.348979794333
 30
0.0
 11
191.903508353415
 21
599.348979794333
 31
0.0
  0
LINE
  5
365
100
AcDbEntity
  8
Frei
  6
CONTINUOUS
 62
           2
100
AcDbLine
 10
193.903508353415
 20
598.409639966114
 30
0.0
 11
191.903508353415
 21
600.409639966114
 31
0.0
  0
LINE
  5
366
100
AcDbEntity
  8
Frei
  6
CONTINUOUS
 62
           2
100
AcDbLine
 10
193.903508353415
 20
599.470300137895
 30
0.0
 11
191.903508353413
 21
601.470300137895
 31
0.0
  0
LINE
  5
367
100
AcDbEntity
  8
Frei
  6
CONTINUOUS
 62
           2
100
AcDbLine
 10
193.903508353415
 20
600.530960309674
 30
0.0
 11
191.903508353413
 21
602.530960309674
 31
0.0
  0
LINE
  5
368
100
AcDbEntity
  8
Frei
  6
CONTINUOUS
 62
           2
100
AcDbLine
 10
193.903508353413
 20
601.591620481455
 30
0.0
 11
191.903508353415
 21
603.591620481453
 31
0.0
  0
LINE
  5
369
100
AcDbEntity
  8
Frei
  6
CONTINUOUS
 62
           2
100
AcDbLine
 10
193.903508353415
 20
602.652280653232
 30
0.0
 11
191.903508353415
 21
604.652280653232
 31
0.0
  0
LINE
  5
36A
100
AcDbEntity
  8
Frei
  6
CONTINUOUS
 62
           2
100
AcDbLine
 10
193.903508353415
 20
603.712940825013
 30
0.0
 11
191.903508353413
 21
605.712940825013
 31
0.0
  0
LINE
  5
36B
100
AcDbEntity
  8
Frei
  6
CONTINUOUS
 62
           2
100
AcDbLine
 10
193.903508353411
 20
604.773600996792
 30
0.0
 11
191.903508353413
 21
606.773600996792
 31
0.0
  0
LINE
  5
36C
100
AcDbEntity
  8
Frei
  6
CONTINUOUS
 62
           2
100
AcDbLine
 10
193.903508353413
 20
605.834261168573
 30
0.0
 11
191.903508353415
 21
607.834261168571
 31
0.0
  0
LINE
  5
36D
100
AcDbEntity
  8
Frei
  6
CONTINUOUS
 62
           2
100
AcDbLine
 10
193.903508353413
 20
606.894921340352
 30
0.0
 11
191.903508353415
 21
608.894921340352
 31
0.0
  0
LINE
  5
36E
100
AcDbEntity
  8
Frei
  6
CONTINUOUS
 62
           2
100
AcDbLine
 10
193.903508353415
 20
607.955581512133
 30
0.0
 11
191.903508353413
 21
609.955581512129
 31
0.0
  0
LINE
  5
36F
100
AcDbEntity
  8
Frei
  6
CONTINUOUS
 62
           2
100
AcDbLine
 10
193.903508353411
 20
609.01624168391
 30
0.0
 11
191.903508353413
 21
611.01624168391
 31
0.0
  0
LINE
  5
370
100
AcDbEntity
  8
Frei
  6
CONTINUOUS
 62
           2
100
AcDbLine
 10
193.903508353413
 20
610.076901855689
 30
0.0
 11
191.903508353415
 21
612.076901855689
 31
0.0
  0
LINE
  5
371
100
AcDbEntity
  8
Frei
  6
CONTINUOUS
 62
           2
100
AcDbLine
 10
193.903508353413
 20
611.13756202747
 30
0.0
 11
191.903508353415
 21
613.13756202747
 31
0.0
  0
LINE
  5
372
100
AcDbEntity
  8
Frei
  6
CONTINUOUS
 62
           2
100
AcDbLine
 10
193.903508353415
 20
612.198222199251
 30
0.0
 11
191.903508353413
 21
614.198222199253
 31
0.0
  0
LINE
  5
373
100
AcDbEntity
  8
Frei
  6
CONTINUOUS
 62
           2
100
AcDbLine
 10
193.903508353411
 20
613.258882371032
 30
0.0
 11
191.903508353413
 21
615.258882371032
 31
0.0
  0
LINE
  5
374
100
AcDbEntity
  8
Frei
  6
CONTINUOUS
 62
           2
100
AcDbLine
 10
193.903508353413
 20
614.319542542811
 30
0.0
 11
192.726283875249
 21
615.496767020977
 31
0.0
  0
LINE
  5
375
100
AcDbEntity
  8
Frei
  6
CONTINUOUS
 62
           2
100
AcDbLine
 10
193.903508353413
 20
615.38020271459
 30
0.0
 11
193.786944047028
 21
615.496767020975
 31
0.0
  0
ENDBLK
  5
376
100
AcDbEntity
  8
0
  6
BYBLOCK
 62
           0
100
AcDbBlockEnd
  0
BLOCK
  5
377
100
AcDbEntity
  8
0
100
AcDbBlockBegin
  2
MAK2
 70
          64
 10
0.0
 20
0.0
 30
0.0
  3
MAK2
  1

  0
LINE
  5
378
100
AcDbEntity
  8
Frei
  6
CONTINUOUS
 62
           2
100
AcDbLine
 10
-32.096491646589
 20
614.9062131391
 30
0.0
 11
-31.50593776471
 21
615.496767020975
 31
0.0
  0
LINE
  5
379
100
AcDbEntity
  8
Frei
  6
CONTINUOUS
 62
           2
100
AcDbLine
 10
-32.096491646589
 20
613.845552967321
 30
0.0
 11
-30.445277592933
 21
615.496767020977
 31
0.0
  0
LINE
  5
37A
100
AcDbEntity
  8
Frei
  6
CONTINUOUS
 62
           2
100
AcDbLine
 10
-32.096491646587
 20
612.78489279554
 30
0.0
 11
-30.096491646589
 21
614.784892795538
 31
0.0
  0
LINE
  5
37B
100
AcDbEntity
  8
Frei
  6
CONTINUOUS
 62
           2
100
AcDbLine
 10
-32.096491646587
 20
611.724232623759
 30
0.0
 11
-30.096491646587
 21
613.724232623759
 31
0.0
  0
LINE
  5
37C
100
AcDbEntity
  8
Frei
  6
CONTINUOUS
 62
           2
100
AcDbLine
 10
-32.096491646589
 20
610.66357245198
 30
0.0
 11
-30.096491646589
 21
612.66357245198
 31
0.0
  0
LINE
  5
37D
100
AcDbEntity
  8
Frei
  6
CONTINUOUS
 62
           2
100
AcDbLine
 10
-32.096491646589
 20
609.602912280203
 30
0.0
 11
-30.096491646589
 21
611.602912280201
 31
0.0
  0
LINE
  5
37E
100
AcDbEntity
  8
Frei
  6
CONTINUOUS
 62
           2
100
AcDbLine
 10
-32.096491646587
 20
608.542252108422
 30
0.0
 11
-30.096491646589
 21
610.542252108422
 31
0.0
  0
LINE
  5
37F
100
AcDbEntity
  8
Frei
  6
CONTINUOUS
 62
           2
100
AcDbLine
 10
-32.096491646587
 20
607.481591936641
 30
0.0
 11
-30.096491646587
 21
609.481591936641
 31
0.0
  0
LINE
  5
380
100
AcDbEntity
  8
Frei
  6
CONTINUOUS
 62
           2
100
AcDbLine
 10
-32.096491646589
 20
606.420931764862
 30
0.0
 11
-30.096491646589
 21
608.420931764862
 31
0.0
  0
LINE
  5
381
100
AcDbEntity
  8
Frei
  6
CONTINUOUS
 62
           2
100
AcDbLine
 10
-32.096491646589
 20
605.360271593081
 30
0.0
 11
-30.096491646589
 21
607.360271593081
 31
0.0
  0
LINE
  5
382
100
AcDbEntity
  8
Frei
  6
CONTINUOUS
 62
           2
100
AcDbLine
 10
-32.096491646587
 20
604.2996114213
 30
0.0
 11
-30.096491646589
 21
606.299611421304
 31
0.0
  0
LINE
  5
383
100
AcDbEntity
  8
Frei
  6
CONTINUOUS
 62
           2
100
AcDbLine
 10
-32.096491646587
 20
603.238951249523
 30
0.0
 11
-30.096491646587
 21
605.238951249523
 31
0.0
  0
LINE
  5
384
100
AcDbEntity
  8
Frei
  6
CONTINUOUS
 62
           2
100
AcDbLine
 10
-32.096491646589
 20
602.178291077742
 30
0.0
 11
-30.096491646589
 21
604.178291077742
 31
0.0
  0
LINE
  5
385
100
AcDbEntity
  8
Frei
  6
CONTINUOUS
 62
           2
100
AcDbLine
 10
-32.096491646589
 20
601.117630905963
 30
0.0
 11
-30.096491646589
 21
603.117630905963
 31
0.0
  0
LINE
  5
386
100
AcDbEntity
  8
Frei
  6
CONTINUOUS
 62
           2
100
AcDbLine
 10
-32.096491646587
 20
600.056970734182
 30
0.0
 11
-30.096491646589
 21
602.056970734182
 31
0.0
  0
LINE
  5
387
100
AcDbEntity
  8
Frei
  6
CONTINUOUS
 62
           2
100
AcDbLine
 10
-32.096491646587
 20
598.996310562403
 30
0.0
 11
-30.096491646587
 21
600.996310562401
 31
0.0
  0
LINE
  5
388
100
AcDbEntity
  8
Frei
  6
CONTINUOUS
 62
           2
100
AcDbLine
 10
-32.096491646589
 20
597.935650390624
 30
0.0
 11
-30.096491646589
 21
599.935650390624
 31
0.0
  0
LINE
  5
389
100
AcDbEntity
  8
Frei
  6
CONTINUOUS
 62
           2
100
AcDbLine
 10
-32.096491646589
 20
596.874990218845
 30
0.0
 11
-30.096491646589
 21
598.874990218845
 31
0.0
  0
LINE
  5
38A
100
AcDbEntity
  8
Frei
  6
CONTINUOUS
 62
           2
100
AcDbLine
 10
-32.096491646589
 20
595.814330047066
 30
0.0
 11
-30.096491646589
 21
597.814330047064
 31
0.0
  0
LINE
  5
38B
100
AcDbEntity
  8
Frei
  6
CONTINUOUS
 62
           2
100
AcDbLine
 10
-31.353394500897
 20
595.496767020977
 30
0.0
 11
-30.096491646587
 21
596.753669875283
 31
0.0
  0
LINE
  5
38C
100
AcDbEntity
  8
Frei
  6
CONTINUOUS
 62
           2
100
AcDbLine
 10
-30.292734329116
 20
595.496767020975
 30
0.0
 11
-30.096491646589
 21
595.693009703504
 31
0.0
  0
LINE
  5
38D
100
AcDbEntity
  8
Frei
  6
CONTINUOUS
 62
           2
100
AcDbLine
 10
-31.225555634113
 20
595.496767020975
 30
0.0
 11
-32.096491646589
 21
596.367703033451
 31
0.0
  0
LINE
  5
38E
100
AcDbEntity
  8
Frei
  6
CONTINUOUS
 62
           2
100
AcDbLine
 10
-30.164895462332
 20
595.496767020977
 30
0.0
 11
-32.096491646589
 21
597.428363205232
 31
0.0
  0
LINE
  5
38F
100
AcDbEntity
  8
Frei
  6
CONTINUOUS
 62
           2
100
AcDbLine
 10
-30.096491646587
 20
596.489023377013
 30
0.0
 11
-32.096491646589
 21
598.489023377013
 31
0.0
  0
LINE
  5
390
100
AcDbEntity
  8
Frei
  6
CONTINUOUS
 62
           2
100
AcDbLine
 10
-30.096491646589
 20
597.549683548792
 30
0.0
 11
-32.096491646587
 21
599.549683548794
 31
0.0
  0
LINE
  5
391
100
AcDbEntity
  8
Frei
  6
CONTINUOUS
 62
           2
100
AcDbLine
 10
-30.096491646589
 20
598.610343720573
 30
0.0
 11
-32.096491646589
 21
600.610343720573
 31
0.0
  0
LINE
  5
392
100
AcDbEntity
  8
Frei
  6
CONTINUOUS
 62
           2
100
AcDbLine
 10
-30.096491646589
 20
599.671003892352
 30
0.0
 11
-32.096491646589
 21
601.671003892352
 31
0.0
  0
LINE
  5
393
100
AcDbEntity
  8
Frei
  6
CONTINUOUS
 62
           2
100
AcDbLine
 10
-30.096491646587
 20
600.731664064133
 30
0.0
 11
-32.096491646589
 21
602.731664064131
 31
0.0
  0
LINE
  5
394
100
AcDbEntity
  8
Frei
  6
CONTINUOUS
 62
           2
100
AcDbLine
 10
-30.096491646589
 20
601.79232423591
 30
0.0
 11
-32.096491646587
 21
603.79232423591
 31
0.0
  0
LINE
  5
395
100
AcDbEntity
  8
Frei
  6
CONTINUOUS
 62
           2
100
AcDbLine
 10
-30.096491646587
 20
602.852984407691
 30
0.0
 11
-32.096491646589
 21
604.852984407691
 31
0.0
  0
LINE
  5
396
100
AcDbEntity
  8
Frei
  6
CONTINUOUS
 62
           2
100
AcDbLine
 10
-30.096491646589
 20
603.91364457947
 30
0.0
 11
-32.096491646589
 21
605.91364457947
 31
0.0
  0
LINE
  5
397
100
AcDbEntity
  8
Frei
  6
CONTINUOUS
 62
           2
100
AcDbLine
 10
-30.096491646587
 20
604.974304751251
 30
0.0
 11
-32.096491646589
 21
606.974304751251
 31
0.0
  0
LINE
  5
398
100
AcDbEntity
  8
Frei
  6
CONTINUOUS
 62
           2
100
AcDbLine
 10
-30.096491646589
 20
606.03496492303
 30
0.0
 11
-32.096491646587
 21
608.034964923028
 31
0.0
  0
LINE
  5
399
100
AcDbEntity
  8
Frei
  6
CONTINUOUS
 62
           2
100
AcDbLine
 10
-30.096491646587
 20
607.095625094811
 30
0.0
 11
-32.096491646589
 21
609.095625094809
 31
0.0
  0
LINE
  5
39A
100
AcDbEntity
  8
Frei
  6
CONTINUOUS
 62
           2
100
AcDbLine
 10
-30.096491646589
 20
608.156285266588
 30
0.0
 11
-32.096491646589
 21
610.156285266588
 31
0.0
  0
LINE
  5
39B
100
AcDbEntity
  8
Frei
  6
CONTINUOUS
 62
           2
100
AcDbLine
 10
-30.096491646587
 20
609.216945438367
 30
0.0
 11
-32.096491646589
 21
611.216945438369
 31
0.0
  0
LINE
  5
39C
100
AcDbEntity
  8
Frei
  6
CONTINUOUS
 62
           2
100
AcDbLine
 10
-30.096491646589
 20
610.27760561015
 30
0.0
 11
-32.096491646587
 21
612.27760561015
 31
0.0
  0
LINE
  5
39D
100
AcDbEntity
  8
Frei
  6
CONTINUOUS
 62
           2
100
AcDbLine
 10
-30.096491646587
 20
611.338265781929
 30
0.0
 11
-32.096491646589
 21
613.338265781931
 31
0.0
  0
LINE
  5
39E
100
AcDbEntity
  8
Frei
  6
CONTINUOUS
 62
           2
100
AcDbLine
 10
-30.096491646589
 20
612.39892595371
 30
0.0
 11
-32.096491646589
 21
614.398925953708
 31
0.0
  0
LINE
  5
39F
100
AcDbEntity
  8
Frei
  6
CONTINUOUS
 62
           2
100
AcDbLine
 10
-30.096491646587
 20
613.459586125489
 30
0.0
 11
-32.096491646589
 21
615.459586125487
 31
0.0
  0
LINE
  5
3A0
100
AcDbEntity
  8
Frei
  6
CONTINUOUS
 62
           2
100
AcDbLine
 10
-30.096491646589
 20
614.520246297268
 30
0.0
 11
-31.073012370296
 21
615.496767020977
 31
0.0
  0
ENDBLK
  5
3A1
100
AcDbEntity
  8
0
  6
BYBLOCK
 62
           0
100
AcDbBlockEnd
  0
ENDSEC
  0
SECTION
  2
ENTITIES
  0
INSERT
  5
26
100
AcDbEntity
  8
FREI
  6
CONTINUOUS
 62
           7
100
AcDbBlockReference
  2
MAK1
 10
-14397.799229139295
 20
-13733.174755078955
 30
0.0
 50
356.344999999999
  0
INSERT
  5
27
100
AcDbEntity
  8
FREI
  6
CONTINUOUS
 62
           7
100
AcDbBlockReference
  2
MAK2
 10
-14397.799229139295
 20
-13733.174755078955
 30
0.0
 50
356.344999999999
  0
LINE
  5
28
100
AcDbEntity
  8
FREI
  6
CONTINUOUS
 62
          15
100
AcDbLine
 10
-14496.909611064199
 20
-12837.938796726421
 30
0.0
 11
-14774.997350350095
 21
-12953.126509868316
 31
0.0
  0
LINE
  5
29
100
AcDbEntity
  8
FREI
  6
CONTINUOUS
 62
          15
100
AcDbLine
 10
-14601.511971794287
 20
-13371.957263651175
 30
0.0
 11
-14568.348296872948
 21
-13452.021457424411
 31
0.0
  0
LINE
  5
2A
100
AcDbEntity
  8
FREI
  6
CONTINUOUS
 62
          15
100
AcDbLine
 10
-14774.997350350095
 20
-12953.126509868316
 30
0.0
 11
-14764.411997938296
 21
-12978.681811223383
 31
0.0
  0
LINE
  5
2B
100
AcDbEntity
  8
FREI
  6
CONTINUOUS
 62
          15
100
AcDbLine
 10
-14568.348296872948
 20
-13452.021457424411
 30
0.0
 11
-14290.260557587051
 21
-13336.833744282516
 31
0.0
  0
LINE
  5
2C
100
AcDbEntity
  8
FREI
  6
CONTINUOUS
 62
          15
100
AcDbLine
 10
-14391.859727634024
 20
-13091.551650029263
 30
0.0
 11
-14496.909611064199
 21
-12837.938796726421
 31
0.0
  0
LINE
  5
2D
100
AcDbEntity
  8
FREI
  6
GESTRICHELT
 62
          15
100
AcDbLine
 10
-14356.639070827447
 20
-13176.581837367392
 30
0.0
 11
-14391.859727634024
 21
-13091.551650029263
 31
0.0
  0
LINE
  5
2E
100
AcDbEntity
  8
FREI
  6
CONTINUOUS
 62
          15
100
AcDbLine
 10
-14290.260557587051
 20
-13336.833744282516
 30
0.0
 11
-14356.639070827447
 21
-13176.581837367392
 31
0.0
  0
LINE
  5
2F
100
AcDbEntity
  8
FREI
  6
STRICHPUNKT
 62
          15
100
AcDbLine
 10
-14429.304427229999
 20
-13394.427600853463
 30
0.0
 11
-14635.953480707147
 21
-12895.532653297369
 31
0.0
  0
LINE
  5
30
100
AcDbEntity
  8
FREI
  6
STRICHPUNKT
 62
          15
100
AcDbLine
 10
-14601.511971794291
 20
-12978.681811223383
 30
0.0
 11
-14773.719516358578
 21
-13394.42760085346
 31
0.0
  0
LINE
  5
31
100
AcDbEntity
  8
FREI
  6
CONTINUOUS
 62
          15
100
AcDbLine
 10
-14764.411997938296
 20
-12978.681811223383
 30
0.0
 11
-14912.763386001527
 21
-13336.833744282516
 31
0.0
  0
LINE
  5
32
100
AcDbEntity
  8
FREI
  6
CONTINUOUS
 62
          15
100
AcDbLine
 10
-14601.511971794287
 20
-13371.957263651175
 30
0.0
 11
-14634.67564671563
 21
-13452.021457424411
 31
0.0
  0
LINE
  5
33
100
AcDbEntity
  8
FREI
  6
CONTINUOUS
 62
          15
100
AcDbLine
 10
-14764.411997938296
 20
-12978.681811223383
 30
0.0
 11
-14438.611945650282
 21
-12978.681811223383
 31
0.0
  0
LINE
  5
34
100
AcDbEntity
  8
FREI
  6
CONTINUOUS
 62
          15
100
AcDbLine
 10
-14912.763386001527
 20
-13336.833744282516
 30
0.0
 11
-14634.67564671563
 21
-13452.021457424411
 31
0.0
  0
LINE
  5
35
100
AcDbEntity
  8
FREI
  6
CONTINUOUS
 62
          15
100
AcDbLine
 10
-14601.511971794291
 20
-13096.581837367392
 30
0.0
 11
-14601.511971794291
 21
-12978.681811223383
 31
0.0
  0
LINE
  5
36
100
AcDbEntity
  8
FREI
  6
GESTRICHELT
 62
          15
100
AcDbLine
 10
-14601.511971794291
 20
-13131.581837367392
 30
0.0
 11
-14601.511971794291
 21
-13096.581837367392
 31
0.0
  0
LINE
  5
37
100
AcDbEntity
  8
FREI
  6
GESTRICHELT
 62
          15
100
AcDbLine
 10
-14601.511971794287
 20
-13176.581837367392
 30
0.0
 11
-14601.511971794287
 21
-13151.581837367392
 31
0.0
  0
LINE
  5
38
100
AcDbEntity
  8
FREI
  6
CONTINUOUS
 62
          15
100
AcDbLine
 10
-14601.511971794287
 20
-13371.957263651175
 30
0.0
 11
-14601.511971794287
 21
-13176.581837367392
 31
0.0
  0
CIRCLE
  5
39
100
AcDbEntity
  8
Frei
  6
CONTINUOUS
 62
           7
100
AcDbCircle
 10
-14110.623024794288
 20
-13141.581837367392
 30
0.0
 40
6.25
  0
CIRCLE
  5
3A
100
AcDbEntity
  8
FREI
  6
CONTINUOUS
 62
          15
100
AcDbCircle
 10
-14535.916524985987
 20
-13114.41131366947
 30
0.0
 40
8.25
  0
ARC
  5
3B
100
AcDbEntity
  8
FREI
  6
CONTINUOUS
 62
          15
100
AcDbCircle
 10
-14601.511971794287
 20
-13141.581837367392
 30
0.0
 40
20.25
100
AcDbArc
 50
110.885820858497
 51
319.617816039371
  0
ARC
  5
3C
100
AcDbEntity
  8
FREI
  6
CONTINUOUS
 62
          15
100
AcDbCircle
 10
-14535.916524985987
 20
-13114.41131366947
 30
0.0
 40
18.25
100
AcDbArc
 50
57.570939232536
 51
110.885820858496
  0
ARC
  5
3D
100
AcDbEntity
  8
FREI
  6
GESTRICHELT
 62
          15
100
AcDbCircle
 10
-14535.916524985987
 20
-13114.41131366947
 30
0.0
 40
18.25
100
AcDbArc
 50
295.074360346149
 51
57.570939232536
  0
ARC
  5
3E
100
AcDbEntity
  8
FREI
  6
CONTINUOUS
 62
          15
100
AcDbCircle
 10
-14535.916524985987
 20
-13114.41131366947
 30
0.0
 40
18.25
100
AcDbArc
 50
237.615639653848
 51
295.074360346149
  0
ARC
  5
3F
100
AcDbEntity
  8
FREI
  6
GESTRICHELT
 62
          15
100
AcDbCircle
 10
-14535.916524985987
 20
-13114.41131366947
 30
0.0
 40
18.25
100
AcDbArc
 50
211.802481262961
 51
237.615639653848
  0
LINE
  5
40
100
AcDbEntity
  8
FREI
  6
CONTINUOUS
 62
          15
100
AcDbLine
 10
-14543.783293688299
 20
-13097.879617549263
 30
0.0
 11
-14542.42277405479
 21
-13097.360471371956
 31
0.0
  0
LINE
  5
41
100
AcDbEntity
  8
FREI
  6
GESTRICHELT
 62
          15
100
AcDbLine
 10
-14552.566263188766
 20
-13101.231017212496
 30
0.0
 11
-14543.783293688299
 21
-13097.879617549263
 31
0.0
  0
LINE
  5
42
100
AcDbEntity
  8
FREI
  6
CONTINUOUS
 62
          15
100
AcDbLine
 10
-14608.731234459672
 20
-13122.662409612616
 30
0.0
 11
-14552.566263188766
 21
-13101.231017212496
 31
0.0
  0
LINE
  5
43
100
AcDbEntity
  8
FREI
  6
CONTINUOUS
 62
          15
100
AcDbLine
 10
-14559.484698517061
 20
-13123.424476281654
 30
0.0
 11
-14586.086740790452
 21
-13154.701469545094
 31
0.0
  0
ARC
  5
44
100
AcDbEntity
  8
FREI
  6
CONTINUOUS
 62
          15
100
AcDbCircle
 10
-14555.675999503768
 20
-13126.663891634174
 30
0.0
 40
5.0
100
AcDbArc
 50
84.4865011185
 51
139.617816039369
  0
ARC
  5
45
100
AcDbEntity
  8
FREI
  6
GESTRICHELT
 62
          15
100
AcDbCircle
 10
-14555.675999503768
 20
-13126.663891634174
 30
0.0
 40
5.0
100
AcDbArc
 50
31.802481262955
 51
84.4865011185
  0
LINE
  5
46
100
AcDbEntity
  8
Frei
  6
GESTRICHELT
 62
           7
100
AcDbLine
 10
-14133.605734353545
 20
-13140.113551544184
 30
0.0
 11
-14132.330763806818
 21
-13120.15423166336
 31
0.0
  0
LINE
  5
47
100
AcDbEntity
  8
Frei
  6
GESTRICHELT
 62
           7
100
AcDbLine
 10
-14132.330763806818
 20
-13120.15423166336
 30
0.0
 11
-14136.322627782982
 21
-13119.899237554017
 31
0.0
  0
LINE
  5
48
100
AcDbEntity
  8
Frei
  6
CONTINUOUS
 62
           7
100
AcDbLine
 10
-14135.557645454946
 20
-13107.923645625522
 30
0.0
 11
-14165.097438878563
 21
-13106.036689216367
 31
0.0
  0
LINE
  5
49
100
AcDbEntity
  8
Frei
  6
CONTINUOUS
 62
           7
100
AcDbLine
 10
-14165.097438878563
 20
-13106.036689216367
 30
0.0
 11
-14165.129313142232
 21
-13106.535672213387
 31
0.0
  0
LINE
  5
4A
100
AcDbEntity
  8
Frei
  6
CONTINUOUS
 62
           7
100
AcDbLine
 10
-14165.129313142232
 20
-13106.535672213387
 30
0.0
 11
-14387.368042659567
 21
-13092.339591008289
 31
0.0
  0
LINE
  5
4B
100
AcDbEntity
  8
Frei
  6
CONTINUOUS
 62
           7
100
AcDbLine
 10
-14387.368042659567
 20
-13092.339591008289
 30
0.0
 11
-14387.336168395899
 21
-13091.840608011269
 31
0.0
  0
LINE
  5
4C
100
AcDbEntity
  8
Frei
  6
CONTINUOUS
 62
           7
100
AcDbLine
 10
-14387.336168395899
 20
-13091.840608011269
 30
0.0
 11
-14416.875961819516
 21
-13089.953651602113
 31
0.0
  0
LINE
  5
4D
100
AcDbEntity
  8
Frei
  6
CONTINUOUS
 62
           7
100
AcDbLine
 10
-14416.875961819516
 20
-13089.953651602113
 30
0.0
 11
-14417.640944147552
 21
-13101.929243530607
 31
0.0
  0
LINE
  5
4E
100
AcDbEntity
  8
Frei
  6
CONTINUOUS
 62
           7
100
AcDbLine
 10
-14417.640944147552
 20
-13101.929243530607
 30
0.0
 11
-14429.117553079026
 21
-13101.196135466238
 31
0.0
  0
LINE
  5
4F
100
AcDbEntity
  8
Frei
  6
CONTINUOUS
 62
           7
100
AcDbLine
 10
-14429.117553079026
 20
-13101.196135466238
 30
0.0
 11
-14429.181301606361
 21
-13102.19410146028
 31
0.0
  0
LINE
  5
50
100
AcDbEntity
  8
Frei
  6
CONTINUOUS
 62
           7
100
AcDbLine
 10
-14429.181301606361
 20
-13102.19410146028
 30
0.0
 11
-14445.64774050804
 21
-13101.142250759231
 31
0.0
  0
LINE
  5
51
100
AcDbEntity
  8
Frei
  6
CONTINUOUS
 62
           7
100
AcDbLine
 10
-14445.64774050804
 20
-13101.142250759231
 30
0.0
 11
-14448.070184546821
 21
-13139.064958532792
 31
0.0
  0
LINE
  5
52
100
AcDbEntity
  8
Frei
  6
CONTINUOUS
 62
           7
100
AcDbLine
 10
-14448.070184546821
 20
-13139.064958532792
 30
0.0
 11
-14431.603745645141
 21
-13140.116809233841
 31
0.0
  0
LINE
  5
53
100
AcDbEntity
  8
Frei
  6
CONTINUOUS
 62
           7
100
AcDbLine
 10
-14431.603745645141
 20
-13140.116809233841
 30
0.0
 11
-14431.667494172478
 21
-13141.114775227883
 31
0.0
  0
LINE
  5
54
100
AcDbEntity
  8
Frei
  6
CONTINUOUS
 62
           7
100
AcDbLine
 10
-14431.667494172478
 20
-13141.114775227883
 30
0.0
 11
-14420.190885241005
 21
-13141.84788329225
 31
0.0
  0
LINE
  5
55
100
AcDbEntity
  8
Frei
  6
CONTINUOUS
 62
           7
100
AcDbLine
 10
-14420.190885241005
 20
-13141.84788329225
 30
0.0
 11
-14420.955867569042
 21
-13153.823475220745
 31
0.0
  0
LINE
  5
56
100
AcDbEntity
  8
Frei
  6
CONTINUOUS
 62
           7
100
AcDbLine
 10
-14420.955867569042
 20
-13153.823475220745
 30
0.0
 11
-14391.416074145425
 21
-13155.710431629899
 31
0.0
  0
LINE
  5
57
100
AcDbEntity
  8
Frei
  6
CONTINUOUS
 62
           7
100
AcDbLine
 10
-14391.416074145425
 20
-13155.710431629899
 30
0.0
 11
-14391.384199881757
 21
-13155.211448632879
 31
0.0
  0
LINE
  5
58
100
AcDbEntity
  8
Frei
  6
CONTINUOUS
 62
           7
100
AcDbLine
 10
-14170.987552963044
 20
-13169.289861984973
 30
0.0
 11
-14169.145470364419
 21
-13169.407529837978
 31
0.0
  0
LINE
  5
59
100
AcDbEntity
  8
Frei
  6
GESTRICHELT
 62
           7
100
AcDbLine
 10
-14198.930602282508
 20
-13167.504926487372
 30
0.0
 11
-14170.987552963044
 21
-13169.289861984973
 31
0.0
  0
LINE
  5
5A
100
AcDbEntity
  8
Frei
  6
CONTINUOUS
 62
           7
100
AcDbLine
 10
-14361.599067963669
 20
-13157.114051983483
 30
0.0
 11
-14198.930602282508
 21
-13167.504926487372
 31
0.0
  0
LINE
  5
5B
100
AcDbEntity
  8
Frei
  6
GESTRICHELT
 62
           7
100
AcDbLine
 10
-14389.542117283132
 20
-13155.329116485882
 30
0.0
 11
-14361.599067963669
 21
-13157.114051983483
 31
0.0
  0
LINE
  5
5C
100
AcDbEntity
  8
Frei
  6
CONTINUOUS
 62
           7
100
AcDbLine
 10
-14391.384199881757
 20
-13155.211448632879
 30
0.0
 11
-14389.542117283132
 21
-13155.329116485882
 31
0.0
  0
LINE
  5
5D
100
AcDbEntity
  8
Frei
  6
CONTINUOUS
 62
           7
100
AcDbLine
 10
-14169.145470364419
 20
-13169.407529837978
 30
0.0
 11
-14169.177344628088
 21
-13169.906512834998
 31
0.0
  0
LINE
  5
5E
100
AcDbEntity
  8
Frei
  6
CONTINUOUS
 62
           7
100
AcDbLine
 10
-14169.177344628088
 20
-13169.906512834998
 30
0.0
 11
-14139.637551204472
 21
-13171.793469244152
 31
0.0
  0
LINE
  5
5F
100
AcDbEntity
  8
Frei
  6
GESTRICHELT
 62
           7
100
AcDbLine
 10
-14138.872568876435
 20
-13159.81787731566
 30
0.0
 11
-14134.880704900272
 21
-13160.072871425005
 31
0.0
  0
LINE
  5
60
100
AcDbEntity
  8
Frei
  6
GESTRICHELT
 62
           7
100
AcDbLine
 10
-14134.880704900272
 20
-13160.072871425005
 30
0.0
 11
-14133.605734353545
 21
-13140.113551544184
 31
0.0
  0
LINE
  5
61
100
AcDbEntity
  8
Frei
  6
CONTINUOUS
 62
           7
100
AcDbLine
 10
-14167.978878224689
 20
-13151.144844674685
 30
0.0
 11
-14169.145470364419
 21
-13169.407529837978
 31
0.0
  0
LINE
  5
62
100
AcDbEntity
  8
Frei
  6
GESTRICHELT
 62
           7
100
AcDbLine
 10
-14166.703907677964
 20
-13131.185524793864
 30
0.0
 11
-14167.978878224689
 21
-13151.144844674685
 31
0.0
  0
LINE
  5
63
100
AcDbEntity
  8
Frei
  6
CONTINUOUS
 62
           7
100
AcDbLine
 10
-14165.129313142232
 20
-13106.535672213387
 30
0.0
 11
-14166.703907677964
 21
-13131.185524793864
 31
0.0
  0
LINE
  5
64
100
AcDbEntity
  8
Frei
  6
CONTINUOUS
 62
           7
100
AcDbLine
 10
-14390.217595920978
 20
-13136.948578414263
 30
0.0
 11
-14391.384199881757
 21
-13155.211448632879
 31
0.0
  0
LINE
  5
65
100
AcDbEntity
  8
Frei
  6
GESTRICHELT
 62
           7
100
AcDbLine
 10
-14388.942625374251
 20
-13116.989258533442
 30
0.0
 11
-14390.217595920978
 21
-13136.948578414263
 31
0.0
  0
LINE
  5
66
100
AcDbEntity
  8
Frei
  6
CONTINUOUS
 62
           7
100
AcDbLine
 10
-14387.368042659567
 20
-13092.339591008289
 30
0.0
 11
-14388.942625374251
 21
-13116.989258533442
 31
0.0
  0
LINE
  5
67
100
AcDbEntity
  8
Frei
  6
CONTINUOUS
 62
           7
100
AcDbLine
 10
-14417.640944147552
 20
-13101.929243530607
 30
0.0
 11
-14420.190885241005
 21
-13141.84788329225
 31
0.0
  0
LINE
  5
68
100
AcDbEntity
  8
Frei
  6
CONTINUOUS
 62
           7
100
AcDbLine
 10
-14429.117553079026
 20
-13101.196135466238
 30
0.0
 11
-14431.667494172478
 21
-13141.114775227883
 31
0.0
  0
LINE
  5
69
100
AcDbEntity
  8
Frei
  6
GESTRICHELT
 62
           7
100
AcDbLine
 10
-14463.563850244327
 20
-13111.02021699012
 30
0.0
 11
-14486.347351553308
 21
-13109.564842092896
 31
0.0
  0
LINE
  5
6A
100
AcDbEntity
  8
Frei
  6
CONTINUOUS
 62
           7
100
AcDbLine
 10
-14455.33066825511
 20
-13111.546139947655
 30
0.0
 11
-14463.563850244327
 21
-13111.02021699012
 31
0.0
  0
LINE
  5
6B
100
AcDbEntity
  8
Frei
  6
GESTRICHELT
 62
           7
100
AcDbLine
 10
-14464.58382668171
 20
-13126.987672894778
 30
0.0
 11
-14487.367327990689
 21
-13125.532297997552
 31
0.0
  0
LINE
  5
6C
100
AcDbEntity
  8
Frei
  6
CONTINUOUS
 62
           7
100
AcDbLine
 10
-14456.350644692491
 20
-13127.513595852313
 30
0.0
 11
-14464.58382668171
 21
-13126.987672894778
 31
0.0
  0
LINE
  5
6D
100
AcDbEntity
  8
Frei
  6
CONTINUOUS
 62
           7
100
AcDbLine
 10
-14487.324237634368
 20
-13110.424455502649
 30
0.0
 11
-14486.347351553308
 21
-13109.564842092896
 31
0.0
  0
LINE
  5
6E
100
AcDbEntity
  8
Frei
  6
CONTINUOUS
 62
           7
100
AcDbLine
 10
-14488.226898931864
 20
-13124.555374547794
 30
0.0
 11
-14487.367327990689
 21
-13125.532297997552
 31
0.0
  0
LINE
  5
6F
100
AcDbEntity
  8
Frei
  6
GESTRICHELT
 62
           7
100
AcDbLine
 10
-14487.324237634368
 20
-13110.424455502649
 30
0.0
 11
-14488.226898931864
 21
-13124.555374547794
 31
0.0
  0
LINE
  5
70
100
AcDbEntity
  8
Frei
  6
CONTINUOUS
 62
           7
100
AcDbLine
 10
-14463.622507814271
 20
-13111.938485419878
 30
0.0
 11
-14455.389325825052
 21
-13112.464408377413
 31
0.0
  0
LINE
  5
71
100
AcDbEntity
  8
Frei
  6
GESTRICHELT
 62
           7
100
AcDbLine
 10
-14487.324237634368
 20
-13110.424455502649
 30
0.0
 11
-14463.622507814271
 21
-13111.938485419878
 31
0.0
  0
LINE
  5
72
100
AcDbEntity
  8
Frei
  6
CONTINUOUS
 62
           7
100
AcDbLine
 10
-14464.525169111766
 20
-13126.069404465023
 30
0.0
 11
-14456.291987122548
 21
-13126.595327422556
 31
0.0
  0
LINE
  5
73
100
AcDbEntity
  8
Frei
  6
GESTRICHELT
 62
           7
100
AcDbLine
 10
-14488.226898931864
 20
-13124.555374547794
 30
0.0
 11
-14464.525169111766
 21
-13126.069404465023
 31
0.0
  0
LINE
  5
74
100
AcDbEntity
  8
Frei
  6
GESTRICHELT
 62
           7
100
AcDbLine
 10
-14486.347351553308
 20
-13109.564842092896
 30
0.0
 11
-14487.367327990689
 21
-13125.532297997552
 31
0.0
  0
LINE
  5
75
100
AcDbEntity
  8
Frei
  6
CONTINUOUS
 62
           7
100
AcDbLine
 10
-14446.221477254066
 20
-13110.1239447056
 30
0.0
 11
-14455.203171200437
 21
-13109.550207959574
 31
0.0
  0
LINE
  5
76
100
AcDbEntity
  8
Frei
  6
CONTINUOUS
 62
           7
100
AcDbLine
 10
-14455.203171200437
 20
-13109.550207959574
 30
0.0
 11
-14456.478141747164
 21
-13129.509527840395
 31
0.0
  0
LINE
  5
77
100
AcDbEntity
  8
Frei
  6
CONTINUOUS
 62
           7
100
AcDbLine
 10
-14456.478141747164
 20
-13129.509527840395
 30
0.0
 11
-14447.496447800793
 21
-13130.083264586421
 31
0.0
  0
LINE
  5
78
100
AcDbEntity
  8
Frei
  6
CONTINUOUS
 62
           7
100
AcDbLine
 10
-14455.504840069041
 20
-13114.272752697594
 30
0.0
 11
-14448.851730115548
 21
-13114.697743092333
 31
0.0
  0
LINE
  5
79
100
AcDbEntity
  8
Frei
  6
CONTINUOUS
 62
           7
100
AcDbLine
 10
-14456.176472878558
 20
-13124.786983102375
 30
0.0
 11
-14449.523362925063
 21
-13125.211973497111
 31
0.0
  0
LINE
  5
7A
100
AcDbEntity
  8
Frei
  6
CONTINUOUS
 62
           7
100
AcDbLine
 10
-14448.851730115548
 20
-13114.697743092333
 30
0.0
 11
-14449.523362925063
 21
-13125.211973497111
 31
0.0
  0
LINE
  5
7B
100
AcDbEntity
  8
Frei
  6
CONTINUOUS
 62
           7
100
AcDbLine
 10
-14455.504840069041
 20
-13114.272752697594
 30
0.0
 11
-14449.523362925063
 21
-13125.211973497111
 31
0.0
  0
LINE
  5
7C
100
AcDbEntity
  8
Frei
  6
CONTINUOUS
 62
           7
100
AcDbLine
 10
-14448.851730115548
 20
-13114.697743092333
 30
0.0
 11
-14456.176472878558
 21
-13124.786983102375
 31
0.0
  0
CIRCLE
  5
7D
100
AcDbEntity
  8
Frei
  6
CONTINUOUS
 62
           7
100
AcDbCircle
 10
-14405.486253260062
 20
-13131.263753743486
 30
0.0
 40
5.7225
  0
ARC
  5
7E
100
AcDbEntity
  8
Frei
  6
CONTINUOUS
 62
           7
100
AcDbCircle
 10
-14405.486253260062
 20
-13131.263753743486
 30
0.0
 40
6.5785
100
AcDbArc
 50
106.345
 51
16.345
  0
CIRCLE
  5
7F
100
AcDbEntity
  8
Frei
  6
CONTINUOUS
 62
           7
100
AcDbCircle
 10
-14151.027259763925
 20
-13130.483367102779
 30
0.0
 40
5.7225
  0
ARC
  5
80
100
AcDbEntity
  8
Frei
  6
CONTINUOUS
 62
           7
100
AcDbCircle
 10
-14151.027259763925
 20
-13130.483367102779
 30
0.0
 40
6.57849
100
AcDbArc
 50
106.345
 51
16.345
  0
LINE
  5
81
100
AcDbEntity
  8
Frei
  6
CONTINUOUS
 62
           7
100
AcDbLine
 10
-14394.22718926977
 20
-13109.357945948464
 30
0.0
 11
-14403.165444673405
 21
-13117.222832555752
 31
0.0
  0
LINE
  5
82
100
AcDbEntity
  8
Frei
  6
CONTINUOUS
 62
           7
100
AcDbLine
 10
-14395.218113736702
 20
-13108.231785355638
 30
0.0
 11
-14404.156372327765
 21
-13116.096721861226
 31
0.0
  0
CIRCLE
  5
83
100
AcDbEntity
  8
Frei
  6
CONTINUOUS
 62
           7
100
AcDbCircle
 10
-14399.191779523797
 20
-13112.727313945525
 30
0.0
 40
6.0
  0
LINE
  5
84
100
AcDbEntity
  8
Frei
  6
CONTINUOUS
 62
           7
100
AcDbLine
 10
-14152.356841306426
 20
-13145.650418109599
 30
0.0
 11
-14161.295399287284
 21
-13153.515335490627
 31
0.0
  0
LINE
  5
85
100
AcDbEntity
  8
Frei
  6
CONTINUOUS
 62
           7
100
AcDbLine
 10
-14153.348068350584
 20
-13144.524288290515
 30
0.0
 11
-14162.286623144017
 21
-13152.389155773244
 31
0.0
  0
CIRCLE
  5
86
100
AcDbEntity
  8
Frei
  6
CONTINUOUS
 62
           7
100
AcDbCircle
 10
-14157.321733500192
 20
-13149.019806900742
 30
0.0
 40
6.0
  0
LINE
  5
87
100
AcDbEntity
  8
Frei
  6
CONTINUOUS
 62
           7
100
AcDbLine
 10
-14463.68188632489
 20
-13105.143939981361
 30
0.0
 11
-14467.17726221902
 21
-13104.920660764365
 31
0.0
  0
LINE
  5
88
100
AcDbEntity
  8
Frei
  6
CONTINUOUS
 62
           7
100
AcDbLine
 10
-14470.672638113148
 20
-13104.69738154737
 30
0.0
 11
-14467.17726221902
 21
-13104.920660764365
 31
0.0
  0
LINE
  5
89
100
AcDbEntity
  8
Frei
  6
CONTINUOUS
 62
           7
100
AcDbLine
 10
-14472.439339300336
 20
-13132.354611919827
 30
0.0
 11
-14468.943963406207
 21
-13132.577891136823
 31
0.0
  0
LINE
  5
8A
100
AcDbEntity
  8
Frei
  6
CONTINUOUS
 62
           7
100
AcDbLine
 10
-14465.448587512079
 20
-13132.801170353818
 30
0.0
 11
-14468.943963406207
 21
-13132.577891136823
 31
0.0
  0
LINE
  5
8B
100
AcDbEntity
  8
Frei
  6
CONTINUOUS
 62
           7
100
AcDbLine
 10
-14464.123560984202
 20
-13112.058237594814
 30
0.0
 11
-14467.618936878331
 21
-13111.83495837782
 31
0.0
  0
LINE
  5
8C
100
AcDbEntity
  8
Frei
  6
CONTINUOUS
 62
           7
100
AcDbLine
 10
-14471.114312772461
 20
-13111.611679160824
 30
0.0
 11
-14467.618936878331
 21
-13111.83495837782
 31
0.0
  0
LINE
  5
8D
100
AcDbEntity
  8
Frei
  6
CONTINUOUS
 62
           7
100
AcDbLine
 10
-14471.997664641025
 20
-13125.440314306372
 30
0.0
 11
-14468.502288746895
 21
-13125.663593523368
 31
0.0
  0
LINE
  5
8E
100
AcDbEntity
  8
Frei
  6
CONTINUOUS
 62
           7
100
AcDbLine
 10
-14465.006912852767
 20
-13125.886872740364
 30
0.0
 11
-14468.502288746895
 21
-13125.663593523368
 31
0.0
  0
ARC
  5
8F
100
AcDbEntity
  8
Frei
  6
CONTINUOUS
 62
           7
100
AcDbCircle
 10
-14512.956408376333
 20
-13115.881401826757
 30
0.0
 40
48.982199999993
100
AcDbArc
 50
357.204436999999
 51
4.476610000001
  0
ARC
  5
90
100
AcDbEntity
  8
Frei
  6
CONTINUOUS
 62
           7
100
AcDbCircle
 10
-14423.164817248886
 20
-13121.617150074431
 30
0.0
 40
48.982200000003
100
AcDbArc
 50
168.213
 51
175.486
  0
ARC
  5
91
100
AcDbEntity
  8
Frei
  6
CONTINUOUS
 62
           7
100
AcDbCircle
 10
-14423.164817248886
 20
-13121.617150074431
 30
0.0
 40
48.982200000003
100
AcDbArc
 50
177.203999999999
 51
184.476999999999
  0
ARC
  5
92
100
AcDbEntity
  8
Frei
  6
CONTINUOUS
 62
           7
100
AcDbCircle
 10
-14512.956408376333
 20
-13115.881401826757
 30
0.0
 40
48.982199999993
100
AcDbArc
 50
348.213389999999
 51
355.485563
  0
LINE
  5
93
100
AcDbEntity
  8
Frei
  6
CONTINUOUS
 62
           7
100
AcDbLine
 10
-14464.032490850461
 20
-13118.270382721932
 30
0.0
 11
-14464.073838463019
 21
-13119.003944942449
 31
0.0
  0
LINE
  5
94
100
AcDbEntity
  8
Frei
  6
CONTINUOUS
 62
           7
100
AcDbLine
 10
-14471.995061923715
 20
-13117.76174597202
 30
0.0
 11
-14472.047387162209
 21
-13118.494606958739
 31
0.0
  0
LINE
  5
95
100
AcDbEntity
  8
Frei
  6
CONTINUOUS
 62
           7
100
AcDbLine
 10
-14472.088734774767
 20
-13119.228169179256
 30
0.0
 11
-14472.047387162209
 21
-13118.494606958739
 31
0.0
  0
LINE
  5
96
100
AcDbEntity
  8
Frei
  6
CONTINUOUS
 62
           7
100
AcDbLine
 10
-14464.12616370151
 20
-13119.736805929168
 30
0.0
 11
-14464.073838463019
 21
-13119.003944942449
 31
0.0
  0
ARC
  5
97
100
AcDbEntity
  8
Frei
  6
CONTINUOUS
 62
           7
100
AcDbCircle
 10
-14476.186687393942
 20
-13107.816413154935
 30
0.0
 40
12.801500000001
100
AcDbArc
 50
340.626499999999
 51
356.344999999999
  0
ARC
  5
98
100
AcDbEntity
  8
Frei
  6
CONTINUOUS
 62
           7
100
AcDbCircle
 10
-14458.609472422255
 20
-13108.939218516851
 30
0.0
 40
12.787200000001
100
AcDbArc
 50
176.345000000001
 51
192.063999999999
  0
ARC
  5
99
100
AcDbEntity
  8
Frei
  6
CONTINUOUS
 62
           7
100
AcDbCircle
 10
-14459.934498312647
 20
-13129.682141296194
 30
0.0
 40
12.8015
100
AcDbArc
 50
160.626
 51
176.345000000001
  0
ARC
  5
9A
100
AcDbEntity
  8
Frei
  6
CONTINUOUS
 62
           7
100
AcDbCircle
 10
-14477.511713284332
 20
-13128.559335934278
 30
0.0
 40
12.787200000001
100
AcDbArc
 50
356.344999999998
 51
12.063499999999
  0
ARC
  5
9B
100
AcDbEntity
  8
Frei
  6
CONTINUOUS
 62
           7
100
AcDbCircle
 10
-14476.186687393942
 20
-13107.816413154935
 30
0.0
 40
12.787200000001
100
AcDbArc
 50
356.344999999998
 51
12.063499999999
  0
ARC
  5
9C
100
AcDbEntity
  8
Frei
  6
CONTINUOUS
 62
           7
100
AcDbCircle
 10
-14458.609472422255
 20
-13108.939218516851
 30
0.0
 40
12.8015
100
AcDbArc
 50
160.626
 51
176.345000000001
  0
ARC
  5
9D
100
AcDbEntity
  8
Frei
  6
CONTINUOUS
 62
           7
100
AcDbCircle
 10
-14459.934498312645
 20
-13129.682141296194
 30
0.0
 40
12.787200000001
100
AcDbArc
 50
176.345000000001
 51
192.063999999999
  0
ARC
  5
9E
100
AcDbEntity
  8
Frei
  6
CONTINUOUS
 62
           7
100
AcDbCircle
 10
-14477.511713284332
 20
-13128.559335934278
 30
0.0
 40
12.801500000001
100
AcDbArc
 50
340.626499999999
 51
356.344999999999
  0
LINE
  5
9F
100
AcDbEntity
  8
Frei
  6
CONTINUOUS
 62
           7
100
AcDbLine
 10
-14463.411325517824
 20
-13108.632483552778
 30
0.0
 11
-14464.073838463019
 21
-13119.003944942449
 31
0.0
  0
LINE
  5
A0
100
AcDbEntity
  8
Frei
  6
CONTINUOUS
 62
           7
100
AcDbLine
 10
-14471.384874217012
 20
-13108.123145569067
 30
0.0
 11
-14472.047387162209
 21
-13118.494606958739
 31
0.0
  0
LINE
  5
A1
100
AcDbEntity
  8
Frei
  6
CONTINUOUS
 62
           7
100
AcDbLine
 10
-14472.709900107404
 20
-13128.866068348409
 30
0.0
 11
-14472.047387162209
 21
-13118.494606958739
 31
0.0
  0
LINE
  5
A2
100
AcDbEntity
  8
Frei
  6
CONTINUOUS
 62
           7
100
AcDbLine
 10
-14464.736351408214
 20
-13129.375406332121
 30
0.0
 11
-14464.073838463019
 21
-13119.003944942449
 31
0.0
  0
LINE
  5
A3
100
AcDbEntity
  8
Frei
  6
CONTINUOUS
 62
           7
100
AcDbLine
 10
-14472.557375380899
 20
-13126.478334911068
 30
0.0
 11
-14472.506376559029
 21
-13125.679962115833
 31
0.0
  0
LINE
  5
A4
100
AcDbEntity
  8
Frei
  6
CONTINUOUS
 62
           7
100
AcDbLine
 10
-14472.506376559029
 20
-13125.679962115833
 30
0.0
 11
-14471.588397765387
 21
-13111.309251801642
 31
0.0
  0
LINE
  5
A5
100
AcDbEntity
  8
Frei
  6
CONTINUOUS
 62
           7
100
AcDbLine
 10
-14471.588397765387
 20
-13111.309251801642
 30
0.0
 11
-14471.537398943517
 21
-13110.51087900641
 31
0.0
  0
LINE
  5
A6
100
AcDbEntity
  8
Frei
  6
CONTINUOUS
 62
           7
100
AcDbLine
 10
-14471.537398943517
 20
-13110.51087900641
 30
0.0
 11
-14471.256905423237
 21
-13106.119828632629
 31
0.0
  0
LINE
  5
A7
100
AcDbEntity
  8
Frei
  6
CONTINUOUS
 62
           7
100
AcDbLine
 10
-14505.002275408904
 20
-13132.422109988633
 30
0.0
 11
-14503.266916389726
 21
-13132.532962044246
 31
0.0
  0
LINE
  5
A8
100
AcDbEntity
  8
Frei
  6
CONTINUOUS
 62
           7
100
AcDbLine
 10
-14501.226963514964
 20
-13100.598050234932
 30
0.0
 11
-14502.962322534142
 21
-13100.487198179319
 31
0.0
  0
LINE
  5
A9
100
AcDbEntity
  8
Frei
  6
CONTINUOUS
 62
           7
100
AcDbLine
 10
-14503.266916389726
 20
-13132.532962044246
 30
0.0
 11
-14498.216106649425
 21
-13132.85559997452
 31
0.0
  0
LINE
  5
AA
100
AcDbEntity
  8
Frei
  6
CONTINUOUS
 62
           7
100
AcDbLine
 10
-14496.176153774662
 20
-13100.920688165204
 30
0.0
 11
-14501.226963514964
 21
-13100.598050234932
 31
0.0
  0
LINE
  5
AB
100
AcDbEntity
  8
Frei
  6
CONTINUOUS
 62
           7
100
AcDbLine
 10
-14550.247146741865
 20
-13097.466716593173
 30
0.0
 11
-14502.962322534142
 21
-13100.487198179319
 31
0.0
  0
LINE
  5
AC
100
AcDbEntity
  8
Frei
  6
CONTINUOUS
 62
           7
100
AcDbLine
 10
-14552.287099616629
 20
-13129.401628402487
 30
0.0
 11
-14505.002275408904
 21
-13132.422109988633
 31
0.0
  0
LINE
  5
AD
100
AcDbEntity
  8
Frei
  6
CONTINUOUS
 62
           7
100
AcDbLine
 10
-14495.13159104742
 20
-13103.392304783707
 30
0.0
 11
-14496.865550990969
 21
-13130.536979821625
 31
0.0
  0
LINE
  5
AE
100
AcDbEntity
  8
Frei
  6
CONTINUOUS
 62
           7
100
AcDbLine
 10
-14472.377966383283
 20
-13104.845771206976
 30
0.0
 11
-14475.997761423294
 21
-13104.614544286982
 31
0.0
  0
LINE
  5
AF
100
AcDbEntity
  8
Frei
  6
CONTINUOUS
 62
           7
100
AcDbLine
 10
-14472.837868901179
 20
-13130.869385284848
 30
0.0
 11
-14472.557375380899
 21
-13126.478334911068
 31
0.0
  0
LINE
  5
B0
100
AcDbEntity
  8
Frei
  6
CONTINUOUS
 62
           7
100
AcDbLine
 10
-14495.66799179812
 20
-13130.613478054429
 30
0.0
 11
-14493.218931510366
 21
-13130.769920245481
 31
0.0
  0
LINE
  5
B1
100
AcDbEntity
  8
Frei
  6
CONTINUOUS
 62
           7
100
AcDbLine
 10
-14491.382973923079
 20
-13102.028499617096
 30
0.0
 11
-14491.484971566817
 21
-13103.625245207562
 31
0.0
  0
LINE
  5
B2
100
AcDbEntity
  8
Frei
  6
CONTINUOUS
 62
           7
100
AcDbLine
 10
-14491.484971566817
 20
-13103.625245207562
 30
0.0
 11
-14493.934031854571
 21
-13103.468803016511
 31
0.0
  0
LINE
  5
B3
100
AcDbEntity
  8
Frei
  6
CONTINUOUS
 62
           7
100
AcDbLine
 10
-14491.484971566817
 20
-13103.625245207562
 30
0.0
 11
-14493.218931510366
 21
-13130.769920245481
 31
0.0
  0
LINE
  5
B4
100
AcDbEntity
  8
Frei
  6
CONTINUOUS
 62
           7
100
AcDbLine
 10
-14493.218931510366
 20
-13130.769920245481
 30
0.0
 11
-14493.320929154104
 21
-13132.366665835945
 31
0.0
  0
LINE
  5
B5
100
AcDbEntity
  8
Frei
  6
CONTINUOUS
 62
           7
100
AcDbLine
 10
-14477.833719010581
 20
-13133.355964915367
 30
0.0
 11
-14477.731721366843
 21
-13131.7592193249
 31
0.0
  0
LINE
  5
B6
100
AcDbEntity
  8
Frei
  6
CONTINUOUS
 62
           7
100
AcDbLine
 10
-14477.731721366843
 20
-13131.7592193249
 30
0.0
 11
-14474.111926326832
 21
-13131.990446244894
 31
0.0
  0
LINE
  5
B7
100
AcDbEntity
  8
Frei
  6
CONTINUOUS
 62
           7
100
AcDbLine
 10
-14477.731721366843
 20
-13131.7592193249
 30
0.0
 11
-14475.997761423294
 21
-13104.614544286982
 31
0.0
  0
LINE
  5
B8
100
AcDbEntity
  8
Frei
  6
CONTINUOUS
 62
           7
100
AcDbLine
 10
-14475.997761423294
 20
-13104.614544286982
 30
0.0
 11
-14475.895763779557
 21
-13103.017798696517
 31
0.0
  0
LINE
  5
B9
100
AcDbEntity
  8
Frei
  6
CONTINUOUS
 62
           7
100
AcDbLine
 10
-14491.382973923079
 20
-13102.028499617096
 30
0.0
 11
-14475.895763779557
 21
-13103.017798696517
 31
0.0
  0
LINE
  5
BA
100
AcDbEntity
  8
Frei
  6
CONTINUOUS
 62
           7
100
AcDbLine
 10
-14493.320929154104
 20
-13132.366665835945
 30
0.0
 11
-14477.833719010581
 21
-13133.355964915367
 31
0.0
  0
ARC
  5
BB
100
AcDbEntity
  8
Frei
  6
CONTINUOUS
 62
           7
100
AcDbCircle
 10
-14524.961017578715
 20
-13115.114565920052
 30
0.0
 40
27.821476415485
100
AcDbArc
 50
321.238694434247
 51
31.451305565753
  0
ARC
  5
BC
100
AcDbEntity
  8
Frei
  6
CONTINUOUS
 62
           7
100
AcDbCircle
 10
-14511.800556640062
 20
-13115.955235851608
 30
0.0
 40
39.547005383793
100
AcDbArc
 50
152.48007458395
 51
200.20992541605
  0
ARC
  5
BD
100
AcDbEntity
  8
Frei
  6
CONTINUOUS
 62
           7
100
AcDbCircle
 10
-14525.915382025973
 20
-13115.053602592227
 30
0.0
 40
30.02221399786
100
AcDbArc
 50
144.140772496028
 51
208.549227503973
  0
CIRCLE
  5
BE
100
AcDbEntity
  8
Frei
  6
CONTINUOUS
 62
           7
100
AcDbCircle
 10
-14535.917210780839
 20
-13114.414701209213
 30
0.0
 40
6.8
  0
ARC
  5
BF
100
AcDbEntity
  8
Frei
  6
CONTINUOUS
 62
           7
100
AcDbCircle
 10
-14496.252652007466
 20
-13102.118247358054
 30
0.0
 40
1.2
100
AcDbArc
 50
356.344999999999
 51
86.345
  0
ARC
  5
C0
100
AcDbEntity
  8
Frei
  6
CONTINUOUS
 62
           7
100
AcDbCircle
 10
-14493.857533621767
 20
-13102.271243823661
 30
0.0
 40
1.2
100
AcDbArc
 50
176.345
 51
266.344999999999
  0
ARC
  5
C1
100
AcDbEntity
  8
Frei
  6
CONTINUOUS
 62
           7
100
AcDbCircle
 10
-14472.454464616087
 20
-13106.043330399825
 30
0.0
 40
1.2
100
AcDbArc
 50
356.344999999999
 51
86.345
  0
ARC
  5
C2
100
AcDbEntity
  8
Frei
  6
CONTINUOUS
 62
           7
100
AcDbCircle
 10
-14474.035428094028
 20
-13130.792887052045
 30
0.0
 40
1.2
100
AcDbArc
 50
266.344999999999
 51
356.344999999999
  0
ARC
  5
C3
100
AcDbEntity
  8
Frei
  6
CONTINUOUS
 62
           7
100
AcDbCircle
 10
-14495.744490030924
 20
-13131.811037247278
 30
0.0
 40
1.2
100
AcDbArc
 50
86.345
 51
176.345
  0
ARC
  5
C4
100
AcDbEntity
  8
Frei
  6
CONTINUOUS
 62
           7
100
AcDbCircle
 10
-14498.139608416621
 20
-13131.658040781671
 30
0.0
 40
1.2
100
AcDbArc
 50
266.344999999999
 51
356.344999999999
  0
LINE
  5
C5
100
AcDbEntity
  8
FREI
  6
CONTINUOUS
 62
           7
100
AcDbLine
 10
-14135.557628572647
 20
-13107.923381337676
 30
0.0
 11
-14139.637568086771
 21
-13171.793733531998
 31
0.0
  0
LINE
  5
C6
100
AcDbEntity
  8
FREI
  6
CONTINUOUS
 62
           7
100
AcDbLine
 10
-14132.22969241747
 20
-13165.752129558705
 30
0.0
 11
-14132.505299684914
 21
-13170.066686962791
 31
0.0
  0
LINE
  5
C7
100
AcDbEntity
  8
FREI
  6
CONTINUOUS
 62
           7
100
AcDbLine
 10
-14128.703098579914
 20
-13110.544254620538
 30
0.0
 11
-14128.978705847358
 21
-13114.858812024628
 31
0.0
  0
LINE
  5
C8
100
AcDbEntity
  8
FREI
  6
CONTINUOUS
 62
           7
100
AcDbLine
 10
-14128.978705847358
 20
-13114.858812024628
 30
0.0
 11
-14129.553405170942
 21
-13123.855574862931
 31
0.0
  0
LINE
  5
C9
100
AcDbEntity
  8
FREI
  6
CONTINUOUS
 62
           7
100
AcDbLine
 10
-14131.654993093885
 20
-13156.755366720396
 30
0.0
 11
-14132.22969241747
 21
-13165.752129558705
 31
0.0
  0
LINE
  5
CA
100
AcDbEntity
  8
Frei
  6
CONTINUOUS
 62
           7
100
AcDbLine
 10
-14134.561242730704
 20
-13171.940404994988
 30
0.0
 11
-14139.637568086771
 21
-13171.793733531998
 31
0.0
  0
LINE
  5
CB
100
AcDbEntity
  8
Frei
  6
CONTINUOUS
 62
           7
100
AcDbLine
 10
-14130.503923816164
 20
-13108.424172183415
 30
0.0
 11
-14135.557652214744
 21
-13107.923751448321
 31
0.0
  0
LINE
  5
CC
100
AcDbEntity
  8
FREI
  6
CONTINUOUS
 62
           7
100
AcDbLine
 10
-14131.123571846727
 20
-13165.784088960629
 30
0.0
 11
-14132.22969241747
 21
-13165.752129558705
 31
0.0
  0
LINE
  5
CD
100
AcDbEntity
  8
Frei
  6
CONTINUOUS
 62
           7
100
AcDbLine
 10
-14125.176271251536
 20
-13118.147976301287
 30
0.0
 11
-14125.749768406711
 21
-13127.125919517546
 31
0.0
  0
LINE
  5
CE
100
AcDbEntity
  8
FREI
  6
CONTINUOUS
 62
           7
100
AcDbLine
 10
-14128.978705847358
 20
-13114.858812024628
 30
0.0
 11
-14127.877509105911
 21
-13114.967852645605
 31
0.0
  0
LINE
  5
CF
100
AcDbEntity
  8
Frei
  6
CONTINUOUS
 62
           7
100
AcDbLine
 10
-14127.454438212275
 20
-13153.812065348733
 30
0.0
 11
-14127.466160122865
 21
-13153.995568696075
 31
0.0
  0
LINE
  5
D0
100
AcDbEntity
  8
FREI
  6
CONTINUOUS
 62
           7
100
AcDbLine
 10
-14109.648089741553
 20
-13129.608324103241
 30
0.0
 11
-14124.843676188122
 21
-13128.371033965685
 31
0.0
  0
LINE
  5
D1
100
AcDbEntity
  8
FREI
  6
CONTINUOUS
 62
           7
100
AcDbLine
 10
-14111.179496356252
 20
-13153.582081433433
 30
0.0
 11
-14126.409006865204
 21
-13152.875863338684
 31
0.0
  0
LINE
  5
D2
100
AcDbEntity
  8
FREI
  6
CONTINUOUS
 62
           7
100
AcDbLine
 10
-14125.507348104975
 20
-13128.042038995794
 30
0.0
 11
-14127.109145194458
 21
-13153.117740215101
 31
0.0
  0
LINE
  5
D3
100
AcDbEntity
  8
Frei
  6
CONTINUOUS
 62
           7
100
AcDbLine
 10
-14127.717776912585
 20
-13125.97879706453
 30
0.0
 11
-14126.667582535891
 21
-13126.064308416746
 31
0.0
  0
LINE
  5
D4
100
AcDbEntity
  8
Frei
  6
CONTINUOUS
 62
           7
100
AcDbLine
 10
-14125.749768406711
 20
-13127.125919517546
 30
0.0
 11
-14125.761490317302
 21
-13127.309422864886
 31
0.0
  0
LINE
  5
D5
100
AcDbEntity
  8
Frei
  6
CONTINUOUS
 62
           7
100
AcDbLine
 10
-14127.466160122865
 20
-13153.995568696075
 30
0.0
 11
-14128.039657278043
 21
-13162.973511912334
 31
0.0
  0
LINE
  5
D6
100
AcDbEntity
  8
Frei
  6
CONTINUOUS
 62
           7
100
AcDbLine
 10
-14128.511591469936
 20
-13154.931770706124
 30
0.0
 11
-14129.564130399744
 21
-13154.882962700296
 31
0.0
  0
ARC
  5
D7
100
AcDbEntity
  8
FREI
  6
CONTINUOUS
 62
           7
100
AcDbCircle
 10
-14110.623024794288
 20
-13141.581837367392
 30
0.0
 40
12.0131394
100
AcDbArc
 50
267.344999999997
 51
85.345000000003
  0
ARC
  5
D8
100
AcDbEntity
  8
Frei
  6
CONTINUOUS
 62
           7
100
AcDbCircle
 10
-14130.701216013726
 20
-13110.416617962965
 30
0.0
 40
2.0021899
100
AcDbArc
 50
356.344999999993
 51
84.345000000031
  0
ARC
  5
D9
100
AcDbEntity
  8
Frei
  6
CONTINUOUS
 62
           7
100
AcDbCircle
 10
-14128.173447402254
 20
-13117.956521314929
 30
0.0
 40
3.00328485
100
AcDbArc
 50
356.345000000004
 51
84.344999999982
  0
ARC
  5
DA
100
AcDbEntity
  8
Frei
  6
CONTINUOUS
 62
           7
100
AcDbCircle
 10
-14131.036833428761
 20
-13162.782056925975
 30
0.0
 40
3.00328485
100
AcDbArc
 50
268.344999999994
 51
356.344999999999
  0
ARC
  5
DB
100
AcDbEntity
  8
Frei
  6
CONTINUOUS
 62
           7
100
AcDbCircle
 10
-14134.503417118725
 20
-13169.93905030522
 30
0.0
 40
2.0021899
100
AcDbArc
 50
268.344999999968
 51
356.345000000006
  0
ARC
  5
DC
100
AcDbEntity
  8
Frei
  6
CONTINUOUS
 62
           7
100
AcDbCircle
 10
-14126.748827123618
 20
-13127.06210118876
 30
0.0
 40
1.00109495
100
AcDbArc
 50
356.344999999999
 51
85.34500000007
  0
ARC
  5
DD
100
AcDbEntity
  8
Frei
  6
CONTINUOUS
 62
           7
100
AcDbCircle
 10
-14127.555287737128
 20
-13123.983211520504
 30
0.0
 40
2.0021899
100
AcDbArc
 50
176.345000000006
 51
265.345000000015
  0
ARC
  5
DE
100
AcDbEntity
  8
Frei
  6
CONTINUOUS
 62
           7
100
AcDbCircle
 10
-14124.762431600395
 20
-13127.373241193673
 30
0.0
 40
1.001094950001
100
AcDbArc
 50
221.917995999261
 51
265.345000000022
  0
ARC
  5
DF
100
AcDbEntity
  8
Frei
  6
CONTINUOUS
 62
           7
100
AcDbCircle
 10
-14124.762431600397
 20
-13127.373241193673
 30
0.0
 40
1.001094949999
100
AcDbArc
 50
176.344999999987
 51
221.917995999281
  0
ARC
  5
E0
100
AcDbEntity
  8
Frei
  6
CONTINUOUS
 62
           7
100
AcDbCircle
 10
-14129.656875660072
 20
-13156.883003377969
 30
0.0
 40
2.002189899999
100
AcDbArc
 50
87.344999999931
 51
176.344999999993
  0
ARC
  5
E1
100
AcDbEntity
  8
Frei
  6
CONTINUOUS
 62
           7
100
AcDbCircle
 10
-14128.465218839772
 20
-13153.931750367288
 30
0.0
 40
1.001094949999
100
AcDbArc
 50
267.344999999922
 51
356.345000000012
  0
ARC
  5
E2
100
AcDbEntity
  8
Frei
  6
CONTINUOUS
 62
           7
100
AcDbCircle
 10
-14126.455379495368
 20
-13153.87588367752
 30
0.0
 40
1.00109495
100
AcDbArc
 50
130.772004000806
 51
176.344999999987
  0
ARC
  5
E3
100
AcDbEntity
  8
Frei
  6
CONTINUOUS
 62
           7
100
AcDbCircle
 10
-14126.455379495368
 20
-13153.875883677521
 30
0.0
 40
1.001094950001
100
AcDbArc
 50
87.345000000004
 51
130.772004000779
  0
LINE
  5
E4
100
AcDbEntity
  8
Frei
  6
CONTINUOUS
 62
           7
100
AcDbLine
 10
-14204.665152947437
 20
-13155.314630055967
 30
0.0
 11
-14201.172271968293
 21
-13155.537749901645
 31
0.0
  0
LINE
  5
E5
100
AcDbEntity
  8
Frei
  6
CONTINUOUS
 62
           7
100
AcDbLine
 10
-14204.537655892764
 20
-13153.318698067886
 30
0.0
 11
-14204.665152947437
 21
-13155.314630055967
 31
0.0
  0
LINE
  5
E6
100
AcDbEntity
  8
Frei
  6
CONTINUOUS
 62
           7
100
AcDbLine
 10
-14199.568694964555
 20
-13146.120821485591
 30
0.0
 11
-14200.110557446915
 21
-13154.60353243494
 31
0.0
  0
LINE
  5
E7
100
AcDbEntity
  8
Frei
  6
CONTINUOUS
 62
           7
100
AcDbLine
 10
-14204.059541937741
 20
-13145.833953112577
 30
0.0
 11
-14199.568694964555
 21
-13146.120821485591
 31
0.0
  0
LINE
  5
E8
100
AcDbEntity
  8
Frei
  6
CONTINUOUS
 62
           7
100
AcDbLine
 10
-14204.091416201409
 20
-13146.332936109597
 30
0.0
 11
-14204.059541937741
 21
-13145.833953112577
 31
0.0
  0
LINE
  5
E9
100
AcDbEntity
  8
Frei
  6
CONTINUOUS
 62
           7
100
AcDbLine
 10
-14200.578796717266
 20
-13147.003310495289
 30
0.0
 11
-14204.091416201409
 21
-13146.332936109597
 31
0.0
  0
LINE
  5
EA
100
AcDbEntity
  8
Frei
  6
CONTINUOUS
 62
           7
100
AcDbLine
 10
-14200.304791271279
 20
-13149.580934320184
 30
0.0
 11
-14200.173545711596
 21
-13147.526320497625
 31
0.0
  0
LINE
  5
EB
100
AcDbEntity
  8
Frei
  6
CONTINUOUS
 62
           7
100
AcDbLine
 10
-14204.537655892764
 20
-13153.318698067886
 30
0.0
 11
-14204.091416201409
 21
-13146.332936109597
 31
0.0
  0
LINE
  5
EC
100
AcDbEntity
  8
Frei
  6
CONTINUOUS
 62
           7
100
AcDbLine
 10
-14200.96828918812
 20
-13153.10071002887
 30
0.0
 11
-14204.537655892764
 21
-13153.318698067886
 31
0.0
  0
LINE
  5
ED
100
AcDbEntity
  8
Frei
  6
CONTINUOUS
 62
           7
100
AcDbLine
 10
-14200.368539798616
 20
-13150.578900314225
 30
0.0
 11
-14200.499785358299
 21
-13152.633514136782
 31
0.0
  0
LINE
  5
EE
100
AcDbEntity
  8
Frei
  6
CONTINUOUS
 62
           2
100
AcDbLine
 10
-14201.919756172825
 20
-13149.97879193076
 30
0.0
 11
-14199.148549985124
 21
-13150.155812304667
 31
0.0
  0
LINE
  5
EF
100
AcDbEntity
  8
Frei
  6
CONTINUOUS
 62
           7
100
AcDbLine
 10
-14201.887881909157
 20
-13149.47980893374
 30
0.0
 11
-14200.304791271279
 21
-13149.580934320184
 31
0.0
  0
LINE
  5
F0
100
AcDbEntity
  8
Frei
  6
CONTINUOUS
 62
           7
100
AcDbLine
 10
-14201.919756172825
 20
-13149.97879193076
 30
0.0
 11
-14201.887881909157
 21
-13149.47980893374
 31
0.0
  0
LINE
  5
F1
100
AcDbEntity
  8
Frei
  6
CONTINUOUS
 62
           7
100
AcDbLine
 10
-14201.951630436493
 20
-13150.477774927782
 30
0.0
 11
-14201.919756172825
 21
-13149.97879193076
 31
0.0
  0
LINE
  5
F2
100
AcDbEntity
  8
Frei
  6
CONTINUOUS
 62
           7
100
AcDbLine
 10
-14200.368539798616
 20
-13150.578900314225
 30
0.0
 11
-14201.951630436493
 21
-13150.477774927782
 31
0.0
  0
LINE
  5
F3
100
AcDbEntity
  8
Frei
  6
CONTINUOUS
 62
           7
100
AcDbLine
 10
-14343.881409116171
 20
-13146.421710492548
 30
0.0
 11
-14341.777707714073
 21
-13113.488832689192
 31
0.0
  0
LINE
  5
F4
100
AcDbEntity
  8
Frei
  6
CONTINUOUS
 62
           7
100
AcDbLine
 10
-14357.852933032747
 20
-13145.52923110984
 30
0.0
 11
-14343.881409116171
 21
-13146.421710492548
 31
0.0
  0
LINE
  5
F5
100
AcDbEntity
  8
Frei
  6
CONTINUOUS
 62
           7
100
AcDbLine
 10
-14351.757367654483
 20
-13112.851347415828
 30
0.0
 11
-14342.276690711093
 21
-13113.456958425524
 31
0.0
  0
LINE
  5
F6
100
AcDbEntity
  8
Frei
  6
CONTINUOUS
 62
           7
100
AcDbLine
 10
-14351.884864709156
 20
-13114.847279403912
 30
0.0
 11
-14351.757367654483
 21
-13112.851347415828
 31
0.0
  0
LINE
  5
F7
100
AcDbEntity
  8
Frei
  6
CONTINUOUS
 62
           7
100
AcDbLine
 10
-14352.331104400511
 20
-13121.833041362199
 30
0.0
 11
-14352.36297866418
 21
-13122.332024359219
 31
0.0
  0
LINE
  5
F8
100
AcDbEntity
  8
Frei
  6
CONTINUOUS
 62
           7
100
AcDbLine
 10
-14357.352808634385
 20
-13122.013281722539
 30
0.0
 11
-14356.810946152025
 21
-13113.530570773188
 31
0.0
  0
LINE
  5
F9
100
AcDbEntity
  8
Frei
  6
CONTINUOUS
 62
           7
100
AcDbLine
 10
-14352.36297866418
 20
-13122.332024359219
 30
0.0
 11
-14357.352808634385
 21
-13122.013281722539
 31
0.0
  0
LINE
  5
FA
100
AcDbEntity
  8
Frei
  6
CONTINUOUS
 62
           7
100
AcDbLine
 10
-14355.749231630649
 20
-13112.596353306484
 30
0.0
 11
-14351.757367654483
 21
-13112.851347415828
 31
0.0
  0
LINE
  5
FB
100
AcDbEntity
  8
Frei
  6
CONTINUOUS
 62
           7
100
AcDbLine
 10
-14355.843723884655
 20
-13121.162666976506
 30
0.0
 11
-14352.331104400511
 21
-13121.833041362199
 31
0.0
  0
LINE
  5
FC
100
AcDbEntity
  8
Frei
  6
CONTINUOUS
 62
           7
100
AcDbLine
 10
-14356.117729330641
 20
-13118.585043151612
 30
0.0
 11
-14356.248974890324
 21
-13120.63965697417
 31
0.0
  0
LINE
  5
FD
100
AcDbEntity
  8
Frei
  6
CONTINUOUS
 62
           7
100
AcDbLine
 10
-14351.884864709156
 20
-13114.847279403912
 30
0.0
 11
-14352.331104400511
 21
-13121.833041362199
 31
0.0
  0
LINE
  5
FE
100
AcDbEntity
  8
Frei
  6
CONTINUOUS
 62
           7
100
AcDbLine
 10
-14355.4542314138
 20
-13115.065267442926
 30
0.0
 11
-14351.884864709156
 21
-13114.847279403912
 31
0.0
  0
LINE
  5
FF
100
AcDbEntity
  8
Frei
  6
CONTINUOUS
 62
           7
100
AcDbLine
 10
-14356.053980803305
 20
-13117.587077157572
 30
0.0
 11
-14355.922735243623
 21
-13115.532463335014
 31
0.0
  0
LINE
  5
100
100
AcDbEntity
  8
Frei
  6
CONTINUOUS
 62
           2
100
AcDbLine
 10
-14354.502764429095
 20
-13118.187185541035
 30
0.0
 11
-14357.273970616798
 21
-13118.010165167128
 31
0.0
  0
LINE
  5
101
100
AcDbEntity
  8
Frei
  6
CONTINUOUS
 62
           7
100
AcDbLine
 10
-14354.534638692763
 20
-13118.686168538055
 30
0.0
 11
-14356.117729330641
 21
-13118.585043151612
 31
0.0
  0
LINE
  5
102
100
AcDbEntity
  8
Frei
  6
CONTINUOUS
 62
           7
100
AcDbLine
 10
-14354.502764429095
 20
-13118.187185541035
 30
0.0
 11
-14354.534638692763
 21
-13118.686168538055
 31
0.0
  0
LINE
  5
103
100
AcDbEntity
  8
Frei
  6
CONTINUOUS
 62
           7
100
AcDbLine
 10
-14354.470890165427
 20
-13117.688202544014
 30
0.0
 11
-14354.502764429095
 21
-13118.187185541035
 31
0.0
  0
LINE
  5
104
100
AcDbEntity
  8
Frei
  6
CONTINUOUS
 62
           7
100
AcDbLine
 10
-14356.053980803305
 20
-13117.587077157572
 30
0.0
 11
-14354.470890165427
 21
-13117.688202544014
 31
0.0
  0
LINE
  5
105
100
AcDbEntity
  8
Frei
  6
CONTINUOUS
 62
           7
100
AcDbLine
 10
-14318.144663411313
 20
-13151.37245998363
 30
0.0
 11
-14318.176537674981
 21
-13151.87144298065
 31
0.0
  0
LINE
  5
106
100
AcDbEntity
  8
Frei
  6
CONTINUOUS
 62
           7
100
AcDbLine
 10
-14318.176537674981
 20
-13151.87144298065
 30
0.0
 11
-14241.333156133815
 21
-13156.780079585547
 31
0.0
  0
LINE
  5
107
100
AcDbEntity
  8
Frei
  6
CONTINUOUS
 62
           7
100
AcDbLine
 10
-14241.333156133815
 20
-13156.780079585547
 30
0.0
 11
-14238.336975349006
 21
-13109.875677865617
 31
0.0
  0
LINE
  5
108
100
AcDbEntity
  8
Frei
  6
CONTINUOUS
 62
           7
100
AcDbLine
 10
-14238.336975349006
 20
-13109.875677865617
 30
0.0
 11
-14315.180356890174
 21
-13104.967041260719
 31
0.0
  0
LINE
  5
109
100
AcDbEntity
  8
Frei
  6
CONTINUOUS
 62
           7
100
AcDbLine
 10
-14342.276690711093
 20
-13113.456958425524
 30
0.0
 11
-14341.777707714073
 21
-13113.488832689192
 31
0.0
  0
LINE
  5
10A
100
AcDbEntity
  8
Frei
  6
CONTINUOUS
 62
           7
100
AcDbLine
 10
-14316.178322884214
 20
-13104.903292733383
 30
0.0
 11
-14341.626455732263
 21
-13103.277705286306
 31
0.0
  0
LINE
  5
10B
100
AcDbEntity
  8
Frei
  6
CONTINUOUS
 62
           7
100
AcDbLine
 10
-14344.12365352005
 20
-13150.213981269904
 30
0.0
 11
-14343.881409116171
 21
-13146.421710492548
 31
0.0
  0
LINE
  5
10C
100
AcDbEntity
  8
Frei
  6
CONTINUOUS
 62
           7
100
AcDbLine
 10
-14342.276690711093
 20
-13113.456958425524
 30
0.0
 11
-14341.626455732263
 21
-13103.277705286306
 31
0.0
  0
LINE
  5
10D
100
AcDbEntity
  8
Frei
  6
CONTINUOUS
 62
           7
100
AcDbLine
 10
-14318.144663411313
 20
-13151.37245998363
 30
0.0
 11
-14319.142629405354
 21
-13151.308711456293
 31
0.0
  0
LINE
  5
10E
100
AcDbEntity
  8
Frei
  6
CONTINUOUS
 62
           7
100
AcDbLine
 10
-14315.212231153842
 20
-13105.466024257737
 30
0.0
 11
-14318.144663411313
 21
-13151.37245998363
 31
0.0
  0
LINE
  5
10F
100
AcDbEntity
  8
Frei
  6
CONTINUOUS
 62
           7
100
AcDbLine
 10
-14315.212231153842
 20
-13105.466024257737
 30
0.0
 11
-14316.210197147882
 21
-13105.402275730403
 31
0.0
  0
LINE
  5
110
100
AcDbEntity
  8
Frei
  6
CONTINUOUS
 62
           7
100
AcDbLine
 10
-14315.180356890174
 20
-13104.967041260719
 30
0.0
 11
-14315.212231153842
 21
-13105.466024257737
 31
0.0
  0
LINE
  5
111
100
AcDbEntity
  8
Frei
  6
CONTINUOUS
 62
           7
100
AcDbLine
 10
-14319.142629405354
 20
-13151.308711456293
 30
0.0
 11
-14316.178322884214
 21
-13104.903292733383
 31
0.0
  0
LINE
  5
112
100
AcDbEntity
  8
Frei
  6
CONTINUOUS
 62
           7
100
AcDbLine
 10
-14319.174503669023
 20
-13151.807694453313
 30
0.0
 11
-14319.142629405354
 21
-13151.308711456293
 31
0.0
  0
LINE
  5
113
100
AcDbEntity
  8
Frei
  6
CONTINUOUS
 62
           7
100
AcDbLine
 10
-14344.12365352005
 20
-13150.213981269904
 30
0.0
 11
-14319.174503669023
 21
-13151.807694453313
 31
0.0
  0
LINE
  5
114
100
AcDbEntity
  8
Frei
  6
CONTINUOUS
 62
           7
100
AcDbLine
 10
-14240.335190139773
 20
-13156.843828112884
 30
0.0
 11
-14215.386040288746
 21
-13158.437541296293
 31
0.0
  0
LINE
  5
115
100
AcDbEntity
  8
Frei
  6
CONTINUOUS
 62
           7
100
AcDbLine
 10
-14240.303315876105
 20
-13156.344845115864
 30
0.0
 11
-14240.335190139773
 21
-13156.843828112884
 31
0.0
  0
LINE
  5
116
100
AcDbEntity
  8
Frei
  6
CONTINUOUS
 62
           7
100
AcDbLine
 10
-14237.339009354966
 20
-13109.939426392953
 30
0.0
 11
-14240.303315876105
 21
-13156.344845115864
 31
0.0
  0
LINE
  5
117
100
AcDbEntity
  8
Frei
  6
CONTINUOUS
 62
           7
100
AcDbLine
 10
-14237.370883618634
 20
-13110.438409389972
 30
0.0
 11
-14238.368849612674
 21
-13110.374660862635
 31
0.0
  0
LINE
  5
118
100
AcDbEntity
  8
Frei
  6
CONTINUOUS
 62
           7
100
AcDbLine
 10
-14240.303315876105
 20
-13156.344845115864
 30
0.0
 11
-14241.301281870146
 21
-13156.281096588527
 31
0.0
  0
LINE
  5
119
100
AcDbEntity
  8
Frei
  6
CONTINUOUS
 62
           7
100
AcDbLine
 10
-14211.890876506917
 20
-13111.565013840029
 30
0.0
 11
-14212.541111485749
 21
-13121.744266979247
 31
0.0
  0
LINE
  5
11A
100
AcDbEntity
  8
Frei
  6
CONTINUOUS
 62
           7
100
AcDbLine
 10
-14211.890876506917
 20
-13111.565013840029
 30
0.0
 11
-14237.339009354966
 21
-13109.939426392953
 31
0.0
  0
LINE
  5
11B
100
AcDbEntity
  8
Frei
  6
CONTINUOUS
 62
           7
100
AcDbLine
 10
-14213.040094482769
 20
-13121.712392715579
 30
0.0
 11
-14212.541111485749
 21
-13121.744266979247
 31
0.0
  0
LINE
  5
11C
100
AcDbEntity
  8
Frei
  6
CONTINUOUS
 62
           7
100
AcDbLine
 10
-14213.040094482769
 20
-13121.712392715579
 30
0.0
 11
-14215.386040288746
 21
-13158.437541296293
 31
0.0
  0
LINE
  5
11D
100
AcDbEntity
  8
Frei
  6
CONTINUOUS
 62
           7
100
AcDbLine
 10
-14388.59749186467
 20
-13117.011305129319
 30
0.0
 11
-14390.593423852753
 21
-13116.883808074646
 31
0.0
  0
LINE
  5
11E
100
AcDbEntity
  8
Frei
  6
CONTINUOUS
 62
           7
100
AcDbLine
 10
-14388.81074789002
 20
-13136.036407543437
 30
0.0
 11
-14387.663274397966
 21
-13118.073019650697
 31
0.0
  0
LINE
  5
11F
100
AcDbEntity
  8
Frei
  6
CONTINUOUS
 62
           7
100
AcDbLine
 10
-14391.86839439948
 20
-13136.84312795547
 30
0.0
 11
-14389.872462411397
 21
-13136.970625010143
 31
0.0
  0
LINE
  5
120
100
AcDbEntity
  8
Frei
  6
CONTINUOUS
 62
           7
100
AcDbLine
 10
-14392.483869229502
 20
-13130.791583463886
 30
0.0
 11
-14392.802611866184
 21
-13135.781413434092
 31
0.0
  0
LINE
  5
121
100
AcDbEntity
  8
Frei
  6
CONTINUOUS
 62
           7
100
AcDbLine
 10
-14390.593423852753
 20
-13116.883808074646
 30
0.0
 11
-14391.65513837413
 21
-13117.818025541352
 31
0.0
  0
LINE
  5
122
100
AcDbEntity
  8
Frei
  6
CONTINUOUS
 62
           7
100
AcDbLine
 10
-14388.59749186467
 20
-13117.011305129319
 30
0.0
 11
-14387.663274397966
 21
-13118.073019650697
 31
0.0
  0
LINE
  5
123
100
AcDbEntity
  8
Frei
  6
CONTINUOUS
 62
           7
100
AcDbLine
 10
-14388.81074789002
 20
-13136.036407543437
 30
0.0
 11
-14389.872462411397
 21
-13136.970625010143
 31
0.0
  0
LINE
  5
124
100
AcDbEntity
  8
Frei
  6
CONTINUOUS
 62
           7
100
AcDbLine
 10
-14391.86839439948
 20
-13136.84312795547
 30
0.0
 11
-14392.802611866184
 21
-13135.781413434092
 31
0.0
  0
LINE
  5
125
100
AcDbEntity
  8
Frei
  6
CONTINUOUS
 62
           7
100
AcDbLine
 10
-14391.86839439948
 20
-13136.84312795547
 30
0.0
 11
-14390.593423852753
 21
-13116.883808074646
 31
0.0
  0
LINE
  5
126
100
AcDbEntity
  8
Frei
  6
CONTINUOUS
 62
           7
100
AcDbLine
 10
-14389.872462411397
 20
-13136.970625010143
 30
0.0
 11
-14388.59749186467
 21
-13117.011305129319
 31
0.0
  0
LINE
  5
127
100
AcDbEntity
  8
Frei
  6
CONTINUOUS
 62
           7
100
AcDbLine
 10
-14389.288861845042
 20
-13143.521152498746
 30
0.0
 11
-14388.81074789002
 21
-13136.036407543437
 31
0.0
  0
LINE
  5
128
100
AcDbEntity
  8
Frei
  6
CONTINUOUS
 62
           7
100
AcDbLine
 10
-14359.742237008155
 20
-13135.889182848108
 30
0.0
 11
-14360.347848017851
 21
-13145.369859791499
 31
0.0
  0
LINE
  5
129
100
AcDbEntity
  8
Frei
  6
CONTINUOUS
 62
           7
100
AcDbLine
 10
-14393.035595532188
 20
-13123.742072978263
 30
0.0
 11
-14391.973881010812
 21
-13122.807855511557
 31
0.0
  0
LINE
  5
12A
100
AcDbEntity
  8
Frei
  6
CONTINUOUS
 62
           7
100
AcDbLine
 10
-14391.65513837413
 20
-13117.818025541352
 30
0.0
 11
-14391.973881010812
 21
-13122.807855511557
 31
0.0
  0
LINE
  5
12B
100
AcDbEntity
  8
Frei
  6
CONTINUOUS
 62
           7
100
AcDbLine
 10
-14393.067469795857
 20
-13124.241055975283
 30
0.0
 11
-14393.035595532188
 21
-13123.742072978263
 31
0.0
  0
LINE
  5
12C
100
AcDbEntity
  8
Frei
  6
CONTINUOUS
 62
           7
100
AcDbLine
 10
-14392.483869229502
 20
-13130.791583463886
 30
0.0
 11
-14393.418086696207
 21
-13129.729868942508
 31
0.0
  0
LINE
  5
12D
100
AcDbEntity
  8
Frei
  6
CONTINUOUS
 62
           7
100
AcDbLine
 10
-14392.420120702167
 20
-13129.793617469844
 30
0.0
 11
-14392.483869229502
 21
-13130.791583463886
 31
0.0
  0
LINE
  5
12E
100
AcDbEntity
  8
Frei
  6
CONTINUOUS
 62
           2
100
AcDbLine
 10
-14392.037629538148
 20
-13123.805821505599
 30
0.0
 11
-14393.035595532188
 21
-13123.742072978263
 31
0.0
  0
LINE
  5
12F
100
AcDbEntity
  8
Frei
  6
CONTINUOUS
 62
           7
100
AcDbLine
 10
-14391.973881010812
 20
-13122.807855511557
 30
0.0
 11
-14392.037629538148
 21
-13123.805821505599
 31
0.0
  0
LINE
  5
130
100
AcDbEntity
  8
Frei
  6
CONTINUOUS
 62
           2
100
AcDbLine
 10
-14392.420120702167
 20
-13129.793617469844
 30
0.0
 11
-14393.418086696207
 21
-13129.729868942508
 31
0.0
  0
LINE
  5
131
100
AcDbEntity
  8
Frei
  6
CONTINUOUS
 62
           7
100
AcDbLine
 10
-14392.037629538148
 20
-13123.805821505599
 30
0.0
 11
-14392.420120702167
 21
-13129.793617469844
 31
0.0
  0
LINE
  5
132
100
AcDbEntity
  8
Frei
  6
CONTINUOUS
 62
           1
100
AcDbLine
 10
-14390.584180173588
 20
-13124.399684683389
 30
0.0
 11
-14393.067469795857
 21
-13124.241055975283
 31
0.0
  0
LINE
  5
133
100
AcDbEntity
  8
Frei
  6
CONTINUOUS
 62
           7
100
AcDbLine
 10
-14393.099344059525
 20
-13124.740038972303
 30
0.0
 11
-14393.067469795857
 21
-13124.241055975283
 31
0.0
  0
LINE
  5
134
100
AcDbEntity
  8
Frei
  6
CONTINUOUS
 62
           1
100
AcDbLine
 10
-14390.90292281027
 20
-13129.389514653594
 30
0.0
 11
-14393.386212432539
 21
-13129.230885945488
 31
0.0
  0
LINE
  5
135
100
AcDbEntity
  8
Frei
  6
CONTINUOUS
 62
           7
100
AcDbLine
 10
-14393.418086696207
 20
-13129.729868942508
 30
0.0
 11
-14393.386212432539
 21
-13129.230885945488
 31
0.0
  0
LINE
  5
136
100
AcDbEntity
  8
Frei
  6
CONTINUOUS
 62
           1
100
AcDbLine
 10
-14390.616054437256
 20
-13124.898667680411
 30
0.0
 11
-14393.099344059525
 21
-13124.740038972303
 31
0.0
  0
LINE
  5
137
100
AcDbEntity
  8
Frei
  6
CONTINUOUS
 62
           7
100
AcDbLine
 10
-14393.354338168871
 20
-13128.731902948468
 30
0.0
 11
-14393.099344059525
 21
-13124.740038972303
 31
0.0
  0
LINE
  5
138
100
AcDbEntity
  8
Frei
  6
CONTINUOUS
 62
           1
100
AcDbLine
 10
-14390.871048546602
 20
-13128.890531656574
 30
0.0
 11
-14393.354338168871
 21
-13128.731902948468
 31
0.0
  0
LINE
  5
139
100
AcDbEntity
  8
Frei
  6
CONTINUOUS
 62
           7
100
AcDbLine
 10
-14393.386212432539
 20
-13129.230885945488
 30
0.0
 11
-14393.354338168871
 21
-13128.731902948468
 31
0.0
  0
LINE
  5
13A
100
AcDbEntity
  8
Frei
  6
CONTINUOUS
 62
           7
100
AcDbLine
 10
-14385.574140954875
 20
-13115.646561611829
 30
0.0
 11
-14358.499140725096
 21
-13116.428845964307
 31
0.0
  0
LINE
  5
13B
100
AcDbEntity
  8
Frei
  6
CONTINUOUS
 62
           7
100
AcDbLine
 10
-14387.627835308034
 20
-13117.518230260439
 30
0.0
 11
-14387.663274397966
 21
-13118.073019650697
 31
0.0
  0
LINE
  5
13C
100
AcDbEntity
  8
Frei
  6
CONTINUOUS
 62
           7
100
AcDbLine
 10
-14360.347848017851
 20
-13145.369859791499
 30
0.0
 11
-14389.288861845042
 21
-13143.521152498746
 31
0.0
  0
LINE
  5
13D
100
AcDbEntity
  8
Frei
  6
CONTINUOUS
 62
           7
100
AcDbLine
 10
-14389.352610372378
 20
-13144.519118492786
 30
0.0
 11
-14389.288861845042
 21
-13143.521152498746
 31
0.0
  0
LINE
  5
13E
100
AcDbEntity
  8
Frei
  6
CONTINUOUS
 62
           7
100
AcDbLine
 10
-14388.853627375358
 20
-13144.550992756454
 30
0.0
 11
-14389.352610372378
 21
-13144.519118492786
 31
0.0
  0
LINE
  5
13F
100
AcDbEntity
  8
Frei
  6
CONTINUOUS
 62
           7
100
AcDbLine
 10
-14360.347848017851
 20
-13145.369859791499
 30
0.0
 11
-14360.411596545187
 21
-13146.367825785541
 31
0.0
  0
LINE
  5
140
100
AcDbEntity
  8
Frei
  6
CONTINUOUS
 62
           7
100
AcDbLine
 10
-14400.161001168162
 20
-13156.855191141958
 30
0.0
 11
-14389.68235823073
 21
-13157.524550678989
 31
0.0
  0
LINE
  5
141
100
AcDbEntity
  8
Frei
  6
CONTINUOUS
 62
           7
100
AcDbLine
 10
-14402.677926596605
 20
-13172.727024255611
 30
0.0
 11
-14402.709800860273
 21
-13173.226007252631
 31
0.0
  0
LINE
  5
142
100
AcDbEntity
  8
Frei
  6
CONTINUOUS
 62
           7
100
AcDbLine
 10
-14401.308474660216
 20
-13174.818579034698
 30
0.0
 11
-14390.829831722784
 21
-13175.487938571729
 31
0.0
  0
LINE
  5
143
100
AcDbEntity
  8
Frei
  6
CONTINUOUS
 62
           7
100
AcDbLine
 10
-14390.606711877108
 20
-13171.995057592585
 30
0.0
 11
-14388.853627375358
 21
-13144.550992756454
 31
0.0
  0
LINE
  5
144
100
AcDbEntity
  8
Frei
  6
CONTINUOUS
 62
           7
100
AcDbLine
 10
-14360.910579542207
 20
-13146.335951521873
 30
0.0
 11
-14388.853627375358
 21
-13144.550992756454
 31
0.0
  0
LINE
  5
145
100
AcDbEntity
  8
Frei
  6
CONTINUOUS
 62
           7
100
AcDbLine
 10
-14389.205385677051
 20
-13173.587629374651
 30
0.0
 11
-14383.253415080137
 21
-13173.9678320695
 31
0.0
  0
LINE
  5
146
100
AcDbEntity
  8
Frei
  6
CONTINUOUS
 62
           7
100
AcDbLine
 10
-14362.663664043956
 20
-13173.780016358003
 30
0.0
 11
-14360.910579542207
 21
-13146.335951521873
 31
0.0
  0
LINE
  5
147
100
AcDbEntity
  8
Frei
  6
CONTINUOUS
 62
           7
100
AcDbLine
 10
-14360.411596545187
 20
-13146.367825785541
 30
0.0
 11
-14360.910579542207
 21
-13146.335951521873
 31
0.0
  0
LINE
  5
148
100
AcDbEntity
  8
Frei
  6
CONTINUOUS
 62
           7
100
AcDbLine
 10
-14383.253415080137
 20
-13173.9678320695
 30
0.0
 11
-14390.829831722784
 21
-13175.487938571729
 31
0.0
  0
LINE
  5
149
100
AcDbEntity
  8
Frei
  6
CONTINUOUS
 62
           7
100
AcDbLine
 10
-14364.256235826022
 20
-13175.18134255806
 30
0.0
 11
-14383.253415080137
 21
-13173.9678320695
 31
0.0
  0
LINE
  5
14A
100
AcDbEntity
  8
Frei
  6
CONTINUOUS
 62
           7
100
AcDbLine
 10
-14406.775277184102
 20
-13158.436757702353
 30
0.0
 11
-14401.785447213897
 21
-13158.755500339035
 31
0.0
  0
LINE
  5
14B
100
AcDbEntity
  8
Frei
  6
CONTINUOUS
 62
           7
100
AcDbLine
 10
-14401.753572950229
 20
-13158.256517342015
 30
0.0
 11
-14401.785447213897
 21
-13158.755500339035
 31
0.0
  0
LINE
  5
14C
100
AcDbEntity
  8
Frei
  6
CONTINUOUS
 62
           7
100
AcDbLine
 10
-14407.667756566811
 20
-13172.408281618929
 30
0.0
 11
-14402.677926596605
 21
-13172.727024255611
 31
0.0
  0
LINE
  5
14D
100
AcDbEntity
  8
Frei
  6
CONTINUOUS
 62
           7
100
AcDbLine
 10
-14402.614178069269
 20
-13171.72905826157
 30
0.0
 11
-14402.677926596605
 21
-13172.727024255611
 31
0.0
  0
LINE
  5
14E
100
AcDbEntity
  8
Frei
  6
CONTINUOUS
 62
           2
100
AcDbLine
 10
-14401.849195741233
 20
-13159.753466333077
 30
0.0
 11
-14406.839025711439
 21
-13159.434723696395
 31
0.0
  0
LINE
  5
14F
100
AcDbEntity
  8
Frei
  6
CONTINUOUS
 62
           7
100
AcDbLine
 10
-14401.785447213897
 20
-13158.755500339035
 30
0.0
 11
-14401.849195741233
 21
-13159.753466333077
 31
0.0
  0
LINE
  5
150
100
AcDbEntity
  8
Frei
  6
CONTINUOUS
 62
           2
100
AcDbLine
 10
-14402.614178069269
 20
-13171.72905826157
 30
0.0
 11
-14407.604008039474
 21
-13171.410315624888
 31
0.0
  0
LINE
  5
151
100
AcDbEntity
  8
Frei
  6
CONTINUOUS
 62
           7
100
AcDbLine
 10
-14401.849195741233
 20
-13159.753466333077
 30
0.0
 11
-14402.614178069269
 21
-13171.72905826157
 31
0.0
  0
LINE
  5
152
100
AcDbEntity
  8
Frei
  6
CONTINUOUS
 62
           7
100
AcDbLine
 10
-14358.849757625447
 20
-13121.917658931534
 30
0.0
 11
-14358.095306655016
 21
-13121.965852095027
 31
0.0
  0
LINE
  5
153
100
AcDbEntity
  8
Frei
  6
CONTINUOUS
 62
           7
100
AcDbLine
 10
-14358.499140725096
 20
-13116.428845964307
 30
0.0
 11
-14358.849757625447
 21
-13121.917658931534
 31
0.0
  0
LINE
  5
154
100
AcDbEntity
  8
Frei
  6
CONTINUOUS
 62
           7
100
AcDbLine
 10
-14359.072877471124
 20
-13125.410539910677
 30
0.0
 11
-14358.318426500693
 21
-13125.458733074171
 31
0.0
  0
LINE
  5
155
100
AcDbEntity
  8
Frei
  6
CONTINUOUS
 62
           7
100
AcDbLine
 10
-14358.849757625447
 20
-13121.917658931534
 30
0.0
 11
-14359.072877471124
 21
-13125.410539910677
 31
0.0
  0
LINE
  5
156
100
AcDbEntity
  8
Frei
  6
CONTINUOUS
 62
           7
100
AcDbLine
 10
-14359.519117162477
 20
-13132.396301868965
 30
0.0
 11
-14358.764666192048
 21
-13132.444495032458
 31
0.0
  0
LINE
  5
157
100
AcDbEntity
  8
Frei
  6
CONTINUOUS
 62
           7
100
AcDbLine
 10
-14359.072877471124
 20
-13125.410539910677
 30
0.0
 11
-14359.519117162477
 21
-13132.396301868965
 31
0.0
  0
LINE
  5
158
100
AcDbEntity
  8
Frei
  6
CONTINUOUS
 62
           7
100
AcDbLine
 10
-14359.742237008155
 20
-13135.889182848108
 30
0.0
 11
-14358.987786037726
 21
-13135.937376011603
 31
0.0
  0
LINE
  5
159
100
AcDbEntity
  8
Frei
  6
CONTINUOUS
 62
           7
100
AcDbLine
 10
-14359.519117162477
 20
-13132.396301868965
 30
0.0
 11
-14359.742237008155
 21
-13135.889182848108
 31
0.0
  0
LINE
  5
15A
100
AcDbEntity
  8
Frei
  6
CONTINUOUS
 62
           7
100
AcDbLine
 10
-14357.79904832574
 20
-13128.999043680826
 30
0.0
 11
-14357.464368557223
 21
-13123.759722212109
 31
0.0
  0
LINE
  5
15B
100
AcDbEntity
  8
Frei
  6
CONTINUOUS
 62
           7
100
AcDbLine
 10
-14406.716105595104
 20
-13157.510442442979
 30
0.0
 11
-14406.632633204767
 21
-13156.203704695814
 31
0.0
  0
LINE
  5
15C
100
AcDbEntity
  8
Frei
  6
CONTINUOUS
 62
           7
100
AcDbLine
 10
-14412.045785126264
 20
-13174.370784795818
 30
0.0
 11
-14407.810400546145
 21
-13174.641334625469
 31
0.0
  0
LINE
  5
15D
100
AcDbEntity
  8
Frei
  6
CONTINUOUS
 62
           7
100
AcDbLine
 10
-14411.705935565309
 20
-13157.191699806299
 30
0.0
 11
-14406.716105595104
 21
-13157.510442442979
 31
0.0
  0
LINE
  5
15E
100
AcDbEntity
  8
Frei
  6
CONTINUOUS
 62
           7
100
AcDbLine
 10
-14406.843602649775
 20
-13159.506374431061
 30
0.0
 11
-14406.716105595104
 21
-13157.510442442979
 31
0.0
  0
LINE
  5
15F
100
AcDbEntity
  8
Frei
  6
CONTINUOUS
 62
           7
100
AcDbLine
 10
-14406.843602649775
 20
-13159.506374431061
 30
0.0
 11
-14411.833432619982
 21
-13159.187631794381
 31
0.0
  0
LINE
  5
160
100
AcDbEntity
  8
Frei
  6
CONTINUOUS
 62
           7
100
AcDbLine
 10
-14411.705935565309
 20
-13157.191699806299
 30
0.0
 11
-14411.833432619982
 21
-13159.187631794381
 31
0.0
  0
LINE
  5
161
100
AcDbEntity
  8
Frei
  6
CONTINUOUS
 62
           7
100
AcDbLine
 10
-14406.927075040112
 20
-13160.813112178228
 30
0.0
 11
-14406.843602649775
 21
-13159.506374431061
 31
0.0
  0
LINE
  5
162
100
AcDbEntity
  8
Frei
  6
CONTINUOUS
 62
           7
100
AcDbLine
 10
-14407.094019820783
 20
-13163.426587672559
 30
0.0
 11
-14406.927075040112
 21
-13160.813112178228
 31
0.0
  0
LINE
  5
163
100
AcDbEntity
  8
Frei
  6
CONTINUOUS
 62
           7
100
AcDbLine
 10
-14407.094019820783
 20
-13163.426587672559
 30
0.0
 11
-14412.083849790988
 21
-13163.107845035876
 31
0.0
  0
LINE
  5
164
100
AcDbEntity
  8
Frei
  6
CONTINUOUS
 62
           7
100
AcDbLine
 10
-14411.833432619982
 20
-13159.187631794381
 30
0.0
 11
-14412.083849790988
 21
-13163.107845035876
 31
0.0
  0
LINE
  5
165
100
AcDbEntity
  8
Frei
  6
CONTINUOUS
 62
           7
100
AcDbLine
 10
-14407.349013930128
 20
-13167.418451648724
 30
0.0
 11
-14407.094019820783
 21
-13163.426587672559
 31
0.0
  0
LINE
  5
166
100
AcDbEntity
  8
Frei
  6
CONTINUOUS
 62
           7
100
AcDbLine
 10
-14407.349013930128
 20
-13167.418451648724
 30
0.0
 11
-14412.338843900334
 21
-13167.099709012042
 31
0.0
  0
LINE
  5
167
100
AcDbEntity
  8
Frei
  6
CONTINUOUS
 62
           7
100
AcDbLine
 10
-14412.083849790988
 20
-13163.107845035876
 30
0.0
 11
-14412.338843900334
 21
-13167.099709012042
 31
0.0
  0
LINE
  5
168
100
AcDbEntity
  8
Frei
  6
CONTINUOUS
 62
           7
100
AcDbLine
 10
-14407.515958710801
 20
-13170.031927143056
 30
0.0
 11
-14407.349013930128
 21
-13167.418451648724
 31
0.0
  0
LINE
  5
169
100
AcDbEntity
  8
Frei
  6
CONTINUOUS
 62
           7
100
AcDbLine
 10
-14407.599431101136
 20
-13171.338664890221
 30
0.0
 11
-14407.515958710801
 21
-13170.031927143056
 31
0.0
  0
LINE
  5
16A
100
AcDbEntity
  8
Frei
  6
CONTINUOUS
 62
           7
100
AcDbLine
 10
-14407.599431101136
 20
-13171.338664890221
 30
0.0
 11
-14412.589261071342
 21
-13171.019922253539
 31
0.0
  0
LINE
  5
16B
100
AcDbEntity
  8
Frei
  6
CONTINUOUS
 62
           7
100
AcDbLine
 10
-14412.338843900334
 20
-13167.099709012042
 30
0.0
 11
-14412.589261071342
 21
-13171.019922253539
 31
0.0
  0
LINE
  5
16C
100
AcDbEntity
  8
Frei
  6
CONTINUOUS
 62
           7
100
AcDbLine
 10
-14407.726928155809
 20
-13173.334596878303
 30
0.0
 11
-14407.599431101136
 21
-13171.338664890221
 31
0.0
  0
LINE
  5
16D
100
AcDbEntity
  8
Frei
  6
CONTINUOUS
 62
           7
100
AcDbLine
 10
-14407.726928155809
 20
-13173.334596878303
 30
0.0
 11
-14412.716758126015
 21
-13173.015854241621
 31
0.0
  0
LINE
  5
16E
100
AcDbEntity
  8
Frei
  6
CONTINUOUS
 62
           7
100
AcDbLine
 10
-14412.589261071342
 20
-13171.019922253539
 30
0.0
 11
-14412.716758126015
 21
-13173.015854241621
 31
0.0
  0
LINE
  5
16F
100
AcDbEntity
  8
Frei
  6
CONTINUOUS
 62
           7
100
AcDbLine
 10
-14407.810400546145
 20
-13174.641334625469
 30
0.0
 11
-14407.726928155809
 21
-13173.334596878303
 31
0.0
  0
LINE
  5
170
100
AcDbEntity
  8
Frei
  6
CONTINUOUS
 62
           7
100
AcDbLine
 10
-14411.705935565309
 20
-13157.191699806299
 30
0.0
 11
-14410.868017784886
 21
-13155.933154866163
 31
0.0
  0
LINE
  5
171
100
AcDbEntity
  8
Frei
  6
CONTINUOUS
 62
           7
100
AcDbLine
 10
-14406.632633204767
 20
-13156.203704695814
 30
0.0
 11
-14410.868017784886
 21
-13155.933154866163
 31
0.0
  0
LINE
  5
172
100
AcDbEntity
  8
Frei
  6
CONTINUOUS
 62
           7
100
AcDbLine
 10
-14412.045785126264
 20
-13174.370784795818
 30
0.0
 11
-14412.716758126015
 21
-13173.015854241621
 31
0.0
  0
LINE
  5
173
100
AcDbEntity
  8
Frei
  6
CONTINUOUS
 62
           7
100
AcDbLine
 10
-14411.162459620231
 20
-13160.542562348575
 30
0.0
 11
-14411.833432619982
 21
-13159.187631794381
 31
0.0
  0
LINE
  5
174
100
AcDbEntity
  8
Frei
  6
CONTINUOUS
 62
           7
100
AcDbLine
 10
-14406.927075040112
 20
-13160.813112178228
 30
0.0
 11
-14411.162459620231
 21
-13160.542562348575
 31
0.0
  0
LINE
  5
175
100
AcDbEntity
  8
Frei
  6
CONTINUOUS
 62
           7
100
AcDbLine
 10
-14412.083849790988
 20
-13163.107845035876
 30
0.0
 11
-14411.162459620231
 21
-13160.542562348575
 31
0.0
  0
LINE
  5
176
100
AcDbEntity
  8
Frei
  6
CONTINUOUS
 62
           7
100
AcDbLine
 10
-14411.75134329092
 20
-13169.761377313404
 30
0.0
 11
-14412.338843900334
 21
-13167.099709012042
 31
0.0
  0
LINE
  5
177
100
AcDbEntity
  8
Frei
  6
CONTINUOUS
 62
           7
100
AcDbLine
 10
-14407.515958710801
 20
-13170.031927143056
 30
0.0
 11
-14411.75134329092
 21
-13169.761377313404
 31
0.0
  0
LINE
  5
178
100
AcDbEntity
  8
Frei
  6
CONTINUOUS
 62
           7
100
AcDbLine
 10
-14412.589261071342
 20
-13171.019922253539
 30
0.0
 11
-14411.75134329092
 21
-13169.761377313404
 31
0.0
  0
LINE
  5
179
100
AcDbEntity
  8
Frei
  6
CONTINUOUS
 62
           3
100
AcDbLine
 10
-14367.296502261079
 20
-13167.872664154691
 30
0.0
 11
-14385.259890153819
 21
-13166.725190662637
 31
0.0
  0
LINE
  5
17A
100
AcDbEntity
  8
Frei
  6
CONTINUOUS
 62
           3
100
AcDbLine
 10
-14367.933530973904
 20
-13168.433194634714
 30
0.0
 11
-14367.296502261079
 21
-13167.872664154691
 31
0.0
  0
LINE
  5
17B
100
AcDbEntity
  8
Frei
  6
CONTINUOUS
 62
           3
100
AcDbLine
 10
-14367.373000493883
 20
-13169.07022334754
 30
0.0
 11
-14367.933530973904
 21
-13168.433194634714
 31
0.0
  0
LINE
  5
17C
100
AcDbEntity
  8
Frei
  6
CONTINUOUS
 62
           3
100
AcDbLine
 10
-14385.336388386622
 20
-13167.922749855486
 30
0.0
 11
-14367.373000493883
 21
-13169.07022334754
 31
0.0
  0
LINE
  5
17D
100
AcDbEntity
  8
Frei
  6
CONTINUOUS
 62
           3
100
AcDbLine
 10
-14384.699359673796
 20
-13167.362219375464
 30
0.0
 11
-14385.336388386622
 21
-13167.922749855486
 31
0.0
  0
LINE
  5
17E
100
AcDbEntity
  8
Frei
  6
CONTINUOUS
 62
           3
100
AcDbLine
 10
-14385.259890153819
 20
-13166.725190662637
 30
0.0
 11
-14384.699359673796
 21
-13167.362219375464
 31
0.0
  0
LINE
  5
17F
100
AcDbEntity
  8
Frei
  6
CONTINUOUS
 62
           3
100
AcDbLine
 10
-14367.933530973904
 20
-13168.433194634714
 30
0.0
 11
-14384.699359673796
 21
-13167.362219375464
 31
0.0
  0
LINE
  5
180
100
AcDbEntity
  8
Frei
  6
CONTINUOUS
 62
           3
100
AcDbLine
 10
-14385.208891331949
 20
-13165.926817867405
 30
0.0
 11
-14384.571862619123
 21
-13165.36628738738
 31
0.0
  0
LINE
  5
181
100
AcDbEntity
  8
Frei
  6
CONTINUOUS
 62
           3
100
AcDbLine
 10
-14367.24550343921
 20
-13167.074291359459
 30
0.0
 11
-14385.208891331949
 21
-13165.926817867405
 31
0.0
  0
LINE
  5
182
100
AcDbEntity
  8
Frei
  6
CONTINUOUS
 62
           3
100
AcDbLine
 10
-14367.806033919231
 20
-13166.437262646632
 30
0.0
 11
-14367.24550343921
 21
-13167.074291359459
 31
0.0
  0
LINE
  5
183
100
AcDbEntity
  8
Frei
  6
CONTINUOUS
 62
           3
100
AcDbLine
 10
-14367.169005206406
 20
-13165.876732166609
 30
0.0
 11
-14367.806033919231
 21
-13166.437262646632
 31
0.0
  0
LINE
  5
184
100
AcDbEntity
  8
Frei
  6
CONTINUOUS
 62
           3
100
AcDbLine
 10
-14385.132393099146
 20
-13164.729258674555
 30
0.0
 11
-14367.169005206406
 21
-13165.876732166609
 31
0.0
  0
LINE
  5
185
100
AcDbEntity
  8
Frei
  6
CONTINUOUS
 62
           3
100
AcDbLine
 10
-14384.571862619123
 20
-13165.36628738738
 30
0.0
 11
-14385.132393099146
 21
-13164.729258674555
 31
0.0
  0
LINE
  5
186
100
AcDbEntity
  8
Frei
  6
CONTINUOUS
 62
           3
100
AcDbLine
 10
-14384.571862619123
 20
-13165.36628738738
 30
0.0
 11
-14367.806033919231
 21
-13166.437262646632
 31
0.0
  0
LINE
  5
187
100
AcDbEntity
  8
Frei
  6
CONTINUOUS
 62
           3
100
AcDbLine
 10
-14385.081394277277
 20
-13163.930885879321
 30
0.0
 11
-14384.44436556445
 21
-13163.370355399298
 31
0.0
  0
LINE
  5
188
100
AcDbEntity
  8
Frei
  6
CONTINUOUS
 62
           3
100
AcDbLine
 10
-14367.118006384537
 20
-13165.078359371375
 30
0.0
 11
-14385.081394277277
 21
-13163.930885879321
 31
0.0
  0
LINE
  5
189
100
AcDbEntity
  8
Frei
  6
CONTINUOUS
 62
           3
100
AcDbLine
 10
-14367.678536864558
 20
-13164.441330658548
 30
0.0
 11
-14367.118006384537
 21
-13165.078359371375
 31
0.0
  0
LINE
  5
18A
100
AcDbEntity
  8
Frei
  6
CONTINUOUS
 62
           3
100
AcDbLine
 10
-14367.041508151733
 20
-13163.880800178527
 30
0.0
 11
-14367.678536864558
 21
-13164.441330658548
 31
0.0
  0
LINE
  5
18B
100
AcDbEntity
  8
Frei
  6
CONTINUOUS
 62
           3
100
AcDbLine
 10
-14385.004896044473
 20
-13162.733326686473
 30
0.0
 11
-14367.041508151733
 21
-13163.880800178527
 31
0.0
  0
LINE
  5
18C
100
AcDbEntity
  8
Frei
  6
CONTINUOUS
 62
           3
100
AcDbLine
 10
-14384.44436556445
 20
-13163.370355399298
 30
0.0
 11
-14385.004896044473
 21
-13162.733326686473
 31
0.0
  0
LINE
  5
18D
100
AcDbEntity
  8
Frei
  6
CONTINUOUS
 62
           3
100
AcDbLine
 10
-14384.953897222604
 20
-13161.934953891239
 30
0.0
 11
-14384.316868509777
 21
-13161.374423411216
 31
0.0
  0
LINE
  5
18E
100
AcDbEntity
  8
Frei
  6
CONTINUOUS
 62
           3
100
AcDbLine
 10
-14378.873370968735
 20
-13162.32336852303
 30
0.0
 11
-14384.953897222604
 21
-13161.934953891239
 31
0.0
  0
LINE
  5
18F
100
AcDbEntity
  8
Frei
  6
CONTINUOUS
 62
           3
100
AcDbLine
 10
-14367.551039809885
 20
-13162.445398670467
 30
0.0
 11
-14366.990509329864
 21
-13163.082427383293
 31
0.0
  0
LINE
  5
190
100
AcDbEntity
  8
Frei
  6
CONTINUOUS
 62
           3
100
AcDbLine
 10
-14366.91401109706
 20
-13161.884868190444
 30
0.0
 11
-14367.551039809885
 21
-13162.445398670467
 31
0.0
  0
LINE
  5
191
100
AcDbEntity
  8
Frei
  6
CONTINUOUS
 62
           3
100
AcDbLine
 10
-14372.994537350927
 20
-13161.496453558655
 30
0.0
 11
-14366.91401109706
 21
-13161.884868190444
 31
0.0
  0
LINE
  5
192
100
AcDbEntity
  8
Frei
  6
CONTINUOUS
 62
           3
100
AcDbLine
 10
-14384.316868509777
 20
-13161.374423411216
 30
0.0
 11
-14384.8773989898
 21
-13160.73739469839
 31
0.0
  0
LINE
  5
193
100
AcDbEntity
  8
Frei
  6
CONTINUOUS
 62
           3
100
AcDbLine
 10
-14384.826400167931
 20
-13159.939021903157
 30
0.0
 11
-14384.189371455104
 21
-13159.378491423135
 31
0.0
  0
LINE
  5
194
100
AcDbEntity
  8
Frei
  6
CONTINUOUS
 62
           3
100
AcDbLine
 10
-14379.490572204357
 20
-13160.279866357607
 30
0.0
 11
-14384.826400167931
 21
-13159.939021903157
 31
0.0
  0
LINE
  5
195
100
AcDbEntity
  8
Frei
  6
CONTINUOUS
 62
           3
100
AcDbLine
 10
-14367.423542755212
 20
-13160.449466682385
 30
0.0
 11
-14366.863012275191
 21
-13161.086495395211
 31
0.0
  0
LINE
  5
196
100
AcDbEntity
  8
Frei
  6
CONTINUOUS
 62
           3
100
AcDbLine
 10
-14372.759370718788
 20
-13160.108622227935
 30
0.0
 11
-14367.423542755212
 21
-13160.449466682385
 31
0.0
  0
LINE
  5
197
100
AcDbEntity
  8
Frei
  6
CONTINUOUS
 62
           3
100
AcDbLine
 10
-14378.236342255908
 20
-13161.762838043007
 30
0.0
 11
-14384.316868509777
 21
-13161.374423411216
 31
0.0
  0
LINE
  5
198
100
AcDbEntity
  8
Frei
  6
CONTINUOUS
 62
           3
100
AcDbLine
 10
-14367.678536864558
 20
-13164.441330658548
 30
0.0
 11
-14384.44436556445
 21
-13163.370355399298
 31
0.0
  0
LINE
  5
199
100
AcDbEntity
  8
Frei
  6
CONTINUOUS
 62
           3
100
AcDbLine
 10
-14378.236342255908
 20
-13161.762838043007
 30
0.0
 11
-14378.796872735931
 21
-13161.12580933018
 31
0.0
  0
LINE
  5
19A
100
AcDbEntity
  8
Frei
  6
CONTINUOUS
 62
           3
100
AcDbLine
 10
-14384.8773989898
 20
-13160.73739469839
 30
0.0
 11
-14378.796872735931
 21
-13161.12580933018
 31
0.0
  0
LINE
  5
19B
100
AcDbEntity
  8
Frei
  6
CONTINUOUS
 62
           3
100
AcDbLine
 10
-14378.873370968735
 20
-13162.32336852303
 30
0.0
 11
-14378.236342255908
 21
-13161.762838043007
 31
0.0
  0
LINE
  5
19C
100
AcDbEntity
  8
Frei
  6
CONTINUOUS
 62
           3
100
AcDbLine
 10
-14378.853543491528
 20
-13159.719335877584
 30
0.0
 11
-14379.490572204357
 21
-13160.279866357607
 31
0.0
  0
LINE
  5
19D
100
AcDbEntity
  8
Frei
  6
CONTINUOUS
 62
           3
100
AcDbLine
 10
-14384.189371455104
 20
-13159.378491423135
 30
0.0
 11
-14378.853543491528
 21
-13159.719335877584
 31
0.0
  0
LINE
  5
19E
100
AcDbEntity
  8
Frei
  6
CONTINUOUS
 62
           3
100
AcDbLine
 10
-14372.198840238765
 20
-13160.745650940762
 30
0.0
 11
-14372.759370718788
 21
-13160.108622227935
 31
0.0
  0
LINE
  5
19F
100
AcDbEntity
  8
Frei
  6
CONTINUOUS
 62
           3
100
AcDbLine
 10
-14366.863012275191
 20
-13161.086495395211
 30
0.0
 11
-14372.198840238765
 21
-13160.745650940762
 31
0.0
  0
LINE
  5
1A0
100
AcDbEntity
  8
Frei
  6
CONTINUOUS
 62
           3
100
AcDbLine
 10
-14373.631566063756
 20
-13162.056984038678
 30
0.0
 11
-14372.994537350927
 21
-13161.496453558655
 31
0.0
  0
LINE
  5
1A1
100
AcDbEntity
  8
Frei
  6
CONTINUOUS
 62
           3
100
AcDbLine
 10
-14367.551039809885
 20
-13162.445398670467
 30
0.0
 11
-14373.631566063756
 21
-13162.056984038678
 31
0.0
  0
LINE
  5
1A2
100
AcDbEntity
  8
Frei
  6
CONTINUOUS
 62
           3
100
AcDbLine
 10
-14373.071035583731
 20
-13162.694012751504
 30
0.0
 11
-14373.631566063756
 21
-13162.056984038678
 31
0.0
  0
LINE
  5
1A3
100
AcDbEntity
  8
Frei
  6
CONTINUOUS
 62
           3
100
AcDbLine
 10
-14366.990509329864
 20
-13163.082427383293
 30
0.0
 11
-14373.071035583731
 21
-13162.694012751504
 31
0.0
  0
LINE
  5
1A4
100
AcDbEntity
  8
Frei
  6
CONTINUOUS
 62
           3
100
AcDbLine
 10
-14384.8773989898
 20
-13160.73739469839
 30
0.0
 11
-14384.953897222604
 21
-13161.934953891239
 31
0.0
  0
LINE
  5
1A5
100
AcDbEntity
  8
Frei
  6
CONTINUOUS
 62
           3
100
AcDbLine
 10
-14385.081394277277
 20
-13163.930885879321
 30
0.0
 11
-14385.004896044473
 21
-13162.733326686473
 31
0.0
  0
LINE
  5
1A6
100
AcDbEntity
  8
Frei
  6
CONTINUOUS
 62
           3
100
AcDbLine
 10
-14385.208891331949
 20
-13165.926817867405
 30
0.0
 11
-14385.132393099146
 21
-13164.729258674555
 31
0.0
  0
LINE
  5
1A7
100
AcDbEntity
  8
Frei
  6
CONTINUOUS
 62
           3
100
AcDbLine
 10
-14385.336388386622
 20
-13167.922749855486
 30
0.0
 11
-14385.259890153819
 21
-13166.725190662637
 31
0.0
  0
LINE
  5
1A8
100
AcDbEntity
  8
Frei
  6
CONTINUOUS
 62
           3
100
AcDbLine
 10
-14384.788151051529
 20
-13159.340242306733
 30
0.0
 11
-14384.826400167931
 21
-13159.939021903157
 31
0.0
  0
LINE
  5
1A9
100
AcDbEntity
  8
Frei
  6
CONTINUOUS
 62
           3
100
AcDbLine
 10
-14366.863012275191
 20
-13161.086495395211
 30
0.0
 11
-14366.824763158789
 21
-13160.487715798787
 31
0.0
  0
LINE
  5
1AA
100
AcDbEntity
  8
Frei
  6
CONTINUOUS
 62
           3
100
AcDbLine
 10
-14366.990509329864
 20
-13163.082427383293
 30
0.0
 11
-14366.91401109706
 21
-13161.884868190444
 31
0.0
  0
LINE
  5
1AB
100
AcDbEntity
  8
Frei
  6
CONTINUOUS
 62
           3
100
AcDbLine
 10
-14367.118006384537
 20
-13165.078359371375
 30
0.0
 11
-14367.041508151733
 21
-13163.880800178527
 31
0.0
  0
LINE
  5
1AC
100
AcDbEntity
  8
Frei
  6
CONTINUOUS
 62
           3
100
AcDbLine
 10
-14367.24550343921
 20
-13167.074291359459
 30
0.0
 11
-14367.169005206406
 21
-13165.876732166609
 31
0.0
  0
LINE
  5
1AD
100
AcDbEntity
  8
Frei
  6
CONTINUOUS
 62
           3
100
AcDbLine
 10
-14367.373000493883
 20
-13169.07022334754
 30
0.0
 11
-14367.296502261079
 21
-13167.872664154691
 31
0.0
  0
LINE
  5
1AE
100
AcDbEntity
  8
Frei
  6
CONTINUOUS
 62
           3
100
AcDbLine
 10
-14366.353024056501
 20
-13153.102767442882
 30
0.0
 11
-14366.276525823698
 21
-13151.905208250033
 31
0.0
  0
LINE
  5
1AF
100
AcDbEntity
  8
Frei
  6
CONTINUOUS
 62
           3
100
AcDbLine
 10
-14366.480521111172
 20
-13155.098699430964
 30
0.0
 11
-14366.404022878369
 21
-13153.901140238115
 31
0.0
  0
LINE
  5
1B0
100
AcDbEntity
  8
Frei
  6
CONTINUOUS
 62
           3
100
AcDbLine
 10
-14366.608018165845
 20
-13157.094631419048
 30
0.0
 11
-14366.531519933042
 21
-13155.897072226198
 31
0.0
  0
LINE
  5
1B1
100
AcDbEntity
  8
Frei
  6
CONTINUOUS
 62
           3
100
AcDbLine
 10
-14366.735515220518
 20
-13159.09056340713
 30
0.0
 11
-14366.659016987714
 21
-13157.89300421428
 31
0.0
  0
LINE
  5
1B2
100
AcDbEntity
  8
Frei
  6
CONTINUOUS
 62
           3
100
AcDbLine
 10
-14366.824763158789
 20
-13160.487715798787
 30
0.0
 11
-14366.786514042387
 21
-13159.888936202362
 31
0.0
  0
LINE
  5
1B3
100
AcDbEntity
  8
Frei
  6
CONTINUOUS
 62
           3
100
AcDbLine
 10
-14384.749901935127
 20
-13158.741462710308
 30
0.0
 11
-14384.788151051529
 21
-13159.340242306733
 31
0.0
  0
LINE
  5
1B4
100
AcDbEntity
  8
Frei
  6
CONTINUOUS
 62
           3
100
AcDbLine
 10
-14384.316411949241
 20
-13151.955293950828
 30
0.0
 11
-14384.239913716438
 21
-13150.757734757979
 31
0.0
  0
LINE
  5
1B5
100
AcDbEntity
  8
Frei
  6
CONTINUOUS
 62
           3
100
AcDbLine
 10
-14384.443909003912
 20
-13153.95122593891
 30
0.0
 11
-14384.36741077111
 21
-13152.753666746063
 31
0.0
  0
LINE
  5
1B6
100
AcDbEntity
  8
Frei
  6
CONTINUOUS
 62
           3
100
AcDbLine
 10
-14384.571406058585
 20
-13155.947157926992
 30
0.0
 11
-14384.494907825781
 21
-13154.749598734144
 31
0.0
  0
LINE
  5
1B7
100
AcDbEntity
  8
Frei
  6
CONTINUOUS
 62
           3
100
AcDbLine
 10
-14384.622404880454
 20
-13156.745530722226
 30
0.0
 11
-14384.698903113258
 21
-13157.943089915076
 31
0.0
  0
LINE
  5
1B8
100
AcDbEntity
  8
Frei
  6
CONTINUOUS
 62
           3
100
AcDbLine
 10
-14372.739543241583
 20
-13157.50458958249
 30
0.0
 11
-14366.659016987714
 21
-13157.89300421428
 31
0.0
  0
LINE
  5
1B9
100
AcDbEntity
  8
Frei
  6
CONTINUOUS
 62
           3
100
AcDbLine
 10
-14373.37657195441
 20
-13158.065120062513
 30
0.0
 11
-14372.739543241583
 21
-13157.50458958249
 31
0.0
  0
LINE
  5
1BA
100
AcDbEntity
  8
Frei
  6
CONTINUOUS
 62
           3
100
AcDbLine
 10
-14373.37657195441
 20
-13158.065120062513
 30
0.0
 11
-14367.296045700539
 21
-13158.453534694303
 31
0.0
  0
LINE
  5
1BB
100
AcDbEntity
  8
Frei
  6
CONTINUOUS
 62
           3
100
AcDbLine
 10
-14372.816041474387
 20
-13158.702148775339
 30
0.0
 11
-14373.37657195441
 21
-13158.065120062513
 31
0.0
  0
LINE
  5
1BC
100
AcDbEntity
  8
Frei
  6
CONTINUOUS
 62
           3
100
AcDbLine
 10
-14372.122342005961
 20
-13159.548091747913
 30
0.0
 11
-14366.786514042387
 21
-13159.888936202362
 31
0.0
  0
LINE
  5
1BD
100
AcDbEntity
  8
Frei
  6
CONTINUOUS
 62
           3
100
AcDbLine
 10
-14372.759370718788
 20
-13160.108622227935
 30
0.0
 11
-14372.122342005961
 21
-13159.548091747913
 31
0.0
  0
LINE
  5
1BE
100
AcDbEntity
  8
Frei
  6
CONTINUOUS
 62
           3
100
AcDbLine
 10
-14379.414073971553
 20
-13159.082307164757
 30
0.0
 11
-14378.853543491528
 21
-13159.719335877584
 31
0.0
  0
LINE
  5
1BF
100
AcDbEntity
  8
Frei
  6
CONTINUOUS
 62
           3
100
AcDbLine
 10
-14377.981348146564
 20
-13157.770974066842
 30
0.0
 11
-14378.541878626585
 21
-13157.133945354015
 31
0.0
  0
LINE
  5
1C0
100
AcDbEntity
  8
Frei
  6
CONTINUOUS
 62
           3
100
AcDbLine
 10
-14378.618376859389
 20
-13158.331504546864
 30
0.0
 11
-14384.698903113258
 21
-13157.943089915076
 31
0.0
  0
LINE
  5
1C1
100
AcDbEntity
  8
Frei
  6
CONTINUOUS
 62
           3
100
AcDbLine
 10
-14378.618376859389
 20
-13158.331504546864
 30
0.0
 11
-14377.981348146564
 21
-13157.770974066842
 31
0.0
  0
LINE
  5
1C2
100
AcDbEntity
  8
Frei
  6
CONTINUOUS
 62
           3
100
AcDbLine
 10
-14383.934377345759
 20
-13155.386627446969
 30
0.0
 11
-14367.168548645868
 21
-13156.457602706221
 31
0.0
  0
LINE
  5
1C3
100
AcDbEntity
  8
Frei
  6
CONTINUOUS
 62
           3
100
AcDbLine
 10
-14384.061874400431
 20
-13157.382559435053
 30
0.0
 11
-14377.981348146564
 21
-13157.770974066842
 31
0.0
  0
LINE
  5
1C4
100
AcDbEntity
  8
Frei
  6
CONTINUOUS
 62
           3
100
AcDbLine
 10
-14366.786514042387
 20
-13159.888936202362
 30
0.0
 11
-14367.423542755212
 21
-13160.449466682385
 31
0.0
  0
LINE
  5
1C5
100
AcDbEntity
  8
Frei
  6
CONTINUOUS
 62
           3
100
AcDbLine
 10
-14384.749901935127
 20
-13158.741462710308
 30
0.0
 11
-14379.414073971553
 21
-13159.082307164757
 31
0.0
  0
LINE
  5
1C6
100
AcDbEntity
  8
Frei
  6
CONTINUOUS
 62
           3
100
AcDbLine
 10
-14384.189371455104
 20
-13159.378491423135
 30
0.0
 11
-14384.749901935127
 21
-13158.741462710308
 31
0.0
  0
LINE
  5
1C7
100
AcDbEntity
  8
Frei
  6
CONTINUOUS
 62
           3
100
AcDbLine
 10
-14384.698903113258
 20
-13157.943089915076
 30
0.0
 11
-14384.061874400431
 21
-13157.382559435053
 31
0.0
  0
LINE
  5
1C8
100
AcDbEntity
  8
Frei
  6
CONTINUOUS
 62
           3
100
AcDbLine
 10
-14366.735515220518
 20
-13159.09056340713
 30
0.0
 11
-14372.816041474387
 21
-13158.702148775339
 31
0.0
  0
LINE
  5
1C9
100
AcDbEntity
  8
Frei
  6
CONTINUOUS
 62
           3
100
AcDbLine
 10
-14367.296045700539
 20
-13158.453534694303
 30
0.0
 11
-14366.735515220518
 21
-13159.09056340713
 31
0.0
  0
LINE
  5
1CA
100
AcDbEntity
  8
Frei
  6
CONTINUOUS
 62
           3
100
AcDbLine
 10
-14366.659016987714
 20
-13157.89300421428
 30
0.0
 11
-14367.296045700539
 21
-13158.453534694303
 31
0.0
  0
LINE
  5
1CB
100
AcDbEntity
  8
Frei
  6
CONTINUOUS
 62
           3
100
AcDbLine
 10
-14384.622404880454
 20
-13156.745530722226
 30
0.0
 11
-14378.541878626585
 21
-13157.133945354015
 31
0.0
  0
LINE
  5
1CC
100
AcDbEntity
  8
Frei
  6
CONTINUOUS
 62
           3
100
AcDbLine
 10
-14384.061874400431
 20
-13157.382559435053
 30
0.0
 11
-14384.622404880454
 21
-13156.745530722226
 31
0.0
  0
LINE
  5
1CD
100
AcDbEntity
  8
Frei
  6
CONTINUOUS
 62
           3
100
AcDbLine
 10
-14384.571406058585
 20
-13155.947157926992
 30
0.0
 11
-14383.934377345759
 21
-13155.386627446969
 31
0.0
  0
LINE
  5
1CE
100
AcDbEntity
  8
Frei
  6
CONTINUOUS
 62
           3
100
AcDbLine
 10
-14366.608018165845
 20
-13157.094631419048
 30
0.0
 11
-14384.571406058585
 21
-13155.947157926992
 31
0.0
  0
LINE
  5
1CF
100
AcDbEntity
  8
Frei
  6
CONTINUOUS
 62
           3
100
AcDbLine
 10
-14367.168548645868
 20
-13156.457602706221
 30
0.0
 11
-14366.608018165845
 21
-13157.094631419048
 31
0.0
  0
LINE
  5
1D0
100
AcDbEntity
  8
Frei
  6
CONTINUOUS
 62
           3
100
AcDbLine
 10
-14366.531519933042
 20
-13155.897072226198
 30
0.0
 11
-14367.168548645868
 21
-13156.457602706221
 31
0.0
  0
LINE
  5
1D1
100
AcDbEntity
  8
Frei
  6
CONTINUOUS
 62
           3
100
AcDbLine
 10
-14384.494907825781
 20
-13154.749598734144
 30
0.0
 11
-14366.531519933042
 21
-13155.897072226198
 31
0.0
  0
LINE
  5
1D2
100
AcDbEntity
  8
Frei
  6
CONTINUOUS
 62
           3
100
AcDbLine
 10
-14383.934377345759
 20
-13155.386627446969
 30
0.0
 11
-14384.494907825781
 21
-13154.749598734144
 31
0.0
  0
LINE
  5
1D3
100
AcDbEntity
  8
Frei
  6
CONTINUOUS
 62
           3
100
AcDbLine
 10
-14367.041051591195
 20
-13154.461670718138
 30
0.0
 11
-14383.806880291086
 21
-13153.390695458887
 31
0.0
  0
LINE
  5
1D4
100
AcDbEntity
  8
Frei
  6
CONTINUOUS
 62
           3
100
AcDbLine
 10
-14384.443909003912
 20
-13153.95122593891
 30
0.0
 11
-14383.806880291086
 21
-13153.390695458887
 31
0.0
  0
LINE
  5
1D5
100
AcDbEntity
  8
Frei
  6
CONTINUOUS
 62
           3
100
AcDbLine
 10
-14366.480521111172
 20
-13155.098699430964
 30
0.0
 11
-14384.443909003912
 21
-13153.95122593891
 31
0.0
  0
LINE
  5
1D6
100
AcDbEntity
  8
Frei
  6
CONTINUOUS
 62
           3
100
AcDbLine
 10
-14367.041051591195
 20
-13154.461670718138
 30
0.0
 11
-14366.480521111172
 21
-13155.098699430964
 31
0.0
  0
LINE
  5
1D7
100
AcDbEntity
  8
Frei
  6
CONTINUOUS
 62
           3
100
AcDbLine
 10
-14366.404022878369
 20
-13153.901140238115
 30
0.0
 11
-14367.041051591195
 21
-13154.461670718138
 31
0.0
  0
LINE
  5
1D8
100
AcDbEntity
  8
Frei
  6
CONTINUOUS
 62
           3
100
AcDbLine
 10
-14384.36741077111
 20
-13152.753666746063
 30
0.0
 11
-14366.404022878369
 21
-13153.901140238115
 31
0.0
  0
LINE
  5
1D9
100
AcDbEntity
  8
Frei
  6
CONTINUOUS
 62
           3
100
AcDbLine
 10
-14383.806880291086
 20
-13153.390695458887
 30
0.0
 11
-14384.36741077111
 21
-13152.753666746063
 31
0.0
  0
LINE
  5
1DA
100
AcDbEntity
  8
Frei
  6
CONTINUOUS
 62
           3
100
AcDbLine
 10
-14383.679383236413
 20
-13151.394763470806
 30
0.0
 11
-14366.913554536522
 21
-13152.465738730056
 31
0.0
  0
LINE
  5
1DB
100
AcDbEntity
  8
Frei
  6
CONTINUOUS
 62
           3
100
AcDbLine
 10
-14383.679383236413
 20
-13151.394763470806
 30
0.0
 11
-14384.316411949241
 21
-13151.955293950828
 31
0.0
  0
LINE
  5
1DC
100
AcDbEntity
  8
Frei
  6
CONTINUOUS
 62
           3
100
AcDbLine
 10
-14384.239913716438
 20
-13150.757734757979
 30
0.0
 11
-14383.679383236413
 21
-13151.394763470806
 31
0.0
  0
LINE
  5
1DD
100
AcDbEntity
  8
Frei
  6
CONTINUOUS
 62
           3
100
AcDbLine
 10
-14366.276525823698
 20
-13151.905208250033
 30
0.0
 11
-14384.239913716438
 21
-13150.757734757979
 31
0.0
  0
LINE
  5
1DE
100
AcDbEntity
  8
Frei
  6
CONTINUOUS
 62
           3
100
AcDbLine
 10
-14366.913554536522
 20
-13152.465738730056
 30
0.0
 11
-14366.276525823698
 21
-13151.905208250033
 31
0.0
  0
LINE
  5
1DF
100
AcDbEntity
  8
Frei
  6
CONTINUOUS
 62
           3
100
AcDbLine
 10
-14366.353024056501
 20
-13153.102767442882
 30
0.0
 11
-14366.913554536522
 21
-13152.465738730056
 31
0.0
  0
LINE
  5
1E0
100
AcDbEntity
  8
Frei
  6
CONTINUOUS
 62
           3
100
AcDbLine
 10
-14384.316411949241
 20
-13151.955293950828
 30
0.0
 11
-14366.353024056501
 21
-13153.102767442882
 31
0.0
  0
LINE
  5
1E1
100
AcDbEntity
  8
Frei
  6
CONTINUOUS
 62
           3
100
AcDbLine
 10
-14193.704907087387
 20
-13164.131262672068
 30
0.0
 11
-14175.741519194647
 21
-13165.278736164122
 31
0.0
  0
LINE
  5
1E2
100
AcDbEntity
  8
Frei
  6
CONTINUOUS
 62
           3
100
AcDbLine
 10
-14193.067878374562
 20
-13163.570732192045
 30
0.0
 11
-14193.704907087387
 21
-13164.131262672068
 31
0.0
  0
LINE
  5
1E3
100
AcDbEntity
  8
Frei
  6
CONTINUOUS
 62
           3
100
AcDbLine
 10
-14193.628408854584
 20
-13162.933703479219
 30
0.0
 11
-14193.067878374562
 21
-13163.570732192045
 31
0.0
  0
LINE
  5
1E4
100
AcDbEntity
  8
Frei
  6
CONTINUOUS
 62
           3
100
AcDbLine
 10
-14175.665020961844
 20
-13164.081176971273
 30
0.0
 11
-14193.628408854584
 21
-13162.933703479219
 31
0.0
  0
LINE
  5
1E5
100
AcDbEntity
  8
Frei
  6
CONTINUOUS
 62
           3
100
AcDbLine
 10
-14176.30204967467
 20
-13164.641707451296
 30
0.0
 11
-14175.665020961844
 21
-13164.081176971273
 31
0.0
  0
LINE
  5
1E6
100
AcDbEntity
  8
Frei
  6
CONTINUOUS
 62
           3
100
AcDbLine
 10
-14175.741519194647
 20
-13165.278736164122
 30
0.0
 11
-14176.30204967467
 21
-13164.641707451296
 31
0.0
  0
LINE
  5
1E7
100
AcDbEntity
  8
Frei
  6
CONTINUOUS
 62
           3
100
AcDbLine
 10
-14193.067878374562
 20
-13163.570732192045
 30
0.0
 11
-14176.30204967467
 21
-13164.641707451296
 31
0.0
  0
LINE
  5
1E8
100
AcDbEntity
  8
Frei
  6
CONTINUOUS
 62
           3
100
AcDbLine
 10
-14175.792518016517
 20
-13166.077108959356
 30
0.0
 11
-14176.429546729343
 21
-13166.637639439377
 31
0.0
  0
LINE
  5
1E9
100
AcDbEntity
  8
Frei
  6
CONTINUOUS
 62
           3
100
AcDbLine
 10
-14193.755905909256
 20
-13164.929635467302
 30
0.0
 11
-14175.792518016517
 21
-13166.077108959356
 31
0.0
  0
LINE
  5
1EA
100
AcDbEntity
  8
Frei
  6
CONTINUOUS
 62
           3
100
AcDbLine
 10
-14193.195375429235
 20
-13165.566664180127
 30
0.0
 11
-14193.755905909256
 21
-13164.929635467302
 31
0.0
  0
LINE
  5
1EB
100
AcDbEntity
  8
Frei
  6
CONTINUOUS
 62
           3
100
AcDbLine
 10
-14193.83240414206
 20
-13166.12719466015
 30
0.0
 11
-14193.195375429235
 21
-13165.566664180127
 31
0.0
  0
LINE
  5
1EC
100
AcDbEntity
  8
Frei
  6
CONTINUOUS
 62
           3
100
AcDbLine
 10
-14175.86901624932
 20
-13167.274668152204
 30
0.0
 11
-14193.83240414206
 21
-13166.12719466015
 31
0.0
  0
LINE
  5
1ED
100
AcDbEntity
  8
Frei
  6
CONTINUOUS
 62
           3
100
AcDbLine
 10
-14176.429546729343
 20
-13166.637639439377
 30
0.0
 11
-14175.86901624932
 21
-13167.274668152204
 31
0.0
  0
LINE
  5
1EE
100
AcDbEntity
  8
Frei
  6
CONTINUOUS
 62
           3
100
AcDbLine
 10
-14176.429546729343
 20
-13166.637639439377
 30
0.0
 11
-14193.195375429235
 21
-13165.566664180127
 31
0.0
  0
LINE
  5
1EF
100
AcDbEntity
  8
Frei
  6
CONTINUOUS
 62
           3
100
AcDbLine
 10
-14175.920015071189
 20
-13168.073040947438
 30
0.0
 11
-14176.557043784016
 21
-13168.633571427461
 31
0.0
  0
LINE
  5
1F0
100
AcDbEntity
  8
Frei
  6
CONTINUOUS
 62
           3
100
AcDbLine
 10
-14193.883402963929
 20
-13166.925567455384
 30
0.0
 11
-14175.920015071189
 21
-13168.073040947438
 31
0.0
  0
LINE
  5
1F1
100
AcDbEntity
  8
Frei
  6
CONTINUOUS
 62
           3
100
AcDbLine
 10
-14193.322872483908
 20
-13167.562596168209
 30
0.0
 11
-14193.883402963929
 21
-13166.925567455384
 31
0.0
  0
LINE
  5
1F2
100
AcDbEntity
  8
Frei
  6
CONTINUOUS
 62
           3
100
AcDbLine
 10
-14193.959901196733
 20
-13168.123126648232
 30
0.0
 11
-14193.322872483908
 21
-13167.562596168209
 31
0.0
  0
LINE
  5
1F3
100
AcDbEntity
  8
Frei
  6
CONTINUOUS
 62
           3
100
AcDbLine
 10
-14175.996513303993
 20
-13169.270600140288
 30
0.0
 11
-14193.959901196733
 21
-13168.123126648232
 31
0.0
  0
LINE
  5
1F4
100
AcDbEntity
  8
Frei
  6
CONTINUOUS
 62
           3
100
AcDbLine
 10
-14176.557043784016
 20
-13168.633571427461
 30
0.0
 11
-14175.996513303993
 21
-13169.270600140288
 31
0.0
  0
LINE
  5
1F5
100
AcDbEntity
  8
Frei
  6
CONTINUOUS
 62
           3
100
AcDbLine
 10
-14176.047512125862
 20
-13170.06897293552
 30
0.0
 11
-14176.684540838689
 21
-13170.629503415543
 31
0.0
  0
LINE
  5
1F6
100
AcDbEntity
  8
Frei
  6
CONTINUOUS
 62
           3
100
AcDbLine
 10
-14182.128038379731
 20
-13169.680558303729
 30
0.0
 11
-14176.047512125862
 21
-13170.06897293552
 31
0.0
  0
LINE
  5
1F7
100
AcDbEntity
  8
Frei
  6
CONTINUOUS
 62
           3
100
AcDbLine
 10
-14193.450369538581
 20
-13169.558528156293
 30
0.0
 11
-14194.010900018602
 21
-13168.921499443466
 31
0.0
  0
LINE
  5
1F8
100
AcDbEntity
  8
Frei
  6
CONTINUOUS
 62
           3
100
AcDbLine
 10
-14194.087398251406
 20
-13170.119058636315
 30
0.0
 11
-14193.450369538581
 21
-13169.558528156293
 31
0.0
  0
LINE
  5
1F9
100
AcDbEntity
  8
Frei
  6
CONTINUOUS
 62
           3
100
AcDbLine
 10
-14188.006871997539
 20
-13170.507473268104
 30
0.0
 11
-14194.087398251406
 21
-13170.119058636315
 31
0.0
  0
LINE
  5
1FA
100
AcDbEntity
  8
Frei
  6
CONTINUOUS
 62
           3
100
AcDbLine
 10
-14176.684540838689
 20
-13170.629503415543
 30
0.0
 11
-14176.124010358666
 21
-13171.266532128369
 31
0.0
  0
LINE
  5
1FB
100
AcDbEntity
  8
Frei
  6
CONTINUOUS
 62
           3
100
AcDbLine
 10
-14176.175009180535
 20
-13172.064904923602
 30
0.0
 11
-14176.812037893362
 21
-13172.625435403625
 31
0.0
  0
LINE
  5
1FC
100
AcDbEntity
  8
Frei
  6
CONTINUOUS
 62
           3
100
AcDbLine
 10
-14181.510837144109
 20
-13171.724060469152
 30
0.0
 11
-14176.175009180535
 21
-13172.064904923602
 31
0.0
  0
LINE
  5
1FD
100
AcDbEntity
  8
Frei
  6
CONTINUOUS
 62
           3
100
AcDbLine
 10
-14193.577866593254
 20
-13171.554460144374
 30
0.0
 11
-14194.138397073275
 21
-13170.917431431548
 31
0.0
  0
LINE
  5
1FE
100
AcDbEntity
  8
Frei
  6
CONTINUOUS
 62
           3
100
AcDbLine
 10
-14182.765067092558
 20
-13170.241088783752
 30
0.0
 11
-14176.684540838689
 21
-13170.629503415543
 31
0.0
  0
LINE
  5
1FF
100
AcDbEntity
  8
Frei
  6
CONTINUOUS
 62
           3
100
AcDbLine
 10
-14193.322872483908
 20
-13167.562596168209
 30
0.0
 11
-14176.557043784016
 21
-13168.633571427461
 31
0.0
  0
LINE
  5
200
100
AcDbEntity
  8
Frei
  6
CONTINUOUS
 62
           3
100
AcDbLine
 10
-14182.765067092558
 20
-13170.241088783752
 30
0.0
 11
-14182.204536612535
 21
-13170.878117496579
 31
0.0
  0
LINE
  5
201
100
AcDbEntity
  8
Frei
  6
CONTINUOUS
 62
           3
100
AcDbLine
 10
-14176.124010358666
 20
-13171.266532128369
 30
0.0
 11
-14182.204536612535
 21
-13170.878117496579
 31
0.0
  0
LINE
  5
202
100
AcDbEntity
  8
Frei
  6
CONTINUOUS
 62
           3
100
AcDbLine
 10
-14182.128038379731
 20
-13169.680558303729
 30
0.0
 11
-14182.765067092558
 21
-13170.241088783752
 31
0.0
  0
LINE
  5
203
100
AcDbEntity
  8
Frei
  6
CONTINUOUS
 62
           3
100
AcDbLine
 10
-14182.147865856938
 20
-13172.284590949175
 30
0.0
 11
-14181.510837144109
 21
-13171.724060469152
 31
0.0
  0
LINE
  5
204
100
AcDbEntity
  8
Frei
  6
CONTINUOUS
 62
           3
100
AcDbLine
 10
-14188.802569109701
 20
-13171.258275885997
 30
0.0
 11
-14188.242038629678
 21
-13171.895304598824
 31
0.0
  0
LINE
  5
205
100
AcDbEntity
  8
Frei
  6
CONTINUOUS
 62
           3
100
AcDbLine
 10
-14194.138397073275
 20
-13170.917431431548
 30
0.0
 11
-14188.802569109701
 21
-13171.258275885997
 31
0.0
  0
LINE
  5
206
100
AcDbEntity
  8
Frei
  6
CONTINUOUS
 62
           3
100
AcDbLine
 10
-14187.36984328471
 20
-13169.946942788081
 30
0.0
 11
-14188.006871997539
 21
-13170.507473268104
 31
0.0
  0
LINE
  5
207
100
AcDbEntity
  8
Frei
  6
CONTINUOUS
 62
           3
100
AcDbLine
 10
-14193.450369538581
 20
-13169.558528156293
 30
0.0
 11
-14187.36984328471
 21
-13169.946942788081
 31
0.0
  0
LINE
  5
208
100
AcDbEntity
  8
Frei
  6
CONTINUOUS
 62
           3
100
AcDbLine
 10
-14187.930373764735
 20
-13169.309914075255
 30
0.0
 11
-14187.36984328471
 21
-13169.946942788081
 31
0.0
  0
LINE
  5
209
100
AcDbEntity
  8
Frei
  6
CONTINUOUS
 62
           3
100
AcDbLine
 10
-14194.010900018602
 20
-13168.921499443466
 30
0.0
 11
-14187.930373764735
 21
-13169.309914075255
 31
0.0
  0
LINE
  5
20A
100
AcDbEntity
  8
Frei
  6
CONTINUOUS
 62
           3
100
AcDbLine
 10
-14176.124010358666
 20
-13171.266532128369
 30
0.0
 11
-14176.047512125862
 21
-13170.06897293552
 31
0.0
  0
LINE
  5
20B
100
AcDbEntity
  8
Frei
  6
CONTINUOUS
 62
           3
100
AcDbLine
 10
-14175.920015071189
 20
-13168.073040947438
 30
0.0
 11
-14175.996513303993
 21
-13169.270600140288
 31
0.0
  0
LINE
  5
20C
100
AcDbEntity
  8
Frei
  6
CONTINUOUS
 62
           3
100
AcDbLine
 10
-14175.792518016517
 20
-13166.077108959356
 30
0.0
 11
-14175.86901624932
 21
-13167.274668152204
 31
0.0
  0
LINE
  5
20D
100
AcDbEntity
  8
Frei
  6
CONTINUOUS
 62
           3
100
AcDbLine
 10
-14175.665020961844
 20
-13164.081176971273
 30
0.0
 11
-14175.741519194647
 21
-13165.278736164122
 31
0.0
  0
LINE
  5
20E
100
AcDbEntity
  8
Frei
  6
CONTINUOUS
 62
           3
100
AcDbLine
 10
-14176.213258296937
 20
-13172.663684520026
 30
0.0
 11
-14176.175009180535
 21
-13172.064904923602
 31
0.0
  0
LINE
  5
20F
100
AcDbEntity
  8
Frei
  6
CONTINUOUS
 62
           3
100
AcDbLine
 10
-14194.138397073275
 20
-13170.917431431548
 30
0.0
 11
-14194.176646189677
 21
-13171.516211027973
 31
0.0
  0
LINE
  5
210
100
AcDbEntity
  8
Frei
  6
CONTINUOUS
 62
           3
100
AcDbLine
 10
-14194.010900018602
 20
-13168.921499443466
 30
0.0
 11
-14194.087398251406
 21
-13170.119058636315
 31
0.0
  0
LINE
  5
211
100
AcDbEntity
  8
Frei
  6
CONTINUOUS
 62
           3
100
AcDbLine
 10
-14193.883402963929
 20
-13166.925567455384
 30
0.0
 11
-14193.959901196733
 21
-13168.123126648232
 31
0.0
  0
LINE
  5
212
100
AcDbEntity
  8
Frei
  6
CONTINUOUS
 62
           3
100
AcDbLine
 10
-14193.755905909256
 20
-13164.929635467302
 30
0.0
 11
-14193.83240414206
 21
-13166.12719466015
 31
0.0
  0
LINE
  5
213
100
AcDbEntity
  8
Frei
  6
CONTINUOUS
 62
           3
100
AcDbLine
 10
-14193.628408854584
 20
-13162.933703479219
 30
0.0
 11
-14193.704907087387
 21
-13164.131262672068
 31
0.0
  0
LINE
  5
214
100
AcDbEntity
  8
Frei
  6
CONTINUOUS
 62
           3
100
AcDbLine
 10
-14194.648385291966
 20
-13178.901159383877
 30
0.0
 11
-14194.724883524768
 21
-13180.098718576726
 31
0.0
  0
LINE
  5
215
100
AcDbEntity
  8
Frei
  6
CONTINUOUS
 62
           3
100
AcDbLine
 10
-14194.520888237294
 20
-13176.905227395795
 30
0.0
 11
-14194.597386470097
 21
-13178.102786588644
 31
0.0
  0
LINE
  5
216
100
AcDbEntity
  8
Frei
  6
CONTINUOUS
 62
           3
100
AcDbLine
 10
-14194.393391182621
 20
-13174.909295407713
 30
0.0
 11
-14194.469889415424
 21
-13176.106854600561
 31
0.0
  0
LINE
  5
217
100
AcDbEntity
  8
Frei
  6
CONTINUOUS
 62
           3
100
AcDbLine
 10
-14194.265894127948
 20
-13172.91336341963
 30
0.0
 11
-14194.342392360752
 21
-13174.110922612479
 31
0.0
  0
LINE
  5
218
100
AcDbEntity
  8
Frei
  6
CONTINUOUS
 62
           3
100
AcDbLine
 10
-14194.176646189677
 20
-13171.516211027973
 30
0.0
 11
-14194.214895306079
 21
-13172.114990624397
 31
0.0
  0
LINE
  5
219
100
AcDbEntity
  8
Frei
  6
CONTINUOUS
 62
           3
100
AcDbLine
 10
-14176.251507413339
 20
-13173.262464116451
 30
0.0
 11
-14176.213258296937
 21
-13172.663684520026
 31
0.0
  0
LINE
  5
21A
100
AcDbEntity
  8
Frei
  6
CONTINUOUS
 62
           3
100
AcDbLine
 10
-14176.684997399225
 20
-13180.048632875931
 30
0.0
 11
-14176.761495632029
 21
-13181.24619206878
 31
0.0
  0
LINE
  5
21B
100
AcDbEntity
  8
Frei
  6
CONTINUOUS
 62
           3
100
AcDbLine
 10
-14176.557500344554
 20
-13178.052700887849
 30
0.0
 11
-14176.633998577357
 21
-13179.250260080698
 31
0.0
  0
LINE
  5
21C
100
AcDbEntity
  8
Frei
  6
CONTINUOUS
 62
           3
100
AcDbLine
 10
-14176.430003289881
 20
-13176.056768899767
 30
0.0
 11
-14176.506501522685
 21
-13177.254328092615
 31
0.0
  0
LINE
  5
21D
100
AcDbEntity
  8
Frei
  6
CONTINUOUS
 62
           3
100
AcDbLine
 10
-14176.379004468012
 20
-13175.258396104533
 30
0.0
 11
-14176.302506235208
 21
-13174.060836911685
 31
0.0
  0
LINE
  5
21E
100
AcDbEntity
  8
Frei
  6
CONTINUOUS
 62
           3
100
AcDbLine
 10
-14188.261866106883
 20
-13174.49933724427
 30
0.0
 11
-14194.342392360752
 21
-13174.110922612479
 31
0.0
  0
LINE
  5
21F
100
AcDbEntity
  8
Frei
  6
CONTINUOUS
 62
           3
100
AcDbLine
 10
-14187.624837394056
 20
-13173.938806764247
 30
0.0
 11
-14188.261866106883
 21
-13174.49933724427
 31
0.0
  0
LINE
  5
220
100
AcDbEntity
  8
Frei
  6
CONTINUOUS
 62
           3
100
AcDbLine
 10
-14187.624837394056
 20
-13173.938806764247
 30
0.0
 11
-14193.705363647927
 21
-13173.550392132456
 31
0.0
  0
LINE
  5
221
100
AcDbEntity
  8
Frei
  6
CONTINUOUS
 62
           3
100
AcDbLine
 10
-14188.185367874079
 20
-13173.30177805142
 30
0.0
 11
-14187.624837394056
 21
-13173.938806764247
 31
0.0
  0
LINE
  5
222
100
AcDbEntity
  8
Frei
  6
CONTINUOUS
 62
           3
100
AcDbLine
 10
-14188.879067342505
 20
-13172.455835078847
 30
0.0
 11
-14194.214895306079
 21
-13172.114990624397
 31
0.0
  0
LINE
  5
223
100
AcDbEntity
  8
Frei
  6
CONTINUOUS
 62
           3
100
AcDbLine
 10
-14188.242038629678
 20
-13171.895304598824
 30
0.0
 11
-14188.879067342505
 21
-13172.455835078847
 31
0.0
  0
LINE
  5
224
100
AcDbEntity
  8
Frei
  6
CONTINUOUS
 62
           3
100
AcDbLine
 10
-14182.147865856938
 20
-13172.284590949175
 30
0.0
 11
-14176.812037893362
 21
-13172.625435403625
 31
0.0
  0
LINE
  5
225
100
AcDbEntity
  8
Frei
  6
CONTINUOUS
 62
           3
100
AcDbLine
 10
-14181.587335376913
 20
-13172.921619662002
 30
0.0
 11
-14182.147865856938
 21
-13172.284590949175
 31
0.0
  0
LINE
  5
226
100
AcDbEntity
  8
Frei
  6
CONTINUOUS
 62
           3
100
AcDbLine
 10
-14183.020061201902
 20
-13174.232952759918
 30
0.0
 11
-14182.459530721881
 21
-13174.869981472744
 31
0.0
  0
LINE
  5
227
100
AcDbEntity
  8
Frei
  6
CONTINUOUS
 62
           3
100
AcDbLine
 10
-14182.383032489077
 20
-13173.672422279895
 30
0.0
 11
-14176.302506235208
 21
-13174.060836911685
 31
0.0
  0
LINE
  5
228
100
AcDbEntity
  8
Frei
  6
CONTINUOUS
 62
           3
100
AcDbLine
 10
-14182.383032489077
 20
-13173.672422279895
 30
0.0
 11
-14183.020061201902
 21
-13174.232952759918
 31
0.0
  0
LINE
  5
229
100
AcDbEntity
  8
Frei
  6
CONTINUOUS
 62
           3
100
AcDbLine
 10
-14177.067032002707
 20
-13176.617299379788
 30
0.0
 11
-14193.8328607026
 21
-13175.546324120538
 31
0.0
  0
LINE
  5
22A
100
AcDbEntity
  8
Frei
  6
CONTINUOUS
 62
           3
100
AcDbLine
 10
-14176.939534948035
 20
-13174.621367391706
 30
0.0
 11
-14183.020061201902
 21
-13174.232952759918
 31
0.0
  0
LINE
  5
22B
100
AcDbEntity
  8
Frei
  6
CONTINUOUS
 62
           3
100
AcDbLine
 10
-14193.577866593254
 20
-13171.554460144374
 30
0.0
 11
-14188.242038629678
 21
-13171.895304598824
 31
0.0
  0
LINE
  5
22C
100
AcDbEntity
  8
Frei
  6
CONTINUOUS
 62
           3
100
AcDbLine
 10
-14194.214895306079
 20
-13172.114990624397
 30
0.0
 11
-14193.577866593254
 21
-13171.554460144374
 31
0.0
  0
LINE
  5
22D
100
AcDbEntity
  8
Frei
  6
CONTINUOUS
 62
           3
100
AcDbLine
 10
-14176.251507413339
 20
-13173.262464116451
 30
0.0
 11
-14181.587335376913
 21
-13172.921619662002
 31
0.0
  0
LINE
  5
22E
100
AcDbEntity
  8
Frei
  6
CONTINUOUS
 62
           3
100
AcDbLine
 10
-14176.812037893362
 20
-13172.625435403625
 30
0.0
 11
-14176.251507413339
 21
-13173.262464116451
 31
0.0
  0
LINE
  5
22F
100
AcDbEntity
  8
Frei
  6
CONTINUOUS
 62
           3
100
AcDbLine
 10
-14176.302506235208
 20
-13174.060836911685
 30
0.0
 11
-14176.939534948035
 21
-13174.621367391706
 31
0.0
  0
LINE
  5
230
100
AcDbEntity
  8
Frei
  6
CONTINUOUS
 62
           3
100
AcDbLine
 10
-14194.265894127948
 20
-13172.91336341963
 30
0.0
 11
-14188.185367874079
 21
-13173.30177805142
 31
0.0
  0
LINE
  5
231
100
AcDbEntity
  8
Frei
  6
CONTINUOUS
 62
           3
100
AcDbLine
 10
-14193.705363647927
 20
-13173.550392132456
 30
0.0
 11
-14194.265894127948
 21
-13172.91336341963
 31
0.0
  0
LINE
  5
232
100
AcDbEntity
  8
Frei
  6
CONTINUOUS
 62
           3
100
AcDbLine
 10
-14194.342392360752
 20
-13174.110922612479
 30
0.0
 11
-14193.705363647927
 21
-13173.550392132456
 31
0.0
  0
LINE
  5
233
100
AcDbEntity
  8
Frei
  6
CONTINUOUS
 62
           3
100
AcDbLine
 10
-14176.379004468012
 20
-13175.258396104533
 30
0.0
 11
-14182.459530721881
 21
-13174.869981472744
 31
0.0
  0
LINE
  5
234
100
AcDbEntity
  8
Frei
  6
CONTINUOUS
 62
           3
100
AcDbLine
 10
-14176.939534948035
 20
-13174.621367391706
 30
0.0
 11
-14176.379004468012
 21
-13175.258396104533
 31
0.0
  0
LINE
  5
235
100
AcDbEntity
  8
Frei
  6
CONTINUOUS
 62
           3
100
AcDbLine
 10
-14176.430003289881
 20
-13176.056768899767
 30
0.0
 11
-14177.067032002707
 21
-13176.617299379788
 31
0.0
  0
LINE
  5
236
100
AcDbEntity
  8
Frei
  6
CONTINUOUS
 62
           3
100
AcDbLine
 10
-14194.393391182621
 20
-13174.909295407713
 30
0.0
 11
-14176.430003289881
 21
-13176.056768899767
 31
0.0
  0
LINE
  5
237
100
AcDbEntity
  8
Frei
  6
CONTINUOUS
 62
           3
100
AcDbLine
 10
-14193.8328607026
 20
-13175.546324120538
 30
0.0
 11
-14194.393391182621
 21
-13174.909295407713
 31
0.0
  0
LINE
  5
238
100
AcDbEntity
  8
Frei
  6
CONTINUOUS
 62
           3
100
AcDbLine
 10
-14194.469889415424
 20
-13176.106854600561
 30
0.0
 11
-14193.8328607026
 21
-13175.546324120538
 31
0.0
  0
LINE
  5
239
100
AcDbEntity
  8
Frei
  6
CONTINUOUS
 62
           3
100
AcDbLine
 10
-14176.506501522685
 20
-13177.254328092615
 30
0.0
 11
-14194.469889415424
 21
-13176.106854600561
 31
0.0
  0
LINE
  5
23A
100
AcDbEntity
  8
Frei
  6
CONTINUOUS
 62
           3
100
AcDbLine
 10
-14177.067032002707
 20
-13176.617299379788
 30
0.0
 11
-14176.506501522685
 21
-13177.254328092615
 31
0.0
  0
LINE
  5
23B
100
AcDbEntity
  8
Frei
  6
CONTINUOUS
 62
           3
100
AcDbLine
 10
-14193.960357757271
 20
-13177.54225610862
 30
0.0
 11
-14177.19452905738
 21
-13178.613231367872
 31
0.0
  0
LINE
  5
23C
100
AcDbEntity
  8
Frei
  6
CONTINUOUS
 62
           3
100
AcDbLine
 10
-14176.557500344554
 20
-13178.052700887849
 30
0.0
 11
-14177.19452905738
 21
-13178.613231367872
 31
0.0
  0
LINE
  5
23D
100
AcDbEntity
  8
Frei
  6
CONTINUOUS
 62
           3
100
AcDbLine
 10
-14194.520888237294
 20
-13176.905227395795
 30
0.0
 11
-14176.557500344554
 21
-13178.052700887849
 31
0.0
  0
LINE
  5
23E
100
AcDbEntity
  8
Frei
  6
CONTINUOUS
 62
           3
100
AcDbLine
 10
-14193.960357757271
 20
-13177.54225610862
 30
0.0
 11
-14194.520888237294
 21
-13176.905227395795
 31
0.0
  0
LINE
  5
23F
100
AcDbEntity
  8
Frei
  6
CONTINUOUS
 62
           3
100
AcDbLine
 10
-14194.597386470097
 20
-13178.102786588644
 30
0.0
 11
-14193.960357757271
 21
-13177.54225610862
 31
0.0
  0
LINE
  5
240
100
AcDbEntity
  8
Frei
  6
CONTINUOUS
 62
           3
100
AcDbLine
 10
-14176.633998577357
 20
-13179.250260080698
 30
0.0
 11
-14194.597386470097
 21
-13178.102786588644
 31
0.0
  0
LINE
  5
241
100
AcDbEntity
  8
Frei
  6
CONTINUOUS
 62
           3
100
AcDbLine
 10
-14177.19452905738
 20
-13178.613231367872
 30
0.0
 11
-14176.633998577357
 21
-13179.250260080698
 31
0.0
  0
LINE
  5
242
100
AcDbEntity
  8
Frei
  6
CONTINUOUS
 62
           3
100
AcDbLine
 10
-14177.322026112053
 20
-13180.609163355954
 30
0.0
 11
-14194.087854811944
 21
-13179.538188096703
 31
0.0
  0
LINE
  5
243
100
AcDbEntity
  8
Frei
  6
CONTINUOUS
 62
           3
100
AcDbLine
 10
-14177.322026112053
 20
-13180.609163355954
 30
0.0
 11
-14176.684997399225
 21
-13180.048632875931
 31
0.0
  0
LINE
  5
244
100
AcDbEntity
  8
Frei
  6
CONTINUOUS
 62
           3
100
AcDbLine
 10
-14176.761495632029
 20
-13181.24619206878
 30
0.0
 11
-14177.322026112053
 21
-13180.609163355954
 31
0.0
  0
LINE
  5
245
100
AcDbEntity
  8
Frei
  6
CONTINUOUS
 62
           3
100
AcDbLine
 10
-14194.724883524768
 20
-13180.098718576726
 30
0.0
 11
-14176.761495632029
 21
-13181.24619206878
 31
0.0
  0
LINE
  5
246
100
AcDbEntity
  8
Frei
  6
CONTINUOUS
 62
           3
100
AcDbLine
 10
-14194.087854811944
 20
-13179.538188096703
 30
0.0
 11
-14194.724883524768
 21
-13180.098718576726
 31
0.0
  0
LINE
  5
247
100
AcDbEntity
  8
Frei
  6
CONTINUOUS
 62
           3
100
AcDbLine
 10
-14194.648385291966
 20
-13178.901159383877
 30
0.0
 11
-14194.087854811944
 21
-13179.538188096703
 31
0.0
  0
LINE
  5
248
100
AcDbEntity
  8
Frei
  6
CONTINUOUS
 62
           3
100
AcDbLine
 10
-14176.684997399225
 20
-13180.048632875931
 30
0.0
 11
-14194.648385291966
 21
-13178.901159383877
 31
0.0
  0
LINE
  5
249
100
AcDbEntity
  8
Frei
  6
CONTINUOUS
 62
           7
100
AcDbLine
 10
-14150.795177638282
 20
-13186.4308543888
 30
0.0
 11
-14150.124204638531
 21
-13187.785784942997
 31
0.0
  0
LINE
  5
24A
100
AcDbEntity
  8
Frei
  6
CONTINUOUS
 62
           7
100
AcDbLine
 10
-14150.795177638282
 20
-13186.4308543888
 30
0.0
 11
-14155.030562218399
 21
-13186.160304559147
 31
0.0
  0
LINE
  5
24B
100
AcDbEntity
  8
Frei
  6
CONTINUOUS
 62
           7
100
AcDbLine
 10
-14149.873787467523
 20
-13183.865571701497
 30
0.0
 11
-14150.795177638282
 21
-13186.4308543888
 31
0.0
  0
LINE
  5
24C
100
AcDbEntity
  8
Frei
  6
CONTINUOUS
 62
           7
100
AcDbLine
 10
-14150.206293967591
 20
-13177.212039423972
 30
0.0
 11
-14149.618793358177
 21
-13179.873707725334
 31
0.0
  0
LINE
  5
24D
100
AcDbEntity
  8
Frei
  6
CONTINUOUS
 62
           7
100
AcDbLine
 10
-14150.206293967591
 20
-13177.212039423972
 30
0.0
 11
-14154.44167854771
 21
-13176.941489594319
 31
0.0
  0
LINE
  5
24E
100
AcDbEntity
  8
Frei
  6
CONTINUOUS
 62
           7
100
AcDbLine
 10
-14149.368376187169
 20
-13175.953494483836
 30
0.0
 11
-14150.206293967591
 21
-13177.212039423972
 31
0.0
  0
LINE
  5
24F
100
AcDbEntity
  8
Frei
  6
CONTINUOUS
 62
           7
100
AcDbLine
 10
-14150.251701693203
 20
-13189.781716931078
 30
0.0
 11
-14151.089619473625
 21
-13191.040261871212
 31
0.0
  0
LINE
  5
250
100
AcDbEntity
  8
Frei
  6
CONTINUOUS
 62
           7
100
AcDbLine
 10
-14149.911852132247
 20
-13172.602631941558
 30
0.0
 11
-14154.147236712366
 21
-13172.332082111907
 31
0.0
  0
LINE
  5
251
100
AcDbEntity
  8
Frei
  6
CONTINUOUS
 62
           7
100
AcDbLine
 10
-14149.911852132247
 20
-13172.602631941558
 30
0.0
 11
-14149.240879132496
 21
-13173.957562495754
 31
0.0
  0
LINE
  5
252
100
AcDbEntity
  8
Frei
  6
CONTINUOUS
 62
           7
100
AcDbLine
 10
-14155.241531663409
 20
-13189.462974294396
 30
0.0
 11
-14155.325004053744
 21
-13190.769712041561
 31
0.0
  0
LINE
  5
253
100
AcDbEntity
  8
Frei
  6
CONTINUOUS
 62
           7
100
AcDbLine
 10
-14150.251701693203
 20
-13189.781716931078
 30
0.0
 11
-14150.124204638531
 21
-13187.785784942997
 31
0.0
  0
LINE
  5
254
100
AcDbEntity
  8
Frei
  6
CONTINUOUS
 62
           7
100
AcDbLine
 10
-14150.251701693203
 20
-13189.781716931078
 30
0.0
 11
-14155.241531663409
 21
-13189.462974294396
 31
0.0
  0
LINE
  5
255
100
AcDbEntity
  8
Frei
  6
CONTINUOUS
 62
           7
100
AcDbLine
 10
-14155.114034608736
 20
-13187.467042306314
 30
0.0
 11
-14155.241531663409
 21
-13189.462974294396
 31
0.0
  0
LINE
  5
256
100
AcDbEntity
  8
Frei
  6
CONTINUOUS
 62
           7
100
AcDbLine
 10
-14150.124204638531
 20
-13187.785784942997
 30
0.0
 11
-14149.873787467523
 21
-13183.865571701497
 31
0.0
  0
LINE
  5
257
100
AcDbEntity
  8
Frei
  6
CONTINUOUS
 62
           7
100
AcDbLine
 10
-14150.124204638531
 20
-13187.785784942997
 30
0.0
 11
-14155.114034608736
 21
-13187.467042306314
 31
0.0
  0
LINE
  5
258
100
AcDbEntity
  8
Frei
  6
CONTINUOUS
 62
           7
100
AcDbLine
 10
-14155.030562218399
 20
-13186.160304559147
 30
0.0
 11
-14155.114034608736
 21
-13187.467042306314
 31
0.0
  0
LINE
  5
259
100
AcDbEntity
  8
Frei
  6
CONTINUOUS
 62
           7
100
AcDbLine
 10
-14154.863617437728
 20
-13183.546829064817
 30
0.0
 11
-14155.030562218399
 21
-13186.160304559147
 31
0.0
  0
LINE
  5
25A
100
AcDbEntity
  8
Frei
  6
CONTINUOUS
 62
           7
100
AcDbLine
 10
-14149.873787467523
 20
-13183.865571701497
 30
0.0
 11
-14149.618793358177
 21
-13179.873707725334
 31
0.0
  0
LINE
  5
25B
100
AcDbEntity
  8
Frei
  6
CONTINUOUS
 62
           7
100
AcDbLine
 10
-14149.873787467523
 20
-13183.865571701497
 30
0.0
 11
-14154.863617437728
 21
-13183.546829064817
 31
0.0
  0
LINE
  5
25C
100
AcDbEntity
  8
Frei
  6
CONTINUOUS
 62
           7
100
AcDbLine
 10
-14154.608623328382
 20
-13179.554965088651
 30
0.0
 11
-14154.863617437728
 21
-13183.546829064817
 31
0.0
  0
LINE
  5
25D
100
AcDbEntity
  8
Frei
  6
CONTINUOUS
 62
           7
100
AcDbLine
 10
-14149.618793358177
 20
-13179.873707725334
 30
0.0
 11
-14149.368376187169
 21
-13175.953494483836
 31
0.0
  0
LINE
  5
25E
100
AcDbEntity
  8
Frei
  6
CONTINUOUS
 62
           7
100
AcDbLine
 10
-14149.618793358177
 20
-13179.873707725334
 30
0.0
 11
-14154.608623328382
 21
-13179.554965088651
 31
0.0
  0
LINE
  5
25F
100
AcDbEntity
  8
Frei
  6
CONTINUOUS
 62
           7
100
AcDbLine
 10
-14154.44167854771
 20
-13176.941489594319
 30
0.0
 11
-14154.608623328382
 21
-13179.554965088651
 31
0.0
  0
LINE
  5
260
100
AcDbEntity
  8
Frei
  6
CONTINUOUS
 62
           7
100
AcDbLine
 10
-14154.358206157374
 20
-13175.634751847154
 30
0.0
 11
-14154.44167854771
 21
-13176.941489594319
 31
0.0
  0
LINE
  5
261
100
AcDbEntity
  8
Frei
  6
CONTINUOUS
 62
           7
100
AcDbLine
 10
-14149.368376187169
 20
-13175.953494483836
 30
0.0
 11
-14149.240879132496
 21
-13173.957562495754
 31
0.0
  0
LINE
  5
262
100
AcDbEntity
  8
Frei
  6
CONTINUOUS
 62
           7
100
AcDbLine
 10
-14149.368376187169
 20
-13175.953494483836
 30
0.0
 11
-14154.358206157374
 21
-13175.634751847154
 31
0.0
  0
LINE
  5
263
100
AcDbEntity
  8
Frei
  6
CONTINUOUS
 62
           7
100
AcDbLine
 10
-14154.230709102701
 20
-13173.638819859072
 30
0.0
 11
-14154.358206157374
 21
-13175.634751847154
 31
0.0
  0
LINE
  5
264
100
AcDbEntity
  8
Frei
  6
CONTINUOUS
 62
           7
100
AcDbLine
 10
-14154.230709102701
 20
-13173.638819859072
 30
0.0
 11
-14149.240879132496
 21
-13173.957562495754
 31
0.0
  0
LINE
  5
265
100
AcDbEntity
  8
Frei
  6
CONTINUOUS
 62
           7
100
AcDbLine
 10
-14155.325004053744
 20
-13190.769712041561
 30
0.0
 11
-14151.089619473625
 21
-13191.040261871212
 31
0.0
  0
LINE
  5
266
100
AcDbEntity
  8
Frei
  6
CONTINUOUS
 62
           7
100
AcDbLine
 10
-14154.147236712366
 20
-13172.332082111907
 30
0.0
 11
-14154.230709102701
 21
-13173.638819859072
 31
0.0
  0
LINE
  5
267
100
AcDbEntity
  8
Frei
  6
CONTINUOUS
 62
           7
100
AcDbLine
 10
-14199.122455273202
 20
-13139.135059527303
 30
0.0
 11
-14199.457135041717
 21
-13144.374380996018
 31
0.0
  0
LINE
  5
268
100
AcDbEntity
  8
Frei
  6
CONTINUOUS
 62
           7
100
AcDbLine
 10
-14198.071745973495
 20
-13146.216444276595
 30
0.0
 11
-14197.848626127818
 21
-13142.723563297452
 31
0.0
  0
LINE
  5
269
100
AcDbEntity
  8
Frei
  6
CONTINUOUS
 62
           7
100
AcDbLine
 10
-14198.826196943923
 20
-13146.1682511131
 30
0.0
 11
-14198.071745973495
 21
-13146.216444276595
 31
0.0
  0
LINE
  5
26A
100
AcDbEntity
  8
Frei
  6
CONTINUOUS
 62
           7
100
AcDbLine
 10
-14197.848626127818
 20
-13142.723563297452
 30
0.0
 11
-14197.402386436463
 21
-13135.737801339163
 31
0.0
  0
LINE
  5
26B
100
AcDbEntity
  8
Frei
  6
CONTINUOUS
 62
           7
100
AcDbLine
 10
-14198.603077098245
 20
-13142.675370133957
 30
0.0
 11
-14197.848626127818
 21
-13142.723563297452
 31
0.0
  0
LINE
  5
26C
100
AcDbEntity
  8
Frei
  6
CONTINUOUS
 62
           7
100
AcDbLine
 10
-14197.402386436463
 20
-13135.737801339163
 30
0.0
 11
-14197.179266590785
 21
-13132.244920360019
 31
0.0
  0
LINE
  5
26D
100
AcDbEntity
  8
Frei
  6
CONTINUOUS
 62
           7
100
AcDbLine
 10
-14198.156837406892
 20
-13135.689608175669
 30
0.0
 11
-14197.402386436463
 21
-13135.737801339163
 31
0.0
  0
LINE
  5
26E
100
AcDbEntity
  8
Frei
  6
CONTINUOUS
 62
           7
100
AcDbLine
 10
-14197.179266590785
 20
-13132.244920360019
 30
0.0
 11
-14196.828649690437
 21
-13126.756107392794
 31
0.0
  0
LINE
  5
26F
100
AcDbEntity
  8
Frei
  6
CONTINUOUS
 62
           7
100
AcDbLine
 10
-14197.933717561215
 20
-13132.196727196526
 30
0.0
 11
-14197.179266590785
 21
-13132.244920360019
 31
0.0
  0
LINE
  5
270
100
AcDbEntity
  8
Frei
  6
CONTINUOUS
 62
           7
100
AcDbLine
 10
-14160.108441517279
 20
-13187.219950404298
 30
0.0
 11
-14159.343459189242
 21
-13175.244358475806
 31
0.0
  0
LINE
  5
271
100
AcDbEntity
  8
Frei
  6
CONTINUOUS
 62
           2
100
AcDbLine
 10
-14155.118611547074
 20
-13187.53869304098
 30
0.0
 11
-14160.108441517279
 21
-13187.219950404298
 31
0.0
  0
LINE
  5
272
100
AcDbEntity
  8
Frei
  6
CONTINUOUS
 62
           7
100
AcDbLine
 10
-14159.343459189242
 20
-13175.244358475806
 30
0.0
 11
-14159.279710661905
 21
-13174.246392481764
 31
0.0
  0
LINE
  5
273
100
AcDbEntity
  8
Frei
  6
CONTINUOUS
 62
           2
100
AcDbLine
 10
-14154.353629219037
 20
-13175.563101112488
 30
0.0
 11
-14159.343459189242
 21
-13175.244358475806
 31
0.0
  0
LINE
  5
274
100
AcDbEntity
  8
Frei
  6
CONTINUOUS
 62
           7
100
AcDbLine
 10
-14160.172190044615
 20
-13188.21791639834
 30
0.0
 11
-14160.108441517279
 21
-13187.219950404298
 31
0.0
  0
LINE
  5
275
100
AcDbEntity
  8
Frei
  6
CONTINUOUS
 62
           7
100
AcDbLine
 10
-14160.172190044615
 20
-13188.21791639834
 30
0.0
 11
-14155.18236007441
 21
-13188.536659035022
 31
0.0
  0
LINE
  5
276
100
AcDbEntity
  8
Frei
  6
CONTINUOUS
 62
           7
100
AcDbLine
 10
-14159.279710661905
 20
-13174.246392481764
 30
0.0
 11
-14159.247836398237
 21
-13173.747409484744
 31
0.0
  0
LINE
  5
277
100
AcDbEntity
  8
Frei
  6
CONTINUOUS
 62
           7
100
AcDbLine
 10
-14159.279710661905
 20
-13174.246392481764
 30
0.0
 11
-14154.2898806917
 21
-13174.565135118446
 31
0.0
  0
LINE
  5
278
100
AcDbEntity
  8
Frei
  6
CONTINUOUS
 62
           7
100
AcDbLine
 10
-14179.596701561084
 20
-13186.97710858445
 30
0.0
 11
-14198.593880815197
 21
-13185.763598095891
 31
0.0
  0
LINE
  5
279
100
AcDbEntity
  8
Frei
  6
CONTINUOUS
 62
           7
100
AcDbLine
 10
-14172.275279027781
 20
-13189.448866058387
 30
0.0
 11
-14179.596701561084
 21
-13186.97710858445
 31
0.0
  0
LINE
  5
27A
100
AcDbEntity
  8
Frei
  6
CONTINUOUS
 62
           7
100
AcDbLine
 10
-14198.242122513506
 20
-13156.726961477694
 30
0.0
 11
-14198.741105510526
 21
-13156.695087214026
 31
0.0
  0
LINE
  5
27B
100
AcDbEntity
  8
Frei
  6
CONTINUOUS
 62
           7
100
AcDbLine
 10
-14198.242122513506
 20
-13156.726961477694
 30
0.0
 11
-14199.995207015254
 21
-13184.171026313825
 31
0.0
  0
LINE
  5
27C
100
AcDbEntity
  8
Frei
  6
CONTINUOUS
 62
           7
100
AcDbLine
 10
-14179.596701561084
 20
-13186.97710858445
 30
0.0
 11
-14173.64473096417
 21
-13187.3573112793
 31
0.0
  0
LINE
  5
27D
100
AcDbEntity
  8
Frei
  6
CONTINUOUS
 62
           7
100
AcDbLine
 10
-14170.299074680355
 20
-13158.511920243112
 30
0.0
 11
-14198.242122513506
 21
-13156.726961477694
 31
0.0
  0
LINE
  5
27E
100
AcDbEntity
  8
Frei
  6
CONTINUOUS
 62
           7
100
AcDbLine
 10
-14170.299074680355
 20
-13158.511920243112
 30
0.0
 11
-14172.052159182103
 21
-13185.955985079243
 31
0.0
  0
LINE
  5
27F
100
AcDbEntity
  8
Frei
  6
CONTINUOUS
 62
           7
100
AcDbLine
 10
-14172.275279027781
 20
-13189.448866058387
 30
0.0
 11
-14161.796636090348
 21
-13190.118225595417
 31
0.0
  0
LINE
  5
280
100
AcDbEntity
  8
Frei
  6
CONTINUOUS
 62
           7
100
AcDbLine
 10
-14160.204064308284
 20
-13188.71689939536
 30
0.0
 11
-14160.172190044615
 21
-13188.21791639834
 31
0.0
  0
LINE
  5
281
100
AcDbEntity
  8
Frei
  6
CONTINUOUS
 62
           7
100
AcDbLine
 10
-14171.127805535727
 20
-13171.485478165647
 30
0.0
 11
-14160.649162598294
 21
-13172.154837702677
 31
0.0
  0
LINE
  5
282
100
AcDbEntity
  8
Frei
  6
CONTINUOUS
 62
           7
100
AcDbLine
 10
-14198.741105510526
 20
-13156.695087214026
 30
0.0
 11
-14198.677356983189
 21
-13155.697121219986
 31
0.0
  0
LINE
  5
283
100
AcDbEntity
  8
Frei
  6
CONTINUOUS
 62
           7
100
AcDbLine
 10
-14169.800091683333
 20
-13158.543794506781
 30
0.0
 11
-14170.299074680355
 21
-13158.511920243112
 31
0.0
  0
LINE
  5
284
100
AcDbEntity
  8
Frei
  6
CONTINUOUS
 62
           7
100
AcDbLine
 10
-14169.736343155997
 20
-13157.545828512739
 30
0.0
 11
-14169.800091683333
 21
-13158.543794506781
 31
0.0
  0
LINE
  5
285
100
AcDbEntity
  8
Frei
  6
CONTINUOUS
 62
           7
100
AcDbLine
 10
-14169.736343155997
 20
-13157.545828512739
 30
0.0
 11
-14198.677356983189
 21
-13155.697121219986
 31
0.0
  0
LINE
  5
286
100
AcDbEntity
  8
Frei
  6
CONTINUOUS
 62
           7
100
AcDbLine
 10
-14168.110755708922
 20
-13132.09769566469
 30
0.0
 11
-14168.07531661899
 21
-13131.542906274433
 31
0.0
  0
LINE
  5
287
100
AcDbEntity
  8
Frei
  6
CONTINUOUS
 62
           7
100
AcDbLine
 10
-14196.828649690437
 20
-13126.756107392794
 30
0.0
 11
-14169.874172198324
 21
-13129.425142682556
 31
0.0
  0
LINE
  5
288
100
AcDbEntity
  8
Frei
  6
CONTINUOUS
 62
           7
100
AcDbLine
 10
-14163.822159539415
 20
-13143.394064235825
 30
0.0
 11
-14163.854033803083
 21
-13143.893047232845
 31
0.0
  0
LINE
  5
289
100
AcDbEntity
  8
Frei
  6
CONTINUOUS
 62
           1
100
AcDbLine
 10
-14163.822159539415
 20
-13143.394064235825
 30
0.0
 11
-14166.305449161684
 21
-13143.235435527718
 31
0.0
  0
LINE
  5
28A
100
AcDbEntity
  8
Frei
  6
CONTINUOUS
 62
           7
100
AcDbLine
 10
-14163.56716543007
 20
-13139.402200259659
 30
0.0
 11
-14163.822159539415
 21
-13143.394064235825
 31
0.0
  0
LINE
  5
28B
100
AcDbEntity
  8
Frei
  6
CONTINUOUS
 62
           1
100
AcDbLine
 10
-14163.56716543007
 20
-13139.402200259659
 30
0.0
 11
-14166.050455052338
 21
-13139.243571551553
 31
0.0
  0
LINE
  5
28C
100
AcDbEntity
  8
Frei
  6
CONTINUOUS
 62
           7
100
AcDbLine
 10
-14163.854033803083
 20
-13143.893047232845
 30
0.0
 11
-14163.885908066752
 21
-13144.392030229865
 31
0.0
  0
LINE
  5
28D
100
AcDbEntity
  8
Frei
  6
CONTINUOUS
 62
           1
100
AcDbLine
 10
-14163.854033803083
 20
-13143.893047232845
 30
0.0
 11
-14166.337323425352
 21
-13143.734418524738
 31
0.0
  0
LINE
  5
28E
100
AcDbEntity
  8
Frei
  6
CONTINUOUS
 62
           7
100
AcDbLine
 10
-14163.535291166401
 20
-13138.903217262639
 30
0.0
 11
-14163.56716543007
 21
-13139.402200259659
 31
0.0
  0
LINE
  5
28F
100
AcDbEntity
  8
Frei
  6
CONTINUOUS
 62
           1
100
AcDbLine
 10
-14163.535291166401
 20
-13138.903217262639
 30
0.0
 11
-14166.01858078867
 21
-13138.744588554533
 31
0.0
  0
LINE
  5
290
100
AcDbEntity
  8
Frei
  6
CONTINUOUS
 62
           7
100
AcDbLine
 10
-14164.883874060793
 20
-13144.32828170253
 30
0.0
 11
-14164.501382896775
 21
-13138.340485738283
 31
0.0
  0
LINE
  5
291
100
AcDbEntity
  8
Frei
  6
CONTINUOUS
 62
           2
100
AcDbLine
 10
-14163.885908066752
 20
-13144.392030229865
 30
0.0
 11
-14164.883874060793
 21
-13144.32828170253
 31
0.0
  0
LINE
  5
292
100
AcDbEntity
  8
Frei
  6
CONTINUOUS
 62
           7
100
AcDbLine
 10
-14164.501382896775
 20
-13138.340485738283
 30
0.0
 11
-14164.437634369438
 21
-13137.342519744241
 31
0.0
  0
LINE
  5
293
100
AcDbEntity
  8
Frei
  6
CONTINUOUS
 62
           2
100
AcDbLine
 10
-14163.503416902733
 20
-13138.404234265619
 30
0.0
 11
-14164.501382896775
 21
-13138.340485738283
 31
0.0
  0
LINE
  5
294
100
AcDbEntity
  8
Frei
  6
CONTINUOUS
 62
           7
100
AcDbLine
 10
-14164.947622588128
 20
-13145.32624769657
 30
0.0
 11
-14164.883874060793
 21
-13144.32828170253
 31
0.0
  0
LINE
  5
295
100
AcDbEntity
  8
Frei
  6
CONTINUOUS
 62
           7
100
AcDbLine
 10
-14163.885908066752
 20
-13144.392030229865
 30
0.0
 11
-14164.947622588128
 21
-13145.32624769657
 31
0.0
  0
LINE
  5
296
100
AcDbEntity
  8
Frei
  6
CONTINUOUS
 62
           7
100
AcDbLine
 10
-14163.503416902733
 20
-13138.404234265619
 30
0.0
 11
-14163.535291166401
 21
-13138.903217262639
 31
0.0
  0
LINE
  5
297
100
AcDbEntity
  8
Frei
  6
CONTINUOUS
 62
           7
100
AcDbLine
 10
-14164.437634369438
 20
-13137.342519744241
 30
0.0
 11
-14164.118891732756
 21
-13132.352689774036
 31
0.0
  0
LINE
  5
298
100
AcDbEntity
  8
Frei
  6
CONTINUOUS
 62
           7
100
AcDbLine
 10
-14164.437634369438
 20
-13137.342519744241
 30
0.0
 11
-14163.503416902733
 21
-13138.404234265619
 31
0.0
  0
LINE
  5
299
100
AcDbEntity
  8
Frei
  6
CONTINUOUS
 62
           7
100
AcDbLine
 10
-14198.677356983189
 20
-13155.697121219986
 30
0.0
 11
-14198.071745973495
 21
-13146.216444276595
 31
0.0
  0
LINE
  5
29A
100
AcDbEntity
  8
Frei
  6
CONTINUOUS
 62
           7
100
AcDbLine
 10
-14169.258229200976
 20
-13150.06108355743
 30
0.0
 11
-14169.736343155997
 21
-13157.545828512739
 31
0.0
  0
LINE
  5
29B
100
AcDbEntity
  8
Frei
  6
CONTINUOUS
 62
           7
100
AcDbLine
 10
-14167.049041187543
 20
-13131.163478197986
 30
0.0
 11
-14168.32401173427
 21
-13151.122798078808
 31
0.0
  0
LINE
  5
29C
100
AcDbEntity
  8
Frei
  6
CONTINUOUS
 62
           7
100
AcDbLine
 10
-14165.053109199462
 20
-13131.290975252659
 30
0.0
 11
-14166.328079746188
 21
-13151.250295133481
 31
0.0
  0
LINE
  5
29D
100
AcDbEntity
  8
Frei
  6
CONTINUOUS
 62
           7
100
AcDbLine
 10
-14165.26636522481
 20
-13150.316077666776
 30
0.0
 11
-14166.328079746188
 21
-13151.250295133481
 31
0.0
  0
LINE
  5
29E
100
AcDbEntity
  8
Frei
  6
CONTINUOUS
 62
           7
100
AcDbLine
 10
-14168.32401173427
 20
-13151.122798078808
 30
0.0
 11
-14169.258229200976
 21
-13150.06108355743
 31
0.0
  0
LINE
  5
29F
100
AcDbEntity
  8
Frei
  6
CONTINUOUS
 62
           7
100
AcDbLine
 10
-14168.110755708922
 20
-13132.09769566469
 30
0.0
 11
-14167.049041187543
 21
-13131.163478197986
 31
0.0
  0
LINE
  5
2A0
100
AcDbEntity
  8
Frei
  6
CONTINUOUS
 62
           7
100
AcDbLine
 10
-14164.118891732756
 20
-13132.352689774036
 30
0.0
 11
-14165.053109199462
 21
-13131.290975252659
 31
0.0
  0
LINE
  5
2A1
100
AcDbEntity
  8
Frei
  6
CONTINUOUS
 62
           7
100
AcDbLine
 10
-14165.26636522481
 20
-13150.316077666776
 30
0.0
 11
-14164.947622588128
 21
-13145.32624769657
 31
0.0
  0
LINE
  5
2A2
100
AcDbEntity
  8
Frei
  6
CONTINUOUS
 62
           7
100
AcDbLine
 10
-14168.32401173427
 20
-13151.122798078808
 30
0.0
 11
-14166.328079746188
 21
-13151.250295133481
 31
0.0
  0
LINE
  5
2A3
100
AcDbEntity
  8
Frei
  6
CONTINUOUS
 62
           7
100
AcDbLine
 10
-14168.110755708922
 20
-13132.09769566469
 30
0.0
 11
-14169.258229200976
 21
-13150.06108355743
 31
0.0
  0
LINE
  5
2A4
100
AcDbEntity
  8
Frei
  6
CONTINUOUS
 62
           7
100
AcDbLine
 10
-14165.053109199462
 20
-13131.290975252659
 30
0.0
 11
-14167.049041187543
 21
-13131.163478197986
 31
0.0
  0
LINE
  5
2A5
100
AcDbEntity
  8
Frei
  6
CONTINUOUS
 62
           7
100
AcDbLine
 10
-14215.143795884867
 20
-13154.645270518935
 30
0.0
 11
-14204.665152947437
 21
-13155.314630055967
 31
0.0
  0
LINE
  5
2A6
100
AcDbEntity
  8
Frei
  6
CONTINUOUS
 62
           7
100
AcDbLine
 10
-14199.068570566193
 20
-13122.604872098287
 30
0.0
 11
-14213.040094482769
 21
-13121.712392715579
 31
0.0
  0
LINE
  5
2A7
100
AcDbEntity
  8
Frei
  6
CONTINUOUS
 62
           7
100
AcDbLine
 10
-14198.134353099489
 20
-13123.666586619665
 30
0.0
 11
-14199.568694964555
 21
-13146.120821485591
 31
0.0
  0
LINE
  5
2A8
100
AcDbEntity
  8
Frei
  6
CONTINUOUS
 62
           7
100
AcDbLine
 10
-14358.787150499453
 20
-13144.467516588462
 30
0.0
 11
-14357.352808634385
 21
-13122.013281722539
 31
0.0
  0
LINE
  5
2A9
100
AcDbEntity
  8
Frei
  6
CONTINUOUS
 62
           7
100
AcDbLine
 10
-14358.133728094255
 20
-13134.23836514954
 30
0.0
 11
-14357.79904832574
 21
-13128.999043680826
 31
0.0
  0
LINE
  5
2AA
100
AcDbEntity
  8
Frei
  6
CONTINUOUS
 62
           7
100
AcDbLine
 10
-14198.787775504687
 20
-13133.895738058587
 30
0.0
 11
-14199.122455273202
 21
-13139.135059527303
 31
0.0
  0
ARC
  5
2AB
100
AcDbEntity
  8
Frei
  6
CONTINUOUS
 62
           7
100
AcDbCircle
 10
-14366.385953940809
 20
-13128.450525404045
 30
0.0
 40
8.604407030244
100
AcDbArc
 50
332.343014671726
 51
356.344999999999
  0
ARC
  5
2AC
100
AcDbEntity
  8
Frei
  6
CONTINUOUS
 62
           7
100
AcDbCircle
 10
-14359.889531718727
 20
-13123.604806532598
 30
0.0
 40
2.430106011614
100
AcDbArc
 50
310.279521857266
 51
356.344999999999
  0
ARC
  5
2AD
100
AcDbEntity
  8
Frei
  6
CONTINUOUS
 62
           7
100
AcDbCircle
 10
-14360.558891255758
 20
-13134.08344947003
 30
0.0
 40
2.430106011614
100
AcDbArc
 50
310.279521857266
 51
356.344999999999
  0
ARC
  5
2AE
100
AcDbEntity
  8
Frei
  6
CONTINUOUS
 62
           7
100
AcDbCircle
 10
-14359.889531718727
 20
-13123.604806532598
 30
0.0
 40
2.430106011614
100
AcDbArc
 50
356.344999999999
 51
42.410478142733
  0
ARC
  5
2AF
100
AcDbEntity
  8
Frei
  6
CONTINUOUS
 62
           7
100
AcDbCircle
 10
-14360.558891255758
 20
-13134.08344947003
 30
0.0
 40
2.430106011614
100
AcDbArc
 50
356.344999999999
 51
42.410478142733
  0
ARC
  5
2B0
100
AcDbEntity
  8
Frei
  6
CONTINUOUS
 62
           7
100
AcDbCircle
 10
-14197.031971880211
 20
-13144.52929667553
 30
0.0
 40
2.430106011614
100
AcDbArc
 50
130.279521857263
 51
176.345
  0
ARC
  5
2B1
100
AcDbEntity
  8
Frei
  6
CONTINUOUS
 62
           7
100
AcDbCircle
 10
-14196.36261234318
 20
-13134.050653738099
 30
0.0
 40
2.430106011614
100
AcDbArc
 50
130.279521857263
 51
176.345
  0
ARC
  5
2B2
100
AcDbEntity
  8
Frei
  6
CONTINUOUS
 62
           7
100
AcDbCircle
 10
-14197.031971880211
 20
-13144.52929667553
 30
0.0
 40
2.430106011614
100
AcDbArc
 50
176.345
 51
222.410478142737
  0
ARC
  5
2B3
100
AcDbEntity
  8
Frei
  6
CONTINUOUS
 62
           7
100
AcDbCircle
 10
-14196.36261234318
 20
-13134.050653738099
 30
0.0
 40
2.430106011614
100
AcDbArc
 50
176.345
 51
222.410478142737
  0
ARC
  5
2B4
100
AcDbEntity
  8
Frei
  6
CONTINUOUS
 62
           7
100
AcDbCircle
 10
-14190.535549658131
 20
-13139.683577804082
 30
0.0
 40
8.604407030244
100
AcDbArc
 50
152.343014671724
 51
176.345
  0
ARC
  5
2B5
100
AcDbEntity
  8
Frei
  6
CONTINUOUS
 62
           7
100
AcDbCircle
 10
-14334.993293451658
 20
-13138.234578357986
 30
0.0
 40
4.481959213903
100
AcDbArc
 50
184.723955885586
 51
347.966044114414
  0
ARC
  5
2B6
100
AcDbEntity
  8
Frei
  6
CONTINUOUS
 62
           7
100
AcDbCircle
 10
-14366.385953940809
 20
-13128.450525404045
 30
0.0
 40
8.604407030244
100
AcDbArc
 50
356.344999999999
 51
20.346985328274
  0
ARC
  5
2B7
100
AcDbEntity
  8
Frei
  6
CONTINUOUS
 62
           7
100
AcDbCircle
 10
-14190.535549658131
 20
-13139.683577804082
 30
0.0
 40
8.604407030244
100
AcDbArc
 50
176.345
 51
200.346985328276
  0
POLYLINE
  5
2B8
100
AcDbEntity
  8
Frei
  6
CONTINUOUS
 62
           7
100
AcDb2dPolyline
 66
           1
 10
0.0
 20
0.0
 30
0.0
  0
VERTEX
  5
2B9
100
AcDbEntity
  8
Frei
  6
CONTINUOUS
 62
           7
100
AcDbVertex
100
AcDb2dVertex
 10
-14339.153997734173
 20
-13138.2697381539
 30
0.0
 42
0.046286845788
  0
VERTEX
  5
2BA
100
AcDbEntity
  8
Frei
  6
CONTINUOUS
 62
           7
100
AcDbVertex
100
AcDb2dVertex
 10
-14339.134247378564
 20
-13138.949560003017
 30
0.0
  0
VERTEX
  5
2BB
100
AcDbEntity
  8
Frei
  6
CONTINUOUS
 62
           7
100
AcDbVertex
100
AcDb2dVertex
 10
-14339.077102325857
 20
-13139.286495962437
 30
0.0
  0
VERTEX
  5
2BC
100
AcDbEntity
  8
Frei
  6
CONTINUOUS
 62
           7
100
AcDbVertex
100
AcDb2dVertex
 10
-14338.989257956822
 20
-13139.616764221248
 30
0.0
 42
0.045273723548
  0
VERTEX
  5
2BD
100
AcDbEntity
  8
Frei
  6
CONTINUOUS
 62
           7
100
AcDbVertex
100
AcDb2dVertex
 10
-14338.723434899159
 20
-13140.251078146039
 30
0.0
  0
VERTEX
  5
2BE
100
AcDbEntity
  8
Frei
  6
CONTINUOUS
 62
           7
100
AcDbVertex
100
AcDb2dVertex
 10
-14338.547096715556
 20
-13140.550572565739
 30
0.0
  0
VERTEX
  5
2BF
100
AcDbEntity
  8
Frei
  6
CONTINUOUS
 62
           7
100
AcDbVertex
100
AcDb2dVertex
 10
-14338.344855104664
 20
-13140.833228469768
 30
0.0
 42
0.04348253534
  0
VERTEX
  5
2C0
100
AcDbEntity
  8
Frei
  6
CONTINUOUS
 62
           7
100
AcDbVertex
100
AcDb2dVertex
 10
-14337.865021528825
 20
-13141.345526849427
 30
0.0
  0
VERTEX
  5
2C1
100
AcDbEntity
  8
Frei
  6
CONTINUOUS
 62
           7
100
AcDbVertex
100
AcDb2dVertex
 10
-14337.59087263276
 20
-13141.571046211891
 30
0.0
  0
VERTEX
  5
2C2
100
AcDbEntity
  8
Frei
  6
CONTINUOUS
 62
           7
100
AcDbVertex
100
AcDb2dVertex
 10
-14337.298513672042
 20
-13141.772407357988
 30
0.0
 42
0.041825507476
  0
VERTEX
  5
2C3
100
AcDbEntity
  8
Frei
  6
CONTINUOUS
 62
           7
100
AcDbVertex
100
AcDb2dVertex
 10
-14336.662544588866
 20
-13142.100899447212
 30
0.0
  0
VERTEX
  5
2C4
100
AcDbEntity
  8
Frei
  6
CONTINUOUS
 62
           7
100
AcDbVertex
100
AcDb2dVertex
 10
-14336.324041987507
 20
-13142.225141308912
 30
0.0
  0
VERTEX
  5
2C5
100
AcDbEntity
  8
Frei
  6
CONTINUOUS
 62
           7
100
AcDbVertex
100
AcDb2dVertex
 10
-14335.976437878082
 20
-13142.32102205119
 30
0.0
 42
0.040993490696
  0
VERTEX
  5
2C6
100
AcDbEntity
  8
Frei
  6
CONTINUOUS
 62
           7
100
AcDbVertex
100
AcDb2dVertex
 10
-14335.261040544907
 20
-13142.426086855989
 30
0.0
  0
VERTEX
  5
2C7
100
AcDbEntity
  8
Frei
  6
CONTINUOUS
 62
           7
100
AcDbVertex
100
AcDb2dVertex
 10
-14334.899294028924
 20
-13142.434333100236
 30
0.0
  0
VERTEX
  5
2C8
100
AcDbEntity
  8
Frei
  6
CONTINUOUS
 62
           7
100
AcDbVertex
100
AcDb2dVertex
 10
-14334.538089575301
 20
-13142.412901520676
 30
0.0
 42
0.041278481646
  0
VERTEX
  5
2C9
100
AcDbEntity
  8
Frei
  6
CONTINUOUS
 62
           7
100
AcDbVertex
100
AcDb2dVertex
 10
-14333.829551468643
 20
-13142.281866675001
 30
0.0
  0
VERTEX
  5
2CA
100
AcDbEntity
  8
Frei
  6
CONTINUOUS
 62
           7
100
AcDbVertex
100
AcDb2dVertex
 10
-14333.488122323322
 20
-13142.173500893805
 30
0.0
  0
VERTEX
  5
2CB
100
AcDbEntity
  8
Frei
  6
CONTINUOUS
 62
           7
100
AcDbVertex
100
AcDb2dVertex
 10
-14333.156954796768
 20
-13142.036963746436
 30
0.0
 42
0.042584509173
  0
VERTEX
  5
2CC
100
AcDbEntity
  8
Frei
  6
CONTINUOUS
 62
           7
100
AcDbVertex
100
AcDb2dVertex
 10
-14332.540736069204
 20
-13141.685633986541
 30
0.0
  0
VERTEX
  5
2CD
100
AcDbEntity
  8
Frei
  6
CONTINUOUS
 62
           7
100
AcDbVertex
100
AcDb2dVertex
 10
-14332.260439865622
 20
-13141.473874450458
 30
0.0
  0
VERTEX
  5
2CE
100
AcDbEntity
  8
Frei
  6
CONTINUOUS
 62
           7
100
AcDbVertex
100
AcDb2dVertex
 10
-14331.999618780163
 20
-13141.238552372288
 30
0.0
 42
0.044417198743
  0
VERTEX
  5
2CF
100
AcDbEntity
  8
Frei
  6
CONTINUOUS
 62
           7
100
AcDbVertex
100
AcDb2dVertex
 10
-14331.550044504649
 20
-13140.709303252293
 30
0.0
  0
VERTEX
  5
2D0
100
AcDbEntity
  8
Frei
  6
CONTINUOUS
 62
           7
100
AcDbVertex
100
AcDb2dVertex
 10
-14331.364358154724
 20
-13140.419442030661
 30
0.0
  0
VERTEX
  5
2D1
100
AcDbEntity
  8
Frei
  6
CONTINUOUS
 62
           7
100
AcDbVertex
100
AcDb2dVertex
 10
-14331.205673329539
 20
-13140.113967593255
 30
0.0
 42
0.045929593742
  0
VERTEX
  5
2D2
100
AcDbEntity
  8
Frei
  6
CONTINUOUS
 62
           7
100
AcDbVertex
100
AcDb2dVertex
 10
-14330.976968798717
 20
-13139.470634367917
 30
0.0
  0
VERTEX
  5
2D3
100
AcDbEntity
  8
Frei
  6
CONTINUOUS
 62
           7
100
AcDbVertex
100
AcDb2dVertex
 10
-14330.908349124547
 20
-13139.137201687607
 30
0.0
  0
VERTEX
  5
2D4
100
AcDbEntity
  8
Frei
  6
CONTINUOUS
 62
           7
100
AcDbVertex
100
AcDb2dVertex
 10
-14330.870879983631
 20
-13138.798850930791
 30
0.0
 42
0.046286845788
  0
VERTEX
  5
2D5
100
AcDbEntity
  8
Frei
  6
CONTINUOUS
 62
           7
100
AcDbVertex
100
AcDb2dVertex
 10
-14330.89063033924
 20
-13138.119029081674
 30
0.0
  0
VERTEX
  5
2D6
100
AcDbEntity
  8
Frei
  6
CONTINUOUS
 62
           7
100
AcDbVertex
100
AcDb2dVertex
 10
-14330.947775391947
 20
-13137.782093122256
 30
0.0
  0
VERTEX
  5
2D7
100
AcDbEntity
  8
Frei
  6
CONTINUOUS
 62
           7
100
AcDbVertex
100
AcDb2dVertex
 10
-14331.035619760982
 20
-13137.451824863445
 30
0.0
 42
0.045273723548
  0
VERTEX
  5
2D8
100
AcDbEntity
  8
Frei
  6
CONTINUOUS
 62
           7
100
AcDbVertex
100
AcDb2dVertex
 10
-14331.301442818645
 20
-13136.817510938652
 30
0.0
  0
VERTEX
  5
2D9
100
AcDbEntity
  8
Frei
  6
CONTINUOUS
 62
           7
100
AcDbVertex
100
AcDb2dVertex
 10
-14331.477781002248
 20
-13136.518016518952
 30
0.0
  0
VERTEX
  5
2DA
100
AcDbEntity
  8
Frei
  6
CONTINUOUS
 62
           7
100
AcDbVertex
100
AcDb2dVertex
 10
-14331.68002261314
 20
-13136.235360614923
 30
0.0
 42
0.04348253534
  0
VERTEX
  5
2DB
100
AcDbEntity
  8
Frei
  6
CONTINUOUS
 62
           7
100
AcDbVertex
100
AcDb2dVertex
 10
-14332.159856188977
 20
-13135.723062235264
 30
0.0
  0
VERTEX
  5
2DC
100
AcDbEntity
  8
Frei
  6
CONTINUOUS
 62
           7
100
AcDbVertex
100
AcDb2dVertex
 10
-14332.434005085042
 20
-13135.497542872799
 30
0.0
  0
VERTEX
  5
2DD
100
AcDbEntity
  8
Frei
  6
CONTINUOUS
 62
           7
100
AcDbVertex
100
AcDb2dVertex
 10
-14332.726364045762
 20
-13135.296181726702
 30
0.0
 42
0.041825507476
  0
VERTEX
  5
2DE
100
AcDbEntity
  8
Frei
  6
CONTINUOUS
 62
           7
100
AcDbVertex
100
AcDb2dVertex
 10
-14333.362333128938
 20
-13134.967689637479
 30
0.0
  0
VERTEX
  5
2DF
100
AcDbEntity
  8
Frei
  6
CONTINUOUS
 62
           7
100
AcDbVertex
100
AcDb2dVertex
 10
-14333.700835730295
 20
-13134.843447775778
 30
0.0
  0
VERTEX
  5
2E0
100
AcDbEntity
  8
Frei
  6
CONTINUOUS
 62
           7
100
AcDbVertex
100
AcDb2dVertex
 10
-14334.048439839722
 20
-13134.747567033501
 30
0.0
 42
0.040993490695
  0
VERTEX
  5
2E1
100
AcDbEntity
  8
Frei
  6
CONTINUOUS
 62
           7
100
AcDbVertex
100
AcDb2dVertex
 10
-14334.763837172897
 20
-13134.642502228704
 30
0.0
  0
VERTEX
  5
2E2
100
AcDbEntity
  8
Frei
  6
CONTINUOUS
 62
           7
100
AcDbVertex
100
AcDb2dVertex
 10
-14335.125583688879
 20
-13134.634255984454
 30
0.0
  0
VERTEX
  5
2E3
100
AcDbEntity
  8
Frei
  6
CONTINUOUS
 62
           7
100
AcDbVertex
100
AcDb2dVertex
 10
-14335.486788142503
 20
-13134.655687564014
 30
0.0
 42
0.041278481647
  0
VERTEX
  5
2E4
100
AcDbEntity
  8
Frei
  6
CONTINUOUS
 62
           7
100
AcDbVertex
100
AcDb2dVertex
 10
-14336.195326249159
 20
-13134.78672240969
 30
0.0
  0
VERTEX
  5
2E5
100
AcDbEntity
  8
Frei
  6
CONTINUOUS
 62
           7
100
AcDbVertex
100
AcDb2dVertex
 10
-14336.536755394482
 20
-13134.895088190886
 30
0.0
  0
VERTEX
  5
2E6
100
AcDbEntity
  8
Frei
  6
CONTINUOUS
 62
           7
100
AcDbVertex
100
AcDb2dVertex
 10
-14336.867922921034
 20
-13135.031625338255
 30
0.0
 42
0.042584509173
  0
VERTEX
  5
2E7
100
AcDbEntity
  8
Frei
  6
CONTINUOUS
 62
           7
100
AcDbVertex
100
AcDb2dVertex
 10
-14337.484141648598
 20
-13135.382955098152
 30
0.0
  0
VERTEX
  5
2E8
100
AcDbEntity
  8
Frei
  6
CONTINUOUS
 62
           7
100
AcDbVertex
100
AcDb2dVertex
 10
-14337.764437852182
 20
-13135.594714634233
 30
0.0
  0
VERTEX
  5
2E9
100
AcDbEntity
  8
Frei
  6
CONTINUOUS
 62
           7
100
AcDbVertex
100
AcDb2dVertex
 10
-14338.025258937641
 20
-13135.830036712403
 30
0.0
 42
0.044417198743
  0
VERTEX
  5
2EA
100
AcDbEntity
  8
Frei
  6
CONTINUOUS
 62
           7
100
AcDbVertex
100
AcDb2dVertex
 10
-14338.474833213153
 20
-13136.359285832395
 30
0.0
  0
VERTEX
  5
2EB
100
AcDbEntity
  8
Frei
  6
CONTINUOUS
 62
           7
100
AcDbVertex
100
AcDb2dVertex
 10
-14338.660519563078
 20
-13136.64914705403
 30
0.0
  0
VERTEX
  5
2EC
100
AcDbEntity
  8
Frei
  6
CONTINUOUS
 62
           7
100
AcDbVertex
100
AcDb2dVertex
 10
-14338.819204388266
 20
-13136.954621491435
 30
0.0
 42
0.045929593741
  0
VERTEX
  5
2ED
100
AcDbEntity
  8
Frei
  6
CONTINUOUS
 62
           7
100
AcDbVertex
100
AcDb2dVertex
 10
-14339.047908919085
 20
-13137.597954716774
 30
0.0
  0
VERTEX
  5
2EE
100
AcDbEntity
  8
Frei
  6
CONTINUOUS
 62
           7
100
AcDbVertex
100
AcDb2dVertex
 10
-14339.116528593257
 20
-13137.931387397084
 30
0.0
  0
VERTEX
  5
2EF
100
AcDbEntity
  8
Frei
  6
CONTINUOUS
 62
           7
100
AcDbVertex
100
AcDb2dVertex
 10
-14339.153997734173
 20
-13138.2697381539
 30
0.0
  0
SEQEND
  5
2F0
100
AcDbEntity
  8
Frei
  6
CONTINUOUS
 62
           7
  0
POLYLINE
  5
2F1
100
AcDbEntity
  8
Frei
  6
CONTINUOUS
 62
           7
100
AcDb2dPolyline
 66
           1
 10
0.0
 20
0.0
 30
0.0
  0
VERTEX
  5
2F2
100
AcDbEntity
  8
Frei
  6
CONTINUOUS
 62
           7
100
AcDbVertex
100
AcDb2dVertex
 10
-14334.75851911801
 20
-13134.559249514414
 30
0.0
 42
0.046286845788
  0
VERTEX
  5
2F3
100
AcDbEntity
  8
Frei
  6
CONTINUOUS
 62
           7
100
AcDbVertex
100
AcDb2dVertex
 10
-14335.534268103498
 20
-13134.581786769353
 30
0.0
  0
VERTEX
  5
2F4
100
AcDbEntity
  8
Frei
  6
CONTINUOUS
 62
           7
100
AcDbVertex
100
AcDb2dVertex
 10
-14335.91874784482
 20
-13134.646995348219
 30
0.0
  0
VERTEX
  5
2F5
100
AcDbEntity
  8
Frei
  6
CONTINUOUS
 62
           7
100
AcDbVertex
100
AcDb2dVertex
 10
-14336.295619031065
 20
-13134.747235109928
 30
0.0
 42
0.045273723548
  0
VERTEX
  5
2F6
100
AcDbEntity
  8
Frei
  6
CONTINUOUS
 62
           7
100
AcDbVertex
100
AcDb2dVertex
 10
-14337.019438638039
 20
-13135.050567472032
 30
0.0
  0
VERTEX
  5
2F7
100
AcDbEntity
  8
Frei
  6
CONTINUOUS
 62
           7
100
AcDbVertex
100
AcDb2dVertex
 10
-14337.361193603023
 20
-13135.251788081827
 30
0.0
  0
VERTEX
  5
2F8
100
AcDbEntity
  8
Frei
  6
CONTINUOUS
 62
           7
100
AcDbVertex
100
AcDb2dVertex
 10
-14337.683734031929
 20
-13135.482567255338
 30
0.0
 42
0.04348253534
  0
VERTEX
  5
2F9
100
AcDbEntity
  8
Frei
  6
CONTINUOUS
 62
           7
100
AcDbVertex
100
AcDb2dVertex
 10
-14338.268320933343
 20
-13136.03010836503
 30
0.0
  0
VERTEX
  5
2FA
100
AcDbEntity
  8
Frei
  6
CONTINUOUS
 62
           7
100
AcDbVertex
100
AcDb2dVertex
 10
-14338.525662495498
 20
-13136.342941393674
 30
0.0
  0
VERTEX
  5
2FB
100
AcDbEntity
  8
Frei
  6
CONTINUOUS
 62
           7
100
AcDbVertex
100
AcDb2dVertex
 10
-14338.755436965097
 20
-13136.676554041562
 30
0.0
 42
0.041825507476
  0
VERTEX
  5
2FC
100
AcDbEntity
  8
Frei
  6
CONTINUOUS
 62
           7
100
AcDbVertex
100
AcDb2dVertex
 10
-14339.130281353058
 20
-13137.402262360167
 30
0.0
  0
VERTEX
  5
2FD
100
AcDbEntity
  8
Frei
  6
CONTINUOUS
 62
           7
100
AcDbVertex
100
AcDb2dVertex
 10
-14339.272054522447
 20
-13137.788529806454
 30
0.0
  0
VERTEX
  5
2FE
100
AcDbEntity
  8
Frei
  6
CONTINUOUS
 62
           7
100
AcDbVertex
100
AcDb2dVertex
 10
-14339.381464640181
 20
-13138.185183040812
 30
0.0
 42
0.040993490695
  0
VERTEX
  5
2FF
100
AcDbEntity
  8
Frei
  6
CONTINUOUS
 62
           7
100
AcDbVertex
100
AcDb2dVertex
 10
-14339.501354749389
 20
-13139.001527434795
 30
0.0
  0
VERTEX
  5
300
100
AcDbEntity
  8
Frei
  6
CONTINUOUS
 62
           7
100
AcDbVertex
100
AcDb2dVertex
 10
-14339.510764590537
 20
-13139.414318658173
 30
0.0
  0
VERTEX
  5
301
100
AcDbEntity
  8
Frei
  6
CONTINUOUS
 62
           7
100
AcDbVertex
100
AcDb2dVertex
 10
-14339.486308880381
 20
-13139.82649133079
 30
0.0
 42
0.041278481646
  0
VERTEX
  5
302
100
AcDbEntity
  8
Frei
  6
CONTINUOUS
 62
           7
100
AcDbVertex
100
AcDb2dVertex
 10
-14339.336784194275
 20
-13140.635008618272
 30
0.0
  0
VERTEX
  5
303
100
AcDbEntity
  8
Frei
  6
CONTINUOUS
 62
           7
100
AcDbVertex
100
AcDb2dVertex
 10
-14339.21312732015
 20
-13141.024615562272
 30
0.0
  0
VERTEX
  5
304
100
AcDbEntity
  8
Frei
  6
CONTINUOUS
 62
           7
100
AcDbVertex
100
AcDb2dVertex
 10
-14339.057323922993
 20
-13141.402512908589
 30
0.0
 42
0.042584509173
  0
VERTEX
  5
305
100
AcDbEntity
  8
Frei
  6
CONTINUOUS
 62
           7
100
AcDbVertex
100
AcDb2dVertex
 10
-14338.656419325467
 20
-13142.105683972257
 30
0.0
  0
VERTEX
  5
306
100
AcDbEntity
  8
Frei
  6
CONTINUOUS
 62
           7
100
AcDbVertex
100
AcDb2dVertex
 10
-14338.414779187689
 20
-13142.425531732148
 30
0.0
  0
VERTEX
  5
307
100
AcDbEntity
  8
Frei
  6
CONTINUOUS
 62
           7
100
AcDbVertex
100
AcDb2dVertex
 10
-14338.146251685022
 20
-13142.723156312328
 30
0.0
 42
0.044417198743
  0
VERTEX
  5
308
100
AcDbEntity
  8
Frei
  6
CONTINUOUS
 62
           7
100
AcDbVertex
100
AcDb2dVertex
 10
-14337.542322187257
 20
-13143.236168344203
 30
0.0
  0
VERTEX
  5
309
100
AcDbEntity
  8
Frei
  6
CONTINUOUS
 62
           7
100
AcDbVertex
100
AcDb2dVertex
 10
-14337.211559725141
 20
-13143.448056205356
 30
0.0
  0
VERTEX
  5
30A
100
AcDbEntity
  8
Frei
  6
CONTINUOUS
 62
           7
100
AcDbVertex
100
AcDb2dVertex
 10
-14336.862980924358
 20
-13143.629132456894
 30
0.0
 42
0.045929593742
  0
VERTEX
  5
30B
100
AcDbEntity
  8
Frei
  6
CONTINUOUS
 62
           7
100
AcDbVertex
100
AcDb2dVertex
 10
-14336.128869336837
 20
-13143.890108634681
 30
0.0
  0
VERTEX
  5
30C
100
AcDbEntity
  8
Frei
  6
CONTINUOUS
 62
           7
100
AcDbVertex
100
AcDb2dVertex
 10
-14335.748387209327
 20
-13143.968410976231
 30
0.0
  0
VERTEX
  5
30D
100
AcDbEntity
  8
Frei
  6
CONTINUOUS
 62
           7
100
AcDbVertex
100
AcDb2dVertex
 10
-14335.362293033802
 20
-13144.011167248467
 30
0.0
 42
0.046286845788
  0
VERTEX
  5
30E
100
AcDbEntity
  8
Frei
  6
CONTINUOUS
 62
           7
100
AcDbVertex
100
AcDb2dVertex
 10
-14334.586544048314
 20
-13143.98862999353
 30
0.0
  0
VERTEX
  5
30F
100
AcDbEntity
  8
Frei
  6
CONTINUOUS
 62
           7
100
AcDbVertex
100
AcDb2dVertex
 10
-14334.202064306992
 20
-13143.923421414664
 30
0.0
  0
VERTEX
  5
310
100
AcDbEntity
  8
Frei
  6
CONTINUOUS
 62
           7
100
AcDbVertex
100
AcDb2dVertex
 10
-14333.825193120747
 20
-13143.823181652955
 30
0.0
 42
0.045273723548
  0
VERTEX
  5
311
100
AcDbEntity
  8
Frei
  6
CONTINUOUS
 62
           7
100
AcDbVertex
100
AcDb2dVertex
 10
-14333.101373513773
 20
-13143.519849290849
 30
0.0
  0
VERTEX
  5
312
100
AcDbEntity
  8
Frei
  6
CONTINUOUS
 62
           7
100
AcDbVertex
100
AcDb2dVertex
 10
-14332.759618548789
 20
-13143.318628681054
 30
0.0
  0
VERTEX
  5
313
100
AcDbEntity
  8
Frei
  6
CONTINUOUS
 62
           7
100
AcDbVertex
100
AcDb2dVertex
 10
-14332.437078119885
 20
-13143.087849507545
 30
0.0
 42
0.04348253534
  0
VERTEX
  5
314
100
AcDbEntity
  8
Frei
  6
CONTINUOUS
 62
           7
100
AcDbVertex
100
AcDb2dVertex
 10
-14331.852491218469
 20
-13142.540308397851
 30
0.0
  0
VERTEX
  5
315
100
AcDbEntity
  8
Frei
  6
CONTINUOUS
 62
           7
100
AcDbVertex
100
AcDb2dVertex
 10
-14331.595149656314
 20
-13142.227475369209
 30
0.0
  0
VERTEX
  5
316
100
AcDbEntity
  8
Frei
  6
CONTINUOUS
 62
           7
100
AcDbVertex
100
AcDb2dVertex
 10
-14331.365375186715
 20
-13141.893862721321
 30
0.0
 42
0.041825507476
  0
VERTEX
  5
317
100
AcDbEntity
  8
Frei
  6
CONTINUOUS
 62
           7
100
AcDbVertex
100
AcDb2dVertex
 10
-14330.990530798752
 20
-13141.168154402714
 30
0.0
  0
VERTEX
  5
318
100
AcDbEntity
  8
Frei
  6
CONTINUOUS
 62
           7
100
AcDbVertex
100
AcDb2dVertex
 10
-14330.848757629365
 20
-13140.781886956427
 30
0.0
  0
VERTEX
  5
319
100
AcDbEntity
  8
Frei
  6
CONTINUOUS
 62
           7
100
AcDbVertex
100
AcDb2dVertex
 10
-14330.739347511631
 20
-13140.385233722069
 30
0.0
 42
0.040993490695
  0
VERTEX
  5
31A
100
AcDbEntity
  8
Frei
  6
CONTINUOUS
 62
           7
100
AcDbVertex
100
AcDb2dVertex
 10
-14330.619457402423
 20
-13139.568889328088
 30
0.0
  0
VERTEX
  5
31B
100
AcDbEntity
  8
Frei
  6
CONTINUOUS
 62
           7
100
AcDbVertex
100
AcDb2dVertex
 10
-14330.610047561273
 20
-13139.156098104708
 30
0.0
  0
VERTEX
  5
31C
100
AcDbEntity
  8
Frei
  6
CONTINUOUS
 62
           7
100
AcDbVertex
100
AcDb2dVertex
 10
-14330.634503271431
 20
-13138.743925432091
 30
0.0
 42
0.041278481646
  0
VERTEX
  5
31D
100
AcDbEntity
  8
Frei
  6
CONTINUOUS
 62
           7
100
AcDbVertex
100
AcDb2dVertex
 10
-14330.784027957538
 20
-13137.935408144611
 30
0.0
  0
VERTEX
  5
31E
100
AcDbEntity
  8
Frei
  6
CONTINUOUS
 62
           7
100
AcDbVertex
100
AcDb2dVertex
 10
-14330.907684831662
 20
-13137.545801200609
 30
0.0
  0
VERTEX
  5
31F
100
AcDbEntity
  8
Frei
  6
CONTINUOUS
 62
           7
100
AcDbVertex
100
AcDb2dVertex
 10
-14331.06348822882
 20
-13137.167903854293
 30
0.0
 42
0.042584509173
  0
VERTEX
  5
320
100
AcDbEntity
  8
Frei
  6
CONTINUOUS
 62
           7
100
AcDbVertex
100
AcDb2dVertex
 10
-14331.464392826345
 20
-13136.464732790626
 30
0.0
  0
VERTEX
  5
321
100
AcDbEntity
  8
Frei
  6
CONTINUOUS
 62
           7
100
AcDbVertex
100
AcDb2dVertex
 10
-14331.706032964121
 20
-13136.144885030733
 30
0.0
  0
VERTEX
  5
322
100
AcDbEntity
  8
Frei
  6
CONTINUOUS
 62
           7
100
AcDbVertex
100
AcDb2dVertex
 10
-14331.974560466791
 20
-13135.847260450555
 30
0.0
 42
0.044417198743
  0
VERTEX
  5
323
100
AcDbEntity
  8
Frei
  6
CONTINUOUS
 62
           7
100
AcDbVertex
100
AcDb2dVertex
 10
-14332.578489964555
 20
-13135.33424841868
 30
0.0
  0
VERTEX
  5
324
100
AcDbEntity
  8
Frei
  6
CONTINUOUS
 62
           7
100
AcDbVertex
100
AcDb2dVertex
 10
-14332.909252426671
 20
-13135.122360557525
 30
0.0
  0
VERTEX
  5
325
100
AcDbEntity
  8
Frei
  6
CONTINUOUS
 62
           7
100
AcDbVertex
100
AcDb2dVertex
 10
-14333.257831227453
 20
-13134.941284305989
 30
0.0
 42
0.045929593741
  0
VERTEX
  5
326
100
AcDbEntity
  8
Frei
  6
CONTINUOUS
 62
           7
100
AcDbVertex
100
AcDb2dVertex
 10
-14333.991942814973
 20
-13134.6803081282
 30
0.0
  0
VERTEX
  5
327
100
AcDbEntity
  8
Frei
  6
CONTINUOUS
 62
           7
100
AcDbVertex
100
AcDb2dVertex
 10
-14334.372424942483
 20
-13134.60200578665
 30
0.0
  0
VERTEX
  5
328
100
AcDbEntity
  8
Frei
  6
CONTINUOUS
 62
           7
100
AcDbVertex
100
AcDb2dVertex
 10
-14334.75851911801
 20
-13134.559249514414
 30
0.0
  0
SEQEND
  5
329
100
AcDbEntity
  8
Frei
  6
CONTINUOUS
 62
           7
  0
ARC
  5
32A
100
AcDbEntity
  8
Frei
  6
CONTINUOUS
 62
           7
100
AcDbCircle
 10
-14200.998768355319
 20
-13152.601639873114
 30
0.0
 40
0.5
100
AcDbArc
 50
273.494821982568
 51
356.344999999999
  0
ARC
  5
32B
100
AcDbEntity
  8
Frei
  6
CONTINUOUS
 62
           7
100
AcDbCircle
 10
-14200.672528708616
 20
-13147.494446233959
 30
0.0
 40
0.5
100
AcDbArc
 50
356.344999999999
 51
79.195178017423
  0
ARC
  5
32C
100
AcDbEntity
  8
Frei
  6
CONTINUOUS
 62
           7
100
AcDbCircle
 10
-14355.423752246601
 20
-13115.564337598682
 30
0.0
 40
0.5
100
AcDbArc
 50
93.494821982565
 51
176.345
  0
ARC
  5
32D
100
AcDbEntity
  8
Frei
  6
CONTINUOUS
 62
           7
100
AcDbCircle
 10
-14355.749991893304
 20
-13120.671531237838
 30
0.0
 40
0.5
100
AcDbArc
 50
176.345
 51
259.195178017419
  0
ARC
  5
32E
100
AcDbEntity
  8
Frei
  6
CONTINUOUS
 62
           7
100
AcDbCircle
 10
-14385.631903319952
 20
-13117.645727315112
 30
0.0
 40
2.0
100
AcDbArc
 50
88.345
 51
176.345
  0
ARC
  5
32F
100
AcDbEntity
  8
Frei
  6
CONTINUOUS
 62
           7
100
AcDbCircle
 10
-14401.212851869212
 20
-13173.321630043636
 30
0.0
 40
1.5
100
AcDbArc
 50
176.345
 51
266.345
  0
ARC
  5
330
100
AcDbEntity
  8
Frei
  6
CONTINUOUS
 62
           7
100
AcDbCircle
 10
-14400.256623959167
 20
-13158.352140133018
 30
0.0
 40
1.5
100
AcDbArc
 50
86.345
 51
176.345
  0
ARC
  5
331
100
AcDbEntity
  8
Frei
  6
CONTINUOUS
 62
           7
100
AcDbCircle
 10
-14389.109762886046
 20
-13172.09068038359
 30
0.0
 40
1.5
100
AcDbArc
 50
176.345
 51
266.345
  0
ARC
  5
332
100
AcDbEntity
  8
Frei
  6
CONTINUOUS
 62
           7
100
AcDbCircle
 10
-14364.160613035017
 20
-13173.684393566999
 30
0.0
 40
1.5
100
AcDbArc
 50
266.345
 51
356.344999999999
  0
ARC
  5
333
100
AcDbEntity
  8
Frei
  6
CONTINUOUS
 62
           7
100
AcDbCircle
 10
-14198.498258024192
 20
-13184.266649104829
 30
0.0
 40
1.5
100
AcDbArc
 50
176.345
 51
266.345
  0
ARC
  5
334
100
AcDbEntity
  8
Frei
  6
CONTINUOUS
 62
           7
100
AcDbCircle
 10
-14173.549108173165
 20
-13185.860362288238
 30
0.0
 40
1.5
100
AcDbArc
 50
266.345
 51
356.344999999999
  0
ARC
  5
335
100
AcDbEntity
  8
Frei
  6
CONTINUOUS
 62
           7
100
AcDbCircle
 10
-14160.744785389299
 20
-13173.651786693739
 30
0.0
 40
1.5
100
AcDbArc
 50
356.344999999999
 51
86.345
  0
ARC
  5
336
100
AcDbEntity
  8
Frei
  6
CONTINUOUS
 62
           7
100
AcDbCircle
 10
-14161.701013299346
 20
-13188.621276604355
 30
0.0
 40
1.5
100
AcDbArc
 50
266.345
 51
356.344999999999
  0
ARC
  5
337
100
AcDbEntity
  8
Frei
  6
CONTINUOUS
 62
           7
100
AcDbCircle
 10
-14170.071248607072
 20
-13131.41540921976
 30
0.0
 40
2.0
100
AcDbArc
 50
356.344999999999
 51
84.345
  0
ARC
  5
338
100
AcDbEntity
  8
Frei
  6
CONTINUOUS
 62
           7
100
AcDbCircle
 10
-14199.132319093529
 20
-13123.602838092329
 30
0.0
 40
1.0
100
AcDbArc
 50
356.344999999999
 51
86.345
  0
ARC
  5
339
100
AcDbEntity
  8
Frei
  6
CONTINUOUS
 62
           7
100
AcDbCircle
 10
-14201.108523440957
 20
-13154.539783907603
 30
0.0
 40
1.0
100
AcDbArc
 50
266.344999999999
 51
356.344999999999
  0
ARC
  5
33A
100
AcDbEntity
  8
Frei
  6
CONTINUOUS
 62
           7
100
AcDbCircle
 10
-14357.789184505411
 20
-13144.531265115798
 30
0.0
 40
1.0
100
AcDbArc
 50
176.345
 51
266.345
  0
ARC
  5
33B
100
AcDbEntity
  8
Frei
  6
CONTINUOUS
 62
           7
100
AcDbCircle
 10
-14355.812980157985
 20
-13113.594319300524
 30
0.0
 40
1.0
100
AcDbArc
 50
86.345
 51
176.345
  0
LINE
  5
33C
100
AcDbEntity
  8
Frei
  6
CONTINUOUS
 62
           7
100
AcDbLine
 10
-14636.511971794287
 20
-13096.581837367392
 30
0.0
 11
-14636.511971794287
 21
-13176.581837367392
 31
0.0
  0
LINE
  5
33D
100
AcDbEntity
  8
Frei
  6
CONTINUOUS
 62
           7
100
AcDbLine
 10
-14090.623086794289
 20
-13176.581837367392
 30
0.0
 11
-14090.623086794289
 21
-13096.581837367392
 31
0.0
  0
LINE
  5
33E
100
AcDbEntity
  8
Frei
  6
CONTINUOUS
 62
          15
100
AcDbLine
 10
-14539.811685418321
 20
-13096.581837367392
 30
0.0
 11
-14636.511971794287
 21
-13096.581837367392
 31
0.0
  0
LINE
  5
33F
100
AcDbEntity
  8
Frei
  6
GESTRICHELT
 62
          15
100
AcDbLine
 10
-14532.021364553653
 20
-13096.581837367392
 30
0.0
 11
-14539.811685418321
 21
-13096.581837367392
 31
0.0
  0
LINE
  5
340
100
AcDbEntity
  8
Frei
  6
CONTINUOUS
 62
          15
100
AcDbLine
 10
-14417.299360095582
 20
-13096.581837367392
 30
0.0
 11
-14532.021364553653
 21
-13096.581837367392
 31
0.0
  0
LINE
  5
341
100
AcDbEntity
  8
Frei
  6
GESTRICHELT
 62
          15
100
AcDbLine
 10
-14320.955951355951
 20
-13096.581837367392
 30
0.0
 11
-14417.299360095582
 21
-13096.581837367392
 31
0.0
  0
LINE
  5
342
100
AcDbEntity
  8
Frei
  6
CONTINUOUS
 62
          15
100
AcDbLine
 10
-14090.623086794289
 20
-13096.581837367392
 30
0.0
 11
-14320.955951355951
 21
-13096.581837367392
 31
0.0
  0
LINE
  5
343
100
AcDbEntity
  8
Frei
  6
CONTINUOUS
 62
          15
100
AcDbLine
 10
-14199.510421339288
 20
-13176.581837367392
 30
0.0
 11
-14636.511971794287
 21
-13176.581837367392
 31
0.0
  0
LINE
  5
344
100
AcDbEntity
  8
Frei
  6
GESTRICHELT
 62
          15
100
AcDbLine
 10
-14149.408513760722
 20
-13176.581837367392
 30
0.0
 11
-14199.510421339288
 21
-13176.581837367392
 31
0.0
  0
LINE
  5
345
100
AcDbEntity
  8
Frei
  6
CONTINUOUS
 62
          15
100
AcDbLine
 10
-14090.623086794289
 20
-13176.581837367392
 30
0.0
 11
-14149.408513760722
 21
-13176.581837367392
 31
0.0
  0
CIRCLE
  5
346
100
AcDbEntity
  8
FREI
  6
CONTINUOUS
 62
          15
100
AcDbCircle
 10
-14601.511971794287
 20
-13141.581837367392
 30
0.0
 40
10.0
  0
TEXT
  5
347
100
AcDbEntity
  8
FREI
  6
CONTINUOUS
 62
          15
100
AcDbText
 10
-14531.152286711995
 20
-12954.921886988988
 30
0.0
 40
3.527777671814
  1
300-701
 41
0.899999979725
  7
GOTHICG
100
AcDbText
  0
ENDSEC
  0
SECTION
  2
OBJECTS
  0
DICTIONARY
  5
19
100
AcDbDictionary
  3
ACAD_GROUP
350
1A
  3
ACAD_MLINESTYLE
350
1B
  0
DICTIONARY
  5
1A
102
{ACAD_REACTORS
330
19
102
}
100
AcDbDictionary
  0
DICTIONARY
  5
1B
102
{ACAD_REACTORS
330
19
102
}
100
AcDbDictionary
  3
STANDARD
350
1C
  0
MLINESTYLE
  5
1C
102
{ACAD_REACTORS
330
1B
102
}
100
AcDbMlineStyle
  2
STANDARD
 70
           0
  3

 62
           0
 51
90.0
 52
90.0
 71
           2
 49
0.5
 62
         256
  6
BYLAYER
 49
-0.5
 62
         256
  6
BYLAYER
  0
ENDSEC
  0
EOF
