  0
SECTION
  2
HEADER
  9
$ACADVER
  1
AC1012
  9
$DWGCODEPAGE
  3
dos850
  9
$INSBASE
 10
0.0
 20
0.0
 30
0.0
  9
$EXTMIN
 10
-5126.593763822328
 20
510.151397090642
 30
0.0
  9
$EXTMAX
 10
-4582.683607822328
 20
760.151397090642
 30
0.0
  9
$LIMMIN
 10
-5126.593763822328
 20
510.151397090642
  9
$LIMMAX
 10
-4582.683607822328
 20
760.151397090642
  9
$ORTHOMODE
 70
           0
  9
$REGENMODE
 70
           1
  9
$FILLMODE
 70
           1
  9
$QTEXTMODE
 70
           0
  9
$MIRRTEXT
 70
           1
  9
$DRAGMODE
 70
           2
  9
$LTSCALE
 40
5.0
  9
$OSMODE
 70
           0
  9
$ATTMODE
 70
           1
  9
$TEXTSIZE
 40
0.2
  9
$TRACEWID
 40
0.05
  9
$TEXTSTYLE
  7
TXT
  9
$CLAYER
  8
0
  9
$CELTYPE
  6
CONTINUOUS
  9
$CECOLOR
 62
         256
  9
$CELTSCALE
 40
1.0
  9
$DELOBJ
 70
           1
  9
$DISPSILH
 70
           0
  9
$DIMSCALE
 40
1.0
  9
$DIMASZ
 40
3.5
  9
$DIMEXO
 40
0.0625
  9
$DIMDLI
 40
0.38
  9
$DIMRND
 40
0.0
  9
$DIMDLE
 40
0.0
  9
$DIMEXE
 40
0.18
  9
$DIMTP
 40
0.0
  9
$DIMTM
 40
0.0
  9
$DIMTXT
 40
3.5
  9
$DIMCEN
 40
0.09
  9
$DIMTSZ
 40
0.0
  9
$DIMTOL
 70
           0
  9
$DIMLIM
 70
           0
  9
$DIMTIH
 70
           1
  9
$DIMTOH
 70
           1
  9
$DIMSE1
 70
           0
  9
$DIMSE2
 70
           0
  9
$DIMTAD
 70
           0
  9
$DIMZIN
 70
           0
  9
$DIMBLK
  1

  9
$DIMASO
 70
           1
  9
$DIMSHO
 70
           1
  9
$DIMPOST
  1

  9
$DIMAPOST
  1

  9
$DIMALT
 70
           0
  9
$DIMALTD
 70
           2
  9
$DIMALTF
 40
25.4
  9
$DIMLFAC
 40
1.0
  9
$DIMTOFL
 70
           0
  9
$DIMTVP
 40
0.0
  9
$DIMTIX
 70
           0
  9
$DIMSOXD
 70
           0
  9
$DIMSAH
 70
           0
  9
$DIMBLK1
  1

  9
$DIMBLK2
  1

  9
$DIMSTYLE
  2
STANDARD
  9
$DIMCLRD
 70
           0
  9
$DIMCLRE
 70
           0
  9
$DIMCLRT
 70
           0
  9
$DIMTFAC
 40
1.0
  9
$DIMGAP
 40
0.09
  9
$DIMJUST
 70
           0
  9
$DIMSD1
 70
           0
  9
$DIMSD2
 70
           0
  9
$DIMTOLJ
 70
           1
  9
$DIMTZIN
 70
           0
  9
$DIMALTZ
 70
           0
  9
$DIMALTTZ
 70
           0
  9
$DIMFIT
 70
           3
  9
$DIMUPT
 70
           0
  9
$DIMUNIT
 70
           2
  9
$DIMDEC
 70
           4
  9
$DIMTDEC
 70
           4
  9
$DIMALTU
 70
           2
  9
$DIMALTTD
 70
           2
  9
$DIMTXSTY
  7
TXT
  9
$DIMAUNIT
 70
           0
  9
$LUNITS
 70
           2
  9
$LUPREC
 70
           2
  9
$SKETCHINC
 40
0.1
  9
$FILLETRAD
 40
0.0
  9
$AUNITS
 70
           0
  9
$AUPREC
 70
           2
  9
$MENU
  1
acad
  9
$ELEVATION
 40
0.0
  9
$PELEVATION
 40
0.0
  9
$THICKNESS
 40
0.0
  9
$LIMCHECK
 70
           0
  9
$BLIPMODE
 70
           1
  9
$CHAMFERA
 40
0.0
  9
$CHAMFERB
 40
0.0
  9
$CHAMFERC
 40
0.0
  9
$CHAMFERD
 40
0.0
  9
$SKPOLY
 70
           0
  9
$TDCREATE
 40
0.000000000
  9
$TDUPDATE
 40
0.000000000
  9
$TDINDWG
 40
0.0000000000
  9
$TDUSRTIMER
 40
0.0000000000
  9
$USRTIMER
 70
           1
  9
$ANGBASE
 50
0.0
  9
$ANGDIR
 70
           0
  9
$PDMODE
 70
           2
  9
$PDSIZE
 40
0.5
  9
$PLINEWID
 40
0.0
  9
$COORDS
 70
           0
  9
$SPLFRAME
 70
           0
  9
$SPLINETYPE
 70
           6
  9
$SPLINESEGS
 70
           8
  9
$ATTDIA
 70
           0
  9
$ATTREQ
 70
           1
  9
$HANDLING
 70
           1
  9
$HANDSEED
  5
21C
  9
$SURFTAB1
 70
           6
  9
$SURFTAB2
 70
           6
  9
$SURFTYPE
 70
           6
  9
$SURFU
 70
           6
  9
$SURFV
 70
           6
  9
$UCSNAME
  2

  9
$UCSORG
 10
0.0
 20
0.0
 30
0.0
  9
$UCSXDIR
 10
1.0
 20
0.0
 30
0.0
  9
$UCSYDIR
 10
0.0
 20
1.0
 30
0.0
  9
$PUCSNAME
  2

  9
$PUCSORG
 10
0.0
 20
0.0
 30
0.0
  9
$PUCSXDIR
 10
1.0
 20
0.0
 30
0.0
  9
$PUCSYDIR
 10
0.0
 20
1.0
 30
0.0
  9
$USERI1
 70
           0
  9
$USERI2
 70
           0
  9
$USERI3
 70
           0
  9
$USERI4
 70
           0
  9
$USERI5
 70
           0
  9
$USERR1
 40
0.0
  9
$USERR2
 40
0.0
  9
$USERR3
 40
0.0
  9
$USERR4
 40
0.0
  9
$USERR5
 40
0.0
  9
$WORLDVIEW
 70
           1
  9
$SHADEDGE
 70
           3
  9
$SHADEDIF
 70
          70
  9
$TILEMODE
 70
           1
  9
$MAXACTVP
 70
          16
  9
$PINSBASE
 10
0.0
 20
0.0
 30
0.0
  9
$PLIMCHECK
 70
           0
  9
$PEXTMIN
 10
1.000000000000E+20
 20
1.000000000000E+20
 30
1.000000000000E+20
  9
$PEXTMAX
 10
-1.000000000000E+20
 20
-1.000000000000E+20
 30
-1.000000000000E+20
  9
$PLIMMIN
 10
0.0
 20
0.0
  9
$PLIMMAX
 10
12.0
 20
9.0
  9
$UNITMODE
 70
           0
  9
$VISRETAIN
 70
           0
  9
$PLINEGEN
 70
           1
  9
$PSLTSCALE
 70
           0
  9
$TREEDEPTH
 70
        3020
  9
$PICKSTYLE
 70
           1
  9
$CMLSTYLE
  2
STANDARD
  9
$CMLJUST
 70
           0
  9
$CMLSCALE
 40
1.0
  9
$SAVEIMAGES
 70
           0
  0
ENDSEC
  0
SECTION
  2
CLASSES
  0
CLASS
  1
LWPOLYLINE
  2
AcDbPolyline
  3
"AutoCAD"
 90
        0
280
           0
281
           1
  0
CLASS
  1
IMAGE
  2
AcDbRasterImage
  3
ISM
 90
      127
280
           0
281
           1
  0
CLASS
  1
OLE2FRAME
  2
AcDbOle2Frame
  3
""
 90
        0
280
           0
281
           1
  0
CLASS
  1
HATCH
  2
AcDbHatch
  3
"ACAD_SEDONA"
 90
        0
280
           0
281
           1
  0
CLASS
  1
DICTIONARYVAR
  2
AcDbDictionaryVar
  3
"AutoCAD"
 90
        0
280
           0
281
           0
  0
CLASS
  1
RASTERVARIABLES
  2
AcDbRasterVariables
  3
ISM
 90
        0
280
           0
281
           0
  0
CLASS
  1
IMAGEDEF
  2
AcDbRasterImageDef
  3
ISM
 90
        0
280
           0
281
           0
  0
CLASS
  1
IMAGEDEF_REACTOR
  2
AcDbRasterImageDefReactor
  3
ISM
 90
        1
280
           0
281
           0
  0
CLASS
  1
IDBUFFER
  2
AcDbIdBuffer
  3
"Acad"
 90
        0
280
           0
281
           0
  0
CLASS
  1
SPATIAL_FILTER
  2
AcDbSpatialFilter
  3
"Acad"
 90
        0
280
           0
281
           0
  0
CLASS
  1
XRECORD
  2
AcDbXrecord
  3
"<Built In>"
 90
        0
280
           0
281
           0
  0
ENDSEC
  0
SECTION
  2
TABLES
  0
TABLE
  2
VPORT
  5
7
100
AcDbSymbolTable
 70
           1
  0
VPORT
  5
15
100
AcDbSymbolTableRecord
100
AcDbViewportTableRecord
  2
*ACTIVE
 70
           0
 10
0.0
 20
0.0
 11
1.0
 21
1.0
 12
6.591288
 22
4.579184
 13
0.0
 23
0.0
 14
1.0
 24
1.0
 15
0.0
 25
0.0
 16
0.0
 26
0.0
 36
1.0
 17
0.0
 27
0.0
 37
0.0
 40
9.158369
 41
0.688564
 42
50.0
 43
0.0
 44
0.0
 50
0.0
 51
0.0
 71
           0
 72
         100
 73
           1
 74
           1
 75
           0
 76
           0
 77
           0
 78
           0
  0
ENDTAB
  0
TABLE
  2
LTYPE
  5
4
100
AcDbSymbolTable
 70
           5
  0
LTYPE
  5
11
100
AcDbSymbolTableRecord
100
AcDbLinetypeTableRecord
  2
BYBLOCK
 70
           0
  3

 72
          65
 73
           0
 40
0.0
  0
LTYPE
  5
12
100
AcDbSymbolTableRecord
100
AcDbLinetypeTableRecord
  2
BYLAYER
 70
           0
  3

 72
          65
 73
           0
 40
0.0
  0
LTYPE
  5
13
100
AcDbSymbolTableRecord
100
AcDbLinetypeTableRecord
  2
CONTINUOUS
 70
           0
  3
Solid line
 72
          65
 73
           0
 40
0.0
  0
LTYPE
  5
1D
100
AcDbSymbolTableRecord
100
AcDbLinetypeTableRecord
  2
GESTRICHELT
 70
           0
  3

 72
          65
 73
           2
 40
0.75
 49
0.5
 74
           0
 49
-0.25
 74
           0
  0
LTYPE
  5
1E
100
AcDbSymbolTableRecord
100
AcDbLinetypeTableRecord
  2
STRICHPUNKT
 70
           0
  3

 72
          65
 73
           4
 40
1.0
 49
0.5
 74
           0
 49
-0.25
 74
           0
 49
0.0
 74
           0
 49
-0.25
 74
           0
  0
ENDTAB
  0
TABLE
  2
LAYER
  5
2
100
AcDbSymbolTable
 70
           3
  0
LAYER
  5
14
100
AcDbSymbolTableRecord
100
AcDbLayerTableRecord
  2
0
 70
           0
 62
           7
  6
CONTINUOUS
  0
LAYER
  5
20
100
AcDbSymbolTableRecord
100
AcDbLayerTableRecord
  2
BLACK
 70
           0
 62
           7
  6
CONTINUOUS
  0
LAYER
  5
21
100
AcDbSymbolTableRecord
100
AcDbLayerTableRecord
  2
WHITE
 70
           0
 62
           7
  6
CONTINUOUS
  0
ENDTAB
  0
TABLE
  2
STYLE
  5
3
100
AcDbSymbolTable
 70
           2
  0
STYLE
  5
17
100
AcDbSymbolTableRecord
100
AcDbTextStyleTableRecord
  2
TXT
 70
           0
 40
3.5
 41
1.0
 50
0.0
 71
           0
 42
3.5
  3
TXT
  4

  0
STYLE
  5
1F
100
AcDbSymbolTableRecord
100
AcDbTextStyleTableRecord
  2
GOTHICG
 70
           0
 40
3.5
 41
1.0
 50
0.0
 71
           0
 42
3.5
  3
GOTHICG
  4

  0
ENDTAB
  0
TABLE
  2
VIEW
  5
5
100
AcDbSymbolTable
 70
           0
  0
ENDTAB
  0
TABLE
  2
UCS
  5
6
100
AcDbSymbolTable
 70
           0
  0
ENDTAB
  0
TABLE
  2
APPID
  5
8
100
AcDbSymbolTable
 70
           2
  0
APPID
  5
16
100
AcDbSymbolTableRecord
100
AcDbRegAppTableRecord
  2
ACAD
 70
           0
  0
APPID
  5
22
100
AcDbSymbolTableRecord
100
AcDbRegAppTableRecord
  2
MegaCADPntStyle
 70
           0
  0
ENDTAB
  0
TABLE
  2
DIMSTYLE
  5
9
100
AcDbSymbolTable
 70
           1
  0
DIMSTYLE
105
18
100
AcDbSymbolTableRecord
100
AcDbDimStyleTableRecord
  2
STANDARD
 70
           0
  3

  4

  5

  6

  7

 40
1.0
 41
0.18
 42
0.0625
 43
0.38
 44
0.18
 45
0.0
 46
0.0
 47
0.0
 48
0.0
140
0.18
141
0.09
142
0.0
143
25.4
144
1.0
145
0.0
146
1.0
147
0.09
 71
           0
 72
           0
 73
           1
 74
           1
 75
           0
 76
           0
 77
           0
 78
           0
170
           0
171
           2
172
           0
173
           0
174
           0
175
           0
176
           0
177
           0
178
           0
270
           2
271
           4
272
           4
273
           2
274
           2
340
17
275
           0
280
           0
281
           0
282
           0
283
           1
284
           0
285
           0
286
           0
287
           0
288
           0
  0
ENDTAB
  0
TABLE
  2
BLOCK_RECORD
  5
1
100
AcDbSymbolTable
 70
           2
  0
BLOCK_RECORD
  5
A
100
AcDbSymbolTableRecord
100
AcDbBlockTableRecord
  2
*MODEL_SPACE
  0
BLOCK_RECORD
  5
B
100
AcDbSymbolTableRecord
100
AcDbBlockTableRecord
  2
*PAPER_SPACE
  0
BLOCK_RECORD
  5
23
100
AcDbSymbolTableRecord
100
AcDbBlockTableRecord
  2
ELIPPSE
  0
BLOCK_RECORD
  5
24
100
AcDbSymbolTableRecord
100
AcDbBlockTableRecord
  2
MAK1
  0
ENDTAB
  0
ENDSEC
  0
SECTION
  2
BLOCKS
  0
BLOCK
  5
D
100
AcDbEntity
  8
0
100
AcDbBlockBegin
  2
*MODEL_SPACE
 70
           0
 10
0.0
 20
0.0
 30
0.0
  3
*MODEL_SPACE
  1

  0
ENDBLK
  5
E
100
AcDbEntity
  8
0
100
AcDbBlockEnd
  0
BLOCK
  5
F
100
AcDbEntity
 67
           1
  8
0
100
AcDbBlockBegin
  2
*PAPER_SPACE
 70
           0
 10
0.0
 20
0.0
 30
0.0
  3
*PAPER_SPACE
  1

  0
ENDBLK
  5
10
100
AcDbEntity
 67
           1
  8
0
100
AcDbBlockEnd
  0
BLOCK
  5
1EB
100
AcDbEntity
  8
0
100
AcDbBlockBegin
  2
ELIPPSE
 70
          64
 10
0.0
 20
0.0
 30
0.0
  3
ELIPPSE
  1

  0
CIRCLE
  5
1EC
100
AcDbEntity
  8
0
  6
BYBLOCK
 62
           0
100
AcDbCircle
 10
0.0
 20
0.0
 30
0.0
 40
1.0
  0
ENDBLK
  5
1ED
100
AcDbEntity
  8
0
  6
BYBLOCK
 62
           0
100
AcDbBlockEnd
  0
BLOCK
  5
1EE
100
AcDbEntity
  8
0
100
AcDbBlockBegin
  2
MAK1
 70
          64
 10
0.0
 20
0.0
 30
0.0
  3
MAK1
  1

  0
LINE
  5
1EF
100
AcDbEntity
  8
WHITE
  6
CONTINUOUS
 62
           2
100
AcDbLine
 10
-15.506932297429
 20
611.597948837689
 30
0.0
 11
-15.596491646588
 21
611.687508186849
 31
0.0
  0
LINE
  5
1F0
100
AcDbEntity
  8
WHITE
  6
CONTINUOUS
 62
           2
100
AcDbLine
 10
-14.446272125648
 20
611.597948837689
 30
0.0
 11
-15.596491646588
 21
612.748168358628
 31
0.0
  0
LINE
  5
1F1
100
AcDbEntity
  8
WHITE
  6
CONTINUOUS
 62
           2
100
AcDbLine
 10
-13.596491646588
 20
611.808828530409
 30
0.0
 11
-15.596491646587
 21
613.808828530409
 31
0.0
  0
LINE
  5
1F2
100
AcDbEntity
  8
WHITE
  6
CONTINUOUS
 62
           2
100
AcDbLine
 10
-13.596491646589
 20
612.869488702188
 30
0.0
 11
-15.596491646589
 21
614.869488702188
 31
0.0
  0
LINE
  5
1F3
100
AcDbEntity
  8
WHITE
  6
CONTINUOUS
 62
           2
100
AcDbLine
 10
-13.596491646588
 20
613.930148873968
 30
0.0
 11
-15.596491646587
 21
615.930148873968
 31
0.0
  0
LINE
  5
1F4
100
AcDbEntity
  8
WHITE
  6
CONTINUOUS
 62
           2
100
AcDbLine
 10
-13.596491646587
 20
614.990809045748
 30
0.0
 11
-15.596491646588
 21
616.990809045747
 31
0.0
  0
LINE
  5
1F5
100
AcDbEntity
  8
WHITE
  6
CONTINUOUS
 62
           2
100
AcDbLine
 10
-13.596491646588
 20
616.051469217528
 30
0.0
 11
-15.596491646588
 21
618.051469217527
 31
0.0
  0
LINE
  5
1F6
100
AcDbEntity
  8
WHITE
  6
CONTINUOUS
 62
           2
100
AcDbLine
 10
-13.596491646588
 20
617.112129389307
 30
0.0
 11
-15.596491646588
 21
619.112129389307
 31
0.0
  0
LINE
  5
1F7
100
AcDbEntity
  8
WHITE
  6
CONTINUOUS
 62
           2
100
AcDbLine
 10
-13.596491646588
 20
618.172789561087
 30
0.0
 11
-15.596491646588
 21
620.172789561087
 31
0.0
  0
LINE
  5
1F8
100
AcDbEntity
  8
WHITE
  6
CONTINUOUS
 62
           2
100
AcDbLine
 10
-13.596491646588
 20
619.233449732867
 30
0.0
 11
-15.596491646588
 21
621.233449732867
 31
0.0
  0
LINE
  5
1F9
100
AcDbEntity
  8
WHITE
  6
CONTINUOUS
 62
           2
100
AcDbLine
 10
-13.596491646589
 20
620.294109904647
 30
0.0
 11
-15.596491646589
 21
622.294109904647
 31
0.0
  0
LINE
  5
1FA
100
AcDbEntity
  8
WHITE
  6
CONTINUOUS
 62
           2
100
AcDbLine
 10
-13.596491646587
 20
621.354770076426
 30
0.0
 11
-15.596491646587
 21
623.354770076426
 31
0.0
  0
LINE
  5
1FB
100
AcDbEntity
  8
WHITE
  6
CONTINUOUS
 62
           2
100
AcDbLine
 10
-13.596491646587
 20
622.415430248206
 30
0.0
 11
-15.596491646588
 21
624.415430248206
 31
0.0
  0
LINE
  5
1FC
100
AcDbEntity
  8
WHITE
  6
CONTINUOUS
 62
           2
100
AcDbLine
 10
-13.596491646588
 20
623.476090419986
 30
0.0
 11
-15.596491646588
 21
625.476090419986
 31
0.0
  0
LINE
  5
1FD
100
AcDbEntity
  8
WHITE
  6
CONTINUOUS
 62
           2
100
AcDbLine
 10
-13.596491646588
 20
624.536750591766
 30
0.0
 11
-15.596491646588
 21
626.536750591766
 31
0.0
  0
LINE
  5
1FE
100
AcDbEntity
  8
WHITE
  6
CONTINUOUS
 62
           2
100
AcDbLine
 10
-13.596491646588
 20
625.597410763546
 30
0.0
 11
-15.596491646588
 21
627.597410763545
 31
0.0
  0
LINE
  5
1FF
100
AcDbEntity
  8
WHITE
  6
CONTINUOUS
 62
           2
100
AcDbLine
 10
-13.596491646588
 20
626.658070935325
 30
0.0
 11
-15.596491646588
 21
628.658070935325
 31
0.0
  0
LINE
  5
200
100
AcDbEntity
  8
WHITE
  6
CONTINUOUS
 62
           2
100
AcDbLine
 10
-13.596491646589
 20
627.718731107105
 30
0.0
 11
-15.596491646588
 21
629.718731107105
 31
0.0
  0
LINE
  5
201
100
AcDbEntity
  8
WHITE
  6
CONTINUOUS
 62
           2
100
AcDbLine
 10
-13.596491646587
 20
628.779391278885
 30
0.0
 11
-15.596491646587
 21
630.779391278885
 31
0.0
  0
LINE
  5
202
100
AcDbEntity
  8
WHITE
  6
CONTINUOUS
 62
           2
100
AcDbLine
 10
-13.596491646588
 20
629.840051450665
 30
0.0
 11
-15.354389033612
 21
631.597948837689
 31
0.0
  0
LINE
  5
203
100
AcDbEntity
  8
WHITE
  6
CONTINUOUS
 62
           2
100
AcDbLine
 10
-13.596491646588
 20
630.900711622444
 30
0.0
 11
-14.293728861832
 21
631.597948837689
 31
0.0
  0
LINE
  5
204
100
AcDbEntity
  8
WHITE
  6
CONTINUOUS
 62
           2
100
AcDbLine
 10
-15.596491646589
 20
631.406213139101
 30
0.0
 11
-15.404755948002
 21
631.597948837689
 31
0.0
  0
LINE
  5
205
100
AcDbEntity
  8
WHITE
  6
CONTINUOUS
 62
           2
100
AcDbLine
 10
-15.596491646588
 20
630.345552967321
 30
0.0
 11
-14.34409577622
 21
631.597948837689
 31
0.0
  0
LINE
  5
206
100
AcDbEntity
  8
WHITE
  6
CONTINUOUS
 62
           2
100
AcDbLine
 10
-15.596491646588
 20
629.284892795542
 30
0.0
 11
-13.596491646588
 21
631.284892795542
 31
0.0
  0
LINE
  5
207
100
AcDbEntity
  8
WHITE
  6
CONTINUOUS
 62
           2
100
AcDbLine
 10
-15.596491646588
 20
628.224232623762
 30
0.0
 11
-13.596491646588
 21
630.224232623762
 31
0.0
  0
LINE
  5
208
100
AcDbEntity
  8
WHITE
  6
CONTINUOUS
 62
           2
100
AcDbLine
 10
-15.596491646587
 20
627.163572451982
 30
0.0
 11
-13.596491646588
 21
629.163572451982
 31
0.0
  0
LINE
  5
209
100
AcDbEntity
  8
WHITE
  6
CONTINUOUS
 62
           2
100
AcDbLine
 10
-15.596491646588
 20
626.102912280202
 30
0.0
 11
-13.596491646587
 21
628.102912280202
 31
0.0
  0
LINE
  5
20A
100
AcDbEntity
  8
WHITE
  6
CONTINUOUS
 62
           2
100
AcDbLine
 10
-15.596491646587
 20
625.042252108423
 30
0.0
 11
-13.596491646589
 21
627.042252108422
 31
0.0
  0
LINE
  5
20B
100
AcDbEntity
  8
WHITE
  6
CONTINUOUS
 62
           2
100
AcDbLine
 10
-15.596491646588
 20
623.981591936643
 30
0.0
 11
-13.596491646589
 21
625.981591936643
 31
0.0
  0
LINE
  5
20C
100
AcDbEntity
  8
WHITE
  6
CONTINUOUS
 62
           2
100
AcDbLine
 10
-15.596491646588
 20
622.920931764863
 30
0.0
 11
-13.596491646588
 21
624.920931764863
 31
0.0
  0
LINE
  5
20D
100
AcDbEntity
  8
WHITE
  6
CONTINUOUS
 62
           2
100
AcDbLine
 10
-15.596491646588
 20
621.860271593083
 30
0.0
 11
-13.596491646588
 21
623.860271593083
 31
0.0
  0
LINE
  5
20E
100
AcDbEntity
  8
WHITE
  6
CONTINUOUS
 62
           2
100
AcDbLine
 10
-15.596491646588
 20
620.799611421303
 30
0.0
 11
-13.596491646588
 21
622.799611421303
 31
0.0
  0
LINE
  5
20F
100
AcDbEntity
  8
WHITE
  6
CONTINUOUS
 62
           2
100
AcDbLine
 10
-15.596491646587
 20
619.738951249524
 30
0.0
 11
-13.596491646588
 21
621.738951249524
 31
0.0
  0
LINE
  5
210
100
AcDbEntity
  8
WHITE
  6
CONTINUOUS
 62
           2
100
AcDbLine
 10
-15.596491646588
 20
618.678291077744
 30
0.0
 11
-13.596491646587
 21
620.678291077744
 31
0.0
  0
LINE
  5
211
100
AcDbEntity
  8
WHITE
  6
CONTINUOUS
 62
           2
100
AcDbLine
 10
-15.596491646588
 20
617.617630905964
 30
0.0
 11
-13.596491646589
 21
619.617630905964
 31
0.0
  0
LINE
  5
212
100
AcDbEntity
  8
WHITE
  6
CONTINUOUS
 62
           2
100
AcDbLine
 10
-15.596491646588
 20
616.556970734184
 30
0.0
 11
-13.596491646589
 21
618.556970734184
 31
0.0
  0
LINE
  5
213
100
AcDbEntity
  8
WHITE
  6
CONTINUOUS
 62
           2
100
AcDbLine
 10
-15.596491646588
 20
615.496310562405
 30
0.0
 11
-13.596491646588
 21
617.496310562405
 31
0.0
  0
LINE
  5
214
100
AcDbEntity
  8
WHITE
  6
CONTINUOUS
 62
           2
100
AcDbLine
 10
-15.596491646588
 20
614.435650390625
 30
0.0
 11
-13.596491646588
 21
616.435650390625
 31
0.0
  0
LINE
  5
215
100
AcDbEntity
  8
WHITE
  6
CONTINUOUS
 62
           2
100
AcDbLine
 10
-15.596491646587
 20
613.374990218845
 30
0.0
 11
-13.596491646588
 21
615.374990218845
 31
0.0
  0
LINE
  5
216
100
AcDbEntity
  8
WHITE
  6
CONTINUOUS
 62
           2
100
AcDbLine
 10
-15.596491646587
 20
612.314330047065
 30
0.0
 11
-13.596491646588
 21
614.314330047065
 31
0.0
  0
LINE
  5
217
100
AcDbEntity
  8
WHITE
  6
CONTINUOUS
 62
           2
100
AcDbLine
 10
-15.252212684185
 20
611.597948837689
 30
0.0
 11
-13.596491646587
 21
613.253669875285
 31
0.0
  0
LINE
  5
218
100
AcDbEntity
  8
WHITE
  6
CONTINUOUS
 62
           2
100
AcDbLine
 10
-14.191552512405
 20
611.597948837688
 30
0.0
 11
-13.596491646589
 21
612.193009703506
 31
0.0
  0
ENDBLK
  5
219
100
AcDbEntity
  8
0
  6
BYBLOCK
 62
           0
100
AcDbBlockEnd
  0
ENDSEC
  0
SECTION
  2
ENTITIES
  0
INSERT
  5
25
100
AcDbEntity
  8
0
  6
CONTINUOUS
 62
           7
100
AcDbBlockReference
  2
MAK1
 10
-4902.026468139535
 20
37.770470740358
 30
0.0
 50
353.589999999999
  0
LINE
  5
26
100
AcDbEntity
  8
0
  6
CONTINUOUS
 62
          15
100
AcDbLine
 10
-5119.593763822328
 20
760.151397090642
 30
0.0
 11
-4918.593763822328
 21
760.151397090642
 31
0.0
  0
LINE
  5
27
100
AcDbEntity
  8
0
  6
CONTINUOUS
 62
          15
100
AcDbLine
 10
-4918.593763822328
 20
595.151336090642
 30
0.0
 11
-4918.593763822328
 21
510.151397090642
 31
0.0
  0
LINE
  5
28
100
AcDbEntity
  8
0
  6
GESTRICHELT
 62
          15
100
AcDbLine
 10
-4918.593763822328
 20
678.423104423627
 30
0.0
 11
-4918.593763822328
 21
595.151336090642
 31
0.0
  0
LINE
  5
29
100
AcDbEntity
  8
0
  6
CONTINUOUS
 62
          15
100
AcDbLine
 10
-4918.593763822328
 20
760.151397090642
 30
0.0
 11
-4918.593763822328
 21
678.423104423627
 31
0.0
  0
LINE
  5
2A
100
AcDbEntity
  8
0
  6
CONTINUOUS
 62
          15
100
AcDbLine
 10
-4918.593763822328
 20
510.151397090642
 30
0.0
 11
-5119.593763822328
 21
510.151397090642
 31
0.0
  0
LINE
  5
2B
100
AcDbEntity
  8
0
  6
CONTINUOUS
 62
          15
100
AcDbLine
 10
-5119.593763822328
 20
660.151397090642
 30
0.0
 11
-5119.593763822328
 21
760.151397090642
 31
0.0
  0
LINE
  5
2C
100
AcDbEntity
  8
0
  6
GESTRICHELT
 62
          15
100
AcDbLine
 10
-5119.593763822328
 20
610.151397090642
 30
0.0
 11
-5119.593763822328
 21
660.151397090642
 31
0.0
  0
LINE
  5
2D
100
AcDbEntity
  8
0
  6
CONTINUOUS
 62
          15
100
AcDbLine
 10
-5119.593763822328
 20
510.151397090642
 30
0.0
 11
-5119.593763822328
 21
610.151397090642
 31
0.0
  0
LINE
  5
2E
100
AcDbEntity
  8
0
  6
STRICHPUNKT
 62
          15
100
AcDbLine
 10
-5019.093763822328
 20
760.151397090642
 30
0.0
 11
-5019.093763822328
 21
510.151397090642
 31
0.0
  0
LINE
  5
2F
100
AcDbEntity
  8
0
  6
GESTRICHELT
 62
          15
100
AcDbLine
 10
-5119.593763822328
 20
635.151397090642
 30
0.0
 11
-4918.593763822328
 21
635.151397090642
 31
0.0
  0
CIRCLE
  5
30
100
AcDbEntity
  8
0
  6
CONTINUOUS
 62
          15
100
AcDbCircle
 10
-5019.093763822328
 20
635.151397090642
 30
0.0
 40
10.25
  0
LINE
  5
31
100
AcDbEntity
  8
0
  6
GESTRICHELT
 62
          15
100
AcDbLine
 10
-4911.593763822328
 20
660.151397090642
 30
0.0
 11
-4911.593763822328
 21
610.151397090642
 31
0.0
  0
LINE
  5
32
100
AcDbEntity
  8
0
  6
CONTINUOUS
 62
          15
100
AcDbLine
 10
-5126.593763822328
 20
610.151397090642
 30
0.0
 11
-5126.593763822328
 21
660.151397090642
 31
0.0
  0
LINE
  5
33
100
AcDbEntity
  8
0
  6
GESTRICHELT
 62
          15
100
AcDbLine
 10
-5079.093763822328
 20
610.151397090642
 30
0.0
 11
-4911.593763822328
 21
610.151397090642
 31
0.0
  0
LINE
  5
34
100
AcDbEntity
  8
0
  6
CONTINUOUS
 62
          15
100
AcDbLine
 10
-5126.593763822328
 20
610.151397090642
 30
0.0
 11
-5079.093763822328
 21
610.151397090642
 31
0.0
  0
LINE
  5
35
100
AcDbEntity
  8
0
  6
GESTRICHELT
 62
          15
100
AcDbLine
 10
-5079.093763822328
 20
660.151397090642
 30
0.0
 11
-4911.593763822328
 21
660.151397090642
 31
0.0
  0
LINE
  5
36
100
AcDbEntity
  8
0
  6
CONTINUOUS
 62
          15
100
AcDbLine
 10
-5126.593763822328
 20
660.151397090642
 30
0.0
 11
-5079.093763822328
 21
660.151397090642
 31
0.0
  0
TEXT
  5
37
100
AcDbEntity
  8
0
  6
CONTINUOUS
 62
          15
100
AcDbText
 10
-5085.857472405186
 20
536.493807160974
 30
0.0
 40
3.5
  1
200-730
 41
0.900000010218
  7
GOTHICG
100
AcDbText
  0
CIRCLE
  5
38
100
AcDbEntity
  8
0
  6
GESTRICHELT
 62
          15
100
AcDbCircle
 10
-5019.093763822328
 20
635.151397090642
 30
0.0
 40
17.5
  0
ARC
  5
39
100
AcDbEntity
  8
0
  6
GESTRICHELT
 62
          15
100
AcDbCircle
 10
-5019.093763822328
 20
635.151397090642
 30
0.0
 40
22.5
100
AcDbArc
 50
109.064916387402
 51
186.057558731017
  0
ARC
  5
3A
100
AcDbEntity
  8
0
  6
CONTINUOUS
 62
          15
100
AcDbCircle
 10
-5019.093763822328
 20
635.151397090642
 30
0.0
 40
22.5
100
AcDbArc
 50
186.057558731017
 51
109.064916387402
  0
CIRCLE
  5
3B
100
AcDbEntity
  8
0
  6
CONTINUOUS
 62
          15
100
AcDbCircle
 10
-4622.683607822328
 20
635.151397090642
 30
0.0
 40
6.25
  0
LINE
  5
3C
100
AcDbEntity
  8
0
  6
GESTRICHELT
 62
          15
100
AcDbLine
 10
-4889.471741864134
 20
675.151399475912
 30
0.0
 11
-5079.093763822328
 21
675.151321742868
 31
0.0
  0
LINE
  5
3D
100
AcDbEntity
  8
0
  6
CONTINUOUS
 62
          15
100
AcDbLine
 10
-4880.831738328143
 20
675.151403017768
 30
0.0
 11
-4889.471741864134
 21
675.151399475912
 31
0.0
  0
LINE
  5
3E
100
AcDbEntity
  8
0
  6
GESTRICHELT
 62
          15
100
AcDbLine
 10
-4696.893239230043
 20
675.151478420927
 30
0.0
 11
-4880.831738328143
 21
675.151403017768
 31
0.0
  0
LINE
  5
3F
100
AcDbEntity
  8
0
  6
CONTINUOUS
 62
          15
100
AcDbLine
 10
-4582.683607822328
 20
675.151525239657
 30
0.0
 11
-4696.893239230043
 21
675.151478420927
 31
0.0
  0
LINE
  5
40
100
AcDbEntity
  8
0
  6
CONTINUOUS
 62
          15
100
AcDbLine
 10
-5079.093763822328
 20
595.151336090642
 30
0.0
 11
-4582.683607822328
 21
595.151336090642
 31
0.0
  0
LINE
  5
41
100
AcDbEntity
  8
0
  6
CONTINUOUS
 62
          15
100
AcDbLine
 10
-4582.683607822328
 20
595.151336090642
 30
0.0
 11
-4582.683607822328
 21
675.151525239657
 31
0.0
  0
LINE
  5
42
100
AcDbEntity
  8
0
  6
CONTINUOUS
 62
          15
100
AcDbLine
 10
-5079.093763822328
 20
670.402659749113
 30
0.0
 11
-5079.093763822328
 21
595.151336090642
 31
0.0
  0
LINE
  5
43
100
AcDbEntity
  8
0
  6
GESTRICHELT
 62
          15
100
AcDbLine
 10
-5079.093763822328
 20
675.151321742868
 30
0.0
 11
-5079.093763822328
 21
670.402659749113
 31
0.0
  0
LINE
  5
44
100
AcDbEntity
  8
WHITE
  6
GESTRICHELT
 62
          15
100
AcDbLine
 10
-5058.338190178181
 20
699.144560788025
 30
0.0
 11
-5053.939152320306
 21
694.750725821846
 31
0.0
  0
LINE
  5
45
100
AcDbEntity
  8
WHITE
  6
CONTINUOUS
 62
          15
100
AcDbLine
 10
-5054.795216457116
 20
667.561053508616
 30
0.0
 11
-5054.802656272248
 21
667.32475563463
 31
0.0
  0
LINE
  5
46
100
AcDbEntity
  8
WHITE
  6
GESTRICHELT
 62
          15
100
AcDbLine
 10
-5053.939152320306
 20
694.750725821846
 30
0.0
 11
-5054.795216457116
 21
667.561053508616
 31
0.0
  0
LINE
  5
47
100
AcDbEntity
  8
WHITE
  6
CONTINUOUS
 62
          15
100
AcDbLine
 10
-5054.802656272248
 20
667.32475563463
 30
0.0
 11
-5008.840715495123
 21
649.647086104967
 31
0.0
  0
LINE
  5
48
100
AcDbEntity
  8
WHITE
  6
CONTINUOUS
 62
          15
100
AcDbLine
 10
-5008.840715495123
 20
649.647086104967
 30
0.0
 11
-5005.30518158919
 21
646.111552199034
 31
0.0
  0
ARC
  5
49
100
AcDbEntity
  8
WHITE
  6
CONTINUOUS
 62
          15
100
AcDbCircle
 10
-5015.911783306989
 20
635.504950481235
 30
0.0
 40
15.0
100
AcDbArc
 50
314.999999999999
 51
45.0
  0
LINE
  5
4A
100
AcDbEntity
  8
WHITE
  6
CONTINUOUS
 62
          15
100
AcDbLine
 10
-5005.30518158919
 20
624.898348763437
 30
0.0
 11
-5008.840715495122
 21
621.362814857504
 31
0.0
  0
ARC
  5
4B
100
AcDbEntity
  8
WHITE
  6
CONTINUOUS
 62
          15
100
AcDbCircle
 10
-5019.44731721292
 20
631.969416575303
 30
0.0
 40
15.0
100
AcDbArc
 50
224.999999999999
 51
314.999999999999
  0
LINE
  5
4C
100
AcDbEntity
  8
WHITE
  6
GESTRICHELT
 62
          15
100
AcDbLine
 10
-5078.967821780923
 20
670.276717707708
 30
0.0
 11
-5083.086927519711
 21
674.395823446496
 31
0.0
  0
LINE
  5
4D
100
AcDbEntity
  8
WHITE
  6
CONTINUOUS
 62
          15
100
AcDbLine
 10
-5030.053918930719
 20
621.362814857504
 30
0.0
 11
-5078.967821780923
 21
670.276717707708
 31
0.0
  0
ARC
  5
4E
100
AcDbEntity
  8
WHITE
  6
GESTRICHELT
 62
          15
100
AcDbCircle
 10
-5072.480325801913
 20
685.002425164294
 30
0.0
 40
15.0
100
AcDbArc
 50
135.0
 51
225.0
  0
LINE
  5
4F
100
AcDbEntity
  8
WHITE
  6
GESTRICHELT
 62
          15
100
AcDbLine
 10
-5083.086927519711
 20
695.609026882092
 30
0.0
 11
-5079.551393613778
 21
699.144560788025
 31
0.0
  0
ARC
  5
50
100
AcDbEntity
  8
WHITE
  6
GESTRICHELT
 62
          15
100
AcDbCircle
 10
-5068.94479189598
 20
688.537959070227
 30
0.0
 40
15.0
100
AcDbArc
 50
115.494701449336
 51
135.0
  0
ARC
  5
51
100
AcDbEntity
  8
WHITE
  6
CONTINUOUS
 62
          15
100
AcDbCircle
 10
-5068.94479189598
 20
688.537959070227
 30
0.0
 40
15.0
100
AcDbArc
 50
51.685298550662
 51
115.494701449336
  0
ARC
  5
52
100
AcDbEntity
  8
WHITE
  6
GESTRICHELT
 62
          15
100
AcDbCircle
 10
-5068.94479189598
 20
688.537959070227
 30
0.0
 40
15.0
100
AcDbArc
 50
45.0
 51
51.685298550662
  0
CIRCLE
  5
53
100
AcDbEntity
  8
WHITE
  6
CONTINUOUS
 62
          15
100
AcDbCircle
 10
-5069.298345286572
 20
685.355978554887
 30
0.0
 40
8.25
  0
LINE
  5
54
100
AcDbEntity
  8
BLACK
  6
GESTRICHELT
 62
          15
100
AcDbLine
 10
-4645.543720787593
 20
637.684469271901
 30
0.0
 11
-4643.310873273002
 21
657.55943825242
 31
0.0
  0
LINE
  5
55
100
AcDbEntity
  8
BLACK
  6
GESTRICHELT
 62
          15
100
AcDbLine
 10
-4643.310873273002
 20
657.55943825242
 30
0.0
 11
-4647.285867069106
 21
658.006007755338
 31
0.0
  0
LINE
  5
56
100
AcDbEntity
  8
BLACK
  6
CONTINUOUS
 62
          15
100
AcDbLine
 10
-4645.94615856035
 20
669.930989143649
 30
0.0
 11
-4675.361112651517
 21
673.235603465245
 31
0.0
  0
LINE
  5
57
100
AcDbEntity
  8
BLACK
  6
CONTINUOUS
 62
          15
100
AcDbLine
 10
-4675.361112651517
 20
673.235603465245
 30
0.0
 11
-4675.416933839382
 21
672.738729240732
 31
0.0
  0
LINE
  5
58
100
AcDbEntity
  8
BLACK
  6
CONTINUOUS
 62
          15
100
AcDbLine
 10
-4675.416933839382
 20
672.738729240732
 30
0.0
 11
-4821.299206156391
 21
689.127829997833
 31
0.0
  0
LINE
  5
59
100
AcDbEntity
  8
BLACK
  6
CONTINUOUS
 62
          15
100
AcDbLine
 10
-4821.299206156391
 20
689.127829997833
 30
0.0
 11
-4821.243384968526
 21
689.624704222347
 31
0.0
  0
LINE
  5
5A
100
AcDbEntity
  8
BLACK
  6
CONTINUOUS
 62
          15
100
AcDbLine
 10
-4821.243384968526
 20
689.624704222347
 30
0.0
 11
-4850.658339059693
 21
692.929318543942
 31
0.0
  0
LINE
  5
5B
100
AcDbEntity
  8
BLACK
  6
CONTINUOUS
 62
          15
100
AcDbLine
 10
-4850.658339059693
 20
692.929318543942
 30
0.0
 11
-4851.998047568448
 21
681.004337155631
 31
0.0
  0
LINE
  5
5C
100
AcDbEntity
  8
BLACK
  6
CONTINUOUS
 62
          15
100
AcDbLine
 10
-4851.998047568448
 20
681.004337155631
 30
0.0
 11
-4863.426154732247
 21
682.288224476521
 31
0.0
  0
LINE
  5
5D
100
AcDbEntity
  8
BLACK
  6
CONTINUOUS
 62
          15
100
AcDbLine
 10
-4863.426154732247
 20
682.288224476521
 30
0.0
 11
-4863.537797107976
 21
681.294476027495
 31
0.0
  0
LINE
  5
5E
100
AcDbEntity
  8
BLACK
  6
CONTINUOUS
 62
          15
100
AcDbLine
 10
-4863.537797107976
 20
681.294476027495
 30
0.0
 11
-4879.934646516905
 21
683.136575227033
 31
0.0
  0
LINE
  5
5F
100
AcDbEntity
  8
BLACK
  6
CONTINUOUS
 62
          15
100
AcDbLine
 10
-4879.934646516905
 20
683.136575227033
 30
0.0
 11
-4884.177056794628
 21
645.374134164048
 31
0.0
  0
LINE
  5
60
100
AcDbEntity
  8
BLACK
  6
CONTINUOUS
 62
          15
100
AcDbLine
 10
-4884.177056794628
 20
645.374134164048
 30
0.0
 11
-4867.7802073857
 21
643.532034964509
 31
0.0
  0
LINE
  5
61
100
AcDbEntity
  8
BLACK
  6
CONTINUOUS
 62
          15
100
AcDbLine
 10
-4867.7802073857
 20
643.532034964509
 30
0.0
 11
-4867.89184976143
 21
642.538286515483
 31
0.0
  0
LINE
  5
62
100
AcDbEntity
  8
BLACK
  6
CONTINUOUS
 62
          15
100
AcDbLine
 10
-4867.89184976143
 20
642.538286515483
 30
0.0
 11
-4856.463742597632
 21
641.254399194593
 31
0.0
  0
LINE
  5
63
100
AcDbEntity
  8
BLACK
  6
CONTINUOUS
 62
          15
100
AcDbLine
 10
-4856.463742597632
 20
641.254399194593
 30
0.0
 11
-4857.803451106387
 21
629.329417806282
 31
0.0
  0
LINE
  5
64
100
AcDbEntity
  8
BLACK
  6
GESTRICHELT
 62
          15
100
AcDbLine
 10
-4847.865966616128
 20
628.212994048986
 30
0.0
 11
-4828.388497015219
 21
626.024803484687
 31
0.0
  0
LINE
  5
65
100
AcDbEntity
  8
BLACK
  6
CONTINUOUS
 62
          15
100
AcDbLine
 10
-4857.803451106387
 20
629.329417806282
 30
0.0
 11
-4847.865966616128
 21
628.212994048986
 31
0.0
  0
LINE
  5
66
100
AcDbEntity
  8
BLACK
  6
GESTRICHELT
 62
          15
100
AcDbLine
 10
-4828.388497015219
 20
626.024803484687
 30
0.0
 11
-4828.332675827354
 21
626.5216777092
 31
0.0
  0
LINE
  5
67
100
AcDbEntity
  8
BLACK
  6
CONTINUOUS
 62
          15
100
AcDbLine
 10
-4819.985188855537
 20
625.583881753071
 30
0.0
 11
-4682.450403510346
 21
610.132576952098
 31
0.0
  0
LINE
  5
68
100
AcDbEntity
  8
BLACK
  6
GESTRICHELT
 62
          15
100
AcDbLine
 10
-4828.332675827354
 20
626.5216777092
 30
0.0
 11
-4819.985188855537
 21
625.583881753071
 31
0.0
  0
LINE
  5
69
100
AcDbEntity
  8
BLACK
  6
CONTINUOUS
 62
          15
100
AcDbLine
 10
-4682.450403510346
 20
610.132576952098
 30
0.0
 11
-4682.506224698211
 21
609.635702727585
 31
0.0
  0
LINE
  5
6A
100
AcDbEntity
  8
BLACK
  6
CONTINUOUS
 62
          15
100
AcDbLine
 10
-4682.506224698211
 20
609.635702727585
 30
0.0
 11
-4653.091270607043
 21
606.331088405989
 31
0.0
  0
LINE
  5
6B
100
AcDbEntity
  8
BLACK
  6
GESTRICHELT
 62
          15
100
AcDbLine
 10
-4651.751562098289
 20
618.2560697943
 30
0.0
 11
-4647.776568302184
 21
617.809500291382
 31
0.0
  0
LINE
  5
6C
100
AcDbEntity
  8
BLACK
  6
GESTRICHELT
 62
          15
100
AcDbLine
 10
-4647.776568302184
 20
617.809500291382
 30
0.0
 11
-4645.543720787593
 21
637.684469271901
 31
0.0
  0
LINE
  5
6D
100
AcDbEntity
  8
BLACK
  6
CONTINUOUS
 62
          15
100
AcDbLine
 10
-4675.416933839382
 20
672.738729240732
 30
0.0
 11
-4682.450403510346
 21
610.132576952098
 31
0.0
  0
LINE
  5
6E
100
AcDbEntity
  8
BLACK
  6
GESTRICHELT
 62
          15
100
AcDbLine
 10
-4823.812364772835
 20
666.757762530819
 30
0.0
 11
-4828.332675827354
 21
626.5216777092
 31
0.0
  0
LINE
  5
6F
100
AcDbEntity
  8
BLACK
  6
CONTINUOUS
 62
          15
100
AcDbLine
 10
-4821.299206156391
 20
689.127829997833
 30
0.0
 11
-4823.812364772835
 21
666.757762530819
 31
0.0
  0
LINE
  5
70
100
AcDbEntity
  8
BLACK
  6
CONTINUOUS
 62
          15
100
AcDbLine
 10
-4851.998047568448
 20
681.004337155631
 30
0.0
 11
-4856.463742597632
 21
641.254399194593
 31
0.0
  0
LINE
  5
71
100
AcDbEntity
  8
BLACK
  6
CONTINUOUS
 62
          15
100
AcDbLine
 10
-4863.426154732247
 20
682.288224476521
 30
0.0
 11
-4867.89184976143
 21
642.538286515483
 31
0.0
  0
LINE
  5
72
100
AcDbEntity
  8
BLACK
  6
GESTRICHELT
 62
          15
100
AcDbLine
 10
-4996.879054949146
 20
685.205460554784
 30
0.0
 11
-5021.271207103251
 21
687.945789677623
 31
0.0
  0
LINE
  5
73
100
AcDbEntity
  8
BLACK
  6
CONTINUOUS
 62
          15
100
AcDbLine
 10
-4990.38560468237
 20
684.475955804186
 30
0.0
 11
-4996.879054949146
 21
685.205460554784
 31
0.0
  0
LINE
  5
74
100
AcDbEntity
  8
BLACK
  6
GESTRICHELT
 62
          15
100
AcDbLine
 10
-4998.665332960819
 20
669.305485370369
 30
0.0
 11
-5023.057485114925
 21
672.045814493208
 31
0.0
  0
LINE
  5
75
100
AcDbEntity
  8
BLACK
  6
CONTINUOUS
 62
          15
100
AcDbLine
 10
-4992.171882694043
 20
668.57598061977
 30
0.0
 11
-4998.665332960819
 21
669.305485370369
 31
0.0
  0
LINE
  5
76
100
AcDbEntity
  8
BLACK
  6
GESTRICHELT
 62
          15
100
AcDbLine
 10
-5022.288281666804
 20
687.134124129645
 30
0.0
 11
-5021.271207103251
 21
687.945789677623
 31
0.0
  0
LINE
  5
77
100
AcDbEntity
  8
BLACK
  6
GESTRICHELT
 62
          15
100
AcDbLine
 10
-5023.86910644727
 20
673.062924341004
 30
0.0
 11
-5023.057485114925
 21
672.045814493208
 31
0.0
  0
LINE
  5
78
100
AcDbEntity
  8
BLACK
  6
GESTRICHELT
 62
          15
100
AcDbLine
 10
-5022.288281666804
 20
687.134124129645
 30
0.0
 11
-5023.86910644727
 21
673.062924341004
 31
0.0
  0
LINE
  5
79
100
AcDbEntity
  8
BLACK
  6
CONTINUOUS
 62
          15
100
AcDbLine
 10
-4996.981781564749
 20
684.291072856898
 30
0.0
 11
-4990.488331297975
 21
683.561568106299
 31
0.0
  0
LINE
  5
7A
100
AcDbEntity
  8
BLACK
  6
GESTRICHELT
 62
          15
100
AcDbLine
 10
-5022.288281666804
 20
687.134124129645
 30
0.0
 11
-4996.981781564749
 21
684.291072856898
 31
0.0
  0
LINE
  5
7B
100
AcDbEntity
  8
BLACK
  6
CONTINUOUS
 62
          15
100
AcDbLine
 10
-4998.562606345215
 20
670.219873068256
 30
0.0
 11
-4992.06915607844
 21
669.490368317657
 31
0.0
  0
LINE
  5
7C
100
AcDbEntity
  8
BLACK
  6
GESTRICHELT
 62
          15
100
AcDbLine
 10
-5023.86910644727
 20
673.062924341004
 30
0.0
 11
-4998.562606345215
 21
670.219873068256
 31
0.0
  0
LINE
  5
7D
100
AcDbEntity
  8
BLACK
  6
GESTRICHELT
 62
          15
100
AcDbLine
 10
-5021.271207103251
 20
687.945789677623
 30
0.0
 11
-5023.057485114925
 21
672.045814493208
 31
0.0
  0
LINE
  5
7E
100
AcDbEntity
  8
BLACK
  6
CONTINUOUS
 62
          15
100
AcDbLine
 10
-4880.939427898471
 20
674.1928391858
 30
0.0
 11
-4990.162319930911
 21
686.463452702237
 31
0.0
  0
LINE
  5
7F
100
AcDbEntity
  8
BLACK
  6
CONTINUOUS
 62
          15
100
AcDbLine
 10
-4990.162319930911
 20
686.463452702237
 30
0.0
 11
-4992.395167445503
 21
666.588483721719
 31
0.0
  0
LINE
  5
80
100
AcDbEntity
  8
BLACK
  6
CONTINUOUS
 62
          15
100
AcDbLine
 10
-4992.395167445503
 20
666.588483721719
 30
0.0
 11
-4883.172275413062
 21
654.317870205281
 31
0.0
  0
LINE
  5
81
100
AcDbEntity
  8
BLACK
  6
CONTINUOUS
 62
          15
100
AcDbLine
 10
-4990.690630632067
 20
681.76086610421
 30
0.0
 11
-4984.0656376594
 21
681.016583227205
 31
0.0
  0
LINE
  5
82
100
AcDbEntity
  8
BLACK
  6
CONTINUOUS
 62
          15
100
AcDbLine
 10
-4991.866856744347
 20
671.291070319746
 30
0.0
 11
-4985.241863771678
 21
670.54678744274
 31
0.0
  0
LINE
  5
83
100
AcDbEntity
  8
BLACK
  6
CONTINUOUS
 62
          15
100
AcDbLine
 10
-4984.0656376594
 20
681.016583227205
 30
0.0
 11
-4985.241863771678
 21
670.54678744274
 31
0.0
  0
LINE
  5
84
100
AcDbEntity
  8
BLACK
  6
CONTINUOUS
 62
          15
100
AcDbLine
 10
-4990.690630632067
 20
681.76086610421
 30
0.0
 11
-4985.241863771678
 21
670.54678744274
 31
0.0
  0
LINE
  5
85
100
AcDbEntity
  8
BLACK
  6
CONTINUOUS
 62
          15
100
AcDbLine
 10
-4984.0656376594
 20
681.016583227205
 30
0.0
 11
-4991.866856744347
 21
671.291070319746
 31
0.0
  0
CIRCLE
  5
86
100
AcDbEntity
  8
BLACK
  6
GESTRICHELT
 62
          15
100
AcDbCircle
 10
-4841.267376990378
 20
651.119513098178
 30
0.0
 40
5.7225
  0
ARC
  5
87
100
AcDbEntity
  8
BLACK
  6
GESTRICHELT
 62
          15
100
AcDbCircle
 10
-4841.267376990378
 20
651.119513098178
 30
0.0
 40
6.5785
100
AcDbArc
 50
103.59
 51
13.59
  0
CIRCLE
  5
88
100
AcDbEntity
  8
BLACK
  6
CONTINUOUS
 62
          15
100
AcDbCircle
 10
-4662.482232676359
 20
648.140893851754
 30
0.0
 40
5.7225
  0
ARC
  5
89
100
AcDbEntity
  8
BLACK
  6
CONTINUOUS
 62
          15
100
AcDbCircle
 10
-4662.482232676359
 20
648.140893851754
 30
0.0
 40
6.57849
100
AcDbArc
 50
103.59
 51
13.59
  0
LINE
  5
8A
100
AcDbEntity
  8
BLACK
  6
GESTRICHELT
 62
          15
100
AcDbLine
 10
-4835.028616942195
 20
667.622775321791
 30
0.0
 11
-4838.274369794845
 21
665.032655382492
 31
0.0
  0
LINE
  5
8B
100
AcDbEntity
  8
BLACK
  6
CONTINUOUS
 62
          15
100
AcDbLine
 10
-4828.9684171749
 20
672.458831844268
 30
0.0
 11
-4835.028616942195
 21
667.622775321791
 31
0.0
  0
LINE
  5
8C
100
AcDbEntity
  8
BLACK
  6
GESTRICHELT
 62
          15
100
AcDbLine
 10
-4837.221567103172
 20
667.791898653771
 30
0.0
 11
-4839.210025288909
 21
666.205093742888
 31
0.0
  0
LINE
  5
8D
100
AcDbEntity
  8
BLACK
  6
CONTINUOUS
 62
          15
100
AcDbLine
 10
-4829.904067086845
 20
673.631319892086
 30
0.0
 11
-4837.221567103172
 21
667.791898653771
 31
0.0
  0
ARC
  5
8E
100
AcDbEntity
  8
BLACK
  6
CONTINUOUS
 62
          15
100
AcDbCircle
 10
-4834.089218999057
 20
669.331982668547
 30
0.0
 40
6.0
100
AcDbArc
 50
338.368688099555
 51
192.811311900445
  0
ARC
  5
8F
100
AcDbEntity
  8
BLACK
  6
GESTRICHELT
 62
          15
100
AcDbCircle
 10
-4834.089218999057
 20
669.331982668547
 30
0.0
 40
6.0
100
AcDbArc
 50
192.811311900445
 51
338.368688099555
  0
LINE
  5
90
100
AcDbEntity
  8
BLACK
  6
CONTINUOUS
 62
          15
100
AcDbLine
 10
-4664.539286253293
 20
633.055279714331
 30
0.0
 11
-4673.845542579891
 21
625.629087057845
 31
0.0
  0
LINE
  5
91
100
AcDbEntity
  8
BLACK
  6
CONTINUOUS
 62
          15
100
AcDbLine
 10
-4665.475239871892
 20
634.227751567439
 30
0.0
 11
-4674.781490616372
 21
626.801608598376
 31
0.0
  0
CIRCLE
  5
92
100
AcDbEntity
  8
BLACK
  6
CONTINUOUS
 62
          15
100
AcDbCircle
 10
-4669.660390667679
 20
629.928424281385
 30
0.0
 40
6.0
  0
LINE
  5
93
100
AcDbEntity
  8
BLACK
  6
CONTINUOUS
 62
          15
100
AcDbLine
 10
-4996.714509619273
 20
691.080619176849
 30
0.0
 11
-5000.195113561987
 21
691.471646597842
 31
0.0
  0
LINE
  5
94
100
AcDbEntity
  8
BLACK
  6
CONTINUOUS
 62
          15
100
AcDbLine
 10
-5003.6757175047
 20
691.862674018834
 30
0.0
 11
-5000.195113561987
 21
691.471646597842
 31
0.0
  0
LINE
  5
95
100
AcDbEntity
  8
BLACK
  6
CONTINUOUS
 62
          15
100
AcDbLine
 10
-5006.769729648719
 20
664.322327001909
 30
0.0
 11
-5003.289125706006
 21
663.931299580916
 31
0.0
  0
LINE
  5
96
100
AcDbEntity
  8
BLACK
  6
CONTINUOUS
 62
          15
100
AcDbLine
 10
-4999.808521763292
 20
663.540272159923
 30
0.0
 11
-5003.289125706006
 21
663.931299580916
 31
0.0
  0
LINE
  5
97
100
AcDbEntity
  8
BLACK
  6
CONTINUOUS
 62
          15
100
AcDbLine
 10
-4997.488011538853
 20
684.195542360102
 30
0.0
 11
-5000.968615481568
 21
684.586569781095
 31
0.0
  0
LINE
  5
98
100
AcDbEntity
  8
BLACK
  6
CONTINUOUS
 62
          15
100
AcDbLine
 10
-5004.449219424281
 20
684.977597202088
 30
0.0
 11
-5000.968615481568
 21
684.586569781095
 31
0.0
  0
LINE
  5
99
100
AcDbEntity
  8
BLACK
  6
CONTINUOUS
 62
          15
100
AcDbLine
 10
-5005.996227729138
 20
671.207403818656
 30
0.0
 11
-5002.515623786425
 21
670.816376397663
 31
0.0
  0
LINE
  5
9A
100
AcDbEntity
  8
BLACK
  6
CONTINUOUS
 62
          15
100
AcDbLine
 10
-4999.035019843711
 20
670.42534897667
 30
0.0
 11
-5002.515623786425
 21
670.816376397663
 31
0.0
  0
ARC
  5
9B
100
AcDbEntity
  8
BLACK
  6
CONTINUOUS
 62
          15
100
AcDbCircle
 10
-5046.448179234892
 20
682.723962139039
 30
0.0
 40
48.982200000031
100
AcDbArc
 50
354.449437000001
 51
1.721609999997
  0
ARC
  5
9C
100
AcDbEntity
  8
BLACK
  6
CONTINUOUS
 62
          15
100
AcDbCircle
 10
-4957.03606003314
 20
672.678984039725
 30
0.0
 40
48.982199999991
100
AcDbArc
 50
165.458000000003
 51
172.731000000004
  0
ARC
  5
9D
100
AcDbEntity
  8
BLACK
  6
CONTINUOUS
 62
          15
100
AcDbCircle
 10
-4957.036060033141
 20
672.678984039717
 30
0.0
 40
48.982199999991
100
AcDbArc
 50
174.448999999995
 51
181.721999999996
  0
ARC
  5
9E
100
AcDbEntity
  8
BLACK
  6
CONTINUOUS
 62
          15
100
AcDbCircle
 10
-5046.448179234891
 20
682.723962139044
 30
0.0
 40
48.982200000031
100
AcDbArc
 50
345.458390000002
 51
352.730562999997
  0
LINE
  5
9F
100
AcDbEntity
  8
BLACK
  6
CONTINUOUS
 62
          15
100
AcDbLine
 10
-4997.695635248149
 20
677.986199943633
 30
0.0
 11
-4997.772193954983
 21
677.255472962577
 31
0.0
  0
LINE
  5
A0
100
AcDbEntity
  8
BLACK
  6
CONTINUOUS
 62
          15
100
AcDbLine
 10
-5005.624555373237
 20
678.876972131105
 30
0.0
 11
-5005.71204531301
 21
678.147473216181
 31
0.0
  0
LINE
  5
A1
100
AcDbEntity
  8
BLACK
  6
CONTINUOUS
 62
          15
100
AcDbLine
 10
-5005.788604019843
 20
677.416746235124
 30
0.0
 11
-5005.71204531301
 21
678.147473216181
 31
0.0
  0
LINE
  5
A2
100
AcDbEntity
  8
BLACK
  6
CONTINUOUS
 62
          15
100
AcDbLine
 10
-4997.859683894754
 20
676.525974047653
 30
0.0
 11
-4997.772193954983
 21
677.255472962577
 31
0.0
  0
ARC
  5
A3
100
AcDbEntity
  8
BLACK
  6
CONTINUOUS
 62
          15
100
AcDbCircle
 10
-5009.333310796314
 20
689.012281802583
 30
0.0
 40
12.801499999978
100
AcDbArc
 50
337.871499999983
 51
353.59000000001
  0
ARC
  5
A4
100
AcDbEntity
  8
BLACK
  6
CONTINUOUS
 62
          15
100
AcDbCircle
 10
-4991.830379613703
 20
687.045920173168
 30
0.0
 40
12.787200000002
100
AcDbArc
 50
173.59
 51
189.308999999996
  0
ARC
  5
A5
100
AcDbEntity
  8
BLACK
  6
CONTINUOUS
 62
          15
100
AcDbCircle
 10
-4994.150888721706
 20
666.39065991047
 30
0.0
 40
12.801500000013
100
AcDbArc
 50
157.871000000002
 51
173.589999999986
  0
ARC
  5
A6
100
AcDbEntity
  8
BLACK
  6
CONTINUOUS
 62
          15
100
AcDbCircle
 10
-5011.653819904381
 20
668.357021539894
 30
0.0
 40
12.78720000003
100
AcDbArc
 50
353.590000000019
 51
9.308499999982
  0
ARC
  5
A7
100
AcDbEntity
  8
BLACK
  6
CONTINUOUS
 62
          15
100
AcDbCircle
 10
-5009.333310796366
 20
689.012281802587
 30
0.0
 40
12.78720000003
100
AcDbArc
 50
353.590000000019
 51
9.308499999982
  0
ARC
  5
A8
100
AcDbEntity
  8
BLACK
  6
CONTINUOUS
 62
          15
100
AcDbCircle
 10
-4991.830379613692
 20
687.045920173164
 30
0.0
 40
12.801500000013
100
AcDbArc
 50
157.871000000002
 51
173.589999999986
  0
ARC
  5
A9
100
AcDbEntity
  8
BLACK
  6
CONTINUOUS
 62
          15
100
AcDbCircle
 10
-4994.150888721716
 20
666.390659910474
 30
0.0
 40
12.787200000002
100
AcDbArc
 50
173.59
 51
189.308999999996
  0
ARC
  5
AA
100
AcDbEntity
  8
BLACK
  6
CONTINUOUS
 62
          15
100
AcDbCircle
 10
-5011.653819904328
 20
668.35702153989
 30
0.0
 40
12.801499999978
100
AcDbArc
 50
337.871499999983
 51
353.59000000001
  0
LINE
  5
AB
100
AcDbEntity
  8
BLACK
  6
CONTINUOUS
 62
          15
100
AcDbLine
 10
-4996.611939400975
 20
687.583103093924
 30
0.0
 11
-4997.772193954983
 21
677.255472962577
 31
0.0
  0
LINE
  5
AC
100
AcDbEntity
  8
BLACK
  6
CONTINUOUS
 62
          15
100
AcDbLine
 10
-5004.551790759003
 20
688.475103347528
 30
0.0
 11
-5005.71204531301
 21
678.147473216181
 31
0.0
  0
LINE
  5
AD
100
AcDbEntity
  8
BLACK
  6
CONTINUOUS
 62
          15
100
AcDbLine
 10
-5006.872299867016
 20
667.819843084834
 30
0.0
 11
-5005.71204531301
 21
678.147473216181
 31
0.0
  0
LINE
  5
AE
100
AcDbEntity
  8
BLACK
  6
CONTINUOUS
 62
          15
100
AcDbLine
 10
-4998.932448508989
 20
666.92784283123
 30
0.0
 11
-4997.772193954983
 21
677.255472962577
 31
0.0
  0
LINE
  5
AF
100
AcDbEntity
  8
0
  6
CONTINUOUS
 62
          15
100
AcDbLine
 10
-4645.942209712504
 20
669.9661385338
 30
0.0
 11
-4653.087321759198
 21
606.36623779614
 31
0.0
  0
LINE
  5
B0
100
AcDbEntity
  8
0
  6
CONTINUOUS
 62
          15
100
AcDbLine
 10
-4645.402178876537
 20
612.072841726988
 30
0.0
 11
-4645.884320146777
 21
607.781217364986
 31
0.0
  0
LINE
  5
B1
100
AcDbEntity
  8
0
  6
CONTINUOUS
 62
          15
100
AcDbLine
 10
-4639.232833458917
 20
666.987271845481
 30
0.0
 11
-4639.714974729158
 21
662.695647483478
 31
0.0
  0
LINE
  5
B2
100
AcDbEntity
  8
0
  6
CONTINUOUS
 62
          15
100
AcDbLine
 10
-4639.714974729158
 20
662.695647483478
 30
0.0
 11
-4640.720341040614
 21
653.746704878277
 31
0.0
  0
LINE
  5
B3
100
AcDbEntity
  8
0
  6
CONTINUOUS
 62
          15
100
AcDbLine
 10
-4644.396812565081
 20
621.021784332192
 30
0.0
 11
-4645.402178876537
 21
612.072841726988
 31
0.0
  0
LINE
  5
B4
100
AcDbEntity
  8
WHITE
  6
CONTINUOUS
 62
          15
100
AcDbLine
 10
-4648.025603135811
 20
606.010423422356
 30
0.0
 11
-4653.083473331706
 21
606.400493327033
 31
0.0
  0
LINE
  5
B5
100
AcDbEntity
  8
WHITE
  6
CONTINUOUS
 62
          15
100
AcDbLine
 10
-4640.927818983108
 20
669.189050240135
 30
0.0
 11
-4645.94615856035
 21
669.930989143649
 31
0.0
  0
LINE
  5
B6
100
AcDbEntity
  8
0
  6
CONTINUOUS
 62
          15
100
AcDbLine
 10
-4644.300079646206
 20
611.987846318828
 30
0.0
 11
-4645.402178876537
 21
612.072841726988
 31
0.0
  0
LINE
  5
B7
100
AcDbEntity
  8
WHITE
  6
CONTINUOUS
 62
          15
100
AcDbLine
 10
-4636.079010850832
 20
659.231312971856
 30
0.0
 11
-4637.08227411541
 21
650.30108995731
 31
0.0
  0
LINE
  5
B8
100
AcDbEntity
  8
0
  6
CONTINUOUS
 62
          15
100
AcDbLine
 10
-4639.714974729158
 20
662.695647483478
 30
0.0
 11
-4638.621489137116
 21
662.533980563836
 31
0.0
  0
LINE
  5
B9
100
AcDbEntity
  8
WHITE
  6
CONTINUOUS
 62
          15
100
AcDbLine
 10
-4640.064385846426
 20
623.756788224632
 30
0.0
 11
-4640.084891898077
 21
623.574260247321
 31
0.0
  0
LINE
  5
BA
100
AcDbEntity
  8
0
  6
CONTINUOUS
 62
          15
100
AcDbLine
 10
-4621.135983735723
 20
647.051181109126
 30
0.0
 11
-4636.238000391919
 21
649.015270936063
 31
0.0
  0
LINE
  5
BB
100
AcDbEntity
  8
0
  6
CONTINUOUS
 62
          15
100
AcDbLine
 10
-4623.814992665043
 20
623.204850797354
 30
0.0
 11
-4638.976355327173
 21
624.640691373342
 31
0.0
  0
LINE
  5
BC
100
AcDbEntity
  8
0
  6
CONTINUOUS
 62
          15
100
AcDbLine
 10
-4636.88438423594
 20
649.375390924809
 30
0.0
 11
-4639.686532708131
 21
624.432973854382
 31
0.0
  0
LINE
  5
BD
100
AcDbEntity
  8
WHITE
  6
CONTINUOUS
 62
          15
100
AcDbLine
 10
-4638.990781490329
 20
651.540122790404
 30
0.0
 11
-4637.947053890553
 21
651.404381001247
 31
0.0
  0
LINE
  5
BE
100
AcDbEntity
  8
WHITE
  6
CONTINUOUS
 62
          15
100
AcDbLine
 10
-4637.08227411541
 20
650.30108995731
 30
0.0
 11
-4637.102780167061
 21
650.118561979999
 31
0.0
  0
LINE
  5
BF
100
AcDbEntity
  8
WHITE
  6
CONTINUOUS
 62
          15
100
AcDbLine
 10
-4640.084891898077
 20
623.574260247321
 30
0.0
 11
-4641.088155162655
 21
614.644037232773
 31
0.0
  0
LINE
  5
C0
100
AcDbEntity
  8
WHITE
  6
CONTINUOUS
 62
          15
100
AcDbLine
 10
-4641.172922417329
 20
622.690357098611
 30
0.0
 11
-4642.220751526574
 21
622.789590629613
 31
0.0
  0
ARC
  5
C1
100
AcDbEntity
  8
0
  6
CONTINUOUS
 62
          15
100
AcDbCircle
 10
-4622.683607822328
 20
635.151397090642
 30
0.0
 40
12.0
100
AcDbArc
 50
264.589999999997
 51
82.590000000002
  0
ARC
  5
C2
100
AcDbEntity
  8
WHITE
  6
CONTINUOUS
 62
          15
100
AcDbCircle
 10
-4641.22033035697
 20
667.21055659694
 30
0.0
 40
2.0
100
AcDbArc
 50
353.589999999999
 51
81.590000000022
  0
ARC
  5
C3
100
AcDbEntity
  8
WHITE
  6
CONTINUOUS
 62
          15
100
AcDbCircle
 10
-4639.06025619791
 20
659.566240099045
 30
0.0
 40
3.0
100
AcDbArc
 50
353.589999999999
 51
81.589999999985
  0
ARC
  5
C4
100
AcDbEntity
  8
WHITE
  6
CONTINUOUS
 62
          15
100
AcDbCircle
 10
-4644.069400509732
 20
614.978964359962
 30
0.0
 40
3.0
100
AcDbArc
 50
265.589999999994
 51
353.589999999999
  0
ARC
  5
C5
100
AcDbEntity
  8
WHITE
  6
CONTINUOUS
 62
          15
100
AcDbCircle
 10
-4647.871817044828
 20
608.004502116446
 30
0.0
 40
2.0
100
AcDbArc
 50
265.589999999977
 51
353.589999999999
  0
ARC
  5
C6
100
AcDbEntity
  8
WHITE
  6
CONTINUOUS
 62
          15
100
AcDbCircle
 10
-4638.076022564435
 20
650.412732333039
 30
0.0
 40
1.0
100
AcDbArc
 50
353.589999999999
 51
82.59000000007
  0
ARC
  5
C7
100
AcDbEntity
  8
WHITE
  6
CONTINUOUS
 62
          15
100
AcDbCircle
 10
-4638.732844142562
 20
653.523420126818
 30
0.0
 40
2.0
100
AcDbArc
 50
173.59
 51
262.59000000002
  0
ARC
  5
C8
100
AcDbEntity
  8
WHITE
  6
CONTINUOUS
 62
          15
100
AcDbCircle
 10
-4636.109031718035
 20
650.00691960427
 30
0.0
 40
1.000000000001
100
AcDbArc
 50
219.162995999259
 51
262.590000000031
  0
ARC
  5
C9
100
AcDbEntity
  8
WHITE
  6
CONTINUOUS
 62
          15
100
AcDbCircle
 10
-4636.109031718035
 20
650.00691960427
 30
0.0
 40
1.0
100
AcDbArc
 50
173.59
 51
219.162995999262
  0
ARC
  5
CA
100
AcDbEntity
  8
WHITE
  6
CONTINUOUS
 62
          15
100
AcDbCircle
 10
-4642.409315667028
 20
620.798499580733
 30
0.0
 40
1.999999999999
100
AcDbArc
 50
84.589999999927
 51
173.59
  0
ARC
  5
CB
100
AcDbEntity
  8
WHITE
  6
CONTINUOUS
 62
          15
100
AcDbCircle
 10
-4641.078640347103
 20
623.685902623051
 30
0.0
 40
1.0
100
AcDbArc
 50
264.58999999993
 51
353.589999999999
  0
ARC
  5
CC
100
AcDbEntity
  8
WHITE
  6
CONTINUOUS
 62
          15
100
AcDbCircle
 10
-4639.0706373974
 20
623.645145848902
 30
0.0
 40
1.0
100
AcDbArc
 50
128.017004000809
 51
173.59
  0
ARC
  5
CD
100
AcDbEntity
  8
WHITE
  6
CONTINUOUS
 62
          15
100
AcDbCircle
 10
-4639.0706373974
 20
623.645145848902
 30
0.0
 40
1.0
100
AcDbArc
 50
84.589999999969
 51
128.017004000808
  0
LINE
  5
CE
100
AcDbEntity
  8
WHITE
  6
CONTINUOUS
 62
          15
100
AcDbLine
 10
-5006.605184318847
 20
670.197485623974
 30
0.0
 11
-5006.515870418263
 21
670.992484383195
 31
0.0
  0
LINE
  5
CF
100
AcDbEntity
  8
WHITE
  6
CONTINUOUS
 62
          15
100
AcDbLine
 10
-5006.515870418263
 20
670.992484383195
 30
0.0
 11
-5004.908220207757
 21
685.302462049168
 31
0.0
  0
LINE
  5
D0
100
AcDbEntity
  8
WHITE
  6
CONTINUOUS
 62
          15
100
AcDbLine
 10
-5004.908220207757
 20
685.302462049168
 30
0.0
 11
-5004.818906307173
 21
686.097460808388
 31
0.0
  0
LINE
  5
D1
100
AcDbEntity
  8
WHITE
  6
CONTINUOUS
 62
          15
100
AcDbLine
 10
-5004.818906307173
 20
686.097460808388
 30
0.0
 11
-5004.327679853963
 21
690.469953984103
 31
0.0
  0
LINE
  5
D2
100
AcDbEntity
  8
WHITE
  6
CONTINUOUS
 62
          15
100
AcDbLine
 10
-5039.298273693513
 20
665.820054055112
 30
0.0
 11
-5037.570248546255
 21
665.62591958079
 31
0.0
  0
LINE
  5
D3
100
AcDbEntity
  8
WHITE
  6
CONTINUOUS
 62
          15
100
AcDbLine
 10
-5033.997692522909
 20
697.42586994962
 30
0.0
 11
-5035.725717670166
 21
697.620004423942
 31
0.0
  0
LINE
  5
D4
100
AcDbEntity
  8
WHITE
  6
CONTINUOUS
 62
          15
100
AcDbLine
 10
-5037.570248546255
 20
665.62591958079
 30
0.0
 11
-5032.540784240136
 21
665.060885900151
 31
0.0
  0
LINE
  5
D5
100
AcDbEntity
  8
WHITE
  6
CONTINUOUS
 62
          15
100
AcDbLine
 10
-5028.968228216791
 20
696.860836268981
 30
0.0
 11
-5033.997692522909
 21
697.42586994962
 31
0.0
  0
LINE
  5
D6
100
AcDbEntity
  8
WHITE
  6
CONTINUOUS
 62
          15
100
AcDbLine
 10
-5082.810709543101
 20
702.909753916437
 30
0.0
 11
-5035.725717670166
 21
697.620004423942
 31
0.0
  0
LINE
  5
D7
100
AcDbEntity
  8
WHITE
  6
CONTINUOUS
 62
          15
100
AcDbLine
 10
-5086.383265566446
 20
671.109803547607
 30
0.0
 11
-5039.298273693513
 21
665.820054055112
 31
0.0
  0
LINE
  5
D8
100
AcDbEntity
  8
WHITE
  6
CONTINUOUS
 62
          15
100
AcDbLine
 10
-5028.04367177971
 20
694.341869140444
 30
0.0
 11
-5031.080344399555
 21
667.311911326938
 31
0.0
  0
LINE
  5
D9
100
AcDbEntity
  8
WHITE
  6
CONTINUOUS
 62
          15
100
AcDbLine
 10
-5005.386207141918
 20
691.796422973809
 30
0.0
 11
-5008.990704417659
 21
692.201369154675
 31
0.0
  0
LINE
  5
DA
100
AcDbEntity
  8
WHITE
  6
CONTINUOUS
 62
          15
100
AcDbLine
 10
-5007.096410772057
 20
665.824992448259
 30
0.0
 11
-5006.605184318847
 21
670.197485623974
 31
0.0
  0
LINE
  5
DB
100
AcDbEntity
  8
WHITE
  6
CONTINUOUS
 62
          15
100
AcDbLine
 10
-5029.887846260724
 20
667.177940476063
 30
0.0
 11
-5027.449136047089
 21
666.903964298054
 31
0.0
  0
LINE
  5
DC
100
AcDbEntity
  8
WHITE
  6
CONTINUOUS
 62
          15
100
AcDbLine
 10
-5024.233835626077
 20
695.523919630001
 30
0.0
 11
-5024.412463427245
 21
693.93392211156
 31
0.0
  0
LINE
  5
DD
100
AcDbEntity
  8
WHITE
  6
CONTINUOUS
 62
          15
100
AcDbLine
 10
-5024.412463427245
 20
693.93392211156
 30
0.0
 11
-5026.851173640879
 21
694.207898289568
 31
0.0
  0
LINE
  5
DE
100
AcDbEntity
  8
WHITE
  6
CONTINUOUS
 62
          15
100
AcDbLine
 10
-5024.412463427245
 20
693.93392211156
 30
0.0
 11
-5027.449136047089
 21
666.903964298054
 31
0.0
  0
LINE
  5
DF
100
AcDbEntity
  8
WHITE
  6
CONTINUOUS
 62
          15
100
AcDbLine
 10
-5027.449136047089
 20
666.903964298054
 30
0.0
 11
-5027.627763848257
 21
665.313966779613
 31
0.0
  0
LINE
  5
E0
100
AcDbEntity
  8
WHITE
  6
CONTINUOUS
 62
          15
100
AcDbLine
 10
-5012.206004838671
 20
663.581413822728
 30
0.0
 11
-5012.027377037504
 21
665.17141134117
 31
0.0
  0
LINE
  5
E1
100
AcDbEntity
  8
WHITE
  6
CONTINUOUS
 62
          15
100
AcDbLine
 10
-5012.027377037504
 20
665.17141134117
 30
0.0
 11
-5008.422879761763
 21
664.766465160304
 31
0.0
  0
LINE
  5
E2
100
AcDbEntity
  8
WHITE
  6
CONTINUOUS
 62
          15
100
AcDbLine
 10
-5012.027377037504
 20
665.17141134117
 30
0.0
 11
-5008.990704417659
 21
692.201369154675
 31
0.0
  0
LINE
  5
E3
100
AcDbEntity
  8
WHITE
  6
CONTINUOUS
 62
          15
100
AcDbLine
 10
-5008.990704417659
 20
692.201369154675
 30
0.0
 11
-5008.812076616492
 21
693.791366673117
 31
0.0
  0
LINE
  5
E4
100
AcDbEntity
  8
WHITE
  6
CONTINUOUS
 62
          15
100
AcDbLine
 10
-5024.233835626077
 20
695.523919630001
 30
0.0
 11
-5008.812076616492
 21
693.791366673117
 31
0.0
  0
LINE
  5
E5
100
AcDbEntity
  8
WHITE
  6
CONTINUOUS
 62
          15
100
AcDbLine
 10
-5027.627763848257
 20
665.313966779613
 30
0.0
 11
-5012.206004838671
 21
663.581413822728
 31
0.0
  0
ARC
  5
E6
100
AcDbEntity
  8
WHITE
  6
CONTINUOUS
 62
          15
100
AcDbCircle
 10
-5058.402055265964
 20
684.066916807895
 30
0.0
 40
27.821476415486
100
AcDbArc
 50
318.483694434248
 51
28.696305565753
  0
ARC
  5
E7
100
AcDbEntity
  8
WHITE
  6
CONTINUOUS
 62
          15
100
AcDbCircle
 10
-5045.297212291009
 20
682.594657097985
 30
0.0
 40
39.547005383793
100
AcDbArc
 50
149.72507458395
 51
197.45492541605
  0
ARC
  5
E8
100
AcDbEntity
  8
WHITE
  6
CONTINUOUS
 62
          15
100
AcDbCircle
 10
-5059.35238643449
 20
684.173681482083
 30
0.0
 40
30.022213997861
100
AcDbArc
 50
141.385772496028
 51
205.794227503972
  0
ARC
  5
E9
100
AcDbEntity
  8
WHITE
  6
CONTINUOUS
 62
          15
100
AcDbCircle
 10
-5029.102199067665
 20
695.66833813015
 30
0.0
 40
1.2
100
AcDbArc
 50
353.589999999999
 51
83.59
  0
ARC
  5
EA
100
AcDbEntity
  8
WHITE
  6
CONTINUOUS
 62
          15
100
AcDbCircle
 10
-5026.717202790003
 20
695.400396428399
 30
0.0
 40
1.2
100
AcDbArc
 50
173.59
 51
263.589999999999
  0
ARC
  5
EB
100
AcDbEntity
  8
WHITE
  6
CONTINUOUS
 62
          15
100
AcDbCircle
 10
-5005.520177992794
 20
690.603924834978
 30
0.0
 40
1.2
100
AcDbArc
 50
353.589999999999
 51
83.59
  0
ARC
  5
EC
100
AcDbEntity
  8
WHITE
  6
CONTINUOUS
 62
          15
100
AcDbCircle
 10
-5008.288908910887
 20
665.958963299135
 30
0.0
 40
1.2
100
AcDbArc
 50
263.589999999999
 51
353.589999999999
  0
ARC
  5
ED
100
AcDbEntity
  8
WHITE
  6
CONTINUOUS
 62
          15
100
AcDbCircle
 10
-5030.021817111599
 20
665.985442337232
 30
0.0
 40
1.2
100
AcDbArc
 50
83.59
 51
173.59
  0
ARC
  5
EE
100
AcDbEntity
  8
WHITE
  6
CONTINUOUS
 62
          15
100
AcDbCircle
 10
-5032.406813389262
 20
666.253384038982
 30
0.0
 40
1.2
100
AcDbArc
 50
263.589999999999
 51
353.589999999999
  0
LINE
  5
EF
100
AcDbEntity
  8
WHITE
  6
CONTINUOUS
 62
          15
100
AcDbLine
 10
-4813.005364727397
 20
661.272835439402
 30
0.0
 11
-4809.529026885749
 21
660.434400785957
 31
0.0
  0
LINE
  5
F0
100
AcDbEntity
  8
WHITE
  6
CONTINUOUS
 62
          15
100
AcDbLine
 10
-4813.155159228991
 20
663.860650188256
 30
0.0
 11
-4813.385008712568
 21
661.814719453436
 31
0.0
  0
LINE
  5
F1
100
AcDbEntity
  8
WHITE
  6
CONTINUOUS
 62
          15
100
AcDbLine
 10
-4812.323249130507
 20
667.344466502752
 30
0.0
 11
-4808.747530255641
 21
667.390639929139
 31
0.0
  0
LINE
  5
F2
100
AcDbEntity
  8
WHITE
  6
CONTINUOUS
 62
          15
100
AcDbLine
 10
-4813.043516853262
 20
664.854398637282
 30
0.0
 11
-4812.813667369685
 21
666.900329372101
 31
0.0
  0
LINE
  5
F3
100
AcDbEntity
  8
WHITE
  6
CONTINUOUS
 62
          15
100
AcDbLine
 10
-4811.578758955382
 20
663.68354996554
 30
0.0
 11
-4813.155159228991
 21
663.860650188256
 31
0.0
  0
LINE
  5
F4
100
AcDbEntity
  8
WHITE
  6
CONTINUOUS
 62
          15
100
AcDbLine
 10
-4811.522937767517
 20
664.180424190052
 30
0.0
 11
-4811.578758955382
 21
663.68354996554
 31
0.0
  0
LINE
  5
F5
100
AcDbEntity
  8
WHITE
  6
CONTINUOUS
 62
          15
100
AcDbLine
 10
-4811.467116579652
 20
664.677298414565
 30
0.0
 11
-4811.522937767517
 21
664.180424190052
 31
0.0
  0
LINE
  5
F6
100
AcDbEntity
  8
WHITE
  6
CONTINUOUS
 62
          15
100
AcDbLine
 10
-4813.043516853262
 20
664.854398637282
 30
0.0
 11
-4811.467116579652
 21
664.677298414565
 31
0.0
  0
LINE
  5
F7
100
AcDbEntity
  8
WHITE
  6
CONTINUOUS
 62
          15
100
AcDbLine
 10
-4808.524245504183
 20
669.378136827192
 30
0.0
 11
-4798.08988678941
 21
668.205891882031
 31
0.0
  0
LINE
  5
F8
100
AcDbEntity
  8
WHITE
  6
CONTINUOUS
 62
          15
100
AcDbLine
 10
-4808.524245504183
 20
669.378136827192
 30
0.0
 11
-4809.584848073613
 21
659.937526561444
 31
0.0
  0
LINE
  5
F9
100
AcDbEntity
  8
WHITE
  6
CONTINUOUS
 62
          15
100
AcDbLine
 10
-4802.198326216259
 20
631.635948957876
 30
0.0
 11
-4793.751464399538
 21
630.686988764175
 31
0.0
  0
LINE
  5
FA
100
AcDbEntity
  8
WHITE
  6
CONTINUOUS
 62
          15
100
AcDbLine
 10
-4793.751464399538
 20
630.686988764175
 30
0.0
 11
-4793.695643211673
 21
631.183862988687
 31
0.0
  0
LINE
  5
FB
100
AcDbEntity
  8
WHITE
  6
CONTINUOUS
 62
          15
100
AcDbLine
 10
-4793.695643211673
 20
631.183862988687
 30
0.0
 11
-4788.504272740248
 21
677.393165868394
 31
0.0
  0
LINE
  5
FC
100
AcDbEntity
  8
WHITE
  6
CONTINUOUS
 62
          15
100
AcDbLine
 10
-4787.510524291222
 20
677.281523492664
 30
0.0
 11
-4787.566345479087
 21
676.784649268151
 31
0.0
  0
LINE
  5
FD
100
AcDbEntity
  8
WHITE
  6
CONTINUOUS
 62
          15
100
AcDbLine
 10
-4787.566345479087
 20
676.784649268151
 30
0.0
 11
-4788.560093928112
 21
676.89629164388
 31
0.0
  0
LINE
  5
FE
100
AcDbEntity
  8
WHITE
  6
CONTINUOUS
 62
          15
100
AcDbLine
 10
-4787.566345479087
 20
676.784649268151
 30
0.0
 11
-4792.701894762648
 21
631.072220612958
 31
0.0
  0
LINE
  5
FF
100
AcDbEntity
  8
WHITE
  6
CONTINUOUS
 62
          15
100
AcDbLine
 10
-4792.701894762648
 20
631.072220612958
 30
0.0
 11
-4793.695643211673
 21
631.183862988687
 31
0.0
  0
LINE
  5
100
100
AcDbEntity
  8
WHITE
  6
CONTINUOUS
 62
          15
100
AcDbLine
 10
-4798.586761013923
 20
668.261713069896
 30
0.0
 11
-4797.448008781481
 21
678.39794724996
 31
0.0
  0
LINE
  5
101
100
AcDbEntity
  8
WHITE
  6
CONTINUOUS
 62
          15
100
AcDbLine
 10
-4788.504272740248
 20
677.393165868394
 30
0.0
 11
-4797.448008781481
 21
678.39794724996
 31
0.0
  0
LINE
  5
102
100
AcDbEntity
  8
WHITE
  6
CONTINUOUS
 62
          15
100
AcDbLine
 10
-4710.991893716226
 20
668.685060561487
 30
0.0
 11
-4787.510524291222
 21
677.281523492664
 31
0.0
  0
LINE
  5
103
100
AcDbEntity
  8
WHITE
  6
CONTINUOUS
 62
          15
100
AcDbLine
 10
-4798.586761013923
 20
668.261713069896
 30
0.0
 11
-4798.08988678941
 21
668.205891882031
 31
0.0
  0
LINE
  5
104
100
AcDbEntity
  8
WHITE
  6
CONTINUOUS
 62
          15
100
AcDbLine
 10
-4798.08988678941
 20
668.205891882031
 30
0.0
 11
-4802.198326216259
 21
631.635948957876
 31
0.0
  0
LINE
  5
105
100
AcDbEntity
  8
WHITE
  6
CONTINUOUS
 62
          15
100
AcDbLine
 10
-4716.239085375515
 20
621.978883457268
 30
0.0
 11
-4710.991893716226
 21
668.685060561487
 31
0.0
  0
LINE
  5
106
100
AcDbEntity
  8
WHITE
  6
CONTINUOUS
 62
          15
100
AcDbLine
 10
-4792.757715950513
 20
630.575346388445
 30
0.0
 11
-4716.239085375515
 21
621.978883457268
 31
0.0
  0
LINE
  5
107
100
AcDbEntity
  8
WHITE
  6
CONTINUOUS
 62
          15
100
AcDbLine
 10
-4792.701894762648
 20
631.072220612958
 30
0.0
 11
-4792.757715950513
 21
630.575346388445
 31
0.0
  0
LINE
  5
108
100
AcDbEntity
  8
WHITE
  6
CONTINUOUS
 62
          15
100
AcDbLine
 10
-4815.424335196918
 20
648.266498751661
 30
0.0
 11
-4814.838212724338
 21
653.483678109046
 31
0.0
  0
LINE
  5
109
100
AcDbEntity
  8
WHITE
  6
CONTINUOUS
 62
          15
100
AcDbLine
 10
-4816.568669548145
 20
638.080577149145
 30
0.0
 11
-4813.107755900529
 21
668.886779068949
 31
0.0
  0
LINE
  5
10A
100
AcDbEntity
  8
WHITE
  6
CONTINUOUS
 62
          15
100
AcDbLine
 10
-4812.002365075774
 20
669.768885142245
 30
0.0
 11
-4808.524245504183
 21
669.378136827192
 31
0.0
  0
LINE
  5
10B
100
AcDbEntity
  8
WHITE
  6
CONTINUOUS
 62
          15
100
AcDbLine
 10
-4815.686563474849
 20
636.975186324389
 30
0.0
 11
-4801.774085188486
 21
635.412193064175
 31
0.0
  0
LINE
  5
10C
100
AcDbEntity
  8
WHITE
  6
CONTINUOUS
 62
           1
100
AcDbLine
 10
-4842.428326392934
 20
631.828525656249
 30
0.0
 11
-4824.540854310466
 21
629.818962893116
 31
0.0
  0
LINE
  5
10D
100
AcDbEntity
  8
WHITE
  6
CONTINUOUS
 62
           1
100
AcDbLine
 10
-4824.540854310466
 20
629.818962893116
 30
0.0
 11
-4825.070117954444
 21
630.482197387968
 31
0.0
  0
LINE
  5
10E
100
AcDbEntity
  8
WHITE
  6
CONTINUOUS
 62
           1
100
AcDbLine
 10
-4825.070117954444
 20
630.482197387968
 30
0.0
 11
-4824.406883459591
 21
631.011461031946
 31
0.0
  0
LINE
  5
10F
100
AcDbEntity
  8
WHITE
  6
CONTINUOUS
 62
           1
100
AcDbLine
 10
-4824.406883459591
 20
631.011461031946
 30
0.0
 11
-4842.294355542058
 21
633.021023795078
 31
0.0
  0
LINE
  5
110
100
AcDbEntity
  8
WHITE
  6
CONTINUOUS
 62
           1
100
AcDbLine
 10
-4842.294355542058
 20
633.021023795078
 30
0.0
 11
-4841.76509189808
 21
632.357789300225
 31
0.0
  0
LINE
  5
111
100
AcDbEntity
  8
WHITE
  6
CONTINUOUS
 62
           1
100
AcDbLine
 10
-4841.76509189808
 20
632.357789300225
 30
0.0
 11
-4842.428326392934
 21
631.828525656249
 31
0.0
  0
LINE
  5
112
100
AcDbEntity
  8
WHITE
  6
CONTINUOUS
 62
           1
100
AcDbLine
 10
-4841.76509189808
 20
632.357789300225
 30
0.0
 11
-4825.070117954444
 21
630.482197387968
 31
0.0
  0
LINE
  5
113
100
AcDbEntity
  8
WHITE
  6
CONTINUOUS
 62
           1
100
AcDbLine
 10
-4841.988376649539
 20
630.370292402173
 30
0.0
 11
-4842.517640293518
 21
631.033526897027
 31
0.0
  0
LINE
  5
114
100
AcDbEntity
  8
WHITE
  6
CONTINUOUS
 62
           1
100
AcDbLine
 10
-4842.517640293518
 20
631.033526897027
 30
0.0
 11
-4824.63016821105
 21
629.023964133894
 31
0.0
  0
LINE
  5
115
100
AcDbEntity
  8
WHITE
  6
CONTINUOUS
 62
           1
100
AcDbLine
 10
-4824.63016821105
 20
629.023964133894
 30
0.0
 11
-4825.293402705903
 21
628.494700489916
 31
0.0
  0
LINE
  5
116
100
AcDbEntity
  8
WHITE
  6
CONTINUOUS
 62
           1
100
AcDbLine
 10
-4825.293402705903
 20
628.494700489916
 30
0.0
 11
-4824.764139061926
 21
627.831465995064
 31
0.0
  0
LINE
  5
117
100
AcDbEntity
  8
WHITE
  6
CONTINUOUS
 62
           1
100
AcDbLine
 10
-4824.764139061926
 20
627.831465995064
 30
0.0
 11
-4842.651611144393
 21
629.841028758196
 31
0.0
  0
LINE
  5
118
100
AcDbEntity
  8
WHITE
  6
CONTINUOUS
 62
           1
100
AcDbLine
 10
-4842.651611144393
 20
629.841028758196
 30
0.0
 11
-4841.988376649539
 21
630.370292402173
 31
0.0
  0
LINE
  5
119
100
AcDbEntity
  8
WHITE
  6
CONTINUOUS
 62
           1
100
AcDbLine
 10
-4825.293402705903
 20
628.494700489916
 30
0.0
 11
-4841.988376649539
 21
630.370292402173
 31
0.0
  0
LINE
  5
11A
100
AcDbEntity
  8
WHITE
  6
CONTINUOUS
 62
           1
100
AcDbLine
 10
-4842.211661400997
 20
628.382795504122
 30
0.0
 11
-4842.740925044976
 21
629.046029998975
 31
0.0
  0
LINE
  5
11B
100
AcDbEntity
  8
WHITE
  6
CONTINUOUS
 62
           1
100
AcDbLine
 10
-4842.740925044976
 20
629.046029998975
 30
0.0
 11
-4824.853452962509
 21
627.036467235842
 31
0.0
  0
LINE
  5
11C
100
AcDbEntity
  8
WHITE
  6
CONTINUOUS
 62
           1
100
AcDbLine
 10
-4824.853452962509
 20
627.036467235842
 30
0.0
 11
-4825.516687457362
 21
626.507203591864
 31
0.0
  0
LINE
  5
11D
100
AcDbEntity
  8
WHITE
  6
CONTINUOUS
 62
           1
100
AcDbLine
 10
-4825.516687457362
 20
626.507203591864
 30
0.0
 11
-4824.987423813385
 21
625.843969097012
 31
0.0
  0
LINE
  5
11E
100
AcDbEntity
  8
WHITE
  6
CONTINUOUS
 62
           1
100
AcDbLine
 10
-4824.987423813385
 20
625.843969097012
 30
0.0
 11
-4842.874895895851
 21
627.853531860145
 31
0.0
  0
LINE
  5
11F
100
AcDbEntity
  8
WHITE
  6
CONTINUOUS
 62
           1
100
AcDbLine
 10
-4842.874895895851
 20
627.853531860145
 30
0.0
 11
-4842.211661400997
 21
628.382795504122
 31
0.0
  0
LINE
  5
120
100
AcDbEntity
  8
WHITE
  6
CONTINUOUS
 62
           1
100
AcDbLine
 10
-4842.434946152457
 20
626.395298606069
 30
0.0
 11
-4842.964209796435
 21
627.058533100923
 31
0.0
  0
LINE
  5
121
100
AcDbEntity
  8
WHITE
  6
CONTINUOUS
 62
           1
100
AcDbLine
 10
-4842.964209796435
 20
627.058533100923
 30
0.0
 11
-4836.909380703937
 21
626.378305116481
 31
0.0
  0
LINE
  5
122
100
AcDbEntity
  8
WHITE
  6
CONTINUOUS
 62
           1
100
AcDbLine
 10
-4825.076737713968
 20
625.04897033779
 30
0.0
 11
-4825.739972208821
 21
624.519706693813
 31
0.0
  0
LINE
  5
123
100
AcDbEntity
  8
WHITE
  6
CONTINUOUS
 62
           1
100
AcDbLine
 10
-4825.739972208821
 20
624.519706693813
 30
0.0
 11
-4825.210708564844
 21
623.85647219896
 31
0.0
  0
LINE
  5
124
100
AcDbEntity
  8
WHITE
  6
CONTINUOUS
 62
           1
100
AcDbLine
 10
-4825.210708564844
 20
623.85647219896
 30
0.0
 11
-4831.26553765734
 21
624.536700183402
 31
0.0
  0
LINE
  5
125
100
AcDbEntity
  8
WHITE
  6
CONTINUOUS
 62
           1
100
AcDbLine
 10
-4843.09818064731
 20
625.866034962093
 30
0.0
 11
-4842.434946152457
 21
626.395298606069
 31
0.0
  0
LINE
  5
126
100
AcDbEntity
  8
WHITE
  6
CONTINUOUS
 62
           1
100
AcDbLine
 10
-4842.658230903917
 20
624.407801708019
 30
0.0
 11
-4843.187494547894
 21
625.071036202871
 31
0.0
  0
LINE
  5
127
100
AcDbEntity
  8
WHITE
  6
CONTINUOUS
 62
           1
100
AcDbLine
 10
-4843.187494547894
 20
625.071036202871
 30
0.0
 11
-4837.874216545704
 21
624.47411755645
 31
0.0
  0
LINE
  5
128
100
AcDbEntity
  8
WHITE
  6
CONTINUOUS
 62
           1
100
AcDbLine
 10
-4825.300022465428
 20
623.061473439739
 30
0.0
 11
-4825.96325696028
 21
622.532209795762
 31
0.0
  0
LINE
  5
129
100
AcDbEntity
  8
WHITE
  6
CONTINUOUS
 62
           1
100
AcDbLine
 10
-4842.434946152457
 20
626.395298606069
 30
0.0
 11
-4836.38011705996
 21
625.715070621628
 31
0.0
  0
LINE
  5
12A
100
AcDbEntity
  8
WHITE
  6
CONTINUOUS
 62
           1
100
AcDbLine
 10
-4842.211661400997
 20
628.382795504122
 30
0.0
 11
-4825.516687457362
 21
626.507203591864
 31
0.0
  0
LINE
  5
12B
100
AcDbEntity
  8
WHITE
  6
CONTINUOUS
 62
           1
100
AcDbLine
 10
-4837.043351554812
 20
625.185806977651
 30
0.0
 11
-4836.38011705996
 21
625.715070621628
 31
0.0
  0
LINE
  5
12C
100
AcDbEntity
  8
WHITE
  6
CONTINUOUS
 62
           1
100
AcDbLine
 10
-4837.043351554812
 20
625.185806977651
 30
0.0
 11
-4843.09818064731
 21
625.866034962093
 31
0.0
  0
LINE
  5
12D
100
AcDbEntity
  8
WHITE
  6
CONTINUOUS
 62
           1
100
AcDbLine
 10
-4836.38011705996
 20
625.715070621628
 30
0.0
 11
-4836.909380703937
 21
626.378305116481
 31
0.0
  0
LINE
  5
12E
100
AcDbEntity
  8
WHITE
  6
CONTINUOUS
 62
           1
100
AcDbLine
 10
-4837.874216545704
 20
624.47411755645
 30
0.0
 11
-4837.344952901727
 21
623.810883061597
 31
0.0
  0
LINE
  5
12F
100
AcDbEntity
  8
WHITE
  6
CONTINUOUS
 62
           1
100
AcDbLine
 10
-4831.27653496247
 20
623.129128442183
 30
0.0
 11
-4830.613300467616
 21
623.65839208616
 31
0.0
  0
LINE
  5
130
100
AcDbEntity
  8
WHITE
  6
CONTINUOUS
 62
           1
100
AcDbLine
 10
-4830.613300467616
 20
623.65839208616
 30
0.0
 11
-4825.300022465428
 21
623.061473439739
 31
0.0
  0
LINE
  5
131
100
AcDbEntity
  8
WHITE
  6
CONTINUOUS
 62
           1
100
AcDbLine
 10
-4831.26553765734
 20
624.536700183402
 30
0.0
 11
-4831.794801301319
 21
625.199934678255
 31
0.0
  0
LINE
  5
132
100
AcDbEntity
  8
WHITE
  6
CONTINUOUS
 62
           1
100
AcDbLine
 10
-4831.794801301319
 20
625.199934678255
 30
0.0
 11
-4825.739972208821
 21
624.519706693813
 31
0.0
  0
LINE
  5
133
100
AcDbEntity
  8
WHITE
  6
CONTINUOUS
 62
           1
100
AcDbLine
 10
-4831.794801301319
 20
625.199934678255
 30
0.0
 11
-4831.131566806465
 21
625.729198322232
 31
0.0
  0
LINE
  5
134
100
AcDbEntity
  8
WHITE
  6
CONTINUOUS
 62
           1
100
AcDbLine
 10
-4831.131566806465
 20
625.729198322232
 30
0.0
 11
-4825.076737713968
 21
625.04897033779
 31
0.0
  0
LINE
  5
135
100
AcDbEntity
  8
WHITE
  6
CONTINUOUS
 62
           1
100
AcDbLine
 10
-4842.964209796435
 20
627.058533100923
 30
0.0
 11
-4843.09818064731
 21
625.866034962093
 31
0.0
  0
LINE
  5
136
100
AcDbEntity
  8
WHITE
  6
CONTINUOUS
 62
           1
100
AcDbLine
 10
-4842.874895895851
 20
627.853531860145
 30
0.0
 11
-4842.740925044976
 21
629.046029998975
 31
0.0
  0
LINE
  5
137
100
AcDbEntity
  8
WHITE
  6
CONTINUOUS
 62
           1
100
AcDbLine
 10
-4842.651611144393
 20
629.841028758196
 30
0.0
 11
-4842.517640293518
 21
631.033526897027
 31
0.0
  0
LINE
  5
138
100
AcDbEntity
  8
WHITE
  6
CONTINUOUS
 62
           1
100
AcDbLine
 10
-4842.428326392934
 20
631.828525656249
 30
0.0
 11
-4842.294355542058
 21
633.021023795078
 31
0.0
  0
LINE
  5
139
100
AcDbEntity
  8
WHITE
  6
CONTINUOUS
 62
           1
100
AcDbLine
 10
-4843.187494547894
 20
625.071036202871
 30
0.0
 11
-4843.254479973332
 21
624.474787133456
 31
0.0
  0
LINE
  5
13A
100
AcDbEntity
  8
WHITE
  6
CONTINUOUS
 62
           1
100
AcDbLine
 10
-4825.367007890865
 20
622.465224370324
 30
0.0
 11
-4825.300022465428
 21
623.061473439739
 31
0.0
  0
LINE
  5
13B
100
AcDbEntity
  8
WHITE
  6
CONTINUOUS
 62
           1
100
AcDbLine
 10
-4825.210708564844
 20
623.85647219896
 30
0.0
 11
-4825.076737713968
 21
625.04897033779
 31
0.0
  0
LINE
  5
13C
100
AcDbEntity
  8
WHITE
  6
CONTINUOUS
 62
           1
100
AcDbLine
 10
-4824.987423813385
 20
625.843969097012
 30
0.0
 11
-4824.853452962509
 21
627.036467235842
 31
0.0
  0
LINE
  5
13D
100
AcDbEntity
  8
WHITE
  6
CONTINUOUS
 62
           1
100
AcDbLine
 10
-4824.764139061926
 20
627.831465995064
 30
0.0
 11
-4824.63016821105
 21
629.023964133894
 31
0.0
  0
LINE
  5
13E
100
AcDbEntity
  8
WHITE
  6
CONTINUOUS
 62
           1
100
AcDbLine
 10
-4824.540854310466
 20
629.818962893116
 30
0.0
 11
-4824.406883459591
 21
631.011461031946
 31
0.0
  0
LINE
  5
13F
100
AcDbEntity
  8
WHITE
  6
CONTINUOUS
 62
           1
100
AcDbLine
 10
-4826.32713232214
 20
613.918987708701
 30
0.0
 11
-4826.193161471265
 21
615.111485847531
 31
0.0
  0
LINE
  5
140
100
AcDbEntity
  8
WHITE
  6
CONTINUOUS
 62
           1
100
AcDbLine
 10
-4826.103847570681
 20
615.906484606753
 30
0.0
 11
-4825.969876719805
 21
617.098982745583
 31
0.0
  0
LINE
  5
141
100
AcDbEntity
  8
WHITE
  6
CONTINUOUS
 62
           1
100
AcDbLine
 10
-4825.880562819221
 20
617.893981504805
 30
0.0
 11
-4825.746591968346
 21
619.086479643635
 31
0.0
  0
LINE
  5
142
100
AcDbEntity
  8
WHITE
  6
CONTINUOUS
 62
           1
100
AcDbLine
 10
-4825.657278067762
 20
619.881478402857
 30
0.0
 11
-4825.523307216887
 21
621.073976541687
 31
0.0
  0
LINE
  5
143
100
AcDbEntity
  8
WHITE
  6
CONTINUOUS
 62
           1
100
AcDbLine
 10
-4825.433993316303
 20
621.868975300908
 30
0.0
 11
-4825.367007890865
 21
622.465224370324
 31
0.0
  0
LINE
  5
144
100
AcDbEntity
  8
WHITE
  6
CONTINUOUS
 62
           1
100
AcDbLine
 10
-4843.254479973332
 20
624.474787133456
 30
0.0
 11
-4843.32146539877
 21
623.878538064041
 31
0.0
  0
LINE
  5
145
100
AcDbEntity
  8
WHITE
  6
CONTINUOUS
 62
           1
100
AcDbLine
 10
-4844.214604404607
 20
615.928550471833
 30
0.0
 11
-4844.080633553731
 21
617.121048610663
 31
0.0
  0
LINE
  5
146
100
AcDbEntity
  8
WHITE
  6
CONTINUOUS
 62
           1
100
AcDbLine
 10
-4843.991319653147
 20
617.916047369885
 30
0.0
 11
-4843.857348802272
 21
619.108545508715
 31
0.0
  0
LINE
  5
147
100
AcDbEntity
  8
WHITE
  6
CONTINUOUS
 62
           1
100
AcDbLine
 10
-4843.768034901688
 20
619.903544267937
 30
0.0
 11
-4843.634064050813
 21
621.096042406767
 31
0.0
  0
LINE
  5
148
100
AcDbEntity
  8
WHITE
  6
CONTINUOUS
 62
           1
100
AcDbLine
 10
-4843.410779299354
 20
623.083539304819
 30
0.0
 11
-4843.544750150229
 21
621.891041165989
 31
0.0
  0
LINE
  5
149
100
AcDbEntity
  8
WHITE
  6
CONTINUOUS
 62
           1
100
AcDbLine
 10
-4825.657278067762
 20
619.881478402857
 30
0.0
 11
-4831.712107160259
 21
620.561706387298
 31
0.0
  0
LINE
  5
14A
100
AcDbEntity
  8
WHITE
  6
CONTINUOUS
 62
           1
100
AcDbLine
 10
-4831.712107160259
 20
620.561706387298
 30
0.0
 11
-4832.241370804237
 21
621.224940882152
 31
0.0
  0
LINE
  5
14B
100
AcDbEntity
  8
WHITE
  6
CONTINUOUS
 62
           1
100
AcDbLine
 10
-4826.18654171174
 20
620.54471289771
 30
0.0
 11
-4832.241370804237
 21
621.224940882152
 31
0.0
  0
LINE
  5
14C
100
AcDbEntity
  8
WHITE
  6
CONTINUOUS
 62
           1
100
AcDbLine
 10
-4832.241370804237
 20
621.224940882152
 30
0.0
 11
-4831.578136309383
 21
621.754204526128
 31
0.0
  0
LINE
  5
14D
100
AcDbEntity
  8
WHITE
  6
CONTINUOUS
 62
           1
100
AcDbLine
 10
-4825.433993316303
 20
621.868975300908
 30
0.0
 11
-4830.747271318492
 21
622.46589394733
 31
0.0
  0
LINE
  5
14E
100
AcDbEntity
  8
WHITE
  6
CONTINUOUS
 62
           1
100
AcDbLine
 10
-4830.747271318492
 20
622.46589394733
 30
0.0
 11
-4831.27653496247
 21
623.129128442183
 31
0.0
  0
LINE
  5
14F
100
AcDbEntity
  8
WHITE
  6
CONTINUOUS
 62
           1
100
AcDbLine
 10
-4842.658230903917
 20
624.407801708019
 30
0.0
 11
-4837.344952901727
 21
623.810883061597
 31
0.0
  0
LINE
  5
150
100
AcDbEntity
  8
WHITE
  6
CONTINUOUS
 62
           1
100
AcDbLine
 10
-4837.344952901727
 20
623.810883061597
 30
0.0
 11
-4838.00818739658
 21
623.281619417619
 31
0.0
  0
LINE
  5
151
100
AcDbEntity
  8
WHITE
  6
CONTINUOUS
 62
           1
100
AcDbLine
 10
-4837.489921057731
 20
621.210813181547
 30
0.0
 11
-4836.826686562878
 21
621.740076825525
 31
0.0
  0
LINE
  5
152
100
AcDbEntity
  8
WHITE
  6
CONTINUOUS
 62
           1
100
AcDbLine
 10
-4843.410779299354
 20
623.083539304819
 30
0.0
 11
-4837.355950206856
 21
622.403311320377
 31
0.0
  0
LINE
  5
153
100
AcDbEntity
  8
WHITE
  6
CONTINUOUS
 62
           1
100
AcDbLine
 10
-4836.826686562878
 20
621.740076825525
 30
0.0
 11
-4837.355950206856
 21
622.403311320377
 31
0.0
  0
LINE
  5
154
100
AcDbEntity
  8
WHITE
  6
CONTINUOUS
 62
           1
100
AcDbLine
 10
-4826.409826463198
 20
618.557215999658
 30
0.0
 11
-4843.104800406834
 21
620.432807911915
 31
0.0
  0
LINE
  5
155
100
AcDbEntity
  8
WHITE
  6
CONTINUOUS
 62
           1
100
AcDbLine
 10
-4836.826686562878
 20
621.740076825525
 30
0.0
 11
-4842.881515655376
 21
622.420304809967
 31
0.0
  0
LINE
  5
156
100
AcDbEntity
  8
WHITE
  6
CONTINUOUS
 62
           1
100
AcDbLine
 10
-4831.27653496247
 20
623.129128442183
 30
0.0
 11
-4825.96325696028
 21
622.532209795762
 31
0.0
  0
LINE
  5
157
100
AcDbEntity
  8
WHITE
  6
CONTINUOUS
 62
           1
100
AcDbLine
 10
-4825.96325696028
 20
622.532209795762
 30
0.0
 11
-4825.433993316303
 21
621.868975300908
 31
0.0
  0
LINE
  5
158
100
AcDbEntity
  8
WHITE
  6
CONTINUOUS
 62
           1
100
AcDbLine
 10
-4838.00818739658
 20
623.281619417619
 30
0.0
 11
-4843.32146539877
 21
623.878538064041
 31
0.0
  0
LINE
  5
159
100
AcDbEntity
  8
WHITE
  6
CONTINUOUS
 62
           1
100
AcDbLine
 10
-4843.32146539877
 20
623.878538064041
 30
0.0
 11
-4842.658230903917
 21
624.407801708019
 31
0.0
  0
LINE
  5
15A
100
AcDbEntity
  8
WHITE
  6
CONTINUOUS
 62
           1
100
AcDbLine
 10
-4842.881515655376
 20
622.420304809967
 30
0.0
 11
-4843.410779299354
 21
623.083539304819
 31
0.0
  0
LINE
  5
15B
100
AcDbEntity
  8
WHITE
  6
CONTINUOUS
 62
           1
100
AcDbLine
 10
-4831.578136309383
 20
621.754204526128
 30
0.0
 11
-4825.523307216887
 21
621.073976541687
 31
0.0
  0
LINE
  5
15C
100
AcDbEntity
  8
WHITE
  6
CONTINUOUS
 62
           1
100
AcDbLine
 10
-4825.523307216887
 20
621.073976541687
 30
0.0
 11
-4826.18654171174
 21
620.54471289771
 31
0.0
  0
LINE
  5
15D
100
AcDbEntity
  8
WHITE
  6
CONTINUOUS
 62
           1
100
AcDbLine
 10
-4826.18654171174
 20
620.54471289771
 30
0.0
 11
-4825.657278067762
 21
619.881478402857
 31
0.0
  0
LINE
  5
15E
100
AcDbEntity
  8
WHITE
  6
CONTINUOUS
 62
           1
100
AcDbLine
 10
-4837.489921057731
 20
621.210813181547
 30
0.0
 11
-4843.544750150229
 21
621.891041165989
 31
0.0
  0
LINE
  5
15F
100
AcDbEntity
  8
WHITE
  6
CONTINUOUS
 62
           1
100
AcDbLine
 10
-4843.544750150229
 20
621.891041165989
 30
0.0
 11
-4842.881515655376
 21
622.420304809967
 31
0.0
  0
LINE
  5
160
100
AcDbEntity
  8
WHITE
  6
CONTINUOUS
 62
           1
100
AcDbLine
 10
-4843.104800406834
 20
620.432807911915
 30
0.0
 11
-4843.634064050813
 21
621.096042406767
 31
0.0
  0
LINE
  5
161
100
AcDbEntity
  8
WHITE
  6
CONTINUOUS
 62
           1
100
AcDbLine
 10
-4843.634064050813
 20
621.096042406767
 30
0.0
 11
-4825.746591968346
 21
619.086479643635
 31
0.0
  0
LINE
  5
162
100
AcDbEntity
  8
WHITE
  6
CONTINUOUS
 62
           1
100
AcDbLine
 10
-4825.746591968346
 20
619.086479643635
 30
0.0
 11
-4826.409826463198
 21
618.557215999658
 31
0.0
  0
LINE
  5
163
100
AcDbEntity
  8
WHITE
  6
CONTINUOUS
 62
           1
100
AcDbLine
 10
-4826.409826463198
 20
618.557215999658
 30
0.0
 11
-4825.880562819221
 21
617.893981504805
 31
0.0
  0
LINE
  5
164
100
AcDbEntity
  8
WHITE
  6
CONTINUOUS
 62
           1
100
AcDbLine
 10
-4825.880562819221
 20
617.893981504805
 30
0.0
 11
-4843.768034901688
 21
619.903544267937
 31
0.0
  0
LINE
  5
165
100
AcDbEntity
  8
WHITE
  6
CONTINUOUS
 62
           1
100
AcDbLine
 10
-4843.768034901688
 20
619.903544267937
 30
0.0
 11
-4843.104800406834
 21
620.432807911915
 31
0.0
  0
LINE
  5
166
100
AcDbEntity
  8
WHITE
  6
CONTINUOUS
 62
           1
100
AcDbLine
 10
-4843.328085158293
 20
618.445311013863
 30
0.0
 11
-4826.633111214658
 21
616.569719101606
 31
0.0
  0
LINE
  5
167
100
AcDbEntity
  8
WHITE
  6
CONTINUOUS
 62
           1
100
AcDbLine
 10
-4843.328085158293
 20
618.445311013863
 30
0.0
 11
-4843.857348802272
 21
619.108545508715
 31
0.0
  0
LINE
  5
168
100
AcDbEntity
  8
WHITE
  6
CONTINUOUS
 62
           1
100
AcDbLine
 10
-4843.857348802272
 20
619.108545508715
 30
0.0
 11
-4825.969876719805
 21
617.098982745583
 31
0.0
  0
LINE
  5
169
100
AcDbEntity
  8
WHITE
  6
CONTINUOUS
 62
           1
100
AcDbLine
 10
-4825.969876719805
 20
617.098982745583
 30
0.0
 11
-4826.633111214658
 21
616.569719101606
 31
0.0
  0
LINE
  5
16A
100
AcDbEntity
  8
WHITE
  6
CONTINUOUS
 62
           1
100
AcDbLine
 10
-4826.633111214658
 20
616.569719101606
 30
0.0
 11
-4826.103847570681
 21
615.906484606753
 31
0.0
  0
LINE
  5
16B
100
AcDbEntity
  8
WHITE
  6
CONTINUOUS
 62
           1
100
AcDbLine
 10
-4826.103847570681
 20
615.906484606753
 30
0.0
 11
-4843.991319653147
 21
617.916047369885
 31
0.0
  0
LINE
  5
16C
100
AcDbEntity
  8
WHITE
  6
CONTINUOUS
 62
           1
100
AcDbLine
 10
-4843.991319653147
 20
617.916047369885
 30
0.0
 11
-4843.328085158293
 21
618.445311013863
 31
0.0
  0
LINE
  5
16D
100
AcDbEntity
  8
WHITE
  6
CONTINUOUS
 62
           1
100
AcDbLine
 10
-4826.856395966117
 20
614.582222203554
 30
0.0
 11
-4843.551369909753
 21
616.457814115811
 31
0.0
  0
LINE
  5
16E
100
AcDbEntity
  8
WHITE
  6
CONTINUOUS
 62
           1
100
AcDbLine
 10
-4844.080633553731
 20
617.121048610663
 30
0.0
 11
-4843.551369909753
 21
616.457814115811
 31
0.0
  0
LINE
  5
16F
100
AcDbEntity
  8
WHITE
  6
CONTINUOUS
 62
           1
100
AcDbLine
 10
-4843.551369909753
 20
616.457814115811
 30
0.0
 11
-4844.214604404607
 21
615.928550471833
 31
0.0
  0
LINE
  5
170
100
AcDbEntity
  8
WHITE
  6
CONTINUOUS
 62
           1
100
AcDbLine
 10
-4844.214604404607
 20
615.928550471833
 30
0.0
 11
-4826.32713232214
 21
613.918987708701
 31
0.0
  0
LINE
  5
171
100
AcDbEntity
  8
WHITE
  6
CONTINUOUS
 62
           1
100
AcDbLine
 10
-4826.32713232214
 20
613.918987708701
 30
0.0
 11
-4826.856395966117
 21
614.582222203554
 31
0.0
  0
LINE
  5
172
100
AcDbEntity
  8
WHITE
  6
CONTINUOUS
 62
           1
100
AcDbLine
 10
-4826.856395966117
 20
614.582222203554
 30
0.0
 11
-4826.193161471265
 21
615.111485847531
 31
0.0
  0
LINE
  5
173
100
AcDbEntity
  8
WHITE
  6
CONTINUOUS
 62
           1
100
AcDbLine
 10
-4826.193161471265
 20
615.111485847531
 30
0.0
 11
-4844.080633553731
 21
617.121048610663
 31
0.0
  0
LINE
  5
174
100
AcDbEntity
  8
WHITE
  6
CONTINUOUS
 62
          15
100
AcDbLine
 10
-4870.382408984118
 20
614.00978787023
 30
0.0
 11
-4869.484967339644
 21
615.226603414119
 31
0.0
  0
LINE
  5
175
100
AcDbEntity
  8
WHITE
  6
CONTINUOUS
 62
          15
100
AcDbLine
 10
-4865.267482091997
 20
614.752791280764
 30
0.0
 11
-4869.484967339644
 21
615.226603414119
 31
0.0
  0
LINE
  5
176
100
AcDbEntity
  8
WHITE
  6
CONTINUOUS
 62
          15
100
AcDbLine
 10
-4869.484967339644
 20
615.226603414119
 30
0.0
 11
-4869.943855043142
 21
617.913433737775
 31
0.0
  0
LINE
  5
177
100
AcDbEntity
  8
WHITE
  6
CONTINUOUS
 62
          15
100
AcDbLine
 10
-4869.497285540223
 20
621.888427533879
 30
0.0
 11
-4868.453659248757
 21
624.406458366949
 31
0.0
  0
LINE
  5
178
100
AcDbEntity
  8
WHITE
  6
CONTINUOUS
 62
          15
100
AcDbLine
 10
-4864.236174001109
 20
623.932646233594
 30
0.0
 11
-4868.453659248757
 21
624.406458366949
 31
0.0
  0
LINE
  5
179
100
AcDbEntity
  8
WHITE
  6
CONTINUOUS
 62
          15
100
AcDbLine
 10
-4868.453659248757
 20
624.406458366949
 30
0.0
 11
-4869.058731599247
 21
625.792073401423
 31
0.0
  0
LINE
  5
17A
100
AcDbEntity
  8
WHITE
  6
CONTINUOUS
 62
          15
100
AcDbLine
 10
-4870.000621385087
 20
610.636675937704
 30
0.0
 11
-4870.605693735577
 21
612.022290972178
 31
0.0
  0
LINE
  5
17B
100
AcDbEntity
  8
WHITE
  6
CONTINUOUS
 62
          15
100
AcDbLine
 10
-4863.720519955667
 20
628.52257371001
 30
0.0
 11
-4867.938005203312
 21
628.996385843366
 31
0.0
  0
LINE
  5
17C
100
AcDbEntity
  8
WHITE
  6
CONTINUOUS
 62
          15
100
AcDbLine
 10
-4868.835446847788
 20
627.779570299474
 30
0.0
 11
-4867.938005203312
 21
628.996385843366
 31
0.0
  0
LINE
  5
17D
100
AcDbEntity
  8
WHITE
  6
CONTINUOUS
 62
          15
100
AcDbLine
 10
-4865.783136137441
 20
610.162863804348
 30
0.0
 11
-4865.636951490448
 21
611.46407909353
 31
0.0
  0
LINE
  5
17E
100
AcDbEntity
  8
WHITE
  6
CONTINUOUS
 62
          15
100
AcDbLine
 10
-4870.382408984118
 20
614.00978787023
 30
0.0
 11
-4870.605693735577
 21
612.022290972178
 31
0.0
  0
LINE
  5
17F
100
AcDbEntity
  8
WHITE
  6
CONTINUOUS
 62
          15
100
AcDbLine
 10
-4865.636951490448
 20
611.46407909353
 30
0.0
 11
-4870.605693735577
 21
612.022290972178
 31
0.0
  0
LINE
  5
180
100
AcDbEntity
  8
WHITE
  6
CONTINUOUS
 62
          15
100
AcDbLine
 10
-4865.636951490448
 20
611.46407909353
 30
0.0
 11
-4865.413666738989
 21
613.451575991582
 31
0.0
  0
LINE
  5
181
100
AcDbEntity
  8
WHITE
  6
CONTINUOUS
 62
          15
100
AcDbLine
 10
-4869.943855043142
 20
617.913433737775
 30
0.0
 11
-4870.382408984118
 21
614.00978787023
 31
0.0
  0
LINE
  5
182
100
AcDbEntity
  8
WHITE
  6
CONTINUOUS
 62
          15
100
AcDbLine
 10
-4865.413666738989
 20
613.451575991582
 30
0.0
 11
-4870.382408984118
 21
614.00978787023
 31
0.0
  0
LINE
  5
183
100
AcDbEntity
  8
WHITE
  6
CONTINUOUS
 62
          15
100
AcDbLine
 10
-4865.413666738989
 20
613.451575991582
 30
0.0
 11
-4865.267482091997
 21
614.752791280764
 31
0.0
  0
LINE
  5
184
100
AcDbEntity
  8
WHITE
  6
CONTINUOUS
 62
          15
100
AcDbLine
 10
-4865.267482091997
 20
614.752791280764
 30
0.0
 11
-4864.975112798013
 21
617.355221859128
 31
0.0
  0
LINE
  5
185
100
AcDbEntity
  8
WHITE
  6
CONTINUOUS
 62
          15
100
AcDbLine
 10
-4869.497285540223
 20
621.888427533879
 30
0.0
 11
-4869.943855043142
 21
617.913433737775
 31
0.0
  0
LINE
  5
186
100
AcDbEntity
  8
WHITE
  6
CONTINUOUS
 62
          15
100
AcDbLine
 10
-4864.975112798013
 20
617.355221859128
 30
0.0
 11
-4869.943855043142
 21
617.913433737775
 31
0.0
  0
LINE
  5
187
100
AcDbEntity
  8
WHITE
  6
CONTINUOUS
 62
          15
100
AcDbLine
 10
-4864.975112798013
 20
617.355221859128
 30
0.0
 11
-4864.528543295094
 21
621.330215655231
 31
0.0
  0
LINE
  5
188
100
AcDbEntity
  8
WHITE
  6
CONTINUOUS
 62
          15
100
AcDbLine
 10
-4869.058731599247
 20
625.792073401423
 30
0.0
 11
-4869.497285540223
 21
621.888427533879
 31
0.0
  0
LINE
  5
189
100
AcDbEntity
  8
WHITE
  6
CONTINUOUS
 62
          15
100
AcDbLine
 10
-4864.528543295094
 20
621.330215655231
 30
0.0
 11
-4869.497285540223
 21
621.888427533879
 31
0.0
  0
LINE
  5
18A
100
AcDbEntity
  8
WHITE
  6
CONTINUOUS
 62
          15
100
AcDbLine
 10
-4864.528543295094
 20
621.330215655231
 30
0.0
 11
-4864.236174001109
 21
623.932646233594
 31
0.0
  0
LINE
  5
18B
100
AcDbEntity
  8
WHITE
  6
CONTINUOUS
 62
          15
100
AcDbLine
 10
-4864.236174001109
 20
623.932646233594
 30
0.0
 11
-4864.089989354117
 21
625.233861522775
 31
0.0
  0
LINE
  5
18C
100
AcDbEntity
  8
WHITE
  6
CONTINUOUS
 62
          15
100
AcDbLine
 10
-4868.835446847788
 20
627.779570299474
 30
0.0
 11
-4869.058731599247
 21
625.792073401423
 31
0.0
  0
LINE
  5
18D
100
AcDbEntity
  8
WHITE
  6
CONTINUOUS
 62
          15
100
AcDbLine
 10
-4864.089989354117
 20
625.233861522775
 30
0.0
 11
-4869.058731599247
 21
625.792073401423
 31
0.0
  0
LINE
  5
18E
100
AcDbEntity
  8
WHITE
  6
CONTINUOUS
 62
          15
100
AcDbLine
 10
-4864.089989354117
 20
625.233861522775
 30
0.0
 11
-4863.866704602659
 21
627.221358420827
 31
0.0
  0
LINE
  5
18F
100
AcDbEntity
  8
WHITE
  6
CONTINUOUS
 62
          15
100
AcDbLine
 10
-4868.835446847788
 20
627.779570299474
 30
0.0
 11
-4863.866704602659
 21
627.221358420827
 31
0.0
  0
LINE
  5
190
100
AcDbEntity
  8
WHITE
  6
CONTINUOUS
 62
          15
100
AcDbLine
 10
-4870.000621385087
 20
610.636675937704
 30
0.0
 11
-4865.783136137441
 21
610.162863804348
 31
0.0
  0
LINE
  5
191
100
AcDbEntity
  8
WHITE
  6
CONTINUOUS
 62
          15
100
AcDbLine
 10
-4863.866704602659
 20
627.221358420827
 30
0.0
 11
-4863.720519955667
 21
628.52257371001
 31
0.0
  0
LINE
  5
192
100
AcDbEntity
  8
WHITE
  6
CONTINUOUS
 62
          15
100
AcDbLine
 10
-4814.838212724338
 20
653.483678109046
 30
0.0
 11
-4814.252090251757
 21
658.700857466432
 31
0.0
  0
LINE
  5
193
100
AcDbEntity
  8
WHITE
  6
CONTINUOUS
 62
          15
100
AcDbLine
 10
-4816.719583712929
 20
650.17302210105
 30
0.0
 11
-4817.110332027984
 21
646.694902529459
 31
0.0
  0
LINE
  5
194
100
AcDbEntity
  8
WHITE
  6
CONTINUOUS
 62
          15
100
AcDbLine
 10
-4817.110332027984
 20
646.694902529459
 30
0.0
 11
-4816.359069473742
 21
646.610502159894
 31
0.0
  0
LINE
  5
195
100
AcDbEntity
  8
WHITE
  6
CONTINUOUS
 62
          15
100
AcDbLine
 10
-4815.938087082823
 20
657.129261244232
 30
0.0
 11
-4816.719583712929
 21
650.17302210105
 31
0.0
  0
LINE
  5
196
100
AcDbEntity
  8
WHITE
  6
CONTINUOUS
 62
          15
100
AcDbLine
 10
-4816.719583712929
 20
650.17302210105
 30
0.0
 11
-4815.968321158689
 21
650.088621731486
 31
0.0
  0
LINE
  5
197
100
AcDbEntity
  8
WHITE
  6
CONTINUOUS
 62
          15
100
AcDbLine
 10
-4815.547338767769
 20
660.607380815822
 30
0.0
 11
-4815.938087082823
 21
657.129261244232
 31
0.0
  0
LINE
  5
198
100
AcDbEntity
  8
WHITE
  6
CONTINUOUS
 62
          15
100
AcDbLine
 10
-4815.938087082823
 20
657.129261244232
 30
0.0
 11
-4815.186824528581
 21
657.044860874667
 31
0.0
  0
LINE
  5
199
100
AcDbEntity
  8
WHITE
  6
CONTINUOUS
 62
          15
100
AcDbLine
 10
-4814.933305701256
 20
666.072997285466
 30
0.0
 11
-4815.547338767769
 21
660.607380815822
 31
0.0
  0
LINE
  5
19A
100
AcDbEntity
  8
WHITE
  6
CONTINUOUS
 62
          15
100
AcDbLine
 10
-4815.547338767769
 20
660.607380815822
 30
0.0
 11
-4814.796076213528
 21
660.522980446257
 31
0.0
  0
LINE
  5
19B
100
AcDbEntity
  8
WHITE
  6
CONTINUOUS
 62
          15
100
AcDbLine
 10
-4860.315667170367
 20
624.88208484732
 30
0.0
 11
-4861.655375679122
 21
612.957103459008
 31
0.0
  0
LINE
  5
19C
100
AcDbEntity
  8
WHITE
  6
CONTINUOUS
 62
           2
100
AcDbLine
 10
-4861.655375679122
 20
612.957103459008
 30
0.0
 11
-4865.42168230093
 21
613.380228063023
 31
0.0
  0
LINE
  5
19D
100
AcDbEntity
  8
WHITE
  6
CONTINUOUS
 62
          15
100
AcDbLine
 10
-4860.204024794638
 20
625.875833296346
 30
0.0
 11
-4860.315667170367
 21
624.88208484732
 31
0.0
  0
LINE
  5
19E
100
AcDbEntity
  8
WHITE
  6
CONTINUOUS
 62
           2
100
AcDbLine
 10
-4860.315667170367
 20
624.88208484732
 30
0.0
 11
-4864.081973792176
 21
625.305209451335
 31
0.0
  0
LINE
  5
19F
100
AcDbEntity
  8
WHITE
  6
CONTINUOUS
 62
          15
100
AcDbLine
 10
-4861.655375679122
 20
612.957103459008
 30
0.0
 11
-4861.767018054852
 21
611.963355009982
 31
0.0
  0
LINE
  5
1A0
100
AcDbEntity
  8
WHITE
  6
CONTINUOUS
 62
          15
100
AcDbLine
 10
-4865.53332467666
 20
612.386479613997
 30
0.0
 11
-4861.767018054852
 21
611.963355009982
 31
0.0
  0
LINE
  5
1A1
100
AcDbEntity
  8
WHITE
  6
CONTINUOUS
 62
          15
100
AcDbLine
 10
-4860.148203606774
 20
626.372707520859
 30
0.0
 11
-4860.204024794638
 21
625.875833296346
 31
0.0
  0
LINE
  5
1A2
100
AcDbEntity
  8
WHITE
  6
CONTINUOUS
 62
          15
100
AcDbLine
 10
-4863.970331416446
 20
626.298957900361
 30
0.0
 11
-4860.204024794638
 21
625.875833296346
 31
0.0
  0
LINE
  5
1A3
100
AcDbEntity
  8
WHITE
  6
CONTINUOUS
 62
          15
100
AcDbLine
 10
-4823.507702767353
 20
607.665123544394
 30
0.0
 11
-4842.424597263125
 21
609.790336464226
 31
0.0
  0
LINE
  5
1A4
100
AcDbEntity
  8
WHITE
  6
CONTINUOUS
 62
          15
100
AcDbLine
 10
-4842.424597263125
 20
609.790336464226
 30
0.0
 11
-4850.065321418
 21
608.636149603175
 31
0.0
  0
LINE
  5
1A5
100
AcDbEntity
  8
WHITE
  6
CONTINUOUS
 62
          15
100
AcDbLine
 10
-4818.282576973144
 20
636.260543814687
 30
0.0
 11
-4818.779451197657
 21
636.316365002552
 31
0.0
  0
LINE
  5
1A6
100
AcDbEntity
  8
WHITE
  6
CONTINUOUS
 62
          15
100
AcDbLine
 10
-4821.84961653022
 20
608.988282654339
 30
0.0
 11
-4818.779451197657
 21
636.316365002552
 31
0.0
  0
LINE
  5
1A7
100
AcDbEntity
  8
WHITE
  6
CONTINUOUS
 62
          15
100
AcDbLine
 10
-4848.351413993001
 20
610.456182937633
 30
0.0
 11
-4842.424597263125
 21
609.790336464226
 31
0.0
  0
LINE
  5
1A8
100
AcDbEntity
  8
WHITE
  6
CONTINUOUS
 62
          15
100
AcDbLine
 10
-4818.779451197657
 20
636.316365002552
 30
0.0
 11
-4846.604407770383
 21
639.44235152298
 31
0.0
  0
LINE
  5
1A9
100
AcDbEntity
  8
WHITE
  6
CONTINUOUS
 62
          15
100
AcDbLine
 10
-4849.674573102946
 20
612.114269174767
 30
0.0
 11
-4846.604407770383
 21
639.44235152298
 31
0.0
  0
LINE
  5
1AA
100
AcDbEntity
  8
WHITE
  6
CONTINUOUS
 62
          15
100
AcDbLine
 10
-4860.499680132773
 20
609.808394548336
 30
0.0
 11
-4850.065321418
 21
608.636149603175
 31
0.0
  0
LINE
  5
1AB
100
AcDbEntity
  8
WHITE
  6
CONTINUOUS
 62
          15
100
AcDbLine
 10
-4861.767018054852
 20
611.963355009982
 30
0.0
 11
-4861.822839242717
 21
611.46648078547
 31
0.0
  0
LINE
  5
1AC
100
AcDbEntity
  8
WHITE
  6
CONTINUOUS
 62
          15
100
AcDbLine
 10
-4858.49011736964
 20
627.695866630804
 30
0.0
 11
-4848.055758654868
 21
626.523621685643
 31
0.0
  0
LINE
  5
1AD
100
AcDbEntity
  8
WHITE
  6
CONTINUOUS
 62
          15
100
AcDbLine
 10
-4818.170934597414
 20
637.254292263713
 30
0.0
 11
-4818.282576973144
 21
636.260543814687
 31
0.0
  0
LINE
  5
1AE
100
AcDbEntity
  8
WHITE
  6
CONTINUOUS
 62
          15
100
AcDbLine
 10
-4846.604407770383
 20
639.44235152298
 30
0.0
 11
-4847.101281994896
 21
639.498172710845
 31
0.0
  0
LINE
  5
1AF
100
AcDbEntity
  8
WHITE
  6
CONTINUOUS
 62
          15
100
AcDbLine
 10
-4847.101281994896
 20
639.498172710845
 30
0.0
 11
-4846.989639619166
 21
640.491921159871
 31
0.0
  0
LINE
  5
1B0
100
AcDbEntity
  8
WHITE
  6
CONTINUOUS
 62
          15
100
AcDbLine
 10
-4818.170934597414
 20
637.254292263713
 30
0.0
 11
-4846.989639619166
 21
640.491921159871
 31
0.0
  0
LINE
  5
1B1
100
AcDbEntity
  8
WHITE
  6
CONTINUOUS
 62
           7
100
AcDbLine
 10
-4844.080694793461
 20
666.384951382095
 30
0.0
 11
-4844.142759038063
 21
665.832506610031
 31
0.0
  0
LINE
  5
1B2
100
AcDbEntity
  8
WHITE
  6
CONTINUOUS
 62
          15
100
AcDbLine
 10
-4841.939411804427
 20
668.155745324725
 30
0.0
 11
-4814.933305701256
 21
666.072997285466
 31
0.0
  0
LINE
  5
1B3
100
AcDbEntity
  8
WHITE
  6
CONTINUOUS
 62
           7
100
AcDbLine
 10
-4850.395388604082
 20
654.962611324882
 30
0.0
 11
-4850.339567416218
 21
655.459485549394
 31
0.0
  0
LINE
  5
1B4
100
AcDbEntity
  8
WHITE
  6
CONTINUOUS
 62
           1
100
AcDbLine
 10
-4847.866772526065
 20
655.181680138478
 30
0.0
 11
-4850.339567416218
 21
655.459485549394
 31
0.0
  0
LINE
  5
1B5
100
AcDbEntity
  8
WHITE
  6
CONTINUOUS
 62
           7
100
AcDbLine
 10
-4850.339567416218
 20
655.459485549394
 30
0.0
 11
-4849.892997913299
 21
659.434479345498
 31
0.0
  0
LINE
  5
1B6
100
AcDbEntity
  8
WHITE
  6
CONTINUOUS
 62
           1
100
AcDbLine
 10
-4847.420203023146
 20
659.156673934582
 30
0.0
 11
-4849.892997913299
 21
659.434479345498
 31
0.0
  0
LINE
  5
1B7
100
AcDbEntity
  8
WHITE
  6
CONTINUOUS
 62
           7
100
AcDbLine
 10
-4850.451209791947
 20
654.465737100368
 30
0.0
 11
-4850.395388604082
 21
654.962611324882
 31
0.0
  0
LINE
  5
1B8
100
AcDbEntity
  8
WHITE
  6
CONTINUOUS
 62
           1
100
AcDbLine
 10
-4847.922593713929
 20
654.684805913966
 30
0.0
 11
-4850.395388604082
 21
654.962611324882
 31
0.0
  0
LINE
  5
1B9
100
AcDbEntity
  8
WHITE
  6
CONTINUOUS
 62
           7
100
AcDbLine
 10
-4849.892997913299
 20
659.434479345498
 30
0.0
 11
-4849.837176725434
 21
659.931353570012
 31
0.0
  0
LINE
  5
1BA
100
AcDbEntity
  8
WHITE
  6
CONTINUOUS
 62
           1
100
AcDbLine
 10
-4847.364381835281
 20
659.653548159096
 30
0.0
 11
-4849.837176725434
 21
659.931353570012
 31
0.0
  0
LINE
  5
1BB
100
AcDbEntity
  8
WHITE
  6
CONTINUOUS
 62
           7
100
AcDbLine
 10
-4848.787607088543
 20
660.316585418794
 30
0.0
 11
-4849.457461342921
 21
654.354094724639
 31
0.0
  0
LINE
  5
1BC
100
AcDbEntity
  8
WHITE
  6
CONTINUOUS
 62
           2
100
AcDbLine
 10
-4849.457461342921
 20
654.354094724639
 30
0.0
 11
-4850.451209791947
 21
654.465737100368
 31
0.0
  0
LINE
  5
1BD
100
AcDbEntity
  8
WHITE
  6
CONTINUOUS
 62
           7
100
AcDbLine
 10
-4848.675964712814
 20
661.31033386782
 30
0.0
 11
-4848.787607088543
 21
660.316585418794
 31
0.0
  0
LINE
  5
1BE
100
AcDbEntity
  8
WHITE
  6
CONTINUOUS
 62
           2
100
AcDbLine
 10
-4848.787607088543
 20
660.316585418794
 30
0.0
 11
-4849.781355537569
 21
660.428227794524
 31
0.0
  0
LINE
  5
1BF
100
AcDbEntity
  8
WHITE
  6
CONTINUOUS
 62
           7
100
AcDbLine
 10
-4849.457461342921
 20
654.354094724639
 30
0.0
 11
-4849.56910371865
 21
653.360346275613
 31
0.0
  0
LINE
  5
1C0
100
AcDbEntity
  8
WHITE
  6
CONTINUOUS
 62
           7
100
AcDbLine
 10
-4849.56910371865
 20
653.360346275613
 30
0.0
 11
-4850.451209791947
 21
654.465737100368
 31
0.0
  0
LINE
  5
1C1
100
AcDbEntity
  8
WHITE
  6
CONTINUOUS
 62
           7
100
AcDbLine
 10
-4849.837176725434
 20
659.931353570012
 30
0.0
 11
-4849.781355537569
 21
660.428227794524
 31
0.0
  0
LINE
  5
1C2
100
AcDbEntity
  8
WHITE
  6
CONTINUOUS
 62
           7
100
AcDbLine
 10
-4848.117752834166
 20
666.27907611295
 30
0.0
 11
-4848.675964712814
 21
661.31033386782
 31
0.0
  0
LINE
  5
1C3
100
AcDbEntity
  8
WHITE
  6
CONTINUOUS
 62
           7
100
AcDbLine
 10
-4849.781355537569
 20
660.428227794524
 30
0.0
 11
-4848.675964712814
 21
661.31033386782
 31
0.0
  0
LINE
  5
1C4
100
AcDbEntity
  8
WHITE
  6
CONTINUOUS
 62
          15
100
AcDbLine
 10
-4817.110332027984
 20
646.694902529459
 30
0.0
 11
-4818.170934597414
 21
637.254292263713
 31
0.0
  0
LINE
  5
1C5
100
AcDbEntity
  8
WHITE
  6
CONTINUOUS
 62
          15
100
AcDbLine
 10
-4846.989639619166
 20
640.491921159871
 30
0.0
 11
-4846.152321801194
 21
647.945034527565
 31
0.0
  0
LINE
  5
1C6
100
AcDbEntity
  8
WHITE
  6
CONTINUOUS
 62
           7
100
AcDbLine
 10
-4847.25771262595
 20
647.062928454268
 30
0.0
 11
-4845.024865111359
 21
666.937897434787
 31
0.0
  0
LINE
  5
1C7
100
AcDbEntity
  8
WHITE
  6
CONTINUOUS
 62
           7
100
AcDbLine
 10
-4849.245209524002
 20
647.286213205728
 30
0.0
 11
-4847.012362009411
 21
667.161182186246
 31
0.0
  0
LINE
  5
1C8
100
AcDbEntity
  8
WHITE
  6
CONTINUOUS
 62
           7
100
AcDbLine
 10
-4849.245209524002
 20
647.286213205728
 30
0.0
 11
-4850.127315597298
 21
648.391604030483
 31
0.0
  0
LINE
  5
1C9
100
AcDbEntity
  8
WHITE
  6
CONTINUOUS
 62
           7
100
AcDbLine
 10
-4846.152321801194
 20
647.945034527565
 30
0.0
 11
-4847.25771262595
 21
647.062928454268
 31
0.0
  0
LINE
  5
1CA
100
AcDbEntity
  8
WHITE
  6
CONTINUOUS
 62
           7
100
AcDbLine
 10
-4845.024865111359
 20
666.937897434787
 30
0.0
 11
-4844.142759038063
 21
665.832506610031
 31
0.0
  0
LINE
  5
1CB
100
AcDbEntity
  8
WHITE
  6
CONTINUOUS
 62
           7
100
AcDbLine
 10
-4847.012362009411
 20
667.161182186246
 30
0.0
 11
-4848.117752834166
 21
666.27907611295
 31
0.0
  0
LINE
  5
1CC
100
AcDbEntity
  8
WHITE
  6
CONTINUOUS
 62
           7
100
AcDbLine
 10
-4849.56910371865
 20
653.360346275613
 30
0.0
 11
-4850.127315597298
 21
648.391604030483
 31
0.0
  0
LINE
  5
1CD
100
AcDbEntity
  8
WHITE
  6
CONTINUOUS
 62
           7
100
AcDbLine
 10
-4849.245209524002
 20
647.286213205728
 30
0.0
 11
-4847.25771262595
 21
647.062928454268
 31
0.0
  0
LINE
  5
1CE
100
AcDbEntity
  8
WHITE
  6
CONTINUOUS
 62
          15
100
AcDbLine
 10
-4846.152321801194
 20
647.945034527565
 30
0.0
 11
-4844.142759038063
 21
665.832506610031
 31
0.0
  0
LINE
  5
1CF
100
AcDbEntity
  8
WHITE
  6
CONTINUOUS
 62
           7
100
AcDbLine
 10
-4845.024865111359
 20
666.937897434787
 30
0.0
 11
-4847.012362009411
 21
667.161182186246
 31
0.0
  0
LINE
  5
1D0
100
AcDbEntity
  8
WHITE
  6
CONTINUOUS
 62
          15
100
AcDbLine
 10
-4798.586761013923
 20
668.261713069896
 30
0.0
 11
-4798.08988678941
 21
668.205891882031
 31
0.0
  0
LINE
  5
1D1
100
AcDbEntity
  8
WHITE
  6
CONTINUOUS
 62
          15
100
AcDbLine
 10
-4814.05671609423
 20
660.439917252228
 30
0.0
 11
-4809.584848073613
 21
659.937526561444
 31
0.0
  0
LINE
  5
1D2
100
AcDbEntity
  8
WHITE
  6
CONTINUOUS
 62
           7
100
AcDbLine
 10
-4826.281358686832
 20
645.806486419939
 30
0.0
 11
-4834.550449381697
 21
646.735474969509
 31
0.0
  0
LINE
  5
1D3
100
AcDbEntity
  8
WHITE
  6
CONTINUOUS
 62
           7
100
AcDbLine
 10
-4834.550449381697
 20
646.735474969509
 30
0.0
 11
-4833.784221629221
 21
653.555803143712
 31
0.0
  0
LINE
  5
1D4
100
AcDbEntity
  8
WHITE
  6
CONTINUOUS
 62
           7
100
AcDbLine
 10
-4833.784221629221
 20
653.555803143712
 30
0.0
 11
-4825.515130934356
 21
652.626814594142
 31
0.0
  0
LINE
  5
1D5
100
AcDbEntity
  8
WHITE
  6
CONTINUOUS
 62
           7
100
AcDbLine
 10
-4825.515130934356
 20
652.626814594142
 30
0.0
 11
-4826.281358686832
 21
645.806486419939
 31
0.0
  0
ARC
  5
1D6
100
AcDbEntity
  8
WHITE
  6
CONTINUOUS
 62
          15
100
AcDbCircle
 10
-4770.013800523809
 20
671.793841157941
 30
0.0
 40
2.25
100
AcDbArc
 50
173.59
 51
353.589999999999
  0
ARC
  5
1D7
100
AcDbEntity
  8
WHITE
  6
CONTINUOUS
 62
          15
100
AcDbCircle
 10
-4770.013800523809
 20
671.793841157941
 30
0.0
 40
2.25
100
AcDbArc
 50
353.589999999999
 51
173.59
  0
ARC
  5
1D8
100
AcDbEntity
  8
WHITE
  6
CONTINUOUS
 62
          15
100
AcDbCircle
 10
-4823.388828865431
 20
654.444294551647
 30
0.0
 40
8.604407030244
100
AcDbArc
 50
353.589999999999
 51
17.59198532828
  0
ARC
  5
1D9
100
AcDbEntity
  8
WHITE
  6
CONTINUOUS
 62
          15
100
AcDbCircle
 10
-4817.839249276927
 20
648.537801560072
 30
0.0
 40
2.430106011614
100
AcDbArc
 50
353.589999999999
 51
39.655478142734
  0
ARC
  5
1DA
100
AcDbEntity
  8
WHITE
  6
CONTINUOUS
 62
          15
100
AcDbCircle
 10
-4816.667004331767
 20
658.972160274844
 30
0.0
 40
2.430106011614
100
AcDbArc
 50
353.589999999999
 51
39.655478142734
  0
ARC
  5
1DB
100
AcDbEntity
  8
WHITE
  6
CONTINUOUS
 62
          15
100
AcDbCircle
 10
-4817.839249276927
 20
648.537801560072
 30
0.0
 40
2.430106011614
100
AcDbArc
 50
307.524521857251
 51
353.589999999999
  0
ARC
  5
1DC
100
AcDbEntity
  8
WHITE
  6
CONTINUOUS
 62
          15
100
AcDbCircle
 10
-4816.667004331767
 20
658.972160274844
 30
0.0
 40
2.430106011613
100
AcDbArc
 50
307.524521857281
 51
353.589999999999
  0
ARC
  5
1DD
100
AcDbEntity
  8
WHITE
  6
CONTINUOUS
 62
          15
100
AcDbCircle
 10
-4823.388828865431
 20
654.444294551647
 30
0.0
 40
8.604407030244
100
AcDbArc
 50
329.588014671731
 51
353.589999999999
  0
CIRCLE
  5
1DE
100
AcDbEntity
  8
WHITE
  6
CONTINUOUS
 62
          15
100
AcDbCircle
 10
-4743.673293633188
 20
628.582989549286
 30
0.0
 40
2.25
  0
CIRCLE
  5
1DF
100
AcDbEntity
  8
WHITE
  6
CONTINUOUS
 62
          15
100
AcDbCircle
 10
-4764.542011062733
 20
630.927479439607
 30
0.0
 40
2.25
  0
CIRCLE
  5
1E0
100
AcDbEntity
  8
WHITE
  6
CONTINUOUS
 62
          15
100
AcDbCircle
 10
-4729.270114113745
 20
667.216503753028
 30
0.0
 40
2.25
  0
ARC
  5
1E1
100
AcDbEntity
  8
WHITE
  6
CONTINUOUS
 62
          15
100
AcDbCircle
 10
-4812.316793145173
 20
666.844508184236
 30
0.0
 40
0.5
100
AcDbArc
 50
90.739821982564
 51
173.59
  0
ARC
  5
1E2
100
AcDbEntity
  8
WHITE
  6
CONTINUOUS
 62
          15
100
AcDbCircle
 10
-4812.888134488055
 20
661.758898265572
 30
0.0
 40
0.5
100
AcDbArc
 50
173.59
 51
256.44017801742
  0
ARC
  5
1E3
100
AcDbEntity
  8
WHITE
  6
CONTINUOUS
 62
          15
100
AcDbCircle
 10
-4812.114007451502
 20
668.775136693219
 30
0.0
 40
1.0
100
AcDbArc
 50
83.59
 51
173.59
  0
ARC
  5
1E4
100
AcDbEntity
  8
WHITE
  6
CONTINUOUS
 62
          15
100
AcDbCircle
 10
-4815.57492109912
 20
637.968934773415
 30
0.0
 40
1.0
100
AcDbArc
 50
173.59
 51
263.59
  0
ARC
  5
1E5
100
AcDbEntity
  8
WHITE
  6
CONTINUOUS
 62
          15
100
AcDbCircle
 10
-4823.340239203759
 20
609.155746217933
 30
0.0
 40
1.500000000001
100
AcDbArc
 50
263.59
 51
353.589999999999
  0
ARC
  5
1E6
100
AcDbEntity
  8
WHITE
  6
CONTINUOUS
 62
          15
100
AcDbCircle
 10
-4848.183950429408
 20
611.946805611173
 30
0.0
 40
1.5
100
AcDbArc
 50
173.59
 51
263.59
  0
ARC
  5
1E7
100
AcDbEntity
  8
WHITE
  6
CONTINUOUS
 62
          15
100
AcDbCircle
 10
-4858.657580933234
 20
626.205243957265
 30
0.0
 40
1.5
100
AcDbArc
 50
83.59
 51
173.59
  0
ARC
  5
1E8
100
AcDbEntity
  8
WHITE
  6
CONTINUOUS
 62
          15
100
AcDbCircle
 10
-4860.332216569178
 20
611.299017221876
 30
0.0
 40
1.5
100
AcDbArc
 50
173.59
 51
263.59
  0
ARC
  5
1E9
100
AcDbEntity
  8
WHITE
  6
CONTINUOUS
 62
          15
100
AcDbCircle
 10
-4842.093197895409
 20
666.161666630636
 30
0.0
 40
2.0
100
AcDbArc
 50
85.59
 51
173.59
  0
TEXT
  5
1EA
100
AcDbEntity
  8
WHITE
  6
CONTINUOUS
 62
           7
100
AcDbText
 10
-4833.05509198916
 20
648.157636228778
 30
0.0
 40
4.0
  1
14
 50
-6.41
 41
0.955
  7
TXT
100
AcDbText
  0
ENDSEC
  0
SECTION
  2
OBJECTS
  0
DICTIONARY
  5
19
100
AcDbDictionary
  3
ACAD_GROUP
350
1A
  3
ACAD_MLINESTYLE
350
1B
  0
DICTIONARY
  5
1A
102
{ACAD_REACTORS
330
19
102
}
100
AcDbDictionary
  0
DICTIONARY
  5
1B
102
{ACAD_REACTORS
330
19
102
}
100
AcDbDictionary
  3
STANDARD
350
1C
  0
MLINESTYLE
  5
1C
102
{ACAD_REACTORS
330
1B
102
}
100
AcDbMlineStyle
  2
STANDARD
 70
           0
  3

 62
           0
 51
90.0
 52
90.0
 71
           2
 49
0.5
 62
         256
  6
BYLAYER
 49
-0.5
 62
         256
  6
BYLAYER
  0
ENDSEC
  0
EOF
