  0
SECTION
  2
HEADER
  9
$ACADVER
  1
AC1012
  9
$DWGCODEPAGE
  3
dos850
  9
$INSBASE
 10
0.0
 20
0.0
 30
0.0
  9
$EXTMIN
 10
-5126.593763822328
 20
94.516295641362
 30
0.0
  9
$EXTMAX
 10
-4570.183607822328
 20
344.516295641362
 30
0.0
  9
$LIMMIN
 10
-5126.593763822328
 20
94.516295641362
  9
$LIMMAX
 10
-4570.183607822328
 20
344.516295641362
  9
$ORTHOMODE
 70
           0
  9
$REGENMODE
 70
           1
  9
$FILLMODE
 70
           1
  9
$QTEXTMODE
 70
           0
  9
$MIRRTEXT
 70
           1
  9
$DRAGMODE
 70
           2
  9
$LTSCALE
 40
5.0
  9
$OSMODE
 70
           0
  9
$ATTMODE
 70
           1
  9
$TEXTSIZE
 40
0.2
  9
$TRACEWID
 40
0.05
  9
$TEXTSTYLE
  7
TXT
  9
$CLAYER
  8
0
  9
$CELTYPE
  6
CONTINUOUS
  9
$CECOLOR
 62
         256
  9
$CELTSCALE
 40
1.0
  9
$DELOBJ
 70
           1
  9
$DISPSILH
 70
           0
  9
$DIMSCALE
 40
1.0
  9
$DIMASZ
 40
3.5
  9
$DIMEXO
 40
0.0625
  9
$DIMDLI
 40
0.38
  9
$DIMRND
 40
0.0
  9
$DIMDLE
 40
0.0
  9
$DIMEXE
 40
0.18
  9
$DIMTP
 40
0.0
  9
$DIMTM
 40
0.0
  9
$DIMTXT
 40
3.5
  9
$DIMCEN
 40
0.09
  9
$DIMTSZ
 40
0.0
  9
$DIMTOL
 70
           0
  9
$DIMLIM
 70
           0
  9
$DIMTIH
 70
           1
  9
$DIMTOH
 70
           1
  9
$DIMSE1
 70
           0
  9
$DIMSE2
 70
           0
  9
$DIMTAD
 70
           0
  9
$DIMZIN
 70
           0
  9
$DIMBLK
  1

  9
$DIMASO
 70
           1
  9
$DIMSHO
 70
           1
  9
$DIMPOST
  1

  9
$DIMAPOST
  1

  9
$DIMALT
 70
           0
  9
$DIMALTD
 70
           2
  9
$DIMALTF
 40
25.4
  9
$DIMLFAC
 40
1.0
  9
$DIMTOFL
 70
           0
  9
$DIMTVP
 40
0.0
  9
$DIMTIX
 70
           0
  9
$DIMSOXD
 70
           0
  9
$DIMSAH
 70
           0
  9
$DIMBLK1
  1

  9
$DIMBLK2
  1

  9
$DIMSTYLE
  2
STANDARD
  9
$DIMCLRD
 70
           0
  9
$DIMCLRE
 70
           0
  9
$DIMCLRT
 70
           0
  9
$DIMTFAC
 40
1.0
  9
$DIMGAP
 40
0.09
  9
$DIMJUST
 70
           0
  9
$DIMSD1
 70
           0
  9
$DIMSD2
 70
           0
  9
$DIMTOLJ
 70
           1
  9
$DIMTZIN
 70
           0
  9
$DIMALTZ
 70
           0
  9
$DIMALTTZ
 70
           0
  9
$DIMFIT
 70
           3
  9
$DIMUPT
 70
           0
  9
$DIMUNIT
 70
           2
  9
$DIMDEC
 70
           4
  9
$DIMTDEC
 70
           4
  9
$DIMALTU
 70
           2
  9
$DIMALTTD
 70
           2
  9
$DIMTXSTY
  7
TXT
  9
$DIMAUNIT
 70
           0
  9
$LUNITS
 70
           2
  9
$LUPREC
 70
           2
  9
$SKETCHINC
 40
0.1
  9
$FILLETRAD
 40
0.0
  9
$AUNITS
 70
           0
  9
$AUPREC
 70
           2
  9
$MENU
  1
acad
  9
$ELEVATION
 40
0.0
  9
$PELEVATION
 40
0.0
  9
$THICKNESS
 40
0.0
  9
$LIMCHECK
 70
           0
  9
$BLIPMODE
 70
           1
  9
$CHAMFERA
 40
0.0
  9
$CHAMFERB
 40
0.0
  9
$CHAMFERC
 40
0.0
  9
$CHAMFERD
 40
0.0
  9
$SKPOLY
 70
           0
  9
$TDCREATE
 40
0.000000000
  9
$TDUPDATE
 40
0.000000000
  9
$TDINDWG
 40
0.0000000000
  9
$TDUSRTIMER
 40
0.0000000000
  9
$USRTIMER
 70
           1
  9
$ANGBASE
 50
0.0
  9
$ANGDIR
 70
           0
  9
$PDMODE
 70
           2
  9
$PDSIZE
 40
0.5
  9
$PLINEWID
 40
0.0
  9
$COORDS
 70
           0
  9
$SPLFRAME
 70
           0
  9
$SPLINETYPE
 70
           6
  9
$SPLINESEGS
 70
           8
  9
$ATTDIA
 70
           0
  9
$ATTREQ
 70
           1
  9
$HANDLING
 70
           1
  9
$HANDSEED
  5
21C
  9
$SURFTAB1
 70
           6
  9
$SURFTAB2
 70
           6
  9
$SURFTYPE
 70
           6
  9
$SURFU
 70
           6
  9
$SURFV
 70
           6
  9
$UCSNAME
  2

  9
$UCSORG
 10
0.0
 20
0.0
 30
0.0
  9
$UCSXDIR
 10
1.0
 20
0.0
 30
0.0
  9
$UCSYDIR
 10
0.0
 20
1.0
 30
0.0
  9
$PUCSNAME
  2

  9
$PUCSORG
 10
0.0
 20
0.0
 30
0.0
  9
$PUCSXDIR
 10
1.0
 20
0.0
 30
0.0
  9
$PUCSYDIR
 10
0.0
 20
1.0
 30
0.0
  9
$USERI1
 70
           0
  9
$USERI2
 70
           0
  9
$USERI3
 70
           0
  9
$USERI4
 70
           0
  9
$USERI5
 70
           0
  9
$USERR1
 40
0.0
  9
$USERR2
 40
0.0
  9
$USERR3
 40
0.0
  9
$USERR4
 40
0.0
  9
$USERR5
 40
0.0
  9
$WORLDVIEW
 70
           1
  9
$SHADEDGE
 70
           3
  9
$SHADEDIF
 70
          70
  9
$TILEMODE
 70
           1
  9
$MAXACTVP
 70
          16
  9
$PINSBASE
 10
0.0
 20
0.0
 30
0.0
  9
$PLIMCHECK
 70
           0
  9
$PEXTMIN
 10
1.000000000000E+20
 20
1.000000000000E+20
 30
1.000000000000E+20
  9
$PEXTMAX
 10
-1.000000000000E+20
 20
-1.000000000000E+20
 30
-1.000000000000E+20
  9
$PLIMMIN
 10
0.0
 20
0.0
  9
$PLIMMAX
 10
12.0
 20
9.0
  9
$UNITMODE
 70
           0
  9
$VISRETAIN
 70
           0
  9
$PLINEGEN
 70
           1
  9
$PSLTSCALE
 70
           0
  9
$TREEDEPTH
 70
        3020
  9
$PICKSTYLE
 70
           1
  9
$CMLSTYLE
  2
STANDARD
  9
$CMLJUST
 70
           0
  9
$CMLSCALE
 40
1.0
  9
$SAVEIMAGES
 70
           0
  0
ENDSEC
  0
SECTION
  2
CLASSES
  0
CLASS
  1
LWPOLYLINE
  2
AcDbPolyline
  3
"AutoCAD"
 90
        0
280
           0
281
           1
  0
CLASS
  1
IMAGE
  2
AcDbRasterImage
  3
ISM
 90
      127
280
           0
281
           1
  0
CLASS
  1
OLE2FRAME
  2
AcDbOle2Frame
  3
""
 90
        0
280
           0
281
           1
  0
CLASS
  1
HATCH
  2
AcDbHatch
  3
"ACAD_SEDONA"
 90
        0
280
           0
281
           1
  0
CLASS
  1
DICTIONARYVAR
  2
AcDbDictionaryVar
  3
"AutoCAD"
 90
        0
280
           0
281
           0
  0
CLASS
  1
RASTERVARIABLES
  2
AcDbRasterVariables
  3
ISM
 90
        0
280
           0
281
           0
  0
CLASS
  1
IMAGEDEF
  2
AcDbRasterImageDef
  3
ISM
 90
        0
280
           0
281
           0
  0
CLASS
  1
IMAGEDEF_REACTOR
  2
AcDbRasterImageDefReactor
  3
ISM
 90
        1
280
           0
281
           0
  0
CLASS
  1
IDBUFFER
  2
AcDbIdBuffer
  3
"Acad"
 90
        0
280
           0
281
           0
  0
CLASS
  1
SPATIAL_FILTER
  2
AcDbSpatialFilter
  3
"Acad"
 90
        0
280
           0
281
           0
  0
CLASS
  1
XRECORD
  2
AcDbXrecord
  3
"<Built In>"
 90
        0
280
           0
281
           0
  0
ENDSEC
  0
SECTION
  2
TABLES
  0
TABLE
  2
VPORT
  5
7
100
AcDbSymbolTable
 70
           1
  0
VPORT
  5
15
100
AcDbSymbolTableRecord
100
AcDbViewportTableRecord
  2
*ACTIVE
 70
           0
 10
0.0
 20
0.0
 11
1.0
 21
1.0
 12
6.591288
 22
4.579184
 13
0.0
 23
0.0
 14
1.0
 24
1.0
 15
0.0
 25
0.0
 16
0.0
 26
0.0
 36
1.0
 17
0.0
 27
0.0
 37
0.0
 40
9.158369
 41
0.688564
 42
50.0
 43
0.0
 44
0.0
 50
0.0
 51
0.0
 71
           0
 72
         100
 73
           1
 74
           1
 75
           0
 76
           0
 77
           0
 78
           0
  0
ENDTAB
  0
TABLE
  2
LTYPE
  5
4
100
AcDbSymbolTable
 70
           5
  0
LTYPE
  5
11
100
AcDbSymbolTableRecord
100
AcDbLinetypeTableRecord
  2
BYBLOCK
 70
           0
  3

 72
          65
 73
           0
 40
0.0
  0
LTYPE
  5
12
100
AcDbSymbolTableRecord
100
AcDbLinetypeTableRecord
  2
BYLAYER
 70
           0
  3

 72
          65
 73
           0
 40
0.0
  0
LTYPE
  5
13
100
AcDbSymbolTableRecord
100
AcDbLinetypeTableRecord
  2
CONTINUOUS
 70
           0
  3
Solid line
 72
          65
 73
           0
 40
0.0
  0
LTYPE
  5
1D
100
AcDbSymbolTableRecord
100
AcDbLinetypeTableRecord
  2
GESTRICHELT
 70
           0
  3

 72
          65
 73
           2
 40
0.75
 49
0.5
 74
           0
 49
-0.25
 74
           0
  0
LTYPE
  5
1E
100
AcDbSymbolTableRecord
100
AcDbLinetypeTableRecord
  2
STRICHPUNKT
 70
           0
  3

 72
          65
 73
           4
 40
1.0
 49
0.5
 74
           0
 49
-0.25
 74
           0
 49
0.0
 74
           0
 49
-0.25
 74
           0
  0
ENDTAB
  0
TABLE
  2
LAYER
  5
2
100
AcDbSymbolTable
 70
           3
  0
LAYER
  5
14
100
AcDbSymbolTableRecord
100
AcDbLayerTableRecord
  2
0
 70
           0
 62
           7
  6
CONTINUOUS
  0
LAYER
  5
20
100
AcDbSymbolTableRecord
100
AcDbLayerTableRecord
  2
BLACK
 70
           0
 62
           7
  6
CONTINUOUS
  0
LAYER
  5
21
100
AcDbSymbolTableRecord
100
AcDbLayerTableRecord
  2
WHITE
 70
           0
 62
           7
  6
CONTINUOUS
  0
ENDTAB
  0
TABLE
  2
STYLE
  5
3
100
AcDbSymbolTable
 70
           2
  0
STYLE
  5
17
100
AcDbSymbolTableRecord
100
AcDbTextStyleTableRecord
  2
TXT
 70
           0
 40
3.5
 41
1.0
 50
0.0
 71
           0
 42
3.5
  3
TXT
  4

  0
STYLE
  5
1F
100
AcDbSymbolTableRecord
100
AcDbTextStyleTableRecord
  2
GOTHICG
 70
           0
 40
3.5
 41
1.0
 50
0.0
 71
           0
 42
3.5
  3
GOTHICG
  4

  0
ENDTAB
  0
TABLE
  2
VIEW
  5
5
100
AcDbSymbolTable
 70
           0
  0
ENDTAB
  0
TABLE
  2
UCS
  5
6
100
AcDbSymbolTable
 70
           0
  0
ENDTAB
  0
TABLE
  2
APPID
  5
8
100
AcDbSymbolTable
 70
           2
  0
APPID
  5
16
100
AcDbSymbolTableRecord
100
AcDbRegAppTableRecord
  2
ACAD
 70
           0
  0
APPID
  5
22
100
AcDbSymbolTableRecord
100
AcDbRegAppTableRecord
  2
MegaCADPntStyle
 70
           0
  0
ENDTAB
  0
TABLE
  2
DIMSTYLE
  5
9
100
AcDbSymbolTable
 70
           1
  0
DIMSTYLE
105
18
100
AcDbSymbolTableRecord
100
AcDbDimStyleTableRecord
  2
STANDARD
 70
           0
  3

  4

  5

  6

  7

 40
1.0
 41
0.18
 42
0.0625
 43
0.38
 44
0.18
 45
0.0
 46
0.0
 47
0.0
 48
0.0
140
0.18
141
0.09
142
0.0
143
25.4
144
1.0
145
0.0
146
1.0
147
0.09
 71
           0
 72
           0
 73
           1
 74
           1
 75
           0
 76
           0
 77
           0
 78
           0
170
           0
171
           2
172
           0
173
           0
174
           0
175
           0
176
           0
177
           0
178
           0
270
           2
271
           4
272
           4
273
           2
274
           2
340
17
275
           0
280
           0
281
           0
282
           0
283
           1
284
           0
285
           0
286
           0
287
           0
288
           0
  0
ENDTAB
  0
TABLE
  2
BLOCK_RECORD
  5
1
100
AcDbSymbolTable
 70
           2
  0
BLOCK_RECORD
  5
A
100
AcDbSymbolTableRecord
100
AcDbBlockTableRecord
  2
*MODEL_SPACE
  0
BLOCK_RECORD
  5
B
100
AcDbSymbolTableRecord
100
AcDbBlockTableRecord
  2
*PAPER_SPACE
  0
BLOCK_RECORD
  5
23
100
AcDbSymbolTableRecord
100
AcDbBlockTableRecord
  2
ELIPPSE
  0
BLOCK_RECORD
  5
24
100
AcDbSymbolTableRecord
100
AcDbBlockTableRecord
  2
MAK1
  0
ENDTAB
  0
ENDSEC
  0
SECTION
  2
BLOCKS
  0
BLOCK
  5
D
100
AcDbEntity
  8
0
100
AcDbBlockBegin
  2
*MODEL_SPACE
 70
           0
 10
0.0
 20
0.0
 30
0.0
  3
*MODEL_SPACE
  1

  0
ENDBLK
  5
E
100
AcDbEntity
  8
0
100
AcDbBlockEnd
  0
BLOCK
  5
F
100
AcDbEntity
 67
           1
  8
0
100
AcDbBlockBegin
  2
*PAPER_SPACE
 70
           0
 10
0.0
 20
0.0
 30
0.0
  3
*PAPER_SPACE
  1

  0
ENDBLK
  5
10
100
AcDbEntity
 67
           1
  8
0
100
AcDbBlockEnd
  0
BLOCK
  5
1EB
100
AcDbEntity
  8
0
100
AcDbBlockBegin
  2
ELIPPSE
 70
          64
 10
0.0
 20
0.0
 30
0.0
  3
ELIPPSE
  1

  0
CIRCLE
  5
1EC
100
AcDbEntity
  8
0
  6
BYBLOCK
 62
           0
100
AcDbCircle
 10
0.0
 20
0.0
 30
0.0
 40
1.0
  0
ENDBLK
  5
1ED
100
AcDbEntity
  8
0
  6
BYBLOCK
 62
           0
100
AcDbBlockEnd
  0
BLOCK
  5
1EE
100
AcDbEntity
  8
0
100
AcDbBlockBegin
  2
MAK1
 70
          64
 10
0.0
 20
0.0
 30
0.0
  3
MAK1
  1

  0
LINE
  5
1EF
100
AcDbEntity
  8
WHITE
  6
CONTINUOUS
 62
           2
100
AcDbLine
 10
-15.506932297428
 20
611.597948837689
 30
0.0
 11
-15.596491646588
 21
611.687508186849
 31
0.0
  0
LINE
  5
1F0
100
AcDbEntity
  8
WHITE
  6
CONTINUOUS
 62
           2
100
AcDbLine
 10
-14.446272125649
 20
611.597948837689
 30
0.0
 11
-15.596491646587
 21
612.748168358628
 31
0.0
  0
LINE
  5
1F1
100
AcDbEntity
  8
WHITE
  6
CONTINUOUS
 62
           2
100
AcDbLine
 10
-13.596491646587
 20
611.808828530409
 30
0.0
 11
-15.596491646587
 21
613.808828530409
 31
0.0
  0
LINE
  5
1F2
100
AcDbEntity
  8
WHITE
  6
CONTINUOUS
 62
           2
100
AcDbLine
 10
-13.596491646588
 20
612.869488702188
 30
0.0
 11
-15.596491646588
 21
614.869488702188
 31
0.0
  0
LINE
  5
1F3
100
AcDbEntity
  8
WHITE
  6
CONTINUOUS
 62
           2
100
AcDbLine
 10
-13.596491646587
 20
613.930148873968
 30
0.0
 11
-15.596491646587
 21
615.930148873968
 31
0.0
  0
LINE
  5
1F4
100
AcDbEntity
  8
WHITE
  6
CONTINUOUS
 62
           2
100
AcDbLine
 10
-13.596491646588
 20
614.990809045748
 30
0.0
 11
-15.596491646588
 21
616.990809045748
 31
0.0
  0
LINE
  5
1F5
100
AcDbEntity
  8
WHITE
  6
CONTINUOUS
 62
           2
100
AcDbLine
 10
-13.596491646588
 20
616.051469217528
 30
0.0
 11
-15.596491646588
 21
618.051469217528
 31
0.0
  0
LINE
  5
1F6
100
AcDbEntity
  8
WHITE
  6
CONTINUOUS
 62
           2
100
AcDbLine
 10
-13.596491646588
 20
617.112129389307
 30
0.0
 11
-15.596491646587
 21
619.112129389307
 31
0.0
  0
LINE
  5
1F7
100
AcDbEntity
  8
WHITE
  6
CONTINUOUS
 62
           2
100
AcDbLine
 10
-13.596491646588
 20
618.172789561087
 30
0.0
 11
-15.596491646587
 21
620.172789561087
 31
0.0
  0
LINE
  5
1F8
100
AcDbEntity
  8
WHITE
  6
CONTINUOUS
 62
           2
100
AcDbLine
 10
-13.596491646587
 20
619.233449732867
 30
0.0
 11
-15.596491646588
 21
621.233449732867
 31
0.0
  0
LINE
  5
1F9
100
AcDbEntity
  8
WHITE
  6
CONTINUOUS
 62
           2
100
AcDbLine
 10
-13.596491646588
 20
620.294109904647
 30
0.0
 11
-15.596491646588
 21
622.294109904647
 31
0.0
  0
LINE
  5
1FA
100
AcDbEntity
  8
WHITE
  6
CONTINUOUS
 62
           2
100
AcDbLine
 10
-13.596491646587
 20
621.354770076426
 30
0.0
 11
-15.596491646587
 21
623.354770076426
 31
0.0
  0
LINE
  5
1FB
100
AcDbEntity
  8
WHITE
  6
CONTINUOUS
 62
           2
100
AcDbLine
 10
-13.596491646588
 20
622.415430248206
 30
0.0
 11
-15.596491646588
 21
624.415430248206
 31
0.0
  0
LINE
  5
1FC
100
AcDbEntity
  8
WHITE
  6
CONTINUOUS
 62
           2
100
AcDbLine
 10
-13.596491646588
 20
623.476090419986
 30
0.0
 11
-15.596491646587
 21
625.476090419986
 31
0.0
  0
LINE
  5
1FD
100
AcDbEntity
  8
WHITE
  6
CONTINUOUS
 62
           2
100
AcDbLine
 10
-13.596491646587
 20
624.536750591766
 30
0.0
 11
-15.596491646587
 21
626.536750591766
 31
0.0
  0
LINE
  5
1FE
100
AcDbEntity
  8
WHITE
  6
CONTINUOUS
 62
           2
100
AcDbLine
 10
-13.596491646588
 20
625.597410763546
 30
0.0
 11
-15.596491646587
 21
627.597410763545
 31
0.0
  0
LINE
  5
1FF
100
AcDbEntity
  8
WHITE
  6
CONTINUOUS
 62
           2
100
AcDbLine
 10
-13.596491646587
 20
626.658070935325
 30
0.0
 11
-15.596491646588
 21
628.658070935325
 31
0.0
  0
LINE
  5
200
100
AcDbEntity
  8
WHITE
  6
CONTINUOUS
 62
           2
100
AcDbLine
 10
-13.596491646588
 20
627.718731107105
 30
0.0
 11
-15.596491646588
 21
629.718731107105
 31
0.0
  0
LINE
  5
201
100
AcDbEntity
  8
WHITE
  6
CONTINUOUS
 62
           2
100
AcDbLine
 10
-13.596491646587
 20
628.779391278885
 30
0.0
 11
-15.596491646587
 21
630.779391278885
 31
0.0
  0
LINE
  5
202
100
AcDbEntity
  8
WHITE
  6
CONTINUOUS
 62
           2
100
AcDbLine
 10
-13.596491646588
 20
629.840051450665
 30
0.0
 11
-15.354389033611
 21
631.597948837689
 31
0.0
  0
LINE
  5
203
100
AcDbEntity
  8
WHITE
  6
CONTINUOUS
 62
           2
100
AcDbLine
 10
-13.596491646588
 20
630.900711622444
 30
0.0
 11
-14.293728861832
 21
631.597948837689
 31
0.0
  0
LINE
  5
204
100
AcDbEntity
  8
WHITE
  6
CONTINUOUS
 62
           2
100
AcDbLine
 10
-15.596491646588
 20
631.406213139101
 30
0.0
 11
-15.404755948001
 21
631.597948837689
 31
0.0
  0
LINE
  5
205
100
AcDbEntity
  8
WHITE
  6
CONTINUOUS
 62
           2
100
AcDbLine
 10
-15.596491646587
 20
630.345552967321
 30
0.0
 11
-14.344095776221
 21
631.597948837689
 31
0.0
  0
LINE
  5
206
100
AcDbEntity
  8
WHITE
  6
CONTINUOUS
 62
           2
100
AcDbLine
 10
-15.596491646587
 20
629.284892795542
 30
0.0
 11
-13.596491646587
 21
631.284892795542
 31
0.0
  0
LINE
  5
207
100
AcDbEntity
  8
WHITE
  6
CONTINUOUS
 62
           2
100
AcDbLine
 10
-15.596491646587
 20
628.224232623762
 30
0.0
 11
-13.596491646587
 21
630.224232623762
 31
0.0
  0
LINE
  5
208
100
AcDbEntity
  8
WHITE
  6
CONTINUOUS
 62
           2
100
AcDbLine
 10
-15.596491646588
 20
627.163572451982
 30
0.0
 11
-13.596491646589
 21
629.163572451982
 31
0.0
  0
LINE
  5
209
100
AcDbEntity
  8
WHITE
  6
CONTINUOUS
 62
           2
100
AcDbLine
 10
-15.596491646588
 20
626.102912280202
 30
0.0
 11
-13.596491646587
 21
628.102912280202
 31
0.0
  0
LINE
  5
20A
100
AcDbEntity
  8
WHITE
  6
CONTINUOUS
 62
           2
100
AcDbLine
 10
-15.596491646587
 20
625.042252108423
 30
0.0
 11
-13.596491646588
 21
627.042252108422
 31
0.0
  0
LINE
  5
20B
100
AcDbEntity
  8
WHITE
  6
CONTINUOUS
 62
           2
100
AcDbLine
 10
-15.596491646588
 20
623.981591936643
 30
0.0
 11
-13.596491646588
 21
625.981591936643
 31
0.0
  0
LINE
  5
20C
100
AcDbEntity
  8
WHITE
  6
CONTINUOUS
 62
           2
100
AcDbLine
 10
-15.596491646587
 20
622.920931764863
 30
0.0
 11
-13.596491646587
 21
624.920931764863
 31
0.0
  0
LINE
  5
20D
100
AcDbEntity
  8
WHITE
  6
CONTINUOUS
 62
           2
100
AcDbLine
 10
-15.596491646587
 20
621.860271593083
 30
0.0
 11
-13.596491646587
 21
623.860271593083
 31
0.0
  0
LINE
  5
20E
100
AcDbEntity
  8
WHITE
  6
CONTINUOUS
 62
           2
100
AcDbLine
 10
-15.596491646588
 20
620.799611421304
 30
0.0
 11
-13.596491646588
 21
622.799611421303
 31
0.0
  0
LINE
  5
20F
100
AcDbEntity
  8
WHITE
  6
CONTINUOUS
 62
           2
100
AcDbLine
 10
-15.596491646587
 20
619.738951249524
 30
0.0
 11
-13.596491646589
 21
621.738951249524
 31
0.0
  0
LINE
  5
210
100
AcDbEntity
  8
WHITE
  6
CONTINUOUS
 62
           2
100
AcDbLine
 10
-15.596491646588
 20
618.678291077744
 30
0.0
 11
-13.596491646587
 21
620.678291077744
 31
0.0
  0
LINE
  5
211
100
AcDbEntity
  8
WHITE
  6
CONTINUOUS
 62
           2
100
AcDbLine
 10
-15.596491646587
 20
617.617630905964
 30
0.0
 11
-13.596491646588
 21
619.617630905964
 31
0.0
  0
LINE
  5
212
100
AcDbEntity
  8
WHITE
  6
CONTINUOUS
 62
           2
100
AcDbLine
 10
-15.596491646588
 20
616.556970734184
 30
0.0
 11
-13.596491646588
 21
618.556970734184
 31
0.0
  0
LINE
  5
213
100
AcDbEntity
  8
WHITE
  6
CONTINUOUS
 62
           2
100
AcDbLine
 10
-15.596491646587
 20
615.496310562405
 30
0.0
 11
-13.596491646587
 21
617.496310562405
 31
0.0
  0
LINE
  5
214
100
AcDbEntity
  8
WHITE
  6
CONTINUOUS
 62
           2
100
AcDbLine
 10
-15.596491646587
 20
614.435650390625
 30
0.0
 11
-13.596491646587
 21
616.435650390625
 31
0.0
  0
LINE
  5
215
100
AcDbEntity
  8
WHITE
  6
CONTINUOUS
 62
           2
100
AcDbLine
 10
-15.596491646588
 20
613.374990218845
 30
0.0
 11
-13.596491646588
 21
615.374990218845
 31
0.0
  0
LINE
  5
216
100
AcDbEntity
  8
WHITE
  6
CONTINUOUS
 62
           2
100
AcDbLine
 10
-15.596491646587
 20
612.314330047065
 30
0.0
 11
-13.596491646589
 21
614.314330047065
 31
0.0
  0
LINE
  5
217
100
AcDbEntity
  8
WHITE
  6
CONTINUOUS
 62
           2
100
AcDbLine
 10
-15.252212684185
 20
611.597948837689
 30
0.0
 11
-13.596491646587
 21
613.253669875285
 31
0.0
  0
LINE
  5
218
100
AcDbEntity
  8
WHITE
  6
CONTINUOUS
 62
           2
100
AcDbLine
 10
-14.191552512404
 20
611.597948837689
 30
0.0
 11
-13.596491646588
 21
612.193009703506
 31
0.0
  0
ENDBLK
  5
219
100
AcDbEntity
  8
0
  6
BYBLOCK
 62
           0
100
AcDbBlockEnd
  0
ENDSEC
  0
SECTION
  2
ENTITIES
  0
INSERT
  5
25
100
AcDbEntity
  8
0
  6
CONTINUOUS
 62
           7
100
AcDbBlockReference
  2
MAK1
 10
-4889.526468139535
 20
-377.864630708922
 30
0.0
 50
353.589999999999
  0
LINE
  5
26
100
AcDbEntity
  8
0
  6
CONTINUOUS
 62
          15
100
AcDbLine
 10
-5119.593763822328
 20
344.516295641362
 30
0.0
 11
-4893.593763822328
 21
344.516295641362
 31
0.0
  0
LINE
  5
27
100
AcDbEntity
  8
0
  6
CONTINUOUS
 62
          15
100
AcDbLine
 10
-4893.593763822328
 20
179.516234641362
 30
0.0
 11
-4893.593763822328
 21
94.516295641362
 31
0.0
  0
LINE
  5
28
100
AcDbEntity
  8
0
  6
GESTRICHELT
 62
          15
100
AcDbLine
 10
-4893.593763822328
 20
261.383694169651
 30
0.0
 11
-4893.593763822328
 21
179.516234641362
 31
0.0
  0
LINE
  5
29
100
AcDbEntity
  8
0
  6
CONTINUOUS
 62
          15
100
AcDbLine
 10
-4893.593763822328
 20
344.516295641362
 30
0.0
 11
-4893.593763822328
 21
261.383694169651
 31
0.0
  0
LINE
  5
2A
100
AcDbEntity
  8
0
  6
CONTINUOUS
 62
          15
100
AcDbLine
 10
-4893.593763822328
 20
94.516295641362
 30
0.0
 11
-5119.593763822328
 21
94.516295641362
 31
0.0
  0
LINE
  5
2B
100
AcDbEntity
  8
0
  6
CONTINUOUS
 62
          15
100
AcDbLine
 10
-5119.593763822328
 20
244.516295641362
 30
0.0
 11
-5119.593763822328
 21
344.516295641362
 31
0.0
  0
LINE
  5
2C
100
AcDbEntity
  8
0
  6
GESTRICHELT
 62
          15
100
AcDbLine
 10
-5119.593763822328
 20
194.516295641362
 30
0.0
 11
-5119.593763822328
 21
244.516295641362
 31
0.0
  0
LINE
  5
2D
100
AcDbEntity
  8
0
  6
CONTINUOUS
 62
          15
100
AcDbLine
 10
-5119.593763822328
 20
94.516295641362
 30
0.0
 11
-5119.593763822328
 21
194.516295641362
 31
0.0
  0
LINE
  5
2E
100
AcDbEntity
  8
0
  6
STRICHPUNKT
 62
          15
100
AcDbLine
 10
-5006.593763822328
 20
344.516295641362
 30
0.0
 11
-5006.593763822328
 21
94.516295641362
 31
0.0
  0
LINE
  5
2F
100
AcDbEntity
  8
0
  6
GESTRICHELT
 62
          15
100
AcDbLine
 10
-5119.593763822328
 20
219.516295641362
 30
0.0
 11
-4893.593763822328
 21
219.516295641362
 31
0.0
  0
CIRCLE
  5
30
100
AcDbEntity
  8
0
  6
CONTINUOUS
 62
          15
100
AcDbCircle
 10
-5006.593763822328
 20
219.516295641362
 30
0.0
 40
10.25
  0
LINE
  5
31
100
AcDbEntity
  8
0
  6
GESTRICHELT
 62
          15
100
AcDbLine
 10
-4886.593763822328
 20
244.516295641362
 30
0.0
 11
-4886.593763822328
 21
194.516295641362
 31
0.0
  0
LINE
  5
32
100
AcDbEntity
  8
0
  6
CONTINUOUS
 62
          15
100
AcDbLine
 10
-5126.593763822328
 20
194.516295641362
 30
0.0
 11
-5126.593763822328
 21
244.516295641362
 31
0.0
  0
LINE
  5
33
100
AcDbEntity
  8
0
  6
GESTRICHELT
 62
          15
100
AcDbLine
 10
-5066.593763822328
 20
194.516295641362
 30
0.0
 11
-4886.593763822328
 21
194.516295641362
 31
0.0
  0
LINE
  5
34
100
AcDbEntity
  8
0
  6
CONTINUOUS
 62
          15
100
AcDbLine
 10
-5126.593763822328
 20
194.516295641362
 30
0.0
 11
-5066.593763822328
 21
194.516295641362
 31
0.0
  0
LINE
  5
35
100
AcDbEntity
  8
0
  6
GESTRICHELT
 62
          15
100
AcDbLine
 10
-5066.593763822328
 20
244.516295641362
 30
0.0
 11
-4886.593763822328
 21
244.516295641362
 31
0.0
  0
LINE
  5
36
100
AcDbEntity
  8
0
  6
CONTINUOUS
 62
          15
100
AcDbLine
 10
-5126.593763822328
 20
244.516295641362
 30
0.0
 11
-5066.593763822328
 21
244.516295641362
 31
0.0
  0
TEXT
  5
37
100
AcDbEntity
  8
0
  6
CONTINUOUS
 62
          15
100
AcDbText
 10
-5092.298389672876
 20
111.393267493447
 30
0.0
 40
3.5
  1
224-730
 41
0.900000010218
  7
GOTHICG
100
AcDbText
  0
CIRCLE
  5
38
100
AcDbEntity
  8
0
  6
GESTRICHELT
 62
          15
100
AcDbCircle
 10
-5006.593763822328
 20
219.516295641362
 30
0.0
 40
17.5
  0
ARC
  5
39
100
AcDbEntity
  8
0
  6
GESTRICHELT
 62
          15
100
AcDbCircle
 10
-5006.593763822328
 20
219.516295641362
 30
0.0
 40
22.5
100
AcDbArc
 50
109.064916387402
 51
186.057558731017
  0
ARC
  5
3A
100
AcDbEntity
  8
0
  6
CONTINUOUS
 62
          15
100
AcDbCircle
 10
-5006.593763822328
 20
219.516295641362
 30
0.0
 40
22.5
100
AcDbArc
 50
186.057558731017
 51
109.064916387402
  0
CIRCLE
  5
3B
100
AcDbEntity
  8
0
  6
CONTINUOUS
 62
          15
100
AcDbCircle
 10
-4610.183607822328
 20
219.516295641362
 30
0.0
 40
6.25
  0
LINE
  5
3C
100
AcDbEntity
  8
0
  6
GESTRICHELT
 62
          15
100
AcDbLine
 10
-4876.971741864134
 20
259.516298026632
 30
0.0
 11
-5066.593763822328
 21
259.516220293587
 31
0.0
  0
LINE
  5
3D
100
AcDbEntity
  8
0
  6
CONTINUOUS
 62
          15
100
AcDbLine
 10
-4868.331738328143
 20
259.516301568487
 30
0.0
 11
-4876.971741864134
 21
259.516298026632
 31
0.0
  0
LINE
  5
3E
100
AcDbEntity
  8
0
  6
GESTRICHELT
 62
          15
100
AcDbLine
 10
-4684.393239230043
 20
259.516376971646
 30
0.0
 11
-4868.331738328143
 21
259.516301568487
 31
0.0
  0
LINE
  5
3F
100
AcDbEntity
  8
0
  6
CONTINUOUS
 62
          15
100
AcDbLine
 10
-4570.183607822328
 20
259.516423790377
 30
0.0
 11
-4684.393239230043
 21
259.516376971646
 31
0.0
  0
LINE
  5
40
100
AcDbEntity
  8
0
  6
CONTINUOUS
 62
          15
100
AcDbLine
 10
-5066.593763822328
 20
179.516234641362
 30
0.0
 11
-4570.183607822328
 21
179.516234641362
 31
0.0
  0
LINE
  5
41
100
AcDbEntity
  8
0
  6
CONTINUOUS
 62
          15
100
AcDbLine
 10
-4570.183607822328
 20
179.516234641362
 30
0.0
 11
-4570.183607822328
 21
259.516423790377
 31
0.0
  0
LINE
  5
42
100
AcDbEntity
  8
0
  6
CONTINUOUS
 62
          15
100
AcDbLine
 10
-5066.593763822328
 20
254.767558299833
 30
0.0
 11
-5066.593763822328
 21
179.516234641362
 31
0.0
  0
LINE
  5
43
100
AcDbEntity
  8
0
  6
GESTRICHELT
 62
          15
100
AcDbLine
 10
-5066.593763822328
 20
259.516220293587
 30
0.0
 11
-5066.593763822328
 21
254.767558299833
 31
0.0
  0
LINE
  5
44
100
AcDbEntity
  8
WHITE
  6
GESTRICHELT
 62
          15
100
AcDbLine
 10
-5045.838190178181
 20
283.509459338745
 30
0.0
 11
-5041.439152320306
 21
279.115624372565
 31
0.0
  0
LINE
  5
45
100
AcDbEntity
  8
WHITE
  6
CONTINUOUS
 62
          15
100
AcDbLine
 10
-5042.295216457116
 20
251.925952059335
 30
0.0
 11
-5042.302656272248
 21
251.68965418535
 31
0.0
  0
LINE
  5
46
100
AcDbEntity
  8
WHITE
  6
GESTRICHELT
 62
          15
100
AcDbLine
 10
-5041.439152320306
 20
279.115624372565
 30
0.0
 11
-5042.295216457116
 21
251.925952059335
 31
0.0
  0
LINE
  5
47
100
AcDbEntity
  8
WHITE
  6
CONTINUOUS
 62
          15
100
AcDbLine
 10
-5042.302656272248
 20
251.68965418535
 30
0.0
 11
-4996.340715495123
 21
234.011984655686
 31
0.0
  0
LINE
  5
48
100
AcDbEntity
  8
WHITE
  6
CONTINUOUS
 62
          15
100
AcDbLine
 10
-4996.340715495123
 20
234.011984655686
 30
0.0
 11
-4992.80518158919
 21
230.476450749753
 31
0.0
  0
ARC
  5
49
100
AcDbEntity
  8
WHITE
  6
CONTINUOUS
 62
          15
100
AcDbCircle
 10
-5003.411783306989
 20
219.869849031955
 30
0.0
 40
15.0
100
AcDbArc
 50
314.999999999999
 51
45.0
  0
LINE
  5
4A
100
AcDbEntity
  8
WHITE
  6
CONTINUOUS
 62
          15
100
AcDbLine
 10
-4992.80518158919
 20
209.263247314157
 30
0.0
 11
-4996.340715495122
 21
205.727713408224
 31
0.0
  0
ARC
  5
4B
100
AcDbEntity
  8
WHITE
  6
CONTINUOUS
 62
          15
100
AcDbCircle
 10
-5006.94731721292
 20
216.334315126022
 30
0.0
 40
15.0
100
AcDbArc
 50
224.999999999999
 51
314.999999999999
  0
LINE
  5
4C
100
AcDbEntity
  8
WHITE
  6
GESTRICHELT
 62
          15
100
AcDbLine
 10
-5066.467821780923
 20
254.641616258428
 30
0.0
 11
-5070.586927519711
 21
258.760721997215
 31
0.0
  0
LINE
  5
4D
100
AcDbEntity
  8
WHITE
  6
CONTINUOUS
 62
          15
100
AcDbLine
 10
-5017.553918930719
 20
205.727713408224
 30
0.0
 11
-5066.467821780923
 21
254.641616258428
 31
0.0
  0
ARC
  5
4E
100
AcDbEntity
  8
WHITE
  6
GESTRICHELT
 62
          15
100
AcDbCircle
 10
-5059.980325801913
 20
269.367323715014
 30
0.0
 40
15.0
100
AcDbArc
 50
135.0
 51
225.0
  0
LINE
  5
4F
100
AcDbEntity
  8
WHITE
  6
GESTRICHELT
 62
          15
100
AcDbLine
 10
-5070.586927519711
 20
279.973925432812
 30
0.0
 11
-5067.051393613778
 21
283.509459338745
 31
0.0
  0
ARC
  5
50
100
AcDbEntity
  8
WHITE
  6
GESTRICHELT
 62
          15
100
AcDbCircle
 10
-5056.44479189598
 20
272.902857620946
 30
0.0
 40
15.0
100
AcDbArc
 50
115.494701449336
 51
135.0
  0
ARC
  5
51
100
AcDbEntity
  8
WHITE
  6
CONTINUOUS
 62
          15
100
AcDbCircle
 10
-5056.44479189598
 20
272.902857620946
 30
0.0
 40
15.0
100
AcDbArc
 50
51.685298550662
 51
115.494701449336
  0
ARC
  5
52
100
AcDbEntity
  8
WHITE
  6
GESTRICHELT
 62
          15
100
AcDbCircle
 10
-5056.44479189598
 20
272.902857620946
 30
0.0
 40
15.0
100
AcDbArc
 50
45.0
 51
51.685298550662
  0
CIRCLE
  5
53
100
AcDbEntity
  8
WHITE
  6
CONTINUOUS
 62
          15
100
AcDbCircle
 10
-5056.798345286572
 20
269.720877105607
 30
0.0
 40
8.25
  0
LINE
  5
54
100
AcDbEntity
  8
BLACK
  6
GESTRICHELT
 62
          15
100
AcDbLine
 10
-4633.043720787593
 20
222.049367822621
 30
0.0
 11
-4630.810873273002
 21
241.924336803139
 31
0.0
  0
LINE
  5
55
100
AcDbEntity
  8
BLACK
  6
GESTRICHELT
 62
          15
100
AcDbLine
 10
-4630.810873273002
 20
241.924336803139
 30
0.0
 11
-4634.785867069106
 21
242.370906306058
 31
0.0
  0
LINE
  5
56
100
AcDbEntity
  8
BLACK
  6
CONTINUOUS
 62
          15
100
AcDbLine
 10
-4633.44615856035
 20
254.295887694369
 30
0.0
 11
-4662.861112651517
 21
257.600502015964
 31
0.0
  0
LINE
  5
57
100
AcDbEntity
  8
BLACK
  6
CONTINUOUS
 62
          15
100
AcDbLine
 10
-4662.861112651517
 20
257.600502015964
 30
0.0
 11
-4662.916933839382
 21
257.103627791452
 31
0.0
  0
LINE
  5
58
100
AcDbEntity
  8
BLACK
  6
CONTINUOUS
 62
          15
100
AcDbLine
 10
-4662.916933839382
 20
257.103627791452
 30
0.0
 11
-4808.799206156391
 21
273.492728548553
 31
0.0
  0
LINE
  5
59
100
AcDbEntity
  8
BLACK
  6
CONTINUOUS
 62
          15
100
AcDbLine
 10
-4808.799206156391
 20
273.492728548553
 30
0.0
 11
-4808.743384968526
 21
273.989602773066
 31
0.0
  0
LINE
  5
5A
100
AcDbEntity
  8
BLACK
  6
CONTINUOUS
 62
          15
100
AcDbLine
 10
-4808.743384968526
 20
273.989602773066
 30
0.0
 11
-4838.158339059693
 21
277.294217094661
 31
0.0
  0
LINE
  5
5B
100
AcDbEntity
  8
BLACK
  6
CONTINUOUS
 62
          15
100
AcDbLine
 10
-4838.158339059693
 20
277.294217094661
 30
0.0
 11
-4839.498047568448
 21
265.36923570635
 31
0.0
  0
LINE
  5
5C
100
AcDbEntity
  8
BLACK
  6
CONTINUOUS
 62
          15
100
AcDbLine
 10
-4839.498047568448
 20
265.36923570635
 30
0.0
 11
-4850.926154732247
 21
266.653123027241
 31
0.0
  0
LINE
  5
5D
100
AcDbEntity
  8
BLACK
  6
CONTINUOUS
 62
          15
100
AcDbLine
 10
-4850.926154732247
 20
266.653123027241
 30
0.0
 11
-4851.037797107976
 21
265.659374578215
 31
0.0
  0
LINE
  5
5E
100
AcDbEntity
  8
BLACK
  6
CONTINUOUS
 62
          15
100
AcDbLine
 10
-4851.037797107976
 20
265.659374578215
 30
0.0
 11
-4867.434646516905
 21
267.501473777753
 31
0.0
  0
LINE
  5
5F
100
AcDbEntity
  8
BLACK
  6
CONTINUOUS
 62
          15
100
AcDbLine
 10
-4867.434646516905
 20
267.501473777753
 30
0.0
 11
-4871.677056794628
 21
229.739032714767
 31
0.0
  0
LINE
  5
60
100
AcDbEntity
  8
BLACK
  6
CONTINUOUS
 62
          15
100
AcDbLine
 10
-4871.677056794628
 20
229.739032714767
 30
0.0
 11
-4855.2802073857
 21
227.896933515229
 31
0.0
  0
LINE
  5
61
100
AcDbEntity
  8
BLACK
  6
CONTINUOUS
 62
          15
100
AcDbLine
 10
-4855.2802073857
 20
227.896933515229
 30
0.0
 11
-4855.39184976143
 21
226.903185066203
 31
0.0
  0
LINE
  5
62
100
AcDbEntity
  8
BLACK
  6
CONTINUOUS
 62
          15
100
AcDbLine
 10
-4855.39184976143
 20
226.903185066203
 30
0.0
 11
-4843.963742597632
 21
225.619297745313
 31
0.0
  0
LINE
  5
63
100
AcDbEntity
  8
BLACK
  6
CONTINUOUS
 62
          15
100
AcDbLine
 10
-4843.963742597632
 20
225.619297745313
 30
0.0
 11
-4845.303451106387
 21
213.694316357002
 31
0.0
  0
LINE
  5
64
100
AcDbEntity
  8
BLACK
  6
GESTRICHELT
 62
          15
100
AcDbLine
 10
-4835.365966616128
 20
212.577892599706
 30
0.0
 11
-4815.888497015219
 21
210.389702035406
 31
0.0
  0
LINE
  5
65
100
AcDbEntity
  8
BLACK
  6
CONTINUOUS
 62
          15
100
AcDbLine
 10
-4845.303451106387
 20
213.694316357002
 30
0.0
 11
-4835.365966616128
 21
212.577892599706
 31
0.0
  0
LINE
  5
66
100
AcDbEntity
  8
BLACK
  6
GESTRICHELT
 62
          15
100
AcDbLine
 10
-4815.888497015219
 20
210.389702035406
 30
0.0
 11
-4815.832675827354
 21
210.886576259919
 31
0.0
  0
LINE
  5
67
100
AcDbEntity
  8
BLACK
  6
CONTINUOUS
 62
          15
100
AcDbLine
 10
-4807.485188855537
 20
209.948780303791
 30
0.0
 11
-4669.950403510346
 21
194.497475502817
 31
0.0
  0
LINE
  5
68
100
AcDbEntity
  8
BLACK
  6
GESTRICHELT
 62
          15
100
AcDbLine
 10
-4815.832675827354
 20
210.886576259919
 30
0.0
 11
-4807.485188855537
 21
209.948780303791
 31
0.0
  0
LINE
  5
69
100
AcDbEntity
  8
BLACK
  6
CONTINUOUS
 62
          15
100
AcDbLine
 10
-4669.950403510346
 20
194.497475502817
 30
0.0
 11
-4670.006224698211
 21
194.000601278304
 31
0.0
  0
LINE
  5
6A
100
AcDbEntity
  8
BLACK
  6
CONTINUOUS
 62
          15
100
AcDbLine
 10
-4670.006224698211
 20
194.000601278304
 30
0.0
 11
-4640.591270607043
 21
190.695986956709
 31
0.0
  0
LINE
  5
6B
100
AcDbEntity
  8
BLACK
  6
GESTRICHELT
 62
          15
100
AcDbLine
 10
-4639.251562098289
 20
202.62096834502
 30
0.0
 11
-4635.276568302184
 21
202.174398842102
 31
0.0
  0
LINE
  5
6C
100
AcDbEntity
  8
BLACK
  6
GESTRICHELT
 62
          15
100
AcDbLine
 10
-4635.276568302184
 20
202.174398842102
 30
0.0
 11
-4633.043720787593
 21
222.049367822621
 31
0.0
  0
LINE
  5
6D
100
AcDbEntity
  8
BLACK
  6
CONTINUOUS
 62
          15
100
AcDbLine
 10
-4662.916933839382
 20
257.103627791452
 30
0.0
 11
-4669.950403510346
 21
194.497475502817
 31
0.0
  0
LINE
  5
6E
100
AcDbEntity
  8
BLACK
  6
GESTRICHELT
 62
          15
100
AcDbLine
 10
-4811.312364772835
 20
251.122661081539
 30
0.0
 11
-4815.832675827354
 21
210.886576259919
 31
0.0
  0
LINE
  5
6F
100
AcDbEntity
  8
BLACK
  6
CONTINUOUS
 62
          15
100
AcDbLine
 10
-4808.799206156391
 20
273.492728548553
 30
0.0
 11
-4811.312364772835
 21
251.122661081539
 31
0.0
  0
LINE
  5
70
100
AcDbEntity
  8
BLACK
  6
CONTINUOUS
 62
          15
100
AcDbLine
 10
-4839.498047568448
 20
265.36923570635
 30
0.0
 11
-4843.963742597632
 21
225.619297745313
 31
0.0
  0
LINE
  5
71
100
AcDbEntity
  8
BLACK
  6
CONTINUOUS
 62
          15
100
AcDbLine
 10
-4850.926154732247
 20
266.653123027241
 30
0.0
 11
-4855.39184976143
 21
226.903185066203
 31
0.0
  0
LINE
  5
72
100
AcDbEntity
  8
BLACK
  6
GESTRICHELT
 62
          15
100
AcDbLine
 10
-4984.379054949146
 20
269.570359105504
 30
0.0
 11
-5008.771207103251
 21
272.310688228343
 31
0.0
  0
LINE
  5
73
100
AcDbEntity
  8
BLACK
  6
CONTINUOUS
 62
          15
100
AcDbLine
 10
-4977.88560468237
 20
268.840854354905
 30
0.0
 11
-4984.379054949146
 21
269.570359105504
 31
0.0
  0
LINE
  5
74
100
AcDbEntity
  8
BLACK
  6
GESTRICHELT
 62
          15
100
AcDbLine
 10
-4986.165332960819
 20
253.670383921089
 30
0.0
 11
-5010.557485114925
 21
256.410713043928
 31
0.0
  0
LINE
  5
75
100
AcDbEntity
  8
BLACK
  6
CONTINUOUS
 62
          15
100
AcDbLine
 10
-4979.671882694043
 20
252.94087917049
 30
0.0
 11
-4986.165332960819
 21
253.670383921089
 31
0.0
  0
LINE
  5
76
100
AcDbEntity
  8
BLACK
  6
GESTRICHELT
 62
          15
100
AcDbLine
 10
-5009.788281666804
 20
271.499022680365
 30
0.0
 11
-5008.771207103251
 21
272.310688228343
 31
0.0
  0
LINE
  5
77
100
AcDbEntity
  8
BLACK
  6
GESTRICHELT
 62
          15
100
AcDbLine
 10
-5011.36910644727
 20
257.427822891723
 30
0.0
 11
-5010.557485114925
 21
256.410713043928
 31
0.0
  0
LINE
  5
78
100
AcDbEntity
  8
BLACK
  6
GESTRICHELT
 62
          15
100
AcDbLine
 10
-5009.788281666804
 20
271.499022680365
 30
0.0
 11
-5011.36910644727
 21
257.427822891723
 31
0.0
  0
LINE
  5
79
100
AcDbEntity
  8
BLACK
  6
CONTINUOUS
 62
          15
100
AcDbLine
 10
-4984.481781564749
 20
268.655971407617
 30
0.0
 11
-4977.988331297975
 21
267.926466657018
 31
0.0
  0
LINE
  5
7A
100
AcDbEntity
  8
BLACK
  6
GESTRICHELT
 62
          15
100
AcDbLine
 10
-5009.788281666804
 20
271.499022680365
 30
0.0
 11
-4984.481781564749
 21
268.655971407617
 31
0.0
  0
LINE
  5
7B
100
AcDbEntity
  8
BLACK
  6
CONTINUOUS
 62
          15
100
AcDbLine
 10
-4986.062606345215
 20
254.584771618976
 30
0.0
 11
-4979.56915607844
 21
253.855266868377
 31
0.0
  0
LINE
  5
7C
100
AcDbEntity
  8
BLACK
  6
GESTRICHELT
 62
          15
100
AcDbLine
 10
-5011.36910644727
 20
257.427822891723
 30
0.0
 11
-4986.062606345215
 21
254.584771618976
 31
0.0
  0
LINE
  5
7D
100
AcDbEntity
  8
BLACK
  6
GESTRICHELT
 62
          15
100
AcDbLine
 10
-5008.771207103251
 20
272.310688228343
 30
0.0
 11
-5010.557485114925
 21
256.410713043928
 31
0.0
  0
LINE
  5
7E
100
AcDbEntity
  8
BLACK
  6
CONTINUOUS
 62
          15
100
AcDbLine
 10
-4868.439427898471
 20
258.557737736519
 30
0.0
 11
-4977.662319930911
 21
270.828351252957
 31
0.0
  0
LINE
  5
7F
100
AcDbEntity
  8
BLACK
  6
CONTINUOUS
 62
          15
100
AcDbLine
 10
-4977.662319930911
 20
270.828351252957
 30
0.0
 11
-4979.895167445503
 21
250.953382272438
 31
0.0
  0
LINE
  5
80
100
AcDbEntity
  8
BLACK
  6
CONTINUOUS
 62
          15
100
AcDbLine
 10
-4979.895167445503
 20
250.953382272438
 30
0.0
 11
-4870.672275413062
 21
238.682768756001
 31
0.0
  0
LINE
  5
81
100
AcDbEntity
  8
BLACK
  6
CONTINUOUS
 62
          15
100
AcDbLine
 10
-4978.190630632067
 20
266.12576465493
 30
0.0
 11
-4971.5656376594
 21
265.381481777925
 31
0.0
  0
LINE
  5
82
100
AcDbEntity
  8
BLACK
  6
CONTINUOUS
 62
          15
100
AcDbLine
 10
-4979.366856744347
 20
255.655968870465
 30
0.0
 11
-4972.741863771678
 21
254.91168599346
 31
0.0
  0
LINE
  5
83
100
AcDbEntity
  8
BLACK
  6
CONTINUOUS
 62
          15
100
AcDbLine
 10
-4971.5656376594
 20
265.381481777925
 30
0.0
 11
-4972.741863771678
 21
254.91168599346
 31
0.0
  0
LINE
  5
84
100
AcDbEntity
  8
BLACK
  6
CONTINUOUS
 62
          15
100
AcDbLine
 10
-4978.190630632067
 20
266.12576465493
 30
0.0
 11
-4972.741863771678
 21
254.91168599346
 31
0.0
  0
LINE
  5
85
100
AcDbEntity
  8
BLACK
  6
CONTINUOUS
 62
          15
100
AcDbLine
 10
-4971.5656376594
 20
265.381481777925
 30
0.0
 11
-4979.366856744347
 21
255.655968870465
 31
0.0
  0
CIRCLE
  5
86
100
AcDbEntity
  8
BLACK
  6
GESTRICHELT
 62
          15
100
AcDbCircle
 10
-4828.767376990378
 20
235.484411648897
 30
0.0
 40
5.7225
  0
ARC
  5
87
100
AcDbEntity
  8
BLACK
  6
GESTRICHELT
 62
          15
100
AcDbCircle
 10
-4828.767376990378
 20
235.484411648897
 30
0.0
 40
6.5785
100
AcDbArc
 50
103.59
 51
13.59
  0
CIRCLE
  5
88
100
AcDbEntity
  8
BLACK
  6
CONTINUOUS
 62
          15
100
AcDbCircle
 10
-4649.982232676359
 20
232.505792402473
 30
0.0
 40
5.7225
  0
ARC
  5
89
100
AcDbEntity
  8
BLACK
  6
CONTINUOUS
 62
          15
100
AcDbCircle
 10
-4649.982232676359
 20
232.505792402473
 30
0.0
 40
6.57849
100
AcDbArc
 50
103.59
 51
13.59
  0
LINE
  5
8A
100
AcDbEntity
  8
BLACK
  6
GESTRICHELT
 62
          15
100
AcDbLine
 10
-4822.528616942195
 20
251.98767387251
 30
0.0
 11
-4825.774369794845
 21
249.397553933212
 31
0.0
  0
LINE
  5
8B
100
AcDbEntity
  8
BLACK
  6
CONTINUOUS
 62
          15
100
AcDbLine
 10
-4816.4684171749
 20
256.823730394987
 30
0.0
 11
-4822.528616942195
 21
251.98767387251
 31
0.0
  0
LINE
  5
8C
100
AcDbEntity
  8
BLACK
  6
GESTRICHELT
 62
          15
100
AcDbLine
 10
-4824.721567103172
 20
252.156797204491
 30
0.0
 11
-4826.710025288909
 21
250.569992293608
 31
0.0
  0
LINE
  5
8D
100
AcDbEntity
  8
BLACK
  6
CONTINUOUS
 62
          15
100
AcDbLine
 10
-4817.404067086845
 20
257.996218442806
 30
0.0
 11
-4824.721567103172
 21
252.156797204491
 31
0.0
  0
ARC
  5
8E
100
AcDbEntity
  8
BLACK
  6
CONTINUOUS
 62
          15
100
AcDbCircle
 10
-4821.589218999057
 20
253.696881219267
 30
0.0
 40
6.0
100
AcDbArc
 50
338.368688099555
 51
192.811311900445
  0
ARC
  5
8F
100
AcDbEntity
  8
BLACK
  6
GESTRICHELT
 62
          15
100
AcDbCircle
 10
-4821.589218999057
 20
253.696881219267
 30
0.0
 40
6.0
100
AcDbArc
 50
192.811311900445
 51
338.368688099555
  0
LINE
  5
90
100
AcDbEntity
  8
BLACK
  6
CONTINUOUS
 62
          15
100
AcDbLine
 10
-4652.039286253293
 20
217.42017826505
 30
0.0
 11
-4661.345542579891
 21
209.993985608565
 31
0.0
  0
LINE
  5
91
100
AcDbEntity
  8
BLACK
  6
CONTINUOUS
 62
          15
100
AcDbLine
 10
-4652.975239871892
 20
218.592650118159
 30
0.0
 11
-4662.281490616372
 21
211.166507149096
 31
0.0
  0
CIRCLE
  5
92
100
AcDbEntity
  8
BLACK
  6
CONTINUOUS
 62
          15
100
AcDbCircle
 10
-4657.160390667679
 20
214.293322832104
 30
0.0
 40
6.0
  0
LINE
  5
93
100
AcDbEntity
  8
BLACK
  6
CONTINUOUS
 62
          15
100
AcDbLine
 10
-4984.214509619273
 20
275.445517727568
 30
0.0
 11
-4987.695113561987
 21
275.836545148561
 31
0.0
  0
LINE
  5
94
100
AcDbEntity
  8
BLACK
  6
CONTINUOUS
 62
          15
100
AcDbLine
 10
-4991.1757175047
 20
276.227572569554
 30
0.0
 11
-4987.695113561987
 21
275.836545148561
 31
0.0
  0
LINE
  5
95
100
AcDbEntity
  8
BLACK
  6
CONTINUOUS
 62
          15
100
AcDbLine
 10
-4994.269729648719
 20
248.687225552628
 30
0.0
 11
-4990.789125706006
 21
248.296198131636
 31
0.0
  0
LINE
  5
96
100
AcDbEntity
  8
BLACK
  6
CONTINUOUS
 62
          15
100
AcDbLine
 10
-4987.308521763292
 20
247.905170710643
 30
0.0
 11
-4990.789125706006
 21
248.296198131636
 31
0.0
  0
LINE
  5
97
100
AcDbEntity
  8
BLACK
  6
CONTINUOUS
 62
          15
100
AcDbLine
 10
-4984.988011538853
 20
268.560440910821
 30
0.0
 11
-4988.468615481568
 21
268.951468331814
 31
0.0
  0
LINE
  5
98
100
AcDbEntity
  8
BLACK
  6
CONTINUOUS
 62
          15
100
AcDbLine
 10
-4991.949219424281
 20
269.342495752807
 30
0.0
 11
-4988.468615481568
 21
268.951468331814
 31
0.0
  0
LINE
  5
99
100
AcDbEntity
  8
BLACK
  6
CONTINUOUS
 62
          15
100
AcDbLine
 10
-4993.496227729138
 20
255.572302369376
 30
0.0
 11
-4990.015623786425
 21
255.181274948383
 31
0.0
  0
LINE
  5
9A
100
AcDbEntity
  8
BLACK
  6
CONTINUOUS
 62
          15
100
AcDbLine
 10
-4986.535019843711
 20
254.79024752739
 30
0.0
 11
-4990.015623786425
 21
255.181274948383
 31
0.0
  0
ARC
  5
9B
100
AcDbEntity
  8
BLACK
  6
CONTINUOUS
 62
          15
100
AcDbCircle
 10
-5033.948179234892
 20
267.088860689759
 30
0.0
 40
48.982200000031
100
AcDbArc
 50
354.449437000001
 51
1.721609999997
  0
ARC
  5
9C
100
AcDbEntity
  8
BLACK
  6
CONTINUOUS
 62
          15
100
AcDbCircle
 10
-4944.53606003314
 20
257.043882590444
 30
0.0
 40
48.982199999991
100
AcDbArc
 50
165.458000000003
 51
172.731000000004
  0
ARC
  5
9D
100
AcDbEntity
  8
BLACK
  6
CONTINUOUS
 62
          15
100
AcDbCircle
 10
-4944.536060033141
 20
257.043882590437
 30
0.0
 40
48.982199999991
100
AcDbArc
 50
174.448999999995
 51
181.721999999996
  0
ARC
  5
9E
100
AcDbEntity
  8
BLACK
  6
CONTINUOUS
 62
          15
100
AcDbCircle
 10
-5033.948179234891
 20
267.088860689763
 30
0.0
 40
48.982200000031
100
AcDbArc
 50
345.458390000002
 51
352.730562999997
  0
LINE
  5
9F
100
AcDbEntity
  8
BLACK
  6
CONTINUOUS
 62
          15
100
AcDbLine
 10
-4985.195635248149
 20
262.351098494353
 30
0.0
 11
-4985.272193954983
 21
261.620371513296
 31
0.0
  0
LINE
  5
A0
100
AcDbEntity
  8
BLACK
  6
CONTINUOUS
 62
          15
100
AcDbLine
 10
-4993.124555373237
 20
263.241870681824
 30
0.0
 11
-4993.21204531301
 21
262.512371766901
 31
0.0
  0
LINE
  5
A1
100
AcDbEntity
  8
BLACK
  6
CONTINUOUS
 62
          15
100
AcDbLine
 10
-4993.288604019843
 20
261.781644785844
 30
0.0
 11
-4993.21204531301
 21
262.512371766901
 31
0.0
  0
LINE
  5
A2
100
AcDbEntity
  8
BLACK
  6
CONTINUOUS
 62
          15
100
AcDbLine
 10
-4985.359683894754
 20
260.890872598373
 30
0.0
 11
-4985.272193954983
 21
261.620371513296
 31
0.0
  0
ARC
  5
A3
100
AcDbEntity
  8
BLACK
  6
CONTINUOUS
 62
          15
100
AcDbCircle
 10
-4996.833310796314
 20
273.377180353303
 30
0.0
 40
12.801499999978
100
AcDbArc
 50
337.871499999983
 51
353.59000000001
  0
ARC
  5
A4
100
AcDbEntity
  8
BLACK
  6
CONTINUOUS
 62
          15
100
AcDbCircle
 10
-4979.330379613703
 20
271.410818723888
 30
0.0
 40
12.787200000002
100
AcDbArc
 50
173.59
 51
189.308999999996
  0
ARC
  5
A5
100
AcDbEntity
  8
BLACK
  6
CONTINUOUS
 62
          15
100
AcDbCircle
 10
-4981.650888721706
 20
250.755558461189
 30
0.0
 40
12.801500000013
100
AcDbArc
 50
157.871000000002
 51
173.589999999986
  0
ARC
  5
A6
100
AcDbEntity
  8
BLACK
  6
CONTINUOUS
 62
          15
100
AcDbCircle
 10
-4999.153819904381
 20
252.721920090613
 30
0.0
 40
12.78720000003
100
AcDbArc
 50
353.590000000019
 51
9.308499999982
  0
ARC
  5
A7
100
AcDbEntity
  8
BLACK
  6
CONTINUOUS
 62
          15
100
AcDbCircle
 10
-4996.833310796366
 20
273.377180353307
 30
0.0
 40
12.78720000003
100
AcDbArc
 50
353.590000000019
 51
9.308499999982
  0
ARC
  5
A8
100
AcDbEntity
  8
BLACK
  6
CONTINUOUS
 62
          15
100
AcDbCircle
 10
-4979.330379613692
 20
271.410818723883
 30
0.0
 40
12.801500000013
100
AcDbArc
 50
157.871000000002
 51
173.589999999986
  0
ARC
  5
A9
100
AcDbEntity
  8
BLACK
  6
CONTINUOUS
 62
          15
100
AcDbCircle
 10
-4981.650888721716
 20
250.755558461194
 30
0.0
 40
12.787200000002
100
AcDbArc
 50
173.59
 51
189.308999999996
  0
ARC
  5
AA
100
AcDbEntity
  8
BLACK
  6
CONTINUOUS
 62
          15
100
AcDbCircle
 10
-4999.153819904328
 20
252.721920090609
 30
0.0
 40
12.801499999978
100
AcDbArc
 50
337.871499999983
 51
353.59000000001
  0
LINE
  5
AB
100
AcDbEntity
  8
BLACK
  6
CONTINUOUS
 62
          15
100
AcDbLine
 10
-4984.111939400975
 20
271.948001644643
 30
0.0
 11
-4985.272193954983
 21
261.620371513296
 31
0.0
  0
LINE
  5
AC
100
AcDbEntity
  8
BLACK
  6
CONTINUOUS
 62
          15
100
AcDbLine
 10
-4992.051790759003
 20
272.840001898248
 30
0.0
 11
-4993.21204531301
 21
262.512371766901
 31
0.0
  0
LINE
  5
AD
100
AcDbEntity
  8
BLACK
  6
CONTINUOUS
 62
          15
100
AcDbLine
 10
-4994.372299867016
 20
252.184741635554
 30
0.0
 11
-4993.21204531301
 21
262.512371766901
 31
0.0
  0
LINE
  5
AE
100
AcDbEntity
  8
BLACK
  6
CONTINUOUS
 62
          15
100
AcDbLine
 10
-4986.432448508989
 20
251.29274138195
 30
0.0
 11
-4985.272193954983
 21
261.620371513296
 31
0.0
  0
LINE
  5
AF
100
AcDbEntity
  8
0
  6
CONTINUOUS
 62
          15
100
AcDbLine
 10
-4633.442209712504
 20
254.33103708452
 30
0.0
 11
-4640.587321759198
 21
190.73113634686
 31
0.0
  0
LINE
  5
B0
100
AcDbEntity
  8
0
  6
CONTINUOUS
 62
          15
100
AcDbLine
 10
-4632.902178876537
 20
196.437740277708
 30
0.0
 11
-4633.384320146777
 21
192.146115915706
 31
0.0
  0
LINE
  5
B1
100
AcDbEntity
  8
0
  6
CONTINUOUS
 62
          15
100
AcDbLine
 10
-4626.732833458917
 20
251.352170396201
 30
0.0
 11
-4627.214974729158
 21
247.060546034197
 31
0.0
  0
LINE
  5
B2
100
AcDbEntity
  8
0
  6
CONTINUOUS
 62
          15
100
AcDbLine
 10
-4627.214974729158
 20
247.060546034197
 30
0.0
 11
-4628.220341040614
 21
238.111603428996
 31
0.0
  0
LINE
  5
B3
100
AcDbEntity
  8
0
  6
CONTINUOUS
 62
          15
100
AcDbLine
 10
-4631.896812565081
 20
205.386682882912
 30
0.0
 11
-4632.902178876537
 21
196.437740277708
 31
0.0
  0
LINE
  5
B4
100
AcDbEntity
  8
WHITE
  6
CONTINUOUS
 62
          15
100
AcDbLine
 10
-4635.525603135811
 20
190.375321973076
 30
0.0
 11
-4640.583473331706
 21
190.765391877752
 31
0.0
  0
LINE
  5
B5
100
AcDbEntity
  8
WHITE
  6
CONTINUOUS
 62
          15
100
AcDbLine
 10
-4628.427818983108
 20
253.553948790855
 30
0.0
 11
-4633.44615856035
 21
254.295887694369
 31
0.0
  0
LINE
  5
B6
100
AcDbEntity
  8
0
  6
CONTINUOUS
 62
          15
100
AcDbLine
 10
-4631.800079646206
 20
196.352744869548
 30
0.0
 11
-4632.902178876537
 21
196.437740277708
 31
0.0
  0
LINE
  5
B7
100
AcDbEntity
  8
WHITE
  6
CONTINUOUS
 62
          15
100
AcDbLine
 10
-4623.579010850832
 20
243.596211522576
 30
0.0
 11
-4624.58227411541
 21
234.665988508029
 31
0.0
  0
LINE
  5
B8
100
AcDbEntity
  8
0
  6
CONTINUOUS
 62
          15
100
AcDbLine
 10
-4627.214974729158
 20
247.060546034197
 30
0.0
 11
-4626.121489137116
 21
246.898879114556
 31
0.0
  0
LINE
  5
B9
100
AcDbEntity
  8
WHITE
  6
CONTINUOUS
 62
          15
100
AcDbLine
 10
-4627.564385846426
 20
208.121686775351
 30
0.0
 11
-4627.584891898077
 21
207.939158798041
 31
0.0
  0
LINE
  5
BA
100
AcDbEntity
  8
0
  6
CONTINUOUS
 62
          15
100
AcDbLine
 10
-4608.635983735723
 20
231.416079659846
 30
0.0
 11
-4623.738000391919
 21
233.380169486783
 31
0.0
  0
LINE
  5
BB
100
AcDbEntity
  8
0
  6
CONTINUOUS
 62
          15
100
AcDbLine
 10
-4611.314992665043
 20
207.569749348074
 30
0.0
 11
-4626.476355327173
 21
209.005589924062
 31
0.0
  0
LINE
  5
BC
100
AcDbEntity
  8
0
  6
CONTINUOUS
 62
          15
100
AcDbLine
 10
-4624.38438423594
 20
233.740289475529
 30
0.0
 11
-4627.186532708131
 21
208.797872405101
 31
0.0
  0
LINE
  5
BD
100
AcDbEntity
  8
WHITE
  6
CONTINUOUS
 62
          15
100
AcDbLine
 10
-4626.490781490329
 20
235.905021341123
 30
0.0
 11
-4625.447053890553
 21
235.769279551966
 31
0.0
  0
LINE
  5
BE
100
AcDbEntity
  8
WHITE
  6
CONTINUOUS
 62
          15
100
AcDbLine
 10
-4624.58227411541
 20
234.665988508029
 30
0.0
 11
-4624.602780167061
 21
234.483460530719
 31
0.0
  0
LINE
  5
BF
100
AcDbEntity
  8
WHITE
  6
CONTINUOUS
 62
          15
100
AcDbLine
 10
-4627.584891898077
 20
207.939158798041
 30
0.0
 11
-4628.588155162655
 21
199.008935783493
 31
0.0
  0
LINE
  5
C0
100
AcDbEntity
  8
WHITE
  6
CONTINUOUS
 62
          15
100
AcDbLine
 10
-4628.672922417329
 20
207.055255649331
 30
0.0
 11
-4629.720751526574
 21
207.154489180333
 31
0.0
  0
ARC
  5
C1
100
AcDbEntity
  8
0
  6
CONTINUOUS
 62
          15
100
AcDbCircle
 10
-4610.183607822328
 20
219.516295641362
 30
0.0
 40
12.0
100
AcDbArc
 50
264.589999999997
 51
82.590000000002
  0
ARC
  5
C2
100
AcDbEntity
  8
WHITE
  6
CONTINUOUS
 62
          15
100
AcDbCircle
 10
-4628.72033035697
 20
251.57545514766
 30
0.0
 40
2.0
100
AcDbArc
 50
353.589999999999
 51
81.590000000022
  0
ARC
  5
C3
100
AcDbEntity
  8
WHITE
  6
CONTINUOUS
 62
          15
100
AcDbCircle
 10
-4626.56025619791
 20
243.931138649765
 30
0.0
 40
3.0
100
AcDbArc
 50
353.589999999999
 51
81.589999999985
  0
ARC
  5
C4
100
AcDbEntity
  8
WHITE
  6
CONTINUOUS
 62
          15
100
AcDbCircle
 10
-4631.569400509732
 20
199.343862910682
 30
0.0
 40
3.0
100
AcDbArc
 50
265.589999999994
 51
353.589999999999
  0
ARC
  5
C5
100
AcDbEntity
  8
WHITE
  6
CONTINUOUS
 62
          15
100
AcDbCircle
 10
-4635.371817044828
 20
192.369400667165
 30
0.0
 40
2.0
100
AcDbArc
 50
265.589999999977
 51
353.589999999999
  0
ARC
  5
C6
100
AcDbEntity
  8
WHITE
  6
CONTINUOUS
 62
          15
100
AcDbCircle
 10
-4625.576022564435
 20
234.777630883759
 30
0.0
 40
1.0
100
AcDbArc
 50
353.589999999999
 51
82.59000000007
  0
ARC
  5
C7
100
AcDbEntity
  8
WHITE
  6
CONTINUOUS
 62
          15
100
AcDbCircle
 10
-4626.232844142562
 20
237.888318677537
 30
0.0
 40
2.0
100
AcDbArc
 50
173.59
 51
262.59000000002
  0
ARC
  5
C8
100
AcDbEntity
  8
WHITE
  6
CONTINUOUS
 62
          15
100
AcDbCircle
 10
-4623.609031718035
 20
234.371818154989
 30
0.0
 40
1.000000000001
100
AcDbArc
 50
219.162995999259
 51
262.590000000031
  0
ARC
  5
C9
100
AcDbEntity
  8
WHITE
  6
CONTINUOUS
 62
          15
100
AcDbCircle
 10
-4623.609031718035
 20
234.371818154989
 30
0.0
 40
1.0
100
AcDbArc
 50
173.59
 51
219.162995999262
  0
ARC
  5
CA
100
AcDbEntity
  8
WHITE
  6
CONTINUOUS
 62
          15
100
AcDbCircle
 10
-4629.909315667028
 20
205.163398131452
 30
0.0
 40
1.999999999999
100
AcDbArc
 50
84.589999999927
 51
173.59
  0
ARC
  5
CB
100
AcDbEntity
  8
WHITE
  6
CONTINUOUS
 62
          15
100
AcDbCircle
 10
-4628.578640347103
 20
208.050801173771
 30
0.0
 40
1.0
100
AcDbArc
 50
264.58999999993
 51
353.589999999999
  0
ARC
  5
CC
100
AcDbEntity
  8
WHITE
  6
CONTINUOUS
 62
          15
100
AcDbCircle
 10
-4626.5706373974
 20
208.010044399621
 30
0.0
 40
1.0
100
AcDbArc
 50
128.017004000809
 51
173.59
  0
ARC
  5
CD
100
AcDbEntity
  8
WHITE
  6
CONTINUOUS
 62
          15
100
AcDbCircle
 10
-4626.5706373974
 20
208.010044399621
 30
0.0
 40
1.0
100
AcDbArc
 50
84.589999999969
 51
128.017004000808
  0
LINE
  5
CE
100
AcDbEntity
  8
WHITE
  6
CONTINUOUS
 62
          15
100
AcDbLine
 10
-4994.105184318847
 20
254.562384174693
 30
0.0
 11
-4994.015870418263
 21
255.357382933914
 31
0.0
  0
LINE
  5
CF
100
AcDbEntity
  8
WHITE
  6
CONTINUOUS
 62
          15
100
AcDbLine
 10
-4994.015870418263
 20
255.357382933914
 30
0.0
 11
-4992.408220207757
 21
269.667360599887
 31
0.0
  0
LINE
  5
D0
100
AcDbEntity
  8
WHITE
  6
CONTINUOUS
 62
          15
100
AcDbLine
 10
-4992.408220207757
 20
269.667360599887
 30
0.0
 11
-4992.318906307173
 21
270.462359359108
 31
0.0
  0
LINE
  5
D1
100
AcDbEntity
  8
WHITE
  6
CONTINUOUS
 62
          15
100
AcDbLine
 10
-4992.318906307173
 20
270.462359359108
 30
0.0
 11
-4991.827679853963
 21
274.834852534822
 31
0.0
  0
LINE
  5
D2
100
AcDbEntity
  8
WHITE
  6
CONTINUOUS
 62
          15
100
AcDbLine
 10
-5026.798273693513
 20
250.184952605832
 30
0.0
 11
-5025.070248546255
 21
249.99081813151
 31
0.0
  0
LINE
  5
D3
100
AcDbEntity
  8
WHITE
  6
CONTINUOUS
 62
          15
100
AcDbLine
 10
-5021.497692522909
 20
281.790768500339
 30
0.0
 11
-5023.225717670166
 21
281.984902974662
 31
0.0
  0
LINE
  5
D4
100
AcDbEntity
  8
WHITE
  6
CONTINUOUS
 62
          15
100
AcDbLine
 10
-5025.070248546255
 20
249.99081813151
 30
0.0
 11
-5020.040784240136
 21
249.425784450871
 31
0.0
  0
LINE
  5
D5
100
AcDbEntity
  8
WHITE
  6
CONTINUOUS
 62
          15
100
AcDbLine
 10
-5016.468228216791
 20
281.225734819701
 30
0.0
 11
-5021.497692522909
 21
281.790768500339
 31
0.0
  0
LINE
  5
D6
100
AcDbEntity
  8
WHITE
  6
CONTINUOUS
 62
          15
100
AcDbLine
 10
-5070.310709543101
 20
287.274652467156
 30
0.0
 11
-5023.225717670166
 21
281.984902974662
 31
0.0
  0
LINE
  5
D7
100
AcDbEntity
  8
WHITE
  6
CONTINUOUS
 62
          15
100
AcDbLine
 10
-5073.883265566446
 20
255.474702098327
 30
0.0
 11
-5026.798273693513
 21
250.184952605832
 31
0.0
  0
LINE
  5
D8
100
AcDbEntity
  8
WHITE
  6
CONTINUOUS
 62
          15
100
AcDbLine
 10
-5015.54367177971
 20
278.706767691163
 30
0.0
 11
-5018.580344399555
 21
251.676809877658
 31
0.0
  0
LINE
  5
D9
100
AcDbEntity
  8
WHITE
  6
CONTINUOUS
 62
          15
100
AcDbLine
 10
-4992.886207141918
 20
276.161321524529
 30
0.0
 11
-4996.490704417659
 21
276.566267705395
 31
0.0
  0
LINE
  5
DA
100
AcDbEntity
  8
WHITE
  6
CONTINUOUS
 62
          15
100
AcDbLine
 10
-4994.596410772057
 20
250.189890998979
 30
0.0
 11
-4994.105184318847
 21
254.562384174693
 31
0.0
  0
LINE
  5
DB
100
AcDbEntity
  8
WHITE
  6
CONTINUOUS
 62
          15
100
AcDbLine
 10
-5017.387846260724
 20
251.542839026782
 30
0.0
 11
-5014.949136047089
 21
251.268862848774
 31
0.0
  0
LINE
  5
DC
100
AcDbEntity
  8
WHITE
  6
CONTINUOUS
 62
          15
100
AcDbLine
 10
-5011.733835626077
 20
279.888818180721
 30
0.0
 11
-5011.912463427245
 21
278.298820662279
 31
0.0
  0
LINE
  5
DD
100
AcDbEntity
  8
WHITE
  6
CONTINUOUS
 62
          15
100
AcDbLine
 10
-5011.912463427245
 20
278.298820662279
 30
0.0
 11
-5014.351173640879
 21
278.572796840288
 31
0.0
  0
LINE
  5
DE
100
AcDbEntity
  8
WHITE
  6
CONTINUOUS
 62
          15
100
AcDbLine
 10
-5011.912463427245
 20
278.298820662279
 30
0.0
 11
-5014.949136047089
 21
251.268862848774
 31
0.0
  0
LINE
  5
DF
100
AcDbEntity
  8
WHITE
  6
CONTINUOUS
 62
          15
100
AcDbLine
 10
-5014.949136047089
 20
251.268862848774
 30
0.0
 11
-5015.127763848257
 21
249.678865330332
 31
0.0
  0
LINE
  5
E0
100
AcDbEntity
  8
WHITE
  6
CONTINUOUS
 62
          15
100
AcDbLine
 10
-4999.706004838671
 20
247.946312373448
 30
0.0
 11
-4999.527377037504
 21
249.536309891889
 31
0.0
  0
LINE
  5
E1
100
AcDbEntity
  8
WHITE
  6
CONTINUOUS
 62
          15
100
AcDbLine
 10
-4999.527377037504
 20
249.536309891889
 30
0.0
 11
-4995.922879761763
 21
249.131363711023
 31
0.0
  0
LINE
  5
E2
100
AcDbEntity
  8
WHITE
  6
CONTINUOUS
 62
          15
100
AcDbLine
 10
-4999.527377037504
 20
249.536309891889
 30
0.0
 11
-4996.490704417659
 21
276.566267705395
 31
0.0
  0
LINE
  5
E3
100
AcDbEntity
  8
WHITE
  6
CONTINUOUS
 62
          15
100
AcDbLine
 10
-4996.490704417659
 20
276.566267705395
 30
0.0
 11
-4996.312076616492
 21
278.156265223836
 31
0.0
  0
LINE
  5
E4
100
AcDbEntity
  8
WHITE
  6
CONTINUOUS
 62
          15
100
AcDbLine
 10
-5011.733835626077
 20
279.888818180721
 30
0.0
 11
-4996.312076616492
 21
278.156265223836
 31
0.0
  0
LINE
  5
E5
100
AcDbEntity
  8
WHITE
  6
CONTINUOUS
 62
          15
100
AcDbLine
 10
-5015.127763848257
 20
249.678865330332
 30
0.0
 11
-4999.706004838671
 21
247.946312373448
 31
0.0
  0
ARC
  5
E6
100
AcDbEntity
  8
WHITE
  6
CONTINUOUS
 62
          15
100
AcDbCircle
 10
-5045.902055265964
 20
268.431815358615
 30
0.0
 40
27.821476415486
100
AcDbArc
 50
318.483694434248
 51
28.696305565753
  0
ARC
  5
E7
100
AcDbEntity
  8
WHITE
  6
CONTINUOUS
 62
          15
100
AcDbCircle
 10
-5032.797212291009
 20
266.959555648705
 30
0.0
 40
39.547005383793
100
AcDbArc
 50
149.72507458395
 51
197.45492541605
  0
ARC
  5
E8
100
AcDbEntity
  8
WHITE
  6
CONTINUOUS
 62
          15
100
AcDbCircle
 10
-5046.85238643449
 20
268.538580032802
 30
0.0
 40
30.022213997861
100
AcDbArc
 50
141.385772496028
 51
205.794227503972
  0
ARC
  5
E9
100
AcDbEntity
  8
WHITE
  6
CONTINUOUS
 62
          15
100
AcDbCircle
 10
-5016.602199067665
 20
280.03323668087
 30
0.0
 40
1.2
100
AcDbArc
 50
353.589999999999
 51
83.59
  0
ARC
  5
EA
100
AcDbEntity
  8
WHITE
  6
CONTINUOUS
 62
          15
100
AcDbCircle
 10
-5014.217202790003
 20
279.765294979119
 30
0.0
 40
1.2
100
AcDbArc
 50
173.59
 51
263.589999999999
  0
ARC
  5
EB
100
AcDbEntity
  8
WHITE
  6
CONTINUOUS
 62
          15
100
AcDbCircle
 10
-4993.020177992794
 20
274.968823385698
 30
0.0
 40
1.2
100
AcDbArc
 50
353.589999999999
 51
83.59
  0
ARC
  5
EC
100
AcDbEntity
  8
WHITE
  6
CONTINUOUS
 62
          15
100
AcDbCircle
 10
-4995.788908910887
 20
250.323861849854
 30
0.0
 40
1.2
100
AcDbArc
 50
263.589999999999
 51
353.589999999999
  0
ARC
  5
ED
100
AcDbEntity
  8
WHITE
  6
CONTINUOUS
 62
          15
100
AcDbCircle
 10
-5017.521817111599
 20
250.350340887951
 30
0.0
 40
1.2
100
AcDbArc
 50
83.59
 51
173.59
  0
ARC
  5
EE
100
AcDbEntity
  8
WHITE
  6
CONTINUOUS
 62
          15
100
AcDbCircle
 10
-5019.906813389262
 20
250.618282589702
 30
0.0
 40
1.2
100
AcDbArc
 50
263.589999999999
 51
353.589999999999
  0
LINE
  5
EF
100
AcDbEntity
  8
WHITE
  6
CONTINUOUS
 62
          15
100
AcDbLine
 10
-4800.505364727397
 20
245.637733990122
 30
0.0
 11
-4797.029026885749
 21
244.799299336677
 31
0.0
  0
LINE
  5
F0
100
AcDbEntity
  8
WHITE
  6
CONTINUOUS
 62
          15
100
AcDbLine
 10
-4800.655159228991
 20
248.225548738975
 30
0.0
 11
-4800.885008712568
 21
246.179618004156
 31
0.0
  0
LINE
  5
F1
100
AcDbEntity
  8
WHITE
  6
CONTINUOUS
 62
          15
100
AcDbLine
 10
-4799.823249130507
 20
251.709365053472
 30
0.0
 11
-4796.247530255641
 21
251.755538479859
 31
0.0
  0
LINE
  5
F2
100
AcDbEntity
  8
WHITE
  6
CONTINUOUS
 62
          15
100
AcDbLine
 10
-4800.543516853262
 20
249.219297188002
 30
0.0
 11
-4800.313667369685
 21
251.265227922821
 31
0.0
  0
LINE
  5
F3
100
AcDbEntity
  8
WHITE
  6
CONTINUOUS
 62
          15
100
AcDbLine
 10
-4799.078758955382
 20
248.048448516259
 30
0.0
 11
-4800.655159228991
 21
248.225548738975
 31
0.0
  0
LINE
  5
F4
100
AcDbEntity
  8
WHITE
  6
CONTINUOUS
 62
          15
100
AcDbLine
 10
-4799.022937767517
 20
248.545322740771
 30
0.0
 11
-4799.078758955382
 21
248.048448516259
 31
0.0
  0
LINE
  5
F5
100
AcDbEntity
  8
WHITE
  6
CONTINUOUS
 62
          15
100
AcDbLine
 10
-4798.967116579652
 20
249.042196965285
 30
0.0
 11
-4799.022937767517
 21
248.545322740771
 31
0.0
  0
LINE
  5
F6
100
AcDbEntity
  8
WHITE
  6
CONTINUOUS
 62
          15
100
AcDbLine
 10
-4800.543516853262
 20
249.219297188002
 30
0.0
 11
-4798.967116579652
 21
249.042196965285
 31
0.0
  0
LINE
  5
F7
100
AcDbEntity
  8
WHITE
  6
CONTINUOUS
 62
          15
100
AcDbLine
 10
-4796.024245504183
 20
253.743035377911
 30
0.0
 11
-4785.58988678941
 21
252.570790432751
 31
0.0
  0
LINE
  5
F8
100
AcDbEntity
  8
WHITE
  6
CONTINUOUS
 62
          15
100
AcDbLine
 10
-4796.024245504183
 20
253.743035377911
 30
0.0
 11
-4797.084848073613
 21
244.302425112164
 31
0.0
  0
LINE
  5
F9
100
AcDbEntity
  8
WHITE
  6
CONTINUOUS
 62
          15
100
AcDbLine
 10
-4789.698326216259
 20
216.000847508595
 30
0.0
 11
-4781.251464399538
 21
215.051887314894
 31
0.0
  0
LINE
  5
FA
100
AcDbEntity
  8
WHITE
  6
CONTINUOUS
 62
          15
100
AcDbLine
 10
-4781.251464399538
 20
215.051887314894
 30
0.0
 11
-4781.195643211673
 21
215.548761539407
 31
0.0
  0
LINE
  5
FB
100
AcDbEntity
  8
WHITE
  6
CONTINUOUS
 62
          15
100
AcDbLine
 10
-4781.195643211673
 20
215.548761539407
 30
0.0
 11
-4776.004272740248
 21
261.758064419113
 31
0.0
  0
LINE
  5
FC
100
AcDbEntity
  8
WHITE
  6
CONTINUOUS
 62
          15
100
AcDbLine
 10
-4775.010524291222
 20
261.646422043383
 30
0.0
 11
-4775.066345479087
 21
261.149547818871
 31
0.0
  0
LINE
  5
FD
100
AcDbEntity
  8
WHITE
  6
CONTINUOUS
 62
          15
100
AcDbLine
 10
-4775.066345479087
 20
261.149547818871
 30
0.0
 11
-4776.060093928112
 21
261.2611901946
 31
0.0
  0
LINE
  5
FE
100
AcDbEntity
  8
WHITE
  6
CONTINUOUS
 62
          15
100
AcDbLine
 10
-4775.066345479087
 20
261.149547818871
 30
0.0
 11
-4780.201894762648
 21
215.437119163677
 31
0.0
  0
LINE
  5
FF
100
AcDbEntity
  8
WHITE
  6
CONTINUOUS
 62
          15
100
AcDbLine
 10
-4780.201894762648
 20
215.437119163677
 30
0.0
 11
-4781.195643211673
 21
215.548761539407
 31
0.0
  0
LINE
  5
100
100
AcDbEntity
  8
WHITE
  6
CONTINUOUS
 62
          15
100
AcDbLine
 10
-4786.086761013923
 20
252.626611620615
 30
0.0
 11
-4784.948008781481
 21
262.762845800679
 31
0.0
  0
LINE
  5
101
100
AcDbEntity
  8
WHITE
  6
CONTINUOUS
 62
          15
100
AcDbLine
 10
-4776.004272740248
 20
261.758064419113
 30
0.0
 11
-4784.948008781481
 21
262.762845800679
 31
0.0
  0
LINE
  5
102
100
AcDbEntity
  8
WHITE
  6
CONTINUOUS
 62
          15
100
AcDbLine
 10
-4698.491893716226
 20
253.049959112206
 30
0.0
 11
-4775.010524291222
 21
261.646422043383
 31
0.0
  0
LINE
  5
103
100
AcDbEntity
  8
WHITE
  6
CONTINUOUS
 62
          15
100
AcDbLine
 10
-4786.086761013923
 20
252.626611620615
 30
0.0
 11
-4785.58988678941
 21
252.570790432751
 31
0.0
  0
LINE
  5
104
100
AcDbEntity
  8
WHITE
  6
CONTINUOUS
 62
          15
100
AcDbLine
 10
-4785.58988678941
 20
252.570790432751
 30
0.0
 11
-4789.698326216259
 21
216.000847508595
 31
0.0
  0
LINE
  5
105
100
AcDbEntity
  8
WHITE
  6
CONTINUOUS
 62
          15
100
AcDbLine
 10
-4703.739085375515
 20
206.343782007987
 30
0.0
 11
-4698.491893716226
 21
253.049959112206
 31
0.0
  0
LINE
  5
106
100
AcDbEntity
  8
WHITE
  6
CONTINUOUS
 62
          15
100
AcDbLine
 10
-4780.257715950513
 20
214.940244939164
 30
0.0
 11
-4703.739085375515
 21
206.343782007987
 31
0.0
  0
LINE
  5
107
100
AcDbEntity
  8
WHITE
  6
CONTINUOUS
 62
          15
100
AcDbLine
 10
-4780.201894762648
 20
215.437119163677
 30
0.0
 11
-4780.257715950513
 21
214.940244939164
 31
0.0
  0
LINE
  5
108
100
AcDbEntity
  8
WHITE
  6
CONTINUOUS
 62
          15
100
AcDbLine
 10
-4802.924335196918
 20
232.63139730238
 30
0.0
 11
-4802.338212724338
 21
237.848576659766
 31
0.0
  0
LINE
  5
109
100
AcDbEntity
  8
WHITE
  6
CONTINUOUS
 62
          15
100
AcDbLine
 10
-4804.068669548145
 20
222.445475699865
 30
0.0
 11
-4800.607755900529
 21
253.251677619668
 31
0.0
  0
LINE
  5
10A
100
AcDbEntity
  8
WHITE
  6
CONTINUOUS
 62
          15
100
AcDbLine
 10
-4799.502365075774
 20
254.133783692965
 30
0.0
 11
-4796.024245504183
 21
253.743035377911
 31
0.0
  0
LINE
  5
10B
100
AcDbEntity
  8
WHITE
  6
CONTINUOUS
 62
          15
100
AcDbLine
 10
-4803.186563474849
 20
221.340084875109
 30
0.0
 11
-4789.274085188486
 21
219.777091614895
 31
0.0
  0
LINE
  5
10C
100
AcDbEntity
  8
WHITE
  6
CONTINUOUS
 62
           1
100
AcDbLine
 10
-4829.928326392934
 20
216.193424206968
 30
0.0
 11
-4812.040854310466
 21
214.183861443835
 31
0.0
  0
LINE
  5
10D
100
AcDbEntity
  8
WHITE
  6
CONTINUOUS
 62
           1
100
AcDbLine
 10
-4812.040854310466
 20
214.183861443835
 30
0.0
 11
-4812.570117954444
 21
214.847095938688
 31
0.0
  0
LINE
  5
10E
100
AcDbEntity
  8
WHITE
  6
CONTINUOUS
 62
           1
100
AcDbLine
 10
-4812.570117954444
 20
214.847095938688
 30
0.0
 11
-4811.906883459591
 21
215.376359582666
 31
0.0
  0
LINE
  5
10F
100
AcDbEntity
  8
WHITE
  6
CONTINUOUS
 62
           1
100
AcDbLine
 10
-4811.906883459591
 20
215.376359582666
 30
0.0
 11
-4829.794355542058
 21
217.385922345798
 31
0.0
  0
LINE
  5
110
100
AcDbEntity
  8
WHITE
  6
CONTINUOUS
 62
           1
100
AcDbLine
 10
-4829.794355542058
 20
217.385922345798
 30
0.0
 11
-4829.26509189808
 21
216.722687850945
 31
0.0
  0
LINE
  5
111
100
AcDbEntity
  8
WHITE
  6
CONTINUOUS
 62
           1
100
AcDbLine
 10
-4829.26509189808
 20
216.722687850945
 30
0.0
 11
-4829.928326392934
 21
216.193424206968
 31
0.0
  0
LINE
  5
112
100
AcDbEntity
  8
WHITE
  6
CONTINUOUS
 62
           1
100
AcDbLine
 10
-4829.26509189808
 20
216.722687850945
 30
0.0
 11
-4812.570117954444
 21
214.847095938688
 31
0.0
  0
LINE
  5
113
100
AcDbEntity
  8
WHITE
  6
CONTINUOUS
 62
           1
100
AcDbLine
 10
-4829.488376649539
 20
214.735190952893
 30
0.0
 11
-4830.017640293518
 21
215.398425447746
 31
0.0
  0
LINE
  5
114
100
AcDbEntity
  8
WHITE
  6
CONTINUOUS
 62
           1
100
AcDbLine
 10
-4830.017640293518
 20
215.398425447746
 30
0.0
 11
-4812.13016821105
 21
213.388862684614
 31
0.0
  0
LINE
  5
115
100
AcDbEntity
  8
WHITE
  6
CONTINUOUS
 62
           1
100
AcDbLine
 10
-4812.13016821105
 20
213.388862684614
 30
0.0
 11
-4812.793402705903
 21
212.859599040636
 31
0.0
  0
LINE
  5
116
100
AcDbEntity
  8
WHITE
  6
CONTINUOUS
 62
           1
100
AcDbLine
 10
-4812.793402705903
 20
212.859599040636
 30
0.0
 11
-4812.264139061926
 21
212.196364545784
 31
0.0
  0
LINE
  5
117
100
AcDbEntity
  8
WHITE
  6
CONTINUOUS
 62
           1
100
AcDbLine
 10
-4812.264139061926
 20
212.196364545784
 30
0.0
 11
-4830.151611144393
 21
214.205927308916
 31
0.0
  0
LINE
  5
118
100
AcDbEntity
  8
WHITE
  6
CONTINUOUS
 62
           1
100
AcDbLine
 10
-4830.151611144393
 20
214.205927308916
 30
0.0
 11
-4829.488376649539
 21
214.735190952893
 31
0.0
  0
LINE
  5
119
100
AcDbEntity
  8
WHITE
  6
CONTINUOUS
 62
           1
100
AcDbLine
 10
-4812.793402705903
 20
212.859599040636
 30
0.0
 11
-4829.488376649539
 21
214.735190952893
 31
0.0
  0
LINE
  5
11A
100
AcDbEntity
  8
WHITE
  6
CONTINUOUS
 62
           1
100
AcDbLine
 10
-4829.711661400997
 20
212.747694054841
 30
0.0
 11
-4830.240925044976
 21
213.410928549694
 31
0.0
  0
LINE
  5
11B
100
AcDbEntity
  8
WHITE
  6
CONTINUOUS
 62
           1
100
AcDbLine
 10
-4830.240925044976
 20
213.410928549694
 30
0.0
 11
-4812.353452962509
 21
211.401365786562
 31
0.0
  0
LINE
  5
11C
100
AcDbEntity
  8
WHITE
  6
CONTINUOUS
 62
           1
100
AcDbLine
 10
-4812.353452962509
 20
211.401365786562
 30
0.0
 11
-4813.016687457362
 21
210.872102142584
 31
0.0
  0
LINE
  5
11D
100
AcDbEntity
  8
WHITE
  6
CONTINUOUS
 62
           1
100
AcDbLine
 10
-4813.016687457362
 20
210.872102142584
 30
0.0
 11
-4812.487423813385
 21
210.208867647732
 31
0.0
  0
LINE
  5
11E
100
AcDbEntity
  8
WHITE
  6
CONTINUOUS
 62
           1
100
AcDbLine
 10
-4812.487423813385
 20
210.208867647732
 30
0.0
 11
-4830.374895895851
 21
212.218430410864
 31
0.0
  0
LINE
  5
11F
100
AcDbEntity
  8
WHITE
  6
CONTINUOUS
 62
           1
100
AcDbLine
 10
-4830.374895895851
 20
212.218430410864
 30
0.0
 11
-4829.711661400997
 21
212.747694054841
 31
0.0
  0
LINE
  5
120
100
AcDbEntity
  8
WHITE
  6
CONTINUOUS
 62
           1
100
AcDbLine
 10
-4829.934946152457
 20
210.760197156789
 30
0.0
 11
-4830.464209796435
 21
211.423431651642
 31
0.0
  0
LINE
  5
121
100
AcDbEntity
  8
WHITE
  6
CONTINUOUS
 62
           1
100
AcDbLine
 10
-4830.464209796435
 20
211.423431651642
 30
0.0
 11
-4824.409380703937
 21
210.743203667201
 31
0.0
  0
LINE
  5
122
100
AcDbEntity
  8
WHITE
  6
CONTINUOUS
 62
           1
100
AcDbLine
 10
-4812.576737713968
 20
209.41386888851
 30
0.0
 11
-4813.239972208821
 21
208.884605244532
 31
0.0
  0
LINE
  5
123
100
AcDbEntity
  8
WHITE
  6
CONTINUOUS
 62
           1
100
AcDbLine
 10
-4813.239972208821
 20
208.884605244532
 30
0.0
 11
-4812.710708564844
 21
208.22137074968
 31
0.0
  0
LINE
  5
124
100
AcDbEntity
  8
WHITE
  6
CONTINUOUS
 62
           1
100
AcDbLine
 10
-4812.710708564844
 20
208.22137074968
 30
0.0
 11
-4818.76553765734
 21
208.901598734122
 31
0.0
  0
LINE
  5
125
100
AcDbEntity
  8
WHITE
  6
CONTINUOUS
 62
           1
100
AcDbLine
 10
-4830.59818064731
 20
210.230933512812
 30
0.0
 11
-4829.934946152457
 21
210.760197156789
 31
0.0
  0
LINE
  5
126
100
AcDbEntity
  8
WHITE
  6
CONTINUOUS
 62
           1
100
AcDbLine
 10
-4830.158230903917
 20
208.772700258738
 30
0.0
 11
-4830.687494547894
 21
209.435934753591
 31
0.0
  0
LINE
  5
127
100
AcDbEntity
  8
WHITE
  6
CONTINUOUS
 62
           1
100
AcDbLine
 10
-4830.687494547894
 20
209.435934753591
 30
0.0
 11
-4825.374216545704
 21
208.839016107169
 31
0.0
  0
LINE
  5
128
100
AcDbEntity
  8
WHITE
  6
CONTINUOUS
 62
           1
100
AcDbLine
 10
-4812.800022465428
 20
207.426371990458
 30
0.0
 11
-4813.46325696028
 21
206.897108346481
 31
0.0
  0
LINE
  5
129
100
AcDbEntity
  8
WHITE
  6
CONTINUOUS
 62
           1
100
AcDbLine
 10
-4829.934946152457
 20
210.760197156789
 30
0.0
 11
-4823.88011705996
 21
210.079969172348
 31
0.0
  0
LINE
  5
12A
100
AcDbEntity
  8
WHITE
  6
CONTINUOUS
 62
           1
100
AcDbLine
 10
-4829.711661400997
 20
212.747694054841
 30
0.0
 11
-4813.016687457362
 21
210.872102142584
 31
0.0
  0
LINE
  5
12B
100
AcDbEntity
  8
WHITE
  6
CONTINUOUS
 62
           1
100
AcDbLine
 10
-4824.543351554812
 20
209.55070552837
 30
0.0
 11
-4823.88011705996
 21
210.079969172348
 31
0.0
  0
LINE
  5
12C
100
AcDbEntity
  8
WHITE
  6
CONTINUOUS
 62
           1
100
AcDbLine
 10
-4824.543351554812
 20
209.55070552837
 30
0.0
 11
-4830.59818064731
 21
210.230933512812
 31
0.0
  0
LINE
  5
12D
100
AcDbEntity
  8
WHITE
  6
CONTINUOUS
 62
           1
100
AcDbLine
 10
-4823.88011705996
 20
210.079969172348
 30
0.0
 11
-4824.409380703937
 21
210.743203667201
 31
0.0
  0
LINE
  5
12E
100
AcDbEntity
  8
WHITE
  6
CONTINUOUS
 62
           1
100
AcDbLine
 10
-4825.374216545704
 20
208.839016107169
 30
0.0
 11
-4824.844952901727
 21
208.175781612317
 31
0.0
  0
LINE
  5
12F
100
AcDbEntity
  8
WHITE
  6
CONTINUOUS
 62
           1
100
AcDbLine
 10
-4818.77653496247
 20
207.494026992903
 30
0.0
 11
-4818.113300467616
 21
208.02329063688
 31
0.0
  0
LINE
  5
130
100
AcDbEntity
  8
WHITE
  6
CONTINUOUS
 62
           1
100
AcDbLine
 10
-4818.113300467616
 20
208.02329063688
 30
0.0
 11
-4812.800022465428
 21
207.426371990458
 31
0.0
  0
LINE
  5
131
100
AcDbEntity
  8
WHITE
  6
CONTINUOUS
 62
           1
100
AcDbLine
 10
-4818.76553765734
 20
208.901598734122
 30
0.0
 11
-4819.294801301319
 21
209.564833228974
 31
0.0
  0
LINE
  5
132
100
AcDbEntity
  8
WHITE
  6
CONTINUOUS
 62
           1
100
AcDbLine
 10
-4819.294801301319
 20
209.564833228974
 30
0.0
 11
-4813.239972208821
 21
208.884605244532
 31
0.0
  0
LINE
  5
133
100
AcDbEntity
  8
WHITE
  6
CONTINUOUS
 62
           1
100
AcDbLine
 10
-4819.294801301319
 20
209.564833228974
 30
0.0
 11
-4818.631566806465
 21
210.094096872952
 31
0.0
  0
LINE
  5
134
100
AcDbEntity
  8
WHITE
  6
CONTINUOUS
 62
           1
100
AcDbLine
 10
-4818.631566806465
 20
210.094096872952
 30
0.0
 11
-4812.576737713968
 21
209.41386888851
 31
0.0
  0
LINE
  5
135
100
AcDbEntity
  8
WHITE
  6
CONTINUOUS
 62
           1
100
AcDbLine
 10
-4830.464209796435
 20
211.423431651642
 30
0.0
 11
-4830.59818064731
 21
210.230933512812
 31
0.0
  0
LINE
  5
136
100
AcDbEntity
  8
WHITE
  6
CONTINUOUS
 62
           1
100
AcDbLine
 10
-4830.374895895851
 20
212.218430410864
 30
0.0
 11
-4830.240925044976
 21
213.410928549694
 31
0.0
  0
LINE
  5
137
100
AcDbEntity
  8
WHITE
  6
CONTINUOUS
 62
           1
100
AcDbLine
 10
-4830.151611144393
 20
214.205927308916
 30
0.0
 11
-4830.017640293518
 21
215.398425447746
 31
0.0
  0
LINE
  5
138
100
AcDbEntity
  8
WHITE
  6
CONTINUOUS
 62
           1
100
AcDbLine
 10
-4829.928326392934
 20
216.193424206968
 30
0.0
 11
-4829.794355542058
 21
217.385922345798
 31
0.0
  0
LINE
  5
139
100
AcDbEntity
  8
WHITE
  6
CONTINUOUS
 62
           1
100
AcDbLine
 10
-4830.687494547894
 20
209.435934753591
 30
0.0
 11
-4830.754479973332
 21
208.839685684176
 31
0.0
  0
LINE
  5
13A
100
AcDbEntity
  8
WHITE
  6
CONTINUOUS
 62
           1
100
AcDbLine
 10
-4812.867007890865
 20
206.830122921044
 30
0.0
 11
-4812.800022465428
 21
207.426371990458
 31
0.0
  0
LINE
  5
13B
100
AcDbEntity
  8
WHITE
  6
CONTINUOUS
 62
           1
100
AcDbLine
 10
-4812.710708564844
 20
208.22137074968
 30
0.0
 11
-4812.576737713968
 21
209.41386888851
 31
0.0
  0
LINE
  5
13C
100
AcDbEntity
  8
WHITE
  6
CONTINUOUS
 62
           1
100
AcDbLine
 10
-4812.487423813385
 20
210.208867647732
 30
0.0
 11
-4812.353452962509
 21
211.401365786562
 31
0.0
  0
LINE
  5
13D
100
AcDbEntity
  8
WHITE
  6
CONTINUOUS
 62
           1
100
AcDbLine
 10
-4812.264139061926
 20
212.196364545784
 30
0.0
 11
-4812.13016821105
 21
213.388862684614
 31
0.0
  0
LINE
  5
13E
100
AcDbEntity
  8
WHITE
  6
CONTINUOUS
 62
           1
100
AcDbLine
 10
-4812.040854310466
 20
214.183861443835
 30
0.0
 11
-4811.906883459591
 21
215.376359582666
 31
0.0
  0
LINE
  5
13F
100
AcDbEntity
  8
WHITE
  6
CONTINUOUS
 62
           1
100
AcDbLine
 10
-4813.82713232214
 20
198.283886259421
 30
0.0
 11
-4813.693161471265
 21
199.476384398251
 31
0.0
  0
LINE
  5
140
100
AcDbEntity
  8
WHITE
  6
CONTINUOUS
 62
           1
100
AcDbLine
 10
-4813.603847570681
 20
200.271383157472
 30
0.0
 11
-4813.469876719805
 21
201.463881296302
 31
0.0
  0
LINE
  5
141
100
AcDbEntity
  8
WHITE
  6
CONTINUOUS
 62
           1
100
AcDbLine
 10
-4813.380562819221
 20
202.258880055524
 30
0.0
 11
-4813.246591968346
 21
203.451378194354
 31
0.0
  0
LINE
  5
142
100
AcDbEntity
  8
WHITE
  6
CONTINUOUS
 62
           1
100
AcDbLine
 10
-4813.157278067762
 20
204.246376953576
 30
0.0
 11
-4813.023307216887
 21
205.438875092406
 31
0.0
  0
LINE
  5
143
100
AcDbEntity
  8
WHITE
  6
CONTINUOUS
 62
           1
100
AcDbLine
 10
-4812.933993316303
 20
206.233873851628
 30
0.0
 11
-4812.867007890865
 21
206.830122921044
 31
0.0
  0
LINE
  5
144
100
AcDbEntity
  8
WHITE
  6
CONTINUOUS
 62
           1
100
AcDbLine
 10
-4830.754479973332
 20
208.839685684176
 30
0.0
 11
-4830.82146539877
 21
208.24343661476
 31
0.0
  0
LINE
  5
145
100
AcDbEntity
  8
WHITE
  6
CONTINUOUS
 62
           1
100
AcDbLine
 10
-4831.714604404607
 20
200.293449022553
 30
0.0
 11
-4831.580633553731
 21
201.485947161383
 31
0.0
  0
LINE
  5
146
100
AcDbEntity
  8
WHITE
  6
CONTINUOUS
 62
           1
100
AcDbLine
 10
-4831.491319653147
 20
202.280945920605
 30
0.0
 11
-4831.357348802272
 21
203.473444059435
 31
0.0
  0
LINE
  5
147
100
AcDbEntity
  8
WHITE
  6
CONTINUOUS
 62
           1
100
AcDbLine
 10
-4831.268034901688
 20
204.268442818657
 30
0.0
 11
-4831.134064050813
 21
205.460940957487
 31
0.0
  0
LINE
  5
148
100
AcDbEntity
  8
WHITE
  6
CONTINUOUS
 62
           1
100
AcDbLine
 10
-4830.910779299354
 20
207.448437855538
 30
0.0
 11
-4831.044750150229
 21
206.255939716709
 31
0.0
  0
LINE
  5
149
100
AcDbEntity
  8
WHITE
  6
CONTINUOUS
 62
           1
100
AcDbLine
 10
-4813.157278067762
 20
204.246376953576
 30
0.0
 11
-4819.212107160259
 21
204.926604938018
 31
0.0
  0
LINE
  5
14A
100
AcDbEntity
  8
WHITE
  6
CONTINUOUS
 62
           1
100
AcDbLine
 10
-4819.212107160259
 20
204.926604938018
 30
0.0
 11
-4819.741370804237
 21
205.589839432871
 31
0.0
  0
LINE
  5
14B
100
AcDbEntity
  8
WHITE
  6
CONTINUOUS
 62
           1
100
AcDbLine
 10
-4813.68654171174
 20
204.909611448429
 30
0.0
 11
-4819.741370804237
 21
205.589839432871
 31
0.0
  0
LINE
  5
14C
100
AcDbEntity
  8
WHITE
  6
CONTINUOUS
 62
           1
100
AcDbLine
 10
-4819.741370804237
 20
205.589839432871
 30
0.0
 11
-4819.078136309383
 21
206.119103076848
 31
0.0
  0
LINE
  5
14D
100
AcDbEntity
  8
WHITE
  6
CONTINUOUS
 62
           1
100
AcDbLine
 10
-4812.933993316303
 20
206.233873851628
 30
0.0
 11
-4818.247271318492
 21
206.83079249805
 31
0.0
  0
LINE
  5
14E
100
AcDbEntity
  8
WHITE
  6
CONTINUOUS
 62
           1
100
AcDbLine
 10
-4818.247271318492
 20
206.83079249805
 30
0.0
 11
-4818.77653496247
 21
207.494026992903
 31
0.0
  0
LINE
  5
14F
100
AcDbEntity
  8
WHITE
  6
CONTINUOUS
 62
           1
100
AcDbLine
 10
-4830.158230903917
 20
208.772700258738
 30
0.0
 11
-4824.844952901727
 21
208.175781612317
 31
0.0
  0
LINE
  5
150
100
AcDbEntity
  8
WHITE
  6
CONTINUOUS
 62
           1
100
AcDbLine
 10
-4824.844952901727
 20
208.175781612317
 30
0.0
 11
-4825.50818739658
 21
207.646517968339
 31
0.0
  0
LINE
  5
151
100
AcDbEntity
  8
WHITE
  6
CONTINUOUS
 62
           1
100
AcDbLine
 10
-4824.989921057731
 20
205.575711732267
 30
0.0
 11
-4824.326686562878
 21
206.104975376245
 31
0.0
  0
LINE
  5
152
100
AcDbEntity
  8
WHITE
  6
CONTINUOUS
 62
           1
100
AcDbLine
 10
-4830.910779299354
 20
207.448437855538
 30
0.0
 11
-4824.855950206856
 21
206.768209871097
 31
0.0
  0
LINE
  5
153
100
AcDbEntity
  8
WHITE
  6
CONTINUOUS
 62
           1
100
AcDbLine
 10
-4824.326686562878
 20
206.104975376245
 30
0.0
 11
-4824.855950206856
 21
206.768209871097
 31
0.0
  0
LINE
  5
154
100
AcDbEntity
  8
WHITE
  6
CONTINUOUS
 62
           1
100
AcDbLine
 10
-4813.909826463198
 20
202.922114550378
 30
0.0
 11
-4830.604800406834
 21
204.797706462635
 31
0.0
  0
LINE
  5
155
100
AcDbEntity
  8
WHITE
  6
CONTINUOUS
 62
           1
100
AcDbLine
 10
-4824.326686562878
 20
206.104975376245
 30
0.0
 11
-4830.381515655376
 21
206.785203360686
 31
0.0
  0
LINE
  5
156
100
AcDbEntity
  8
WHITE
  6
CONTINUOUS
 62
           1
100
AcDbLine
 10
-4818.77653496247
 20
207.494026992903
 30
0.0
 11
-4813.46325696028
 21
206.897108346481
 31
0.0
  0
LINE
  5
157
100
AcDbEntity
  8
WHITE
  6
CONTINUOUS
 62
           1
100
AcDbLine
 10
-4813.46325696028
 20
206.897108346481
 30
0.0
 11
-4812.933993316303
 21
206.233873851628
 31
0.0
  0
LINE
  5
158
100
AcDbEntity
  8
WHITE
  6
CONTINUOUS
 62
           1
100
AcDbLine
 10
-4825.50818739658
 20
207.646517968339
 30
0.0
 11
-4830.82146539877
 21
208.24343661476
 31
0.0
  0
LINE
  5
159
100
AcDbEntity
  8
WHITE
  6
CONTINUOUS
 62
           1
100
AcDbLine
 10
-4830.82146539877
 20
208.24343661476
 30
0.0
 11
-4830.158230903917
 21
208.772700258738
 31
0.0
  0
LINE
  5
15A
100
AcDbEntity
  8
WHITE
  6
CONTINUOUS
 62
           1
100
AcDbLine
 10
-4830.381515655376
 20
206.785203360686
 30
0.0
 11
-4830.910779299354
 21
207.448437855538
 31
0.0
  0
LINE
  5
15B
100
AcDbEntity
  8
WHITE
  6
CONTINUOUS
 62
           1
100
AcDbLine
 10
-4819.078136309383
 20
206.119103076848
 30
0.0
 11
-4813.023307216887
 21
205.438875092406
 31
0.0
  0
LINE
  5
15C
100
AcDbEntity
  8
WHITE
  6
CONTINUOUS
 62
           1
100
AcDbLine
 10
-4813.023307216887
 20
205.438875092406
 30
0.0
 11
-4813.68654171174
 21
204.909611448429
 31
0.0
  0
LINE
  5
15D
100
AcDbEntity
  8
WHITE
  6
CONTINUOUS
 62
           1
100
AcDbLine
 10
-4813.68654171174
 20
204.909611448429
 30
0.0
 11
-4813.157278067762
 21
204.246376953576
 31
0.0
  0
LINE
  5
15E
100
AcDbEntity
  8
WHITE
  6
CONTINUOUS
 62
           1
100
AcDbLine
 10
-4824.989921057731
 20
205.575711732267
 30
0.0
 11
-4831.044750150229
 21
206.255939716709
 31
0.0
  0
LINE
  5
15F
100
AcDbEntity
  8
WHITE
  6
CONTINUOUS
 62
           1
100
AcDbLine
 10
-4831.044750150229
 20
206.255939716709
 30
0.0
 11
-4830.381515655376
 21
206.785203360686
 31
0.0
  0
LINE
  5
160
100
AcDbEntity
  8
WHITE
  6
CONTINUOUS
 62
           1
100
AcDbLine
 10
-4830.604800406834
 20
204.797706462635
 30
0.0
 11
-4831.134064050813
 21
205.460940957487
 31
0.0
  0
LINE
  5
161
100
AcDbEntity
  8
WHITE
  6
CONTINUOUS
 62
           1
100
AcDbLine
 10
-4831.134064050813
 20
205.460940957487
 30
0.0
 11
-4813.246591968346
 21
203.451378194354
 31
0.0
  0
LINE
  5
162
100
AcDbEntity
  8
WHITE
  6
CONTINUOUS
 62
           1
100
AcDbLine
 10
-4813.246591968346
 20
203.451378194354
 30
0.0
 11
-4813.909826463198
 21
202.922114550378
 31
0.0
  0
LINE
  5
163
100
AcDbEntity
  8
WHITE
  6
CONTINUOUS
 62
           1
100
AcDbLine
 10
-4813.909826463198
 20
202.922114550378
 30
0.0
 11
-4813.380562819221
 21
202.258880055524
 31
0.0
  0
LINE
  5
164
100
AcDbEntity
  8
WHITE
  6
CONTINUOUS
 62
           1
100
AcDbLine
 10
-4813.380562819221
 20
202.258880055524
 30
0.0
 11
-4831.268034901688
 21
204.268442818657
 31
0.0
  0
LINE
  5
165
100
AcDbEntity
  8
WHITE
  6
CONTINUOUS
 62
           1
100
AcDbLine
 10
-4831.268034901688
 20
204.268442818657
 30
0.0
 11
-4830.604800406834
 21
204.797706462635
 31
0.0
  0
LINE
  5
166
100
AcDbEntity
  8
WHITE
  6
CONTINUOUS
 62
           1
100
AcDbLine
 10
-4830.828085158293
 20
202.810209564582
 30
0.0
 11
-4814.133111214658
 21
200.934617652326
 31
0.0
  0
LINE
  5
167
100
AcDbEntity
  8
WHITE
  6
CONTINUOUS
 62
           1
100
AcDbLine
 10
-4830.828085158293
 20
202.810209564582
 30
0.0
 11
-4831.357348802272
 21
203.473444059435
 31
0.0
  0
LINE
  5
168
100
AcDbEntity
  8
WHITE
  6
CONTINUOUS
 62
           1
100
AcDbLine
 10
-4831.357348802272
 20
203.473444059435
 30
0.0
 11
-4813.469876719805
 21
201.463881296302
 31
0.0
  0
LINE
  5
169
100
AcDbEntity
  8
WHITE
  6
CONTINUOUS
 62
           1
100
AcDbLine
 10
-4813.469876719805
 20
201.463881296302
 30
0.0
 11
-4814.133111214658
 21
200.934617652326
 31
0.0
  0
LINE
  5
16A
100
AcDbEntity
  8
WHITE
  6
CONTINUOUS
 62
           1
100
AcDbLine
 10
-4814.133111214658
 20
200.934617652326
 30
0.0
 11
-4813.603847570681
 21
200.271383157472
 31
0.0
  0
LINE
  5
16B
100
AcDbEntity
  8
WHITE
  6
CONTINUOUS
 62
           1
100
AcDbLine
 10
-4813.603847570681
 20
200.271383157472
 30
0.0
 11
-4831.491319653147
 21
202.280945920605
 31
0.0
  0
LINE
  5
16C
100
AcDbEntity
  8
WHITE
  6
CONTINUOUS
 62
           1
100
AcDbLine
 10
-4831.491319653147
 20
202.280945920605
 30
0.0
 11
-4830.828085158293
 21
202.810209564582
 31
0.0
  0
LINE
  5
16D
100
AcDbEntity
  8
WHITE
  6
CONTINUOUS
 62
           1
100
AcDbLine
 10
-4814.356395966117
 20
198.947120754274
 30
0.0
 11
-4831.051369909753
 21
200.82271266653
 31
0.0
  0
LINE
  5
16E
100
AcDbEntity
  8
WHITE
  6
CONTINUOUS
 62
           1
100
AcDbLine
 10
-4831.580633553731
 20
201.485947161383
 30
0.0
 11
-4831.051369909753
 21
200.82271266653
 31
0.0
  0
LINE
  5
16F
100
AcDbEntity
  8
WHITE
  6
CONTINUOUS
 62
           1
100
AcDbLine
 10
-4831.051369909753
 20
200.82271266653
 30
0.0
 11
-4831.714604404607
 21
200.293449022553
 31
0.0
  0
LINE
  5
170
100
AcDbEntity
  8
WHITE
  6
CONTINUOUS
 62
           1
100
AcDbLine
 10
-4831.714604404607
 20
200.293449022553
 30
0.0
 11
-4813.82713232214
 21
198.283886259421
 31
0.0
  0
LINE
  5
171
100
AcDbEntity
  8
WHITE
  6
CONTINUOUS
 62
           1
100
AcDbLine
 10
-4813.82713232214
 20
198.283886259421
 30
0.0
 11
-4814.356395966117
 21
198.947120754274
 31
0.0
  0
LINE
  5
172
100
AcDbEntity
  8
WHITE
  6
CONTINUOUS
 62
           1
100
AcDbLine
 10
-4814.356395966117
 20
198.947120754274
 30
0.0
 11
-4813.693161471265
 21
199.476384398251
 31
0.0
  0
LINE
  5
173
100
AcDbEntity
  8
WHITE
  6
CONTINUOUS
 62
           1
100
AcDbLine
 10
-4813.693161471265
 20
199.476384398251
 30
0.0
 11
-4831.580633553731
 21
201.485947161383
 31
0.0
  0
LINE
  5
174
100
AcDbEntity
  8
WHITE
  6
CONTINUOUS
 62
          15
100
AcDbLine
 10
-4857.882408984118
 20
198.37468642095
 30
0.0
 11
-4856.984967339644
 21
199.591501964838
 31
0.0
  0
LINE
  5
175
100
AcDbEntity
  8
WHITE
  6
CONTINUOUS
 62
          15
100
AcDbLine
 10
-4852.767482091997
 20
199.117689831483
 30
0.0
 11
-4856.984967339644
 21
199.591501964838
 31
0.0
  0
LINE
  5
176
100
AcDbEntity
  8
WHITE
  6
CONTINUOUS
 62
          15
100
AcDbLine
 10
-4856.984967339644
 20
199.591501964838
 30
0.0
 11
-4857.443855043142
 21
202.278332288495
 31
0.0
  0
LINE
  5
177
100
AcDbEntity
  8
WHITE
  6
CONTINUOUS
 62
          15
100
AcDbLine
 10
-4856.997285540223
 20
206.253326084599
 30
0.0
 11
-4855.953659248757
 21
208.771356917669
 31
0.0
  0
LINE
  5
178
100
AcDbEntity
  8
WHITE
  6
CONTINUOUS
 62
          15
100
AcDbLine
 10
-4851.736174001109
 20
208.297544784313
 30
0.0
 11
-4855.953659248757
 21
208.771356917669
 31
0.0
  0
LINE
  5
179
100
AcDbEntity
  8
WHITE
  6
CONTINUOUS
 62
          15
100
AcDbLine
 10
-4855.953659248757
 20
208.771356917669
 30
0.0
 11
-4856.558731599247
 21
210.156971952142
 31
0.0
  0
LINE
  5
17A
100
AcDbEntity
  8
WHITE
  6
CONTINUOUS
 62
          15
100
AcDbLine
 10
-4857.500621385087
 20
195.001574488423
 30
0.0
 11
-4858.105693735577
 21
196.387189522898
 31
0.0
  0
LINE
  5
17B
100
AcDbEntity
  8
WHITE
  6
CONTINUOUS
 62
          15
100
AcDbLine
 10
-4851.220519955667
 20
212.88747226073
 30
0.0
 11
-4855.438005203312
 21
213.361284394085
 31
0.0
  0
LINE
  5
17C
100
AcDbEntity
  8
WHITE
  6
CONTINUOUS
 62
          15
100
AcDbLine
 10
-4856.335446847788
 20
212.144468850194
 30
0.0
 11
-4855.438005203312
 21
213.361284394085
 31
0.0
  0
LINE
  5
17D
100
AcDbEntity
  8
WHITE
  6
CONTINUOUS
 62
          15
100
AcDbLine
 10
-4853.283136137441
 20
194.527762355068
 30
0.0
 11
-4853.136951490448
 21
195.82897764425
 31
0.0
  0
LINE
  5
17E
100
AcDbEntity
  8
WHITE
  6
CONTINUOUS
 62
          15
100
AcDbLine
 10
-4857.882408984118
 20
198.37468642095
 30
0.0
 11
-4858.105693735577
 21
196.387189522898
 31
0.0
  0
LINE
  5
17F
100
AcDbEntity
  8
WHITE
  6
CONTINUOUS
 62
          15
100
AcDbLine
 10
-4853.136951490448
 20
195.82897764425
 30
0.0
 11
-4858.105693735577
 21
196.387189522898
 31
0.0
  0
LINE
  5
180
100
AcDbEntity
  8
WHITE
  6
CONTINUOUS
 62
          15
100
AcDbLine
 10
-4853.136951490448
 20
195.82897764425
 30
0.0
 11
-4852.913666738989
 21
197.816474542302
 31
0.0
  0
LINE
  5
181
100
AcDbEntity
  8
WHITE
  6
CONTINUOUS
 62
          15
100
AcDbLine
 10
-4857.443855043142
 20
202.278332288495
 30
0.0
 11
-4857.882408984118
 21
198.37468642095
 31
0.0
  0
LINE
  5
182
100
AcDbEntity
  8
WHITE
  6
CONTINUOUS
 62
          15
100
AcDbLine
 10
-4852.913666738989
 20
197.816474542302
 30
0.0
 11
-4857.882408984118
 21
198.37468642095
 31
0.0
  0
LINE
  5
183
100
AcDbEntity
  8
WHITE
  6
CONTINUOUS
 62
          15
100
AcDbLine
 10
-4852.913666738989
 20
197.816474542302
 30
0.0
 11
-4852.767482091997
 21
199.117689831483
 31
0.0
  0
LINE
  5
184
100
AcDbEntity
  8
WHITE
  6
CONTINUOUS
 62
          15
100
AcDbLine
 10
-4852.767482091997
 20
199.117689831483
 30
0.0
 11
-4852.475112798013
 21
201.720120409847
 31
0.0
  0
LINE
  5
185
100
AcDbEntity
  8
WHITE
  6
CONTINUOUS
 62
          15
100
AcDbLine
 10
-4856.997285540223
 20
206.253326084599
 30
0.0
 11
-4857.443855043142
 21
202.278332288495
 31
0.0
  0
LINE
  5
186
100
AcDbEntity
  8
WHITE
  6
CONTINUOUS
 62
          15
100
AcDbLine
 10
-4852.475112798013
 20
201.720120409847
 30
0.0
 11
-4857.443855043142
 21
202.278332288495
 31
0.0
  0
LINE
  5
187
100
AcDbEntity
  8
WHITE
  6
CONTINUOUS
 62
          15
100
AcDbLine
 10
-4852.475112798013
 20
201.720120409847
 30
0.0
 11
-4852.028543295094
 21
205.695114205951
 31
0.0
  0
LINE
  5
188
100
AcDbEntity
  8
WHITE
  6
CONTINUOUS
 62
          15
100
AcDbLine
 10
-4856.558731599247
 20
210.156971952142
 30
0.0
 11
-4856.997285540223
 21
206.253326084599
 31
0.0
  0
LINE
  5
189
100
AcDbEntity
  8
WHITE
  6
CONTINUOUS
 62
          15
100
AcDbLine
 10
-4852.028543295094
 20
205.695114205951
 30
0.0
 11
-4856.997285540223
 21
206.253326084599
 31
0.0
  0
LINE
  5
18A
100
AcDbEntity
  8
WHITE
  6
CONTINUOUS
 62
          15
100
AcDbLine
 10
-4852.028543295094
 20
205.695114205951
 30
0.0
 11
-4851.736174001109
 21
208.297544784313
 31
0.0
  0
LINE
  5
18B
100
AcDbEntity
  8
WHITE
  6
CONTINUOUS
 62
          15
100
AcDbLine
 10
-4851.736174001109
 20
208.297544784313
 30
0.0
 11
-4851.589989354117
 21
209.598760073495
 31
0.0
  0
LINE
  5
18C
100
AcDbEntity
  8
WHITE
  6
CONTINUOUS
 62
          15
100
AcDbLine
 10
-4856.335446847788
 20
212.144468850194
 30
0.0
 11
-4856.558731599247
 21
210.156971952142
 31
0.0
  0
LINE
  5
18D
100
AcDbEntity
  8
WHITE
  6
CONTINUOUS
 62
          15
100
AcDbLine
 10
-4851.589989354117
 20
209.598760073495
 30
0.0
 11
-4856.558731599247
 21
210.156971952142
 31
0.0
  0
LINE
  5
18E
100
AcDbEntity
  8
WHITE
  6
CONTINUOUS
 62
          15
100
AcDbLine
 10
-4851.589989354117
 20
209.598760073495
 30
0.0
 11
-4851.366704602659
 21
211.586256971546
 31
0.0
  0
LINE
  5
18F
100
AcDbEntity
  8
WHITE
  6
CONTINUOUS
 62
          15
100
AcDbLine
 10
-4856.335446847788
 20
212.144468850194
 30
0.0
 11
-4851.366704602659
 21
211.586256971546
 31
0.0
  0
LINE
  5
190
100
AcDbEntity
  8
WHITE
  6
CONTINUOUS
 62
          15
100
AcDbLine
 10
-4857.500621385087
 20
195.001574488423
 30
0.0
 11
-4853.283136137441
 21
194.527762355068
 31
0.0
  0
LINE
  5
191
100
AcDbEntity
  8
WHITE
  6
CONTINUOUS
 62
          15
100
AcDbLine
 10
-4851.366704602659
 20
211.586256971546
 30
0.0
 11
-4851.220519955667
 21
212.88747226073
 31
0.0
  0
LINE
  5
192
100
AcDbEntity
  8
WHITE
  6
CONTINUOUS
 62
          15
100
AcDbLine
 10
-4802.338212724338
 20
237.848576659766
 30
0.0
 11
-4801.752090251757
 21
243.065756017152
 31
0.0
  0
LINE
  5
193
100
AcDbEntity
  8
WHITE
  6
CONTINUOUS
 62
          15
100
AcDbLine
 10
-4804.219583712929
 20
234.53792065177
 30
0.0
 11
-4804.610332027984
 21
231.059801080178
 31
0.0
  0
LINE
  5
194
100
AcDbEntity
  8
WHITE
  6
CONTINUOUS
 62
          15
100
AcDbLine
 10
-4804.610332027984
 20
231.059801080178
 30
0.0
 11
-4803.859069473742
 21
230.975400710614
 31
0.0
  0
LINE
  5
195
100
AcDbEntity
  8
WHITE
  6
CONTINUOUS
 62
          15
100
AcDbLine
 10
-4803.438087082823
 20
241.494159794952
 30
0.0
 11
-4804.219583712929
 21
234.53792065177
 31
0.0
  0
LINE
  5
196
100
AcDbEntity
  8
WHITE
  6
CONTINUOUS
 62
          15
100
AcDbLine
 10
-4804.219583712929
 20
234.53792065177
 30
0.0
 11
-4803.468321158689
 21
234.453520282205
 31
0.0
  0
LINE
  5
197
100
AcDbEntity
  8
WHITE
  6
CONTINUOUS
 62
          15
100
AcDbLine
 10
-4803.047338767769
 20
244.972279366541
 30
0.0
 11
-4803.438087082823
 21
241.494159794952
 31
0.0
  0
LINE
  5
198
100
AcDbEntity
  8
WHITE
  6
CONTINUOUS
 62
          15
100
AcDbLine
 10
-4803.438087082823
 20
241.494159794952
 30
0.0
 11
-4802.686824528581
 21
241.409759425387
 31
0.0
  0
LINE
  5
199
100
AcDbEntity
  8
WHITE
  6
CONTINUOUS
 62
          15
100
AcDbLine
 10
-4802.433305701256
 20
250.437895836185
 30
0.0
 11
-4803.047338767769
 21
244.972279366541
 31
0.0
  0
LINE
  5
19A
100
AcDbEntity
  8
WHITE
  6
CONTINUOUS
 62
          15
100
AcDbLine
 10
-4803.047338767769
 20
244.972279366541
 30
0.0
 11
-4802.296076213528
 21
244.887878996977
 31
0.0
  0
LINE
  5
19B
100
AcDbEntity
  8
WHITE
  6
CONTINUOUS
 62
          15
100
AcDbLine
 10
-4847.815667170367
 20
209.24698339804
 30
0.0
 11
-4849.155375679122
 21
197.322002009728
 31
0.0
  0
LINE
  5
19C
100
AcDbEntity
  8
WHITE
  6
CONTINUOUS
 62
           2
100
AcDbLine
 10
-4849.155375679122
 20
197.322002009728
 30
0.0
 11
-4852.92168230093
 21
197.745126613743
 31
0.0
  0
LINE
  5
19D
100
AcDbEntity
  8
WHITE
  6
CONTINUOUS
 62
          15
100
AcDbLine
 10
-4847.704024794638
 20
210.240731847066
 30
0.0
 11
-4847.815667170367
 21
209.24698339804
 31
0.0
  0
LINE
  5
19E
100
AcDbEntity
  8
WHITE
  6
CONTINUOUS
 62
           2
100
AcDbLine
 10
-4847.815667170367
 20
209.24698339804
 30
0.0
 11
-4851.581973792176
 21
209.670108002055
 31
0.0
  0
LINE
  5
19F
100
AcDbEntity
  8
WHITE
  6
CONTINUOUS
 62
          15
100
AcDbLine
 10
-4849.155375679122
 20
197.322002009728
 30
0.0
 11
-4849.267018054852
 21
196.328253560702
 31
0.0
  0
LINE
  5
1A0
100
AcDbEntity
  8
WHITE
  6
CONTINUOUS
 62
          15
100
AcDbLine
 10
-4853.03332467666
 20
196.751378164717
 30
0.0
 11
-4849.267018054852
 21
196.328253560702
 31
0.0
  0
LINE
  5
1A1
100
AcDbEntity
  8
WHITE
  6
CONTINUOUS
 62
          15
100
AcDbLine
 10
-4847.648203606774
 20
210.737606071579
 30
0.0
 11
-4847.704024794638
 21
210.240731847066
 31
0.0
  0
LINE
  5
1A2
100
AcDbEntity
  8
WHITE
  6
CONTINUOUS
 62
          15
100
AcDbLine
 10
-4851.470331416446
 20
210.663856451081
 30
0.0
 11
-4847.704024794638
 21
210.240731847066
 31
0.0
  0
LINE
  5
1A3
100
AcDbEntity
  8
WHITE
  6
CONTINUOUS
 62
          15
100
AcDbLine
 10
-4811.007702767353
 20
192.030022095113
 30
0.0
 11
-4829.924597263125
 21
194.155235014946
 31
0.0
  0
LINE
  5
1A4
100
AcDbEntity
  8
WHITE
  6
CONTINUOUS
 62
          15
100
AcDbLine
 10
-4829.924597263125
 20
194.155235014946
 30
0.0
 11
-4837.565321418
 21
193.001048153895
 31
0.0
  0
LINE
  5
1A5
100
AcDbEntity
  8
WHITE
  6
CONTINUOUS
 62
          15
100
AcDbLine
 10
-4805.782576973144
 20
220.625442365407
 30
0.0
 11
-4806.279451197657
 21
220.681263553272
 31
0.0
  0
LINE
  5
1A6
100
AcDbEntity
  8
WHITE
  6
CONTINUOUS
 62
          15
100
AcDbLine
 10
-4809.34961653022
 20
193.353181205058
 30
0.0
 11
-4806.279451197657
 21
220.681263553272
 31
0.0
  0
LINE
  5
1A7
100
AcDbEntity
  8
WHITE
  6
CONTINUOUS
 62
          15
100
AcDbLine
 10
-4835.851413993001
 20
194.821081488353
 30
0.0
 11
-4829.924597263125
 21
194.155235014946
 31
0.0
  0
LINE
  5
1A8
100
AcDbEntity
  8
WHITE
  6
CONTINUOUS
 62
          15
100
AcDbLine
 10
-4806.279451197657
 20
220.681263553272
 30
0.0
 11
-4834.104407770383
 21
223.8072500737
 31
0.0
  0
LINE
  5
1A9
100
AcDbEntity
  8
WHITE
  6
CONTINUOUS
 62
          15
100
AcDbLine
 10
-4837.174573102946
 20
196.479167725487
 30
0.0
 11
-4834.104407770383
 21
223.8072500737
 31
0.0
  0
LINE
  5
1AA
100
AcDbEntity
  8
WHITE
  6
CONTINUOUS
 62
          15
100
AcDbLine
 10
-4847.999680132773
 20
194.173293099055
 30
0.0
 11
-4837.565321418
 21
193.001048153895
 31
0.0
  0
LINE
  5
1AB
100
AcDbEntity
  8
WHITE
  6
CONTINUOUS
 62
          15
100
AcDbLine
 10
-4849.267018054852
 20
196.328253560702
 30
0.0
 11
-4849.322839242717
 21
195.83137933619
 31
0.0
  0
LINE
  5
1AC
100
AcDbEntity
  8
WHITE
  6
CONTINUOUS
 62
          15
100
AcDbLine
 10
-4845.99011736964
 20
212.060765181523
 30
0.0
 11
-4835.555758654868
 21
210.888520236363
 31
0.0
  0
LINE
  5
1AD
100
AcDbEntity
  8
WHITE
  6
CONTINUOUS
 62
          15
100
AcDbLine
 10
-4805.670934597414
 20
221.619190814433
 30
0.0
 11
-4805.782576973144
 21
220.625442365407
 31
0.0
  0
LINE
  5
1AE
100
AcDbEntity
  8
WHITE
  6
CONTINUOUS
 62
          15
100
AcDbLine
 10
-4834.104407770383
 20
223.8072500737
 30
0.0
 11
-4834.601281994896
 21
223.863071261565
 31
0.0
  0
LINE
  5
1AF
100
AcDbEntity
  8
WHITE
  6
CONTINUOUS
 62
          15
100
AcDbLine
 10
-4834.601281994896
 20
223.863071261565
 30
0.0
 11
-4834.489639619166
 21
224.856819710591
 31
0.0
  0
LINE
  5
1B0
100
AcDbEntity
  8
WHITE
  6
CONTINUOUS
 62
          15
100
AcDbLine
 10
-4805.670934597414
 20
221.619190814433
 30
0.0
 11
-4834.489639619166
 21
224.856819710591
 31
0.0
  0
LINE
  5
1B1
100
AcDbEntity
  8
WHITE
  6
CONTINUOUS
 62
           7
100
AcDbLine
 10
-4831.580694793461
 20
250.749849932815
 30
0.0
 11
-4831.642759038063
 21
250.197405160751
 31
0.0
  0
LINE
  5
1B2
100
AcDbEntity
  8
WHITE
  6
CONTINUOUS
 62
          15
100
AcDbLine
 10
-4829.439411804427
 20
252.520643875445
 30
0.0
 11
-4802.433305701256
 21
250.437895836185
 31
0.0
  0
LINE
  5
1B3
100
AcDbEntity
  8
WHITE
  6
CONTINUOUS
 62
           7
100
AcDbLine
 10
-4837.895388604082
 20
239.327509875601
 30
0.0
 11
-4837.839567416218
 21
239.824384100114
 31
0.0
  0
LINE
  5
1B4
100
AcDbEntity
  8
WHITE
  6
CONTINUOUS
 62
           1
100
AcDbLine
 10
-4835.366772526065
 20
239.546578689198
 30
0.0
 11
-4837.839567416218
 21
239.824384100114
 31
0.0
  0
LINE
  5
1B5
100
AcDbEntity
  8
WHITE
  6
CONTINUOUS
 62
           7
100
AcDbLine
 10
-4837.839567416218
 20
239.824384100114
 30
0.0
 11
-4837.392997913299
 21
243.799377896217
 31
0.0
  0
LINE
  5
1B6
100
AcDbEntity
  8
WHITE
  6
CONTINUOUS
 62
           1
100
AcDbLine
 10
-4834.920203023146
 20
243.521572485302
 30
0.0
 11
-4837.392997913299
 21
243.799377896217
 31
0.0
  0
LINE
  5
1B7
100
AcDbEntity
  8
WHITE
  6
CONTINUOUS
 62
           7
100
AcDbLine
 10
-4837.951209791947
 20
238.830635651088
 30
0.0
 11
-4837.895388604082
 21
239.327509875601
 31
0.0
  0
LINE
  5
1B8
100
AcDbEntity
  8
WHITE
  6
CONTINUOUS
 62
           1
100
AcDbLine
 10
-4835.422593713929
 20
239.049704464686
 30
0.0
 11
-4837.895388604082
 21
239.327509875601
 31
0.0
  0
LINE
  5
1B9
100
AcDbEntity
  8
WHITE
  6
CONTINUOUS
 62
           7
100
AcDbLine
 10
-4837.392997913299
 20
243.799377896217
 30
0.0
 11
-4837.337176725434
 21
244.296252120731
 31
0.0
  0
LINE
  5
1BA
100
AcDbEntity
  8
WHITE
  6
CONTINUOUS
 62
           1
100
AcDbLine
 10
-4834.864381835281
 20
244.018446709815
 30
0.0
 11
-4837.337176725434
 21
244.296252120731
 31
0.0
  0
LINE
  5
1BB
100
AcDbEntity
  8
WHITE
  6
CONTINUOUS
 62
           7
100
AcDbLine
 10
-4836.287607088543
 20
244.681483969514
 30
0.0
 11
-4836.957461342921
 21
238.718993275358
 31
0.0
  0
LINE
  5
1BC
100
AcDbEntity
  8
WHITE
  6
CONTINUOUS
 62
           2
100
AcDbLine
 10
-4836.957461342921
 20
238.718993275358
 30
0.0
 11
-4837.951209791947
 21
238.830635651088
 31
0.0
  0
LINE
  5
1BD
100
AcDbEntity
  8
WHITE
  6
CONTINUOUS
 62
           7
100
AcDbLine
 10
-4836.175964712814
 20
245.67523241854
 30
0.0
 11
-4836.287607088543
 21
244.681483969514
 31
0.0
  0
LINE
  5
1BE
100
AcDbEntity
  8
WHITE
  6
CONTINUOUS
 62
           2
100
AcDbLine
 10
-4836.287607088543
 20
244.681483969514
 30
0.0
 11
-4837.281355537569
 21
244.793126345243
 31
0.0
  0
LINE
  5
1BF
100
AcDbEntity
  8
WHITE
  6
CONTINUOUS
 62
           7
100
AcDbLine
 10
-4836.957461342921
 20
238.718993275358
 30
0.0
 11
-4837.06910371865
 21
237.725244826332
 31
0.0
  0
LINE
  5
1C0
100
AcDbEntity
  8
WHITE
  6
CONTINUOUS
 62
           7
100
AcDbLine
 10
-4837.06910371865
 20
237.725244826332
 30
0.0
 11
-4837.951209791947
 21
238.830635651088
 31
0.0
  0
LINE
  5
1C1
100
AcDbEntity
  8
WHITE
  6
CONTINUOUS
 62
           7
100
AcDbLine
 10
-4837.337176725434
 20
244.296252120731
 30
0.0
 11
-4837.281355537569
 21
244.793126345243
 31
0.0
  0
LINE
  5
1C2
100
AcDbEntity
  8
WHITE
  6
CONTINUOUS
 62
           7
100
AcDbLine
 10
-4835.617752834166
 20
250.64397466367
 30
0.0
 11
-4836.175964712814
 21
245.67523241854
 31
0.0
  0
LINE
  5
1C3
100
AcDbEntity
  8
WHITE
  6
CONTINUOUS
 62
           7
100
AcDbLine
 10
-4837.281355537569
 20
244.793126345243
 30
0.0
 11
-4836.175964712814
 21
245.67523241854
 31
0.0
  0
LINE
  5
1C4
100
AcDbEntity
  8
WHITE
  6
CONTINUOUS
 62
          15
100
AcDbLine
 10
-4804.610332027984
 20
231.059801080178
 30
0.0
 11
-4805.670934597414
 21
221.619190814433
 31
0.0
  0
LINE
  5
1C5
100
AcDbEntity
  8
WHITE
  6
CONTINUOUS
 62
          15
100
AcDbLine
 10
-4834.489639619166
 20
224.856819710591
 30
0.0
 11
-4833.652321801194
 21
232.309933078284
 31
0.0
  0
LINE
  5
1C6
100
AcDbEntity
  8
WHITE
  6
CONTINUOUS
 62
           7
100
AcDbLine
 10
-4834.75771262595
 20
231.427827004988
 30
0.0
 11
-4832.524865111359
 21
251.302795985506
 31
0.0
  0
LINE
  5
1C7
100
AcDbEntity
  8
WHITE
  6
CONTINUOUS
 62
           7
100
AcDbLine
 10
-4836.745209524002
 20
231.651111756447
 30
0.0
 11
-4834.512362009411
 21
251.526080736966
 31
0.0
  0
LINE
  5
1C8
100
AcDbEntity
  8
WHITE
  6
CONTINUOUS
 62
           7
100
AcDbLine
 10
-4836.745209524002
 20
231.651111756447
 30
0.0
 11
-4837.627315597298
 21
232.756502581203
 31
0.0
  0
LINE
  5
1C9
100
AcDbEntity
  8
WHITE
  6
CONTINUOUS
 62
           7
100
AcDbLine
 10
-4833.652321801194
 20
232.309933078284
 30
0.0
 11
-4834.75771262595
 21
231.427827004988
 31
0.0
  0
LINE
  5
1CA
100
AcDbEntity
  8
WHITE
  6
CONTINUOUS
 62
           7
100
AcDbLine
 10
-4832.524865111359
 20
251.302795985506
 30
0.0
 11
-4831.642759038063
 21
250.197405160751
 31
0.0
  0
LINE
  5
1CB
100
AcDbEntity
  8
WHITE
  6
CONTINUOUS
 62
           7
100
AcDbLine
 10
-4834.512362009411
 20
251.526080736966
 30
0.0
 11
-4835.617752834166
 21
250.64397466367
 31
0.0
  0
LINE
  5
1CC
100
AcDbEntity
  8
WHITE
  6
CONTINUOUS
 62
           7
100
AcDbLine
 10
-4837.06910371865
 20
237.725244826332
 30
0.0
 11
-4837.627315597298
 21
232.756502581203
 31
0.0
  0
LINE
  5
1CD
100
AcDbEntity
  8
WHITE
  6
CONTINUOUS
 62
           7
100
AcDbLine
 10
-4836.745209524002
 20
231.651111756447
 30
0.0
 11
-4834.75771262595
 21
231.427827004988
 31
0.0
  0
LINE
  5
1CE
100
AcDbEntity
  8
WHITE
  6
CONTINUOUS
 62
          15
100
AcDbLine
 10
-4833.652321801194
 20
232.309933078284
 30
0.0
 11
-4831.642759038063
 21
250.197405160751
 31
0.0
  0
LINE
  5
1CF
100
AcDbEntity
  8
WHITE
  6
CONTINUOUS
 62
           7
100
AcDbLine
 10
-4832.524865111359
 20
251.302795985506
 30
0.0
 11
-4834.512362009411
 21
251.526080736966
 31
0.0
  0
LINE
  5
1D0
100
AcDbEntity
  8
WHITE
  6
CONTINUOUS
 62
          15
100
AcDbLine
 10
-4786.086761013923
 20
252.626611620615
 30
0.0
 11
-4785.58988678941
 21
252.570790432751
 31
0.0
  0
LINE
  5
1D1
100
AcDbEntity
  8
WHITE
  6
CONTINUOUS
 62
          15
100
AcDbLine
 10
-4801.55671609423
 20
244.804815802947
 30
0.0
 11
-4797.084848073613
 21
244.302425112164
 31
0.0
  0
LINE
  5
1D2
100
AcDbEntity
  8
WHITE
  6
CONTINUOUS
 62
           7
100
AcDbLine
 10
-4813.781358686832
 20
230.171384970659
 30
0.0
 11
-4822.050449381697
 21
231.100373520229
 31
0.0
  0
LINE
  5
1D3
100
AcDbEntity
  8
WHITE
  6
CONTINUOUS
 62
           7
100
AcDbLine
 10
-4822.050449381697
 20
231.100373520229
 30
0.0
 11
-4821.284221629221
 21
237.920701694431
 31
0.0
  0
LINE
  5
1D4
100
AcDbEntity
  8
WHITE
  6
CONTINUOUS
 62
           7
100
AcDbLine
 10
-4821.284221629221
 20
237.920701694431
 30
0.0
 11
-4813.015130934356
 21
236.991713144861
 31
0.0
  0
LINE
  5
1D5
100
AcDbEntity
  8
WHITE
  6
CONTINUOUS
 62
           7
100
AcDbLine
 10
-4813.015130934356
 20
236.991713144861
 30
0.0
 11
-4813.781358686832
 21
230.171384970659
 31
0.0
  0
ARC
  5
1D6
100
AcDbEntity
  8
WHITE
  6
CONTINUOUS
 62
          15
100
AcDbCircle
 10
-4757.513800523809
 20
256.15873970866
 30
0.0
 40
2.25
100
AcDbArc
 50
173.59
 51
353.589999999999
  0
ARC
  5
1D7
100
AcDbEntity
  8
WHITE
  6
CONTINUOUS
 62
          15
100
AcDbCircle
 10
-4757.513800523809
 20
256.15873970866
 30
0.0
 40
2.25
100
AcDbArc
 50
353.589999999999
 51
173.59
  0
ARC
  5
1D8
100
AcDbEntity
  8
WHITE
  6
CONTINUOUS
 62
          15
100
AcDbCircle
 10
-4810.888828865431
 20
238.809193102366
 30
0.0
 40
8.604407030244
100
AcDbArc
 50
353.589999999999
 51
17.59198532828
  0
ARC
  5
1D9
100
AcDbEntity
  8
WHITE
  6
CONTINUOUS
 62
          15
100
AcDbCircle
 10
-4805.339249276927
 20
232.902700110792
 30
0.0
 40
2.430106011614
100
AcDbArc
 50
353.589999999999
 51
39.655478142734
  0
ARC
  5
1DA
100
AcDbEntity
  8
WHITE
  6
CONTINUOUS
 62
          15
100
AcDbCircle
 10
-4804.167004331767
 20
243.337058825563
 30
0.0
 40
2.430106011614
100
AcDbArc
 50
353.589999999999
 51
39.655478142734
  0
ARC
  5
1DB
100
AcDbEntity
  8
WHITE
  6
CONTINUOUS
 62
          15
100
AcDbCircle
 10
-4805.339249276927
 20
232.902700110792
 30
0.0
 40
2.430106011614
100
AcDbArc
 50
307.524521857251
 51
353.589999999999
  0
ARC
  5
1DC
100
AcDbEntity
  8
WHITE
  6
CONTINUOUS
 62
          15
100
AcDbCircle
 10
-4804.167004331767
 20
243.337058825563
 30
0.0
 40
2.430106011613
100
AcDbArc
 50
307.524521857281
 51
353.589999999999
  0
ARC
  5
1DD
100
AcDbEntity
  8
WHITE
  6
CONTINUOUS
 62
          15
100
AcDbCircle
 10
-4810.888828865431
 20
238.809193102366
 30
0.0
 40
8.604407030244
100
AcDbArc
 50
329.588014671731
 51
353.589999999999
  0
CIRCLE
  5
1DE
100
AcDbEntity
  8
WHITE
  6
CONTINUOUS
 62
          15
100
AcDbCircle
 10
-4731.173293633188
 20
212.947888100006
 30
0.0
 40
2.25
  0
CIRCLE
  5
1DF
100
AcDbEntity
  8
WHITE
  6
CONTINUOUS
 62
          15
100
AcDbCircle
 10
-4752.042011062733
 20
215.292377990327
 30
0.0
 40
2.25
  0
CIRCLE
  5
1E0
100
AcDbEntity
  8
WHITE
  6
CONTINUOUS
 62
          15
100
AcDbCircle
 10
-4716.770114113745
 20
251.581402303748
 30
0.0
 40
2.25
  0
ARC
  5
1E1
100
AcDbEntity
  8
WHITE
  6
CONTINUOUS
 62
          15
100
AcDbCircle
 10
-4799.816793145173
 20
251.209406734956
 30
0.0
 40
0.5
100
AcDbArc
 50
90.739821982564
 51
173.59
  0
ARC
  5
1E2
100
AcDbEntity
  8
WHITE
  6
CONTINUOUS
 62
          15
100
AcDbCircle
 10
-4800.388134488055
 20
246.123796816291
 30
0.0
 40
0.5
100
AcDbArc
 50
173.59
 51
256.44017801742
  0
ARC
  5
1E3
100
AcDbEntity
  8
WHITE
  6
CONTINUOUS
 62
          15
100
AcDbCircle
 10
-4799.614007451502
 20
253.140035243939
 30
0.0
 40
1.0
100
AcDbArc
 50
83.59
 51
173.59
  0
ARC
  5
1E4
100
AcDbEntity
  8
WHITE
  6
CONTINUOUS
 62
          15
100
AcDbCircle
 10
-4803.07492109912
 20
222.333833324135
 30
0.0
 40
1.0
100
AcDbArc
 50
173.59
 51
263.59
  0
ARC
  5
1E5
100
AcDbEntity
  8
WHITE
  6
CONTINUOUS
 62
          15
100
AcDbCircle
 10
-4810.840239203759
 20
193.520644768653
 30
0.0
 40
1.500000000001
100
AcDbArc
 50
263.59
 51
353.589999999999
  0
ARC
  5
1E6
100
AcDbEntity
  8
WHITE
  6
CONTINUOUS
 62
          15
100
AcDbCircle
 10
-4835.683950429408
 20
196.311704161892
 30
0.0
 40
1.5
100
AcDbArc
 50
173.59
 51
263.59
  0
ARC
  5
1E7
100
AcDbEntity
  8
WHITE
  6
CONTINUOUS
 62
          15
100
AcDbCircle
 10
-4846.157580933234
 20
210.570142507984
 30
0.0
 40
1.5
100
AcDbArc
 50
83.59
 51
173.59
  0
ARC
  5
1E8
100
AcDbEntity
  8
WHITE
  6
CONTINUOUS
 62
          15
100
AcDbCircle
 10
-4847.832216569178
 20
195.663915772595
 30
0.0
 40
1.5
100
AcDbArc
 50
173.59
 51
263.59
  0
ARC
  5
1E9
100
AcDbEntity
  8
WHITE
  6
CONTINUOUS
 62
          15
100
AcDbCircle
 10
-4829.593197895409
 20
250.526565181355
 30
0.0
 40
2.0
100
AcDbArc
 50
85.59
 51
173.59
  0
TEXT
  5
1EA
100
AcDbEntity
  8
WHITE
  6
CONTINUOUS
 62
           7
100
AcDbText
 10
-4820.55509198916
 20
232.522534779497
 30
0.0
 40
4.0
  1
14
 50
-6.41
 41
0.955
  7
TXT
100
AcDbText
  0
ENDSEC
  0
SECTION
  2
OBJECTS
  0
DICTIONARY
  5
19
100
AcDbDictionary
  3
ACAD_GROUP
350
1A
  3
ACAD_MLINESTYLE
350
1B
  0
DICTIONARY
  5
1A
102
{ACAD_REACTORS
330
19
102
}
100
AcDbDictionary
  0
DICTIONARY
  5
1B
102
{ACAD_REACTORS
330
19
102
}
100
AcDbDictionary
  3
STANDARD
350
1C
  0
MLINESTYLE
  5
1C
102
{ACAD_REACTORS
330
1B
102
}
100
AcDbMlineStyle
  2
STANDARD
 70
           0
  3

 62
           0
 51
90.0
 52
90.0
 71
           2
 49
0.5
 62
         256
  6
BYLAYER
 49
-0.5
 62
         256
  6
BYLAYER
  0
ENDSEC
  0
EOF
