  0
SECTION
  2
HEADER
  9
$ACADVER
  1
AC1012
  9
$DWGCODEPAGE
  3
dos850
  9
$INSBASE
 10
0.0
 20
0.0
 30
0.0
  9
$EXTMIN
 10
-5096.905542290236
 20
-1888.966372267563
 30
0.0
  9
$EXTMAX
 10
-4493.995386290237
 20
-1513.966372267563
 30
0.0
  9
$LIMMIN
 10
-5096.905542290236
 20
-1888.966372267563
  9
$LIMMAX
 10
-4493.995386290237
 20
-1513.966372267563
  9
$ORTHOMODE
 70
           0
  9
$REGENMODE
 70
           1
  9
$FILLMODE
 70
           1
  9
$QTEXTMODE
 70
           0
  9
$MIRRTEXT
 70
           1
  9
$DRAGMODE
 70
           2
  9
$LTSCALE
 40
5.0
  9
$OSMODE
 70
           0
  9
$ATTMODE
 70
           1
  9
$TEXTSIZE
 40
0.2
  9
$TRACEWID
 40
0.05
  9
$TEXTSTYLE
  7
TXT
  9
$CLAYER
  8
0
  9
$CELTYPE
  6
CONTINUOUS
  9
$CECOLOR
 62
         256
  9
$CELTSCALE
 40
1.0
  9
$DELOBJ
 70
           1
  9
$DISPSILH
 70
           0
  9
$DIMSCALE
 40
1.0
  9
$DIMASZ
 40
3.5
  9
$DIMEXO
 40
0.0625
  9
$DIMDLI
 40
0.38
  9
$DIMRND
 40
0.0
  9
$DIMDLE
 40
0.0
  9
$DIMEXE
 40
0.18
  9
$DIMTP
 40
0.0
  9
$DIMTM
 40
0.0
  9
$DIMTXT
 40
3.5
  9
$DIMCEN
 40
0.09
  9
$DIMTSZ
 40
0.0
  9
$DIMTOL
 70
           0
  9
$DIMLIM
 70
           0
  9
$DIMTIH
 70
           1
  9
$DIMTOH
 70
           1
  9
$DIMSE1
 70
           0
  9
$DIMSE2
 70
           0
  9
$DIMTAD
 70
           0
  9
$DIMZIN
 70
           0
  9
$DIMBLK
  1

  9
$DIMASO
 70
           1
  9
$DIMSHO
 70
           1
  9
$DIMPOST
  1

  9
$DIMAPOST
  1

  9
$DIMALT
 70
           0
  9
$DIMALTD
 70
           2
  9
$DIMALTF
 40
25.4
  9
$DIMLFAC
 40
1.0
  9
$DIMTOFL
 70
           0
  9
$DIMTVP
 40
0.0
  9
$DIMTIX
 70
           0
  9
$DIMSOXD
 70
           0
  9
$DIMSAH
 70
           0
  9
$DIMBLK1
  1

  9
$DIMBLK2
  1

  9
$DIMSTYLE
  2
STANDARD
  9
$DIMCLRD
 70
           0
  9
$DIMCLRE
 70
           0
  9
$DIMCLRT
 70
           0
  9
$DIMTFAC
 40
1.0
  9
$DIMGAP
 40
0.09
  9
$DIMJUST
 70
           0
  9
$DIMSD1
 70
           0
  9
$DIMSD2
 70
           0
  9
$DIMTOLJ
 70
           1
  9
$DIMTZIN
 70
           0
  9
$DIMALTZ
 70
           0
  9
$DIMALTTZ
 70
           0
  9
$DIMFIT
 70
           3
  9
$DIMUPT
 70
           0
  9
$DIMUNIT
 70
           2
  9
$DIMDEC
 70
           4
  9
$DIMTDEC
 70
           4
  9
$DIMALTU
 70
           2
  9
$DIMALTTD
 70
           2
  9
$DIMTXSTY
  7
TXT
  9
$DIMAUNIT
 70
           0
  9
$LUNITS
 70
           2
  9
$LUPREC
 70
           2
  9
$SKETCHINC
 40
0.1
  9
$FILLETRAD
 40
0.0
  9
$AUNITS
 70
           0
  9
$AUPREC
 70
           2
  9
$MENU
  1
acad
  9
$ELEVATION
 40
0.0
  9
$PELEVATION
 40
0.0
  9
$THICKNESS
 40
0.0
  9
$LIMCHECK
 70
           0
  9
$BLIPMODE
 70
           1
  9
$CHAMFERA
 40
0.0
  9
$CHAMFERB
 40
0.0
  9
$CHAMFERC
 40
0.0
  9
$CHAMFERD
 40
0.0
  9
$SKPOLY
 70
           0
  9
$TDCREATE
 40
0.000000000
  9
$TDUPDATE
 40
0.000000000
  9
$TDINDWG
 40
0.0000000000
  9
$TDUSRTIMER
 40
0.0000000000
  9
$USRTIMER
 70
           1
  9
$ANGBASE
 50
0.0
  9
$ANGDIR
 70
           0
  9
$PDMODE
 70
           2
  9
$PDSIZE
 40
0.5
  9
$PLINEWID
 40
0.0
  9
$COORDS
 70
           0
  9
$SPLFRAME
 70
           0
  9
$SPLINETYPE
 70
           6
  9
$SPLINESEGS
 70
           8
  9
$ATTDIA
 70
           0
  9
$ATTREQ
 70
           1
  9
$HANDLING
 70
           1
  9
$HANDSEED
  5
21C
  9
$SURFTAB1
 70
           6
  9
$SURFTAB2
 70
           6
  9
$SURFTYPE
 70
           6
  9
$SURFU
 70
           6
  9
$SURFV
 70
           6
  9
$UCSNAME
  2

  9
$UCSORG
 10
0.0
 20
0.0
 30
0.0
  9
$UCSXDIR
 10
1.0
 20
0.0
 30
0.0
  9
$UCSYDIR
 10
0.0
 20
1.0
 30
0.0
  9
$PUCSNAME
  2

  9
$PUCSORG
 10
0.0
 20
0.0
 30
0.0
  9
$PUCSXDIR
 10
1.0
 20
0.0
 30
0.0
  9
$PUCSYDIR
 10
0.0
 20
1.0
 30
0.0
  9
$USERI1
 70
           0
  9
$USERI2
 70
           0
  9
$USERI3
 70
           0
  9
$USERI4
 70
           0
  9
$USERI5
 70
           0
  9
$USERR1
 40
0.0
  9
$USERR2
 40
0.0
  9
$USERR3
 40
0.0
  9
$USERR4
 40
0.0
  9
$USERR5
 40
0.0
  9
$WORLDVIEW
 70
           1
  9
$SHADEDGE
 70
           3
  9
$SHADEDIF
 70
          70
  9
$TILEMODE
 70
           1
  9
$MAXACTVP
 70
          16
  9
$PINSBASE
 10
0.0
 20
0.0
 30
0.0
  9
$PLIMCHECK
 70
           0
  9
$PEXTMIN
 10
1.000000000000E+20
 20
1.000000000000E+20
 30
1.000000000000E+20
  9
$PEXTMAX
 10
-1.000000000000E+20
 20
-1.000000000000E+20
 30
-1.000000000000E+20
  9
$PLIMMIN
 10
0.0
 20
0.0
  9
$PLIMMAX
 10
12.0
 20
9.0
  9
$UNITMODE
 70
           0
  9
$VISRETAIN
 70
           0
  9
$PLINEGEN
 70
           1
  9
$PSLTSCALE
 70
           0
  9
$TREEDEPTH
 70
        3020
  9
$PICKSTYLE
 70
           1
  9
$CMLSTYLE
  2
STANDARD
  9
$CMLJUST
 70
           0
  9
$CMLSCALE
 40
1.0
  9
$SAVEIMAGES
 70
           0
  0
ENDSEC
  0
SECTION
  2
CLASSES
  0
CLASS
  1
LWPOLYLINE
  2
AcDbPolyline
  3
"AutoCAD"
 90
        0
280
           0
281
           1
  0
CLASS
  1
IMAGE
  2
AcDbRasterImage
  3
ISM
 90
      127
280
           0
281
           1
  0
CLASS
  1
OLE2FRAME
  2
AcDbOle2Frame
  3
""
 90
        0
280
           0
281
           1
  0
CLASS
  1
HATCH
  2
AcDbHatch
  3
"ACAD_SEDONA"
 90
        0
280
           0
281
           1
  0
CLASS
  1
DICTIONARYVAR
  2
AcDbDictionaryVar
  3
"AutoCAD"
 90
        0
280
           0
281
           0
  0
CLASS
  1
RASTERVARIABLES
  2
AcDbRasterVariables
  3
ISM
 90
        0
280
           0
281
           0
  0
CLASS
  1
IMAGEDEF
  2
AcDbRasterImageDef
  3
ISM
 90
        0
280
           0
281
           0
  0
CLASS
  1
IMAGEDEF_REACTOR
  2
AcDbRasterImageDefReactor
  3
ISM
 90
        1
280
           0
281
           0
  0
CLASS
  1
IDBUFFER
  2
AcDbIdBuffer
  3
"Acad"
 90
        0
280
           0
281
           0
  0
CLASS
  1
SPATIAL_FILTER
  2
AcDbSpatialFilter
  3
"Acad"
 90
        0
280
           0
281
           0
  0
CLASS
  1
XRECORD
  2
AcDbXrecord
  3
"<Built In>"
 90
        0
280
           0
281
           0
  0
ENDSEC
  0
SECTION
  2
TABLES
  0
TABLE
  2
VPORT
  5
7
100
AcDbSymbolTable
 70
           1
  0
VPORT
  5
15
100
AcDbSymbolTableRecord
100
AcDbViewportTableRecord
  2
*ACTIVE
 70
           0
 10
0.0
 20
0.0
 11
1.0
 21
1.0
 12
6.591288
 22
4.579184
 13
0.0
 23
0.0
 14
1.0
 24
1.0
 15
0.0
 25
0.0
 16
0.0
 26
0.0
 36
1.0
 17
0.0
 27
0.0
 37
0.0
 40
9.158369
 41
0.688564
 42
50.0
 43
0.0
 44
0.0
 50
0.0
 51
0.0
 71
           0
 72
         100
 73
           1
 74
           1
 75
           0
 76
           0
 77
           0
 78
           0
  0
ENDTAB
  0
TABLE
  2
LTYPE
  5
4
100
AcDbSymbolTable
 70
           5
  0
LTYPE
  5
11
100
AcDbSymbolTableRecord
100
AcDbLinetypeTableRecord
  2
BYBLOCK
 70
           0
  3

 72
          65
 73
           0
 40
0.0
  0
LTYPE
  5
12
100
AcDbSymbolTableRecord
100
AcDbLinetypeTableRecord
  2
BYLAYER
 70
           0
  3

 72
          65
 73
           0
 40
0.0
  0
LTYPE
  5
13
100
AcDbSymbolTableRecord
100
AcDbLinetypeTableRecord
  2
CONTINUOUS
 70
           0
  3
Solid line
 72
          65
 73
           0
 40
0.0
  0
LTYPE
  5
1D
100
AcDbSymbolTableRecord
100
AcDbLinetypeTableRecord
  2
GESTRICHELT
 70
           0
  3

 72
          65
 73
           2
 40
0.75
 49
0.5
 74
           0
 49
-0.25
 74
           0
  0
LTYPE
  5
1E
100
AcDbSymbolTableRecord
100
AcDbLinetypeTableRecord
  2
STRICHPUNKT
 70
           0
  3

 72
          65
 73
           4
 40
1.0
 49
0.5
 74
           0
 49
-0.25
 74
           0
 49
0.0
 74
           0
 49
-0.25
 74
           0
  0
ENDTAB
  0
TABLE
  2
LAYER
  5
2
100
AcDbSymbolTable
 70
           3
  0
LAYER
  5
14
100
AcDbSymbolTableRecord
100
AcDbLayerTableRecord
  2
0
 70
           0
 62
           7
  6
CONTINUOUS
  0
LAYER
  5
20
100
AcDbSymbolTableRecord
100
AcDbLayerTableRecord
  2
BLACK
 70
           0
 62
           7
  6
CONTINUOUS
  0
LAYER
  5
21
100
AcDbSymbolTableRecord
100
AcDbLayerTableRecord
  2
WHITE
 70
           0
 62
           7
  6
CONTINUOUS
  0
ENDTAB
  0
TABLE
  2
STYLE
  5
3
100
AcDbSymbolTable
 70
           2
  0
STYLE
  5
17
100
AcDbSymbolTableRecord
100
AcDbTextStyleTableRecord
  2
TXT
 70
           0
 40
3.5
 41
1.0
 50
0.0
 71
           0
 42
3.5
  3
TXT
  4

  0
STYLE
  5
1F
100
AcDbSymbolTableRecord
100
AcDbTextStyleTableRecord
  2
GOTHICG
 70
           0
 40
3.5
 41
1.0
 50
0.0
 71
           0
 42
3.5
  3
GOTHICG
  4

  0
ENDTAB
  0
TABLE
  2
VIEW
  5
5
100
AcDbSymbolTable
 70
           0
  0
ENDTAB
  0
TABLE
  2
UCS
  5
6
100
AcDbSymbolTable
 70
           0
  0
ENDTAB
  0
TABLE
  2
APPID
  5
8
100
AcDbSymbolTable
 70
           2
  0
APPID
  5
16
100
AcDbSymbolTableRecord
100
AcDbRegAppTableRecord
  2
ACAD
 70
           0
  0
APPID
  5
22
100
AcDbSymbolTableRecord
100
AcDbRegAppTableRecord
  2
MegaCADPntStyle
 70
           0
  0
ENDTAB
  0
TABLE
  2
DIMSTYLE
  5
9
100
AcDbSymbolTable
 70
           1
  0
DIMSTYLE
105
18
100
AcDbSymbolTableRecord
100
AcDbDimStyleTableRecord
  2
STANDARD
 70
           0
  3

  4

  5

  6

  7

 40
1.0
 41
0.18
 42
0.0625
 43
0.38
 44
0.18
 45
0.0
 46
0.0
 47
0.0
 48
0.0
140
0.18
141
0.09
142
0.0
143
25.4
144
1.0
145
0.0
146
1.0
147
0.09
 71
           0
 72
           0
 73
           1
 74
           1
 75
           0
 76
           0
 77
           0
 78
           0
170
           0
171
           2
172
           0
173
           0
174
           0
175
           0
176
           0
177
           0
178
           0
270
           2
271
           4
272
           4
273
           2
274
           2
340
17
275
           0
280
           0
281
           0
282
           0
283
           1
284
           0
285
           0
286
           0
287
           0
288
           0
  0
ENDTAB
  0
TABLE
  2
BLOCK_RECORD
  5
1
100
AcDbSymbolTable
 70
           2
  0
BLOCK_RECORD
  5
A
100
AcDbSymbolTableRecord
100
AcDbBlockTableRecord
  2
*MODEL_SPACE
  0
BLOCK_RECORD
  5
B
100
AcDbSymbolTableRecord
100
AcDbBlockTableRecord
  2
*PAPER_SPACE
  0
BLOCK_RECORD
  5
23
100
AcDbSymbolTableRecord
100
AcDbBlockTableRecord
  2
ELIPPSE
  0
BLOCK_RECORD
  5
24
100
AcDbSymbolTableRecord
100
AcDbBlockTableRecord
  2
MAK1
  0
ENDTAB
  0
ENDSEC
  0
SECTION
  2
BLOCKS
  0
BLOCK
  5
D
100
AcDbEntity
  8
0
100
AcDbBlockBegin
  2
*MODEL_SPACE
 70
           0
 10
0.0
 20
0.0
 30
0.0
  3
*MODEL_SPACE
  1

  0
ENDBLK
  5
E
100
AcDbEntity
  8
0
100
AcDbBlockEnd
  0
BLOCK
  5
F
100
AcDbEntity
 67
           1
  8
0
100
AcDbBlockBegin
  2
*PAPER_SPACE
 70
           0
 10
0.0
 20
0.0
 30
0.0
  3
*PAPER_SPACE
  1

  0
ENDBLK
  5
10
100
AcDbEntity
 67
           1
  8
0
100
AcDbBlockEnd
  0
BLOCK
  5
1EB
100
AcDbEntity
  8
0
100
AcDbBlockBegin
  2
ELIPPSE
 70
          64
 10
0.0
 20
0.0
 30
0.0
  3
ELIPPSE
  1

  0
CIRCLE
  5
1EC
100
AcDbEntity
  8
0
  6
BYBLOCK
 62
           0
100
AcDbCircle
 10
0.0
 20
0.0
 30
0.0
 40
1.0
  0
ENDBLK
  5
1ED
100
AcDbEntity
  8
0
  6
BYBLOCK
 62
           0
100
AcDbBlockEnd
  0
BLOCK
  5
1EE
100
AcDbEntity
  8
0
100
AcDbBlockBegin
  2
MAK1
 70
          64
 10
0.0
 20
0.0
 30
0.0
  3
MAK1
  1

  0
LINE
  5
1EF
100
AcDbEntity
  8
WHITE
  6
CONTINUOUS
 62
           2
100
AcDbLine
 10
-15.50693229743
 20
611.597948837688
 30
0.0
 11
-15.596491646589
 21
611.687508186849
 31
0.0
  0
LINE
  5
1F0
100
AcDbEntity
  8
WHITE
  6
CONTINUOUS
 62
           2
100
AcDbLine
 10
-14.44627212565
 20
611.597948837689
 30
0.0
 11
-15.596491646589
 21
612.748168358628
 31
0.0
  0
LINE
  5
1F1
100
AcDbEntity
  8
WHITE
  6
CONTINUOUS
 62
           2
100
AcDbLine
 10
-13.59649164659
 20
611.808828530409
 30
0.0
 11
-15.59649164659
 21
613.808828530408
 31
0.0
  0
LINE
  5
1F2
100
AcDbEntity
  8
WHITE
  6
CONTINUOUS
 62
           2
100
AcDbLine
 10
-13.596491646589
 20
612.869488702188
 30
0.0
 11
-15.596491646589
 21
614.869488702188
 31
0.0
  0
LINE
  5
1F3
100
AcDbEntity
  8
WHITE
  6
CONTINUOUS
 62
           2
100
AcDbLine
 10
-13.596491646591
 20
613.930148873968
 30
0.0
 11
-15.59649164659
 21
615.930148873968
 31
0.0
  0
LINE
  5
1F4
100
AcDbEntity
  8
WHITE
  6
CONTINUOUS
 62
           2
100
AcDbLine
 10
-13.59649164659
 20
614.990809045748
 30
0.0
 11
-15.596491646589
 21
616.990809045748
 31
0.0
  0
LINE
  5
1F5
100
AcDbEntity
  8
WHITE
  6
CONTINUOUS
 62
           2
100
AcDbLine
 10
-13.596491646589
 20
616.051469217528
 30
0.0
 11
-15.596491646589
 21
618.051469217527
 31
0.0
  0
LINE
  5
1F6
100
AcDbEntity
  8
WHITE
  6
CONTINUOUS
 62
           2
100
AcDbLine
 10
-13.596491646589
 20
617.112129389307
 30
0.0
 11
-15.596491646589
 21
619.112129389307
 31
0.0
  0
LINE
  5
1F7
100
AcDbEntity
  8
WHITE
  6
CONTINUOUS
 62
           2
100
AcDbLine
 10
-13.59649164659
 20
618.172789561087
 30
0.0
 11
-15.59649164659
 21
620.172789561087
 31
0.0
  0
LINE
  5
1F8
100
AcDbEntity
  8
WHITE
  6
CONTINUOUS
 62
           2
100
AcDbLine
 10
-13.59649164659
 20
619.233449732867
 30
0.0
 11
-15.59649164659
 21
621.233449732867
 31
0.0
  0
LINE
  5
1F9
100
AcDbEntity
  8
WHITE
  6
CONTINUOUS
 62
           2
100
AcDbLine
 10
-13.596491646589
 20
620.294109904647
 30
0.0
 11
-15.596491646589
 21
622.294109904647
 31
0.0
  0
LINE
  5
1FA
100
AcDbEntity
  8
WHITE
  6
CONTINUOUS
 62
           2
100
AcDbLine
 10
-13.596491646591
 20
621.354770076426
 30
0.0
 11
-15.596491646589
 21
623.354770076426
 31
0.0
  0
LINE
  5
1FB
100
AcDbEntity
  8
WHITE
  6
CONTINUOUS
 62
           2
100
AcDbLine
 10
-13.59649164659
 20
622.415430248206
 30
0.0
 11
-15.596491646589
 21
624.415430248206
 31
0.0
  0
LINE
  5
1FC
100
AcDbEntity
  8
WHITE
  6
CONTINUOUS
 62
           2
100
AcDbLine
 10
-13.596491646589
 20
623.476090419986
 30
0.0
 11
-15.596491646589
 21
625.476090419986
 31
0.0
  0
LINE
  5
1FD
100
AcDbEntity
  8
WHITE
  6
CONTINUOUS
 62
           2
100
AcDbLine
 10
-13.59649164659
 20
624.536750591766
 30
0.0
 11
-15.596491646589
 21
626.536750591766
 31
0.0
  0
LINE
  5
1FE
100
AcDbEntity
  8
WHITE
  6
CONTINUOUS
 62
           2
100
AcDbLine
 10
-13.59649164659
 20
625.597410763546
 30
0.0
 11
-15.59649164659
 21
627.597410763545
 31
0.0
  0
LINE
  5
1FF
100
AcDbEntity
  8
WHITE
  6
CONTINUOUS
 62
           2
100
AcDbLine
 10
-13.59649164659
 20
626.658070935325
 30
0.0
 11
-15.59649164659
 21
628.658070935325
 31
0.0
  0
LINE
  5
200
100
AcDbEntity
  8
WHITE
  6
CONTINUOUS
 62
           2
100
AcDbLine
 10
-13.596491646589
 20
627.718731107105
 30
0.0
 11
-15.596491646589
 21
629.718731107105
 31
0.0
  0
LINE
  5
201
100
AcDbEntity
  8
WHITE
  6
CONTINUOUS
 62
           2
100
AcDbLine
 10
-13.596491646591
 20
628.779391278885
 30
0.0
 11
-15.596491646589
 21
630.779391278885
 31
0.0
  0
LINE
  5
202
100
AcDbEntity
  8
WHITE
  6
CONTINUOUS
 62
           2
100
AcDbLine
 10
-13.596491646589
 20
629.840051450665
 30
0.0
 11
-15.354389033614
 21
631.597948837689
 31
0.0
  0
LINE
  5
203
100
AcDbEntity
  8
WHITE
  6
CONTINUOUS
 62
           2
100
AcDbLine
 10
-13.596491646589
 20
630.900711622444
 30
0.0
 11
-14.293728861833
 21
631.597948837689
 31
0.0
  0
LINE
  5
204
100
AcDbEntity
  8
WHITE
  6
CONTINUOUS
 62
           2
100
AcDbLine
 10
-15.59649164659
 20
631.406213139101
 30
0.0
 11
-15.404755948003
 21
631.597948837689
 31
0.0
  0
LINE
  5
205
100
AcDbEntity
  8
WHITE
  6
CONTINUOUS
 62
           2
100
AcDbLine
 10
-15.59649164659
 20
630.345552967322
 30
0.0
 11
-14.344095776223
 21
631.597948837689
 31
0.0
  0
LINE
  5
206
100
AcDbEntity
  8
WHITE
  6
CONTINUOUS
 62
           2
100
AcDbLine
 10
-15.596491646589
 20
629.284892795542
 30
0.0
 11
-13.596491646589
 21
631.284892795542
 31
0.0
  0
LINE
  5
207
100
AcDbEntity
  8
WHITE
  6
CONTINUOUS
 62
           2
100
AcDbLine
 10
-15.596491646589
 20
628.224232623762
 30
0.0
 11
-13.596491646589
 21
630.224232623762
 31
0.0
  0
LINE
  5
208
100
AcDbEntity
  8
WHITE
  6
CONTINUOUS
 62
           2
100
AcDbLine
 10
-15.59649164659
 20
627.163572451982
 30
0.0
 11
-13.596491646589
 21
629.163572451982
 31
0.0
  0
LINE
  5
209
100
AcDbEntity
  8
WHITE
  6
CONTINUOUS
 62
           2
100
AcDbLine
 10
-15.596491646588
 20
626.102912280202
 30
0.0
 11
-13.596491646591
 21
628.102912280202
 31
0.0
  0
LINE
  5
20A
100
AcDbEntity
  8
WHITE
  6
CONTINUOUS
 62
           2
100
AcDbLine
 10
-15.59649164659
 20
625.042252108423
 30
0.0
 11
-13.596491646589
 21
627.042252108422
 31
0.0
  0
LINE
  5
20B
100
AcDbEntity
  8
WHITE
  6
CONTINUOUS
 62
           2
100
AcDbLine
 10
-15.596491646589
 20
623.981591936643
 30
0.0
 11
-13.59649164659
 21
625.981591936642
 31
0.0
  0
LINE
  5
20C
100
AcDbEntity
  8
WHITE
  6
CONTINUOUS
 62
           2
100
AcDbLine
 10
-15.59649164659
 20
622.920931764863
 30
0.0
 11
-13.59649164659
 21
624.920931764863
 31
0.0
  0
LINE
  5
20D
100
AcDbEntity
  8
WHITE
  6
CONTINUOUS
 62
           2
100
AcDbLine
 10
-15.596491646589
 20
621.860271593083
 30
0.0
 11
-13.596491646589
 21
623.860271593083
 31
0.0
  0
LINE
  5
20E
100
AcDbEntity
  8
WHITE
  6
CONTINUOUS
 62
           2
100
AcDbLine
 10
-15.596491646589
 20
620.799611421303
 30
0.0
 11
-13.596491646589
 21
622.799611421303
 31
0.0
  0
LINE
  5
20F
100
AcDbEntity
  8
WHITE
  6
CONTINUOUS
 62
           2
100
AcDbLine
 10
-15.59649164659
 20
619.738951249523
 30
0.0
 11
-13.596491646589
 21
621.738951249524
 31
0.0
  0
LINE
  5
210
100
AcDbEntity
  8
WHITE
  6
CONTINUOUS
 62
           2
100
AcDbLine
 10
-15.596491646589
 20
618.678291077744
 30
0.0
 11
-13.596491646591
 21
620.678291077744
 31
0.0
  0
LINE
  5
211
100
AcDbEntity
  8
WHITE
  6
CONTINUOUS
 62
           2
100
AcDbLine
 10
-15.59649164659
 20
617.617630905964
 30
0.0
 11
-13.596491646589
 21
619.617630905964
 31
0.0
  0
LINE
  5
212
100
AcDbEntity
  8
WHITE
  6
CONTINUOUS
 62
           2
100
AcDbLine
 10
-15.596491646589
 20
616.556970734184
 30
0.0
 11
-13.59649164659
 21
618.556970734184
 31
0.0
  0
LINE
  5
213
100
AcDbEntity
  8
WHITE
  6
CONTINUOUS
 62
           2
100
AcDbLine
 10
-15.59649164659
 20
615.496310562405
 30
0.0
 11
-13.59649164659
 21
617.496310562405
 31
0.0
  0
LINE
  5
214
100
AcDbEntity
  8
WHITE
  6
CONTINUOUS
 62
           2
100
AcDbLine
 10
-15.596491646589
 20
614.435650390625
 30
0.0
 11
-13.596491646589
 21
616.435650390625
 31
0.0
  0
LINE
  5
215
100
AcDbEntity
  8
WHITE
  6
CONTINUOUS
 62
           2
100
AcDbLine
 10
-15.596491646589
 20
613.374990218845
 30
0.0
 11
-13.596491646589
 21
615.374990218845
 31
0.0
  0
LINE
  5
216
100
AcDbEntity
  8
WHITE
  6
CONTINUOUS
 62
           2
100
AcDbLine
 10
-15.59649164659
 20
612.314330047065
 30
0.0
 11
-13.59649164659
 21
614.314330047066
 31
0.0
  0
LINE
  5
217
100
AcDbEntity
  8
WHITE
  6
CONTINUOUS
 62
           2
100
AcDbLine
 10
-15.252212684186
 20
611.597948837689
 30
0.0
 11
-13.59649164659
 21
613.253669875285
 31
0.0
  0
LINE
  5
218
100
AcDbEntity
  8
WHITE
  6
CONTINUOUS
 62
           2
100
AcDbLine
 10
-14.191552512407
 20
611.597948837688
 30
0.0
 11
-13.596491646589
 21
612.193009703506
 31
0.0
  0
ENDBLK
  5
219
100
AcDbEntity
  8
0
  6
BYBLOCK
 62
           0
100
AcDbBlockEnd
  0
ENDSEC
  0
SECTION
  2
ENTITIES
  0
INSERT
  5
25
100
AcDbEntity
  8
0
  6
CONTINUOUS
 62
           7
100
AcDbBlockReference
  2
MAK1
 10
-4813.338246607442
 20
-2298.847298617848
 30
0.0
 50
353.589999999999
  0
LINE
  5
26
100
AcDbEntity
  8
0
  6
CONTINUOUS
 62
          15
100
AcDbLine
 10
-5089.905542290236
 20
-1513.966372267563
 30
0.0
 11
-4770.905542290236
 21
-1513.966372267563
 31
0.0
  0
LINE
  5
27
100
AcDbEntity
  8
0
  6
CONTINUOUS
 62
          15
100
AcDbLine
 10
-4770.905542290236
 20
-1741.466433267563
 30
0.0
 11
-4770.905542290236
 21
-1888.966372267563
 31
0.0
  0
LINE
  5
28
100
AcDbEntity
  8
0
  6
GESTRICHELT
 62
          15
100
AcDbLine
 10
-4770.905542290236
 20
-1654.760093705511
 30
0.0
 11
-4770.905542290236
 21
-1741.466433267563
 31
0.0
  0
LINE
  5
29
100
AcDbEntity
  8
0
  6
CONTINUOUS
 62
          15
100
AcDbLine
 10
-4770.905542290236
 20
-1513.966372267563
 30
0.0
 11
-4770.905542290236
 21
-1654.760093705511
 31
0.0
  0
LINE
  5
2A
100
AcDbEntity
  8
0
  6
CONTINUOUS
 62
          15
100
AcDbLine
 10
-4770.905542290236
 20
-1888.966372267563
 30
0.0
 11
-5089.905542290236
 21
-1888.966372267563
 31
0.0
  0
LINE
  5
2B
100
AcDbEntity
  8
0
  6
CONTINUOUS
 62
          15
100
AcDbLine
 10
-5089.905542290236
 20
-1676.466372267563
 30
0.0
 11
-5089.905542290236
 21
-1513.966372267563
 31
0.0
  0
LINE
  5
2C
100
AcDbEntity
  8
0
  6
GESTRICHELT
 62
          15
100
AcDbLine
 10
-5089.905542290236
 20
-1726.466372267563
 30
0.0
 11
-5089.905542290236
 21
-1676.466372267563
 31
0.0
  0
LINE
  5
2D
100
AcDbEntity
  8
0
  6
CONTINUOUS
 62
          15
100
AcDbLine
 10
-5089.905542290236
 20
-1888.966372267563
 30
0.0
 11
-5089.905542290236
 21
-1726.466372267563
 31
0.0
  0
LINE
  5
2E
100
AcDbEntity
  8
0
  6
STRICHPUNKT
 62
          15
100
AcDbLine
 10
-4930.405542290236
 20
-1513.966372267563
 30
0.0
 11
-4930.405542290236
 21
-1888.966372267563
 31
0.0
  0
LINE
  5
2F
100
AcDbEntity
  8
0
  6
GESTRICHELT
 62
          15
100
AcDbLine
 10
-5089.905542290236
 20
-1701.466372267563
 30
0.0
 11
-4770.905542290236
 21
-1701.466372267563
 31
0.0
  0
CIRCLE
  5
30
100
AcDbEntity
  8
0
  6
CONTINUOUS
 62
          15
100
AcDbCircle
 10
-4930.405542290236
 20
-1701.466372267563
 30
0.0
 40
10.25
  0
LINE
  5
31
100
AcDbEntity
  8
0
  6
GESTRICHELT
 62
          15
100
AcDbLine
 10
-4763.905542290236
 20
-1676.466372267563
 30
0.0
 11
-4763.905542290236
 21
-1726.466372267563
 31
0.0
  0
LINE
  5
32
100
AcDbEntity
  8
0
  6
CONTINUOUS
 62
          15
100
AcDbLine
 10
-5096.905542290236
 20
-1726.466372267563
 30
0.0
 11
-5096.905542290236
 21
-1676.466372267563
 31
0.0
  0
LINE
  5
33
100
AcDbEntity
  8
0
  6
GESTRICHELT
 62
          15
100
AcDbLine
 10
-4990.405542290237
 20
-1726.466372267563
 30
0.0
 11
-4763.905542290236
 21
-1726.466372267563
 31
0.0
  0
LINE
  5
34
100
AcDbEntity
  8
0
  6
CONTINUOUS
 62
          15
100
AcDbLine
 10
-5096.905542290236
 20
-1726.466372267563
 30
0.0
 11
-4990.405542290237
 21
-1726.466372267563
 31
0.0
  0
LINE
  5
35
100
AcDbEntity
  8
0
  6
GESTRICHELT
 62
          15
100
AcDbLine
 10
-4990.405542290237
 20
-1676.466372267563
 30
0.0
 11
-4763.905542290236
 21
-1676.466372267563
 31
0.0
  0
LINE
  5
36
100
AcDbEntity
  8
0
  6
CONTINUOUS
 62
          15
100
AcDbLine
 10
-5096.905542290236
 20
-1676.466372267563
 30
0.0
 11
-4990.405542290237
 21
-1676.466372267563
 31
0.0
  0
TEXT
  5
37
100
AcDbEntity
  8
0
  6
CONTINUOUS
 62
          15
100
AcDbText
 10
-5045.159493402125
 20
-1828.921719755031
 30
0.0
 40
3.5
  1
315-730
 41
0.900000010218
  7
GOTHICG
100
AcDbText
  0
CIRCLE
  5
38
100
AcDbEntity
  8
0
  6
GESTRICHELT
 62
          15
100
AcDbCircle
 10
-4930.405542290236
 20
-1701.466372267563
 30
0.0
 40
17.5
  0
ARC
  5
39
100
AcDbEntity
  8
0
  6
GESTRICHELT
 62
          15
100
AcDbCircle
 10
-4930.405542290237
 20
-1701.466372267563
 30
0.0
 40
22.5
100
AcDbArc
 50
109.064916387402
 51
186.057558731017
  0
ARC
  5
3A
100
AcDbEntity
  8
0
  6
CONTINUOUS
 62
          15
100
AcDbCircle
 10
-4930.405542290237
 20
-1701.466372267563
 30
0.0
 40
22.5
100
AcDbArc
 50
186.057558731017
 51
109.064916387402
  0
CIRCLE
  5
3B
100
AcDbEntity
  8
0
  6
CONTINUOUS
 62
          15
100
AcDbCircle
 10
-4533.995386290237
 20
-1701.466372267563
 30
0.0
 40
6.25
  0
LINE
  5
3C
100
AcDbEntity
  8
0
  6
GESTRICHELT
 62
          15
100
AcDbLine
 10
-4800.783520332041
 20
-1661.466369882293
 30
0.0
 11
-4990.405542290237
 21
-1661.466447615338
 31
0.0
  0
LINE
  5
3D
100
AcDbEntity
  8
0
  6
CONTINUOUS
 62
          15
100
AcDbLine
 10
-4792.143516796052
 20
-1661.466366340438
 30
0.0
 11
-4800.783520332041
 21
-1661.466369882293
 31
0.0
  0
LINE
  5
3E
100
AcDbEntity
  8
0
  6
GESTRICHELT
 62
          15
100
AcDbLine
 10
-4608.205017697952
 20
-1661.466290937279
 30
0.0
 11
-4792.143516796052
 21
-1661.466366340438
 31
0.0
  0
LINE
  5
3F
100
AcDbEntity
  8
0
  6
CONTINUOUS
 62
          15
100
AcDbLine
 10
-4493.995386290237
 20
-1661.466244118548
 30
0.0
 11
-4608.205017697952
 21
-1661.466290937279
 31
0.0
  0
LINE
  5
40
100
AcDbEntity
  8
0
  6
CONTINUOUS
 62
          15
100
AcDbLine
 10
-4990.405542290237
 20
-1741.466433267563
 30
0.0
 11
-4493.995386290237
 21
-1741.466433267563
 31
0.0
  0
LINE
  5
41
100
AcDbEntity
  8
0
  6
CONTINUOUS
 62
          15
100
AcDbLine
 10
-4493.995386290237
 20
-1741.466433267563
 30
0.0
 11
-4493.995386290237
 21
-1661.466244118548
 31
0.0
  0
LINE
  5
42
100
AcDbEntity
  8
0
  6
CONTINUOUS
 62
          15
100
AcDbLine
 10
-4990.405542290237
 20
-1666.215109609092
 30
0.0
 11
-4990.405542290237
 21
-1741.466433267563
 31
0.0
  0
LINE
  5
43
100
AcDbEntity
  8
0
  6
GESTRICHELT
 62
          15
100
AcDbLine
 10
-4990.405542290237
 20
-1661.466447615338
 30
0.0
 11
-4990.405542290237
 21
-1666.215109609092
 31
0.0
  0
LINE
  5
44
100
AcDbEntity
  8
WHITE
  6
GESTRICHELT
 62
          15
100
AcDbLine
 10
-4969.649968646089
 20
-1637.473208570181
 30
0.0
 11
-4965.250930788214
 21
-1641.86704353636
 31
0.0
  0
LINE
  5
45
100
AcDbEntity
  8
WHITE
  6
CONTINUOUS
 62
          15
100
AcDbLine
 10
-4966.106994925024
 20
-1669.05671584959
 30
0.0
 11
-4966.114434740157
 21
-1669.293013723576
 31
0.0
  0
LINE
  5
46
100
AcDbEntity
  8
WHITE
  6
GESTRICHELT
 62
          15
100
AcDbLine
 10
-4965.250930788214
 20
-1641.86704353636
 30
0.0
 11
-4966.106994925024
 21
-1669.05671584959
 31
0.0
  0
LINE
  5
47
100
AcDbEntity
  8
WHITE
  6
CONTINUOUS
 62
          15
100
AcDbLine
 10
-4966.114434740157
 20
-1669.293013723576
 30
0.0
 11
-4920.152493963031
 21
-1686.970683253239
 31
0.0
  0
LINE
  5
48
100
AcDbEntity
  8
WHITE
  6
CONTINUOUS
 62
          15
100
AcDbLine
 10
-4920.152493963031
 20
-1686.970683253239
 30
0.0
 11
-4916.616960057098
 21
-1690.506217159172
 31
0.0
  0
ARC
  5
49
100
AcDbEntity
  8
WHITE
  6
CONTINUOUS
 62
          15
100
AcDbCircle
 10
-4927.223561774896
 20
-1701.11281887697
 30
0.0
 40
15.0
100
AcDbArc
 50
314.999999999999
 51
45.0
  0
LINE
  5
4A
100
AcDbEntity
  8
WHITE
  6
CONTINUOUS
 62
          15
100
AcDbLine
 10
-4916.616960057098
 20
-1711.719420594768
 30
0.0
 11
-4920.152493963031
 21
-1715.254954500701
 31
0.0
  0
ARC
  5
4B
100
AcDbEntity
  8
WHITE
  6
CONTINUOUS
 62
          15
100
AcDbCircle
 10
-4930.759095680829
 20
-1704.648352782903
 30
0.0
 40
15.0
100
AcDbArc
 50
224.999999999999
 51
314.999999999999
  0
LINE
  5
4C
100
AcDbEntity
  8
WHITE
  6
GESTRICHELT
 62
          15
100
AcDbLine
 10
-4990.27960024883
 20
-1666.341051650498
 30
0.0
 11
-4994.398705987618
 21
-1662.22194591171
 31
0.0
  0
LINE
  5
4D
100
AcDbEntity
  8
WHITE
  6
CONTINUOUS
 62
          15
100
AcDbLine
 10
-4941.365697398627
 20
-1715.254954500701
 30
0.0
 11
-4990.27960024883
 21
-1666.341051650498
 31
0.0
  0
ARC
  5
4E
100
AcDbEntity
  8
WHITE
  6
GESTRICHELT
 62
          15
100
AcDbCircle
 10
-4983.79210426982
 20
-1651.615344193912
 30
0.0
 40
15.0
100
AcDbArc
 50
135.0
 51
225.0
  0
LINE
  5
4F
100
AcDbEntity
  8
WHITE
  6
GESTRICHELT
 62
          15
100
AcDbLine
 10
-4994.398705987618
 20
-1641.008742476113
 30
0.0
 11
-4990.863172081686
 21
-1637.473208570181
 31
0.0
  0
ARC
  5
50
100
AcDbEntity
  8
WHITE
  6
GESTRICHELT
 62
          15
100
AcDbCircle
 10
-4980.256570363888
 20
-1648.079810287979
 30
0.0
 40
15.0
100
AcDbArc
 50
115.494701449336
 51
135.0
  0
ARC
  5
51
100
AcDbEntity
  8
WHITE
  6
CONTINUOUS
 62
          15
100
AcDbCircle
 10
-4980.256570363888
 20
-1648.079810287979
 30
0.0
 40
15.0
100
AcDbArc
 50
51.685298550662
 51
115.494701449336
  0
ARC
  5
52
100
AcDbEntity
  8
WHITE
  6
GESTRICHELT
 62
          15
100
AcDbCircle
 10
-4980.256570363888
 20
-1648.079810287979
 30
0.0
 40
15.0
100
AcDbArc
 50
45.0
 51
51.685298550662
  0
CIRCLE
  5
53
100
AcDbEntity
  8
WHITE
  6
CONTINUOUS
 62
          15
100
AcDbCircle
 10
-4980.610123754481
 20
-1651.261790803319
 30
0.0
 40
8.25
  0
LINE
  5
54
100
AcDbEntity
  8
BLACK
  6
GESTRICHELT
 62
          15
100
AcDbLine
 10
-4556.855499255502
 20
-1698.933300086305
 30
0.0
 11
-4554.62265174091
 21
-1679.058331105786
 31
0.0
  0
LINE
  5
55
100
AcDbEntity
  8
BLACK
  6
GESTRICHELT
 62
          15
100
AcDbLine
 10
-4554.62265174091
 20
-1679.058331105786
 30
0.0
 11
-4558.597645537013
 21
-1678.611761602868
 31
0.0
  0
LINE
  5
56
100
AcDbEntity
  8
BLACK
  6
CONTINUOUS
 62
          15
100
AcDbLine
 10
-4557.257937028258
 20
-1666.686780214556
 30
0.0
 11
-4586.672891119426
 21
-1663.382165892961
 31
0.0
  0
LINE
  5
57
100
AcDbEntity
  8
BLACK
  6
CONTINUOUS
 62
          15
100
AcDbLine
 10
-4586.672891119426
 20
-1663.382165892961
 30
0.0
 11
-4586.728712307291
 21
-1663.879040117474
 31
0.0
  0
LINE
  5
58
100
AcDbEntity
  8
BLACK
  6
CONTINUOUS
 62
          15
100
AcDbLine
 10
-4586.728712307291
 20
-1663.879040117474
 30
0.0
 11
-4732.610984624298
 21
-1647.489939360372
 31
0.0
  0
LINE
  5
59
100
AcDbEntity
  8
BLACK
  6
CONTINUOUS
 62
          15
100
AcDbLine
 10
-4732.610984624298
 20
-1647.489939360372
 30
0.0
 11
-4732.555163436433
 21
-1646.993065135859
 31
0.0
  0
LINE
  5
5A
100
AcDbEntity
  8
BLACK
  6
CONTINUOUS
 62
          15
100
AcDbLine
 10
-4732.555163436433
 20
-1646.993065135859
 30
0.0
 11
-4761.970117527601
 21
-1643.688450814264
 31
0.0
  0
LINE
  5
5B
100
AcDbEntity
  8
BLACK
  6
CONTINUOUS
 62
          15
100
AcDbLine
 10
-4761.970117527601
 20
-1643.688450814264
 30
0.0
 11
-4763.309826036357
 21
-1655.613432202575
 31
0.0
  0
LINE
  5
5C
100
AcDbEntity
  8
BLACK
  6
CONTINUOUS
 62
          15
100
AcDbLine
 10
-4763.309826036357
 20
-1655.613432202575
 30
0.0
 11
-4774.737933200155
 21
-1654.329544881685
 31
0.0
  0
LINE
  5
5D
100
AcDbEntity
  8
BLACK
  6
CONTINUOUS
 62
          15
100
AcDbLine
 10
-4774.737933200155
 20
-1654.329544881685
 30
0.0
 11
-4774.849575575885
 21
-1655.323293330711
 31
0.0
  0
LINE
  5
5E
100
AcDbEntity
  8
BLACK
  6
CONTINUOUS
 62
          15
100
AcDbLine
 10
-4774.849575575885
 20
-1655.323293330711
 30
0.0
 11
-4791.246424984813
 21
-1653.481194131173
 31
0.0
  0
LINE
  5
5F
100
AcDbEntity
  8
BLACK
  6
CONTINUOUS
 62
          15
100
AcDbLine
 10
-4791.246424984813
 20
-1653.481194131173
 30
0.0
 11
-4795.488835262537
 21
-1691.243635194158
 31
0.0
  0
LINE
  5
60
100
AcDbEntity
  8
BLACK
  6
CONTINUOUS
 62
          15
100
AcDbLine
 10
-4795.488835262537
 20
-1691.243635194158
 30
0.0
 11
-4779.091985853608
 21
-1693.085734393696
 31
0.0
  0
LINE
  5
61
100
AcDbEntity
  8
BLACK
  6
CONTINUOUS
 62
          15
100
AcDbLine
 10
-4779.091985853608
 20
-1693.085734393696
 30
0.0
 11
-4779.203628229338
 21
-1694.079482842722
 31
0.0
  0
LINE
  5
62
100
AcDbEntity
  8
BLACK
  6
CONTINUOUS
 62
          15
100
AcDbLine
 10
-4779.203628229338
 20
-1694.079482842722
 30
0.0
 11
-4767.77552106554
 21
-1695.363370163612
 31
0.0
  0
LINE
  5
63
100
AcDbEntity
  8
BLACK
  6
CONTINUOUS
 62
          15
100
AcDbLine
 10
-4767.77552106554
 20
-1695.363370163612
 30
0.0
 11
-4769.115229574294
 21
-1707.288351551924
 31
0.0
  0
LINE
  5
64
100
AcDbEntity
  8
BLACK
  6
GESTRICHELT
 62
          15
100
AcDbLine
 10
-4759.177745084036
 20
-1708.404775309219
 30
0.0
 11
-4739.700275483127
 21
-1710.592965873519
 31
0.0
  0
LINE
  5
65
100
AcDbEntity
  8
BLACK
  6
CONTINUOUS
 62
          15
100
AcDbLine
 10
-4769.115229574294
 20
-1707.288351551924
 30
0.0
 11
-4759.177745084036
 21
-1708.404775309219
 31
0.0
  0
LINE
  5
66
100
AcDbEntity
  8
BLACK
  6
GESTRICHELT
 62
          15
100
AcDbLine
 10
-4739.700275483127
 20
-1710.592965873519
 30
0.0
 11
-4739.644454295261
 21
-1710.096091649006
 31
0.0
  0
LINE
  5
67
100
AcDbEntity
  8
BLACK
  6
CONTINUOUS
 62
          15
100
AcDbLine
 10
-4731.296967323444
 20
-1711.033887605134
 30
0.0
 11
-4593.762181978254
 21
-1726.485192406108
 31
0.0
  0
LINE
  5
68
100
AcDbEntity
  8
BLACK
  6
GESTRICHELT
 62
          15
100
AcDbLine
 10
-4739.644454295261
 20
-1710.096091649006
 30
0.0
 11
-4731.296967323444
 21
-1711.033887605134
 31
0.0
  0
LINE
  5
69
100
AcDbEntity
  8
BLACK
  6
CONTINUOUS
 62
          15
100
AcDbLine
 10
-4593.762181978254
 20
-1726.485192406108
 30
0.0
 11
-4593.818003166119
 21
-1726.982066630621
 31
0.0
  0
LINE
  5
6A
100
AcDbEntity
  8
BLACK
  6
CONTINUOUS
 62
          15
100
AcDbLine
 10
-4593.818003166119
 20
-1726.982066630621
 30
0.0
 11
-4564.403049074952
 21
-1730.286680952216
 31
0.0
  0
LINE
  5
6B
100
AcDbEntity
  8
BLACK
  6
GESTRICHELT
 62
          15
100
AcDbLine
 10
-4563.063340566197
 20
-1718.361699563905
 30
0.0
 11
-4559.088346770093
 21
-1718.808269066823
 31
0.0
  0
LINE
  5
6C
100
AcDbEntity
  8
BLACK
  6
GESTRICHELT
 62
          15
100
AcDbLine
 10
-4559.088346770093
 20
-1718.808269066823
 30
0.0
 11
-4556.855499255502
 21
-1698.933300086305
 31
0.0
  0
LINE
  5
6D
100
AcDbEntity
  8
BLACK
  6
CONTINUOUS
 62
          15
100
AcDbLine
 10
-4586.728712307291
 20
-1663.879040117474
 30
0.0
 11
-4593.762181978254
 21
-1726.485192406108
 31
0.0
  0
LINE
  5
6E
100
AcDbEntity
  8
BLACK
  6
GESTRICHELT
 62
          15
100
AcDbLine
 10
-4735.124143240743
 20
-1669.860006827386
 30
0.0
 11
-4739.644454295261
 21
-1710.096091649006
 31
0.0
  0
LINE
  5
6F
100
AcDbEntity
  8
BLACK
  6
CONTINUOUS
 62
          15
100
AcDbLine
 10
-4732.610984624298
 20
-1647.489939360372
 30
0.0
 11
-4735.124143240743
 21
-1669.860006827386
 31
0.0
  0
LINE
  5
70
100
AcDbEntity
  8
BLACK
  6
CONTINUOUS
 62
          15
100
AcDbLine
 10
-4763.309826036357
 20
-1655.613432202575
 30
0.0
 11
-4767.77552106554
 21
-1695.363370163612
 31
0.0
  0
LINE
  5
71
100
AcDbEntity
  8
BLACK
  6
CONTINUOUS
 62
          15
100
AcDbLine
 10
-4774.737933200155
 20
-1654.329544881685
 30
0.0
 11
-4779.203628229338
 21
-1694.079482842722
 31
0.0
  0
LINE
  5
72
100
AcDbEntity
  8
BLACK
  6
GESTRICHELT
 62
          15
100
AcDbLine
 10
-4908.190833417053
 20
-1651.412308803421
 30
0.0
 11
-4932.582985571159
 21
-1648.671979680583
 31
0.0
  0
LINE
  5
73
100
AcDbEntity
  8
BLACK
  6
CONTINUOUS
 62
          15
100
AcDbLine
 10
-4901.697383150278
 20
-1652.14181355402
 30
0.0
 11
-4908.190833417053
 21
-1651.412308803421
 31
0.0
  0
LINE
  5
74
100
AcDbEntity
  8
BLACK
  6
GESTRICHELT
 62
          15
100
AcDbLine
 10
-4909.977111428727
 20
-1667.312283987836
 30
0.0
 11
-4934.369263582832
 21
-1664.571954864998
 31
0.0
  0
LINE
  5
75
100
AcDbEntity
  8
BLACK
  6
CONTINUOUS
 62
          15
100
AcDbLine
 10
-4903.483661161952
 20
-1668.041788738435
 30
0.0
 11
-4909.977111428727
 21
-1667.312283987836
 31
0.0
  0
LINE
  5
76
100
AcDbEntity
  8
BLACK
  6
GESTRICHELT
 62
          15
100
AcDbLine
 10
-4933.600060134711
 20
-1649.48364522856
 30
0.0
 11
-4932.582985571159
 21
-1648.671979680583
 31
0.0
  0
LINE
  5
77
100
AcDbEntity
  8
BLACK
  6
GESTRICHELT
 62
          15
100
AcDbLine
 10
-4935.180884915178
 20
-1663.554845017202
 30
0.0
 11
-4934.369263582832
 21
-1664.571954864998
 31
0.0
  0
LINE
  5
78
100
AcDbEntity
  8
BLACK
  6
GESTRICHELT
 62
          15
100
AcDbLine
 10
-4933.600060134711
 20
-1649.48364522856
 30
0.0
 11
-4935.180884915178
 21
-1663.554845017202
 31
0.0
  0
LINE
  5
79
100
AcDbEntity
  8
BLACK
  6
CONTINUOUS
 62
          15
100
AcDbLine
 10
-4908.293560032657
 20
-1652.326696501308
 30
0.0
 11
-4901.800109765882
 21
-1653.056201251907
 31
0.0
  0
LINE
  5
7A
100
AcDbEntity
  8
BLACK
  6
GESTRICHELT
 62
          15
100
AcDbLine
 10
-4933.600060134711
 20
-1649.48364522856
 30
0.0
 11
-4908.293560032657
 21
-1652.326696501308
 31
0.0
  0
LINE
  5
7B
100
AcDbEntity
  8
BLACK
  6
CONTINUOUS
 62
          15
100
AcDbLine
 10
-4909.874384813124
 20
-1666.39789628995
 30
0.0
 11
-4903.380934546348
 21
-1667.127401040548
 31
0.0
  0
LINE
  5
7C
100
AcDbEntity
  8
BLACK
  6
GESTRICHELT
 62
          15
100
AcDbLine
 10
-4935.180884915178
 20
-1663.554845017202
 30
0.0
 11
-4909.874384813124
 21
-1666.39789628995
 31
0.0
  0
LINE
  5
7D
100
AcDbEntity
  8
BLACK
  6
GESTRICHELT
 62
          15
100
AcDbLine
 10
-4932.582985571159
 20
-1648.671979680583
 30
0.0
 11
-4934.369263582832
 21
-1664.571954864998
 31
0.0
  0
LINE
  5
7E
100
AcDbEntity
  8
BLACK
  6
CONTINUOUS
 62
          15
100
AcDbLine
 10
-4792.251206366378
 20
-1662.424930172406
 30
0.0
 11
-4901.47409839882
 21
-1650.154316655968
 31
0.0
  0
LINE
  5
7F
100
AcDbEntity
  8
BLACK
  6
CONTINUOUS
 62
          15
100
AcDbLine
 10
-4901.47409839882
 20
-1650.154316655968
 30
0.0
 11
-4903.706945913411
 21
-1670.029285636487
 31
0.0
  0
LINE
  5
80
100
AcDbEntity
  8
BLACK
  6
CONTINUOUS
 62
          15
100
AcDbLine
 10
-4903.706945913411
 20
-1670.029285636487
 30
0.0
 11
-4794.48405388097
 21
-1682.299899152925
 31
0.0
  0
LINE
  5
81
100
AcDbEntity
  8
BLACK
  6
CONTINUOUS
 62
          15
100
AcDbLine
 10
-4902.002409099976
 20
-1654.856903253995
 30
0.0
 11
-4895.377416127307
 21
-1655.601186131001
 31
0.0
  0
LINE
  5
82
100
AcDbEntity
  8
BLACK
  6
CONTINUOUS
 62
          15
100
AcDbLine
 10
-4903.178635212254
 20
-1665.32669903846
 30
0.0
 11
-4896.553642239586
 21
-1666.070981915465
 31
0.0
  0
LINE
  5
83
100
AcDbEntity
  8
BLACK
  6
CONTINUOUS
 62
          15
100
AcDbLine
 10
-4895.377416127307
 20
-1655.601186131001
 30
0.0
 11
-4896.553642239586
 21
-1666.070981915465
 31
0.0
  0
LINE
  5
84
100
AcDbEntity
  8
BLACK
  6
CONTINUOUS
 62
          15
100
AcDbLine
 10
-4902.002409099976
 20
-1654.856903253995
 30
0.0
 11
-4896.553642239586
 21
-1666.070981915465
 31
0.0
  0
LINE
  5
85
100
AcDbEntity
  8
BLACK
  6
CONTINUOUS
 62
          15
100
AcDbLine
 10
-4895.377416127307
 20
-1655.601186131001
 30
0.0
 11
-4903.178635212254
 21
-1665.32669903846
 31
0.0
  0
CIRCLE
  5
86
100
AcDbEntity
  8
BLACK
  6
GESTRICHELT
 62
          15
100
AcDbCircle
 10
-4752.579155458287
 20
-1685.498256260028
 30
0.0
 40
5.7225
  0
ARC
  5
87
100
AcDbEntity
  8
BLACK
  6
GESTRICHELT
 62
          15
100
AcDbCircle
 10
-4752.579155458287
 20
-1685.498256260028
 30
0.0
 40
6.5785
100
AcDbArc
 50
103.59
 51
13.59
  0
CIRCLE
  5
88
100
AcDbEntity
  8
BLACK
  6
CONTINUOUS
 62
          15
100
AcDbCircle
 10
-4573.794011144267
 20
-1688.476875506452
 30
0.0
 40
5.7225
  0
ARC
  5
89
100
AcDbEntity
  8
BLACK
  6
CONTINUOUS
 62
          15
100
AcDbCircle
 10
-4573.794011144267
 20
-1688.476875506452
 30
0.0
 40
6.57849
100
AcDbArc
 50
103.59
 51
13.59
  0
LINE
  5
8A
100
AcDbEntity
  8
BLACK
  6
GESTRICHELT
 62
          15
100
AcDbLine
 10
-4746.340395410103
 20
-1668.994994036415
 30
0.0
 11
-4749.586148262753
 21
-1671.585113975714
 31
0.0
  0
LINE
  5
8B
100
AcDbEntity
  8
BLACK
  6
CONTINUOUS
 62
          15
100
AcDbLine
 10
-4740.280195642808
 20
-1664.158937513938
 30
0.0
 11
-4746.340395410103
 21
-1668.994994036415
 31
0.0
  0
LINE
  5
8C
100
AcDbEntity
  8
BLACK
  6
GESTRICHELT
 62
          15
100
AcDbLine
 10
-4748.533345571081
 20
-1668.825870704435
 30
0.0
 11
-4750.521803756818
 21
-1670.412675615318
 31
0.0
  0
LINE
  5
8D
100
AcDbEntity
  8
BLACK
  6
CONTINUOUS
 62
          15
100
AcDbLine
 10
-4741.215845554752
 20
-1662.986449466119
 30
0.0
 11
-4748.533345571081
 21
-1668.825870704435
 31
0.0
  0
ARC
  5
8E
100
AcDbEntity
  8
BLACK
  6
CONTINUOUS
 62
          15
100
AcDbCircle
 10
-4745.400997466964
 20
-1667.285786689659
 30
0.0
 40
6.0
100
AcDbArc
 50
338.368688099555
 51
192.811311900445
  0
ARC
  5
8F
100
AcDbEntity
  8
BLACK
  6
GESTRICHELT
 62
          15
100
AcDbCircle
 10
-4745.400997466964
 20
-1667.285786689659
 30
0.0
 40
6.0
100
AcDbArc
 50
192.811311900445
 51
338.368688099555
  0
LINE
  5
90
100
AcDbEntity
  8
BLACK
  6
CONTINUOUS
 62
          15
100
AcDbLine
 10
-4575.851064721201
 20
-1703.562489643875
 30
0.0
 11
-4585.157321047799
 21
-1710.98868230036
 31
0.0
  0
LINE
  5
91
100
AcDbEntity
  8
BLACK
  6
CONTINUOUS
 62
          15
100
AcDbLine
 10
-4576.787018339799
 20
-1702.390017790767
 30
0.0
 11
-4586.09326908428
 21
-1709.816160759829
 31
0.0
  0
CIRCLE
  5
92
100
AcDbEntity
  8
BLACK
  6
CONTINUOUS
 62
          15
100
AcDbCircle
 10
-4580.972169135587
 20
-1706.689345076821
 30
0.0
 40
6.0
  0
LINE
  5
93
100
AcDbEntity
  8
BLACK
  6
CONTINUOUS
 62
          15
100
AcDbLine
 10
-4908.026288087181
 20
-1645.537150181357
 30
0.0
 11
-4911.506892029895
 21
-1645.146122760364
 31
0.0
  0
LINE
  5
94
100
AcDbEntity
  8
BLACK
  6
CONTINUOUS
 62
          15
100
AcDbLine
 10
-4914.987495972608
 20
-1644.755095339371
 30
0.0
 11
-4911.506892029895
 21
-1645.146122760364
 31
0.0
  0
LINE
  5
95
100
AcDbEntity
  8
BLACK
  6
CONTINUOUS
 62
          15
100
AcDbLine
 10
-4918.081508116627
 20
-1672.295442356297
 30
0.0
 11
-4914.600904173914
 21
-1672.686469777289
 31
0.0
  0
LINE
  5
96
100
AcDbEntity
  8
BLACK
  6
CONTINUOUS
 62
          15
100
AcDbLine
 10
-4911.1203002312
 20
-1673.077497198282
 30
0.0
 11
-4914.600904173914
 21
-1672.686469777289
 31
0.0
  0
LINE
  5
97
100
AcDbEntity
  8
BLACK
  6
CONTINUOUS
 62
          15
100
AcDbLine
 10
-4908.799790006762
 20
-1652.422226998104
 30
0.0
 11
-4912.280393949475
 21
-1652.031199577111
 31
0.0
  0
LINE
  5
98
100
AcDbEntity
  8
BLACK
  6
CONTINUOUS
 62
          15
100
AcDbLine
 10
-4915.760997892188
 20
-1651.640172156118
 30
0.0
 11
-4912.280393949475
 21
-1652.031199577111
 31
0.0
  0
LINE
  5
99
100
AcDbEntity
  8
BLACK
  6
CONTINUOUS
 62
          15
100
AcDbLine
 10
-4917.308006197046
 20
-1665.41036553955
 30
0.0
 11
-4913.827402254333
 21
-1665.801392960542
 31
0.0
  0
LINE
  5
9A
100
AcDbEntity
  8
BLACK
  6
CONTINUOUS
 62
          15
100
AcDbLine
 10
-4910.346798311619
 20
-1666.192420381535
 30
0.0
 11
-4913.827402254333
 21
-1665.801392960542
 31
0.0
  0
ARC
  5
9B
100
AcDbEntity
  8
BLACK
  6
CONTINUOUS
 62
          15
100
AcDbCircle
 10
-4957.7599577028
 20
-1653.893807219166
 30
0.0
 40
48.982200000031
100
AcDbArc
 50
354.449437000001
 51
1.721609999997
  0
ARC
  5
9C
100
AcDbEntity
  8
BLACK
  6
CONTINUOUS
 62
          15
100
AcDbCircle
 10
-4868.347838501048
 20
-1663.938785318481
 30
0.0
 40
48.982199999991
100
AcDbArc
 50
165.458000000003
 51
172.731000000004
  0
ARC
  5
9D
100
AcDbEntity
  8
BLACK
  6
CONTINUOUS
 62
          15
100
AcDbCircle
 10
-4868.347838501048
 20
-1663.938785318488
 30
0.0
 40
48.982199999991
100
AcDbArc
 50
174.448999999995
 51
181.721999999996
  0
ARC
  5
9E
100
AcDbEntity
  8
BLACK
  6
CONTINUOUS
 62
          15
100
AcDbCircle
 10
-4957.7599577028
 20
-1653.893807219162
 30
0.0
 40
48.982200000031
100
AcDbArc
 50
345.458390000002
 51
352.730562999997
  0
LINE
  5
9F
100
AcDbEntity
  8
BLACK
  6
CONTINUOUS
 62
          15
100
AcDbLine
 10
-4909.007413716057
 20
-1658.631569414572
 30
0.0
 11
-4909.08397242289
 21
-1659.362296395629
 31
0.0
  0
LINE
  5
A0
100
AcDbEntity
  8
BLACK
  6
CONTINUOUS
 62
          15
100
AcDbLine
 10
-4916.936333841145
 20
-1657.740797227101
 30
0.0
 11
-4917.023823780918
 21
-1658.470296142025
 31
0.0
  0
LINE
  5
A1
100
AcDbEntity
  8
BLACK
  6
CONTINUOUS
 62
          15
100
AcDbLine
 10
-4917.10038248775
 20
-1659.201023123081
 30
0.0
 11
-4917.023823780918
 21
-1658.470296142025
 31
0.0
  0
LINE
  5
A2
100
AcDbEntity
  8
BLACK
  6
CONTINUOUS
 62
          15
100
AcDbLine
 10
-4909.171462362663
 20
-1660.091795310553
 30
0.0
 11
-4909.08397242289
 21
-1659.362296395629
 31
0.0
  0
ARC
  5
A3
100
AcDbEntity
  8
BLACK
  6
CONTINUOUS
 62
          15
100
AcDbCircle
 10
-4920.645089264222
 20
-1647.605487555622
 30
0.0
 40
12.801499999978
100
AcDbArc
 50
337.871499999983
 51
353.59000000001
  0
ARC
  5
A4
100
AcDbEntity
  8
BLACK
  6
CONTINUOUS
 62
          15
100
AcDbCircle
 10
-4903.14215808161
 20
-1649.571849185037
 30
0.0
 40
12.787200000002
100
AcDbArc
 50
173.59
 51
189.308999999996
  0
ARC
  5
A5
100
AcDbEntity
  8
BLACK
  6
CONTINUOUS
 62
          15
100
AcDbCircle
 10
-4905.462667189613
 20
-1670.227109447736
 30
0.0
 40
12.801500000013
100
AcDbArc
 50
157.871000000002
 51
173.589999999986
  0
ARC
  5
A6
100
AcDbEntity
  8
BLACK
  6
CONTINUOUS
 62
          15
100
AcDbCircle
 10
-4922.965598372289
 20
-1668.260747818312
 30
0.0
 40
12.78720000003
100
AcDbArc
 50
353.590000000019
 51
9.308499999982
  0
ARC
  5
A7
100
AcDbEntity
  8
BLACK
  6
CONTINUOUS
 62
          15
100
AcDbCircle
 10
-4920.645089264274
 20
-1647.605487555618
 30
0.0
 40
12.78720000003
100
AcDbArc
 50
353.590000000019
 51
9.308499999982
  0
ARC
  5
A8
100
AcDbEntity
  8
BLACK
  6
CONTINUOUS
 62
          15
100
AcDbCircle
 10
-4903.142158081599
 20
-1649.571849185042
 30
0.0
 40
12.801500000013
100
AcDbArc
 50
157.871000000002
 51
173.589999999986
  0
ARC
  5
A9
100
AcDbEntity
  8
BLACK
  6
CONTINUOUS
 62
          15
100
AcDbCircle
 10
-4905.462667189624
 20
-1670.227109447731
 30
0.0
 40
12.787200000002
100
AcDbArc
 50
173.59
 51
189.308999999996
  0
ARC
  5
AA
100
AcDbEntity
  8
BLACK
  6
CONTINUOUS
 62
          15
100
AcDbCircle
 10
-4922.965598372237
 20
-1668.260747818316
 30
0.0
 40
12.801499999978
100
AcDbArc
 50
337.871499999983
 51
353.59000000001
  0
LINE
  5
AB
100
AcDbEntity
  8
BLACK
  6
CONTINUOUS
 62
          15
100
AcDbLine
 10
-4907.923717868884
 20
-1649.034666264282
 30
0.0
 11
-4909.08397242289
 21
-1659.362296395629
 31
0.0
  0
LINE
  5
AC
100
AcDbEntity
  8
BLACK
  6
CONTINUOUS
 62
          15
100
AcDbLine
 10
-4915.863569226911
 20
-1648.142666010677
 30
0.0
 11
-4917.023823780918
 21
-1658.470296142025
 31
0.0
  0
LINE
  5
AD
100
AcDbEntity
  8
BLACK
  6
CONTINUOUS
 62
          15
100
AcDbLine
 10
-4918.184078334925
 20
-1668.797926273371
 30
0.0
 11
-4917.023823780918
 21
-1658.470296142025
 31
0.0
  0
LINE
  5
AE
100
AcDbEntity
  8
BLACK
  6
CONTINUOUS
 62
          15
100
AcDbLine
 10
-4910.244226976897
 20
-1669.689926526976
 30
0.0
 11
-4909.08397242289
 21
-1659.362296395629
 31
0.0
  0
LINE
  5
AF
100
AcDbEntity
  8
0
  6
CONTINUOUS
 62
          15
100
AcDbLine
 10
-4557.253988180413
 20
-1666.651630824405
 30
0.0
 11
-4564.399100227106
 21
-1730.251531562065
 31
0.0
  0
LINE
  5
B0
100
AcDbEntity
  8
0
  6
CONTINUOUS
 62
          15
100
AcDbLine
 10
-4556.713957344445
 20
-1724.544927631217
 30
0.0
 11
-4557.196098614685
 21
-1728.836551993219
 31
0.0
  0
LINE
  5
B1
100
AcDbEntity
  8
0
  6
CONTINUOUS
 62
          15
100
AcDbLine
 10
-4550.544611926825
 20
-1669.630497512724
 30
0.0
 11
-4551.026753197066
 21
-1673.922121874728
 31
0.0
  0
LINE
  5
B2
100
AcDbEntity
  8
0
  6
CONTINUOUS
 62
          15
100
AcDbLine
 10
-4551.026753197066
 20
-1673.922121874728
 30
0.0
 11
-4552.032119508522
 21
-1682.871064479929
 31
0.0
  0
LINE
  5
B3
100
AcDbEntity
  8
0
  6
CONTINUOUS
 62
          15
100
AcDbLine
 10
-4555.708591032988
 20
-1715.595985026014
 30
0.0
 11
-4556.713957344445
 21
-1724.544927631217
 31
0.0
  0
LINE
  5
B4
100
AcDbEntity
  8
WHITE
  6
CONTINUOUS
 62
          15
100
AcDbLine
 10
-4559.337381603719
 20
-1730.607345935849
 30
0.0
 11
-4564.395251799615
 21
-1730.217276031173
 31
0.0
  0
LINE
  5
B5
100
AcDbEntity
  8
WHITE
  6
CONTINUOUS
 62
          15
100
AcDbLine
 10
-4552.239597451016
 20
-1667.42871911807
 30
0.0
 11
-4557.257937028258
 21
-1666.686780214556
 31
0.0
  0
LINE
  5
B6
100
AcDbEntity
  8
0
  6
CONTINUOUS
 62
          15
100
AcDbLine
 10
-4555.611858114113
 20
-1724.629923039377
 30
0.0
 11
-4556.713957344445
 21
-1724.544927631217
 31
0.0
  0
LINE
  5
B7
100
AcDbEntity
  8
WHITE
  6
CONTINUOUS
 62
          15
100
AcDbLine
 10
-4547.390789318741
 20
-1677.386456386349
 30
0.0
 11
-4548.394052583319
 21
-1686.316679400896
 31
0.0
  0
LINE
  5
B8
100
AcDbEntity
  8
0
  6
CONTINUOUS
 62
          15
100
AcDbLine
 10
-4551.026753197066
 20
-1673.922121874728
 30
0.0
 11
-4549.933267605025
 21
-1674.083788794369
 31
0.0
  0
LINE
  5
B9
100
AcDbEntity
  8
WHITE
  6
CONTINUOUS
 62
          15
100
AcDbLine
 10
-4551.376164314333
 20
-1712.860981133574
 30
0.0
 11
-4551.396670365984
 21
-1713.043509110884
 31
0.0
  0
LINE
  5
BA
100
AcDbEntity
  8
0
  6
CONTINUOUS
 62
          15
100
AcDbLine
 10
-4532.447762203631
 20
-1689.566588249079
 30
0.0
 11
-4547.549778859827
 21
-1687.602498422142
 31
0.0
  0
LINE
  5
BB
100
AcDbEntity
  8
0
  6
CONTINUOUS
 62
          15
100
AcDbLine
 10
-4535.126771132951
 20
-1713.412918560852
 30
0.0
 11
-4550.288133795081
 21
-1711.977077984863
 31
0.0
  0
LINE
  5
BC
100
AcDbEntity
  8
0
  6
CONTINUOUS
 62
          15
100
AcDbLine
 10
-4548.196162703847
 20
-1687.242378433396
 30
0.0
 11
-4550.998311176039
 21
-1712.184795503824
 31
0.0
  0
LINE
  5
BD
100
AcDbEntity
  8
WHITE
  6
CONTINUOUS
 62
          15
100
AcDbLine
 10
-4550.302559958237
 20
-1685.077646567802
 30
0.0
 11
-4549.258832358461
 21
-1685.213388356959
 31
0.0
  0
LINE
  5
BE
100
AcDbEntity
  8
WHITE
  6
CONTINUOUS
 62
          15
100
AcDbLine
 10
-4548.394052583319
 20
-1686.316679400896
 30
0.0
 11
-4548.41455863497
 21
-1686.499207378207
 31
0.0
  0
LINE
  5
BF
100
AcDbEntity
  8
WHITE
  6
CONTINUOUS
 62
          15
100
AcDbLine
 10
-4551.396670365984
 20
-1713.043509110884
 30
0.0
 11
-4552.399933630562
 21
-1721.973732125432
 31
0.0
  0
LINE
  5
C0
100
AcDbEntity
  8
WHITE
  6
CONTINUOUS
 62
          15
100
AcDbLine
 10
-4552.484700885238
 20
-1713.927412259595
 30
0.0
 11
-4553.532529994482
 21
-1713.828178728593
 31
0.0
  0
ARC
  5
C1
100
AcDbEntity
  8
0
  6
CONTINUOUS
 62
          15
100
AcDbCircle
 10
-4533.995386290237
 20
-1701.466372267563
 30
0.0
 40
12.0
100
AcDbArc
 50
264.589999999997
 51
82.590000000002
  0
ARC
  5
C2
100
AcDbEntity
  8
WHITE
  6
CONTINUOUS
 62
          15
100
AcDbCircle
 10
-4552.532108824877
 20
-1669.407212761265
 30
0.0
 40
2.0
100
AcDbArc
 50
353.589999999999
 51
81.590000000022
  0
ARC
  5
C3
100
AcDbEntity
  8
WHITE
  6
CONTINUOUS
 62
          15
100
AcDbCircle
 10
-4550.372034665817
 20
-1677.051529259161
 30
0.0
 40
3.0
100
AcDbArc
 50
353.589999999999
 51
81.589999999985
  0
ARC
  5
C4
100
AcDbEntity
  8
WHITE
  6
CONTINUOUS
 62
          15
100
AcDbCircle
 10
-4555.381178977641
 20
-1721.638804998244
 30
0.0
 40
3.0
100
AcDbArc
 50
265.589999999994
 51
353.589999999999
  0
ARC
  5
C5
100
AcDbEntity
  8
WHITE
  6
CONTINUOUS
 62
          15
100
AcDbCircle
 10
-4559.183595512737
 20
-1728.61326724176
 30
0.0
 40
2.0
100
AcDbArc
 50
265.589999999977
 51
353.589999999999
  0
ARC
  5
C6
100
AcDbEntity
  8
WHITE
  6
CONTINUOUS
 62
          15
100
AcDbCircle
 10
-4549.387801032344
 20
-1686.205037025167
 30
0.0
 40
1.0
100
AcDbArc
 50
353.589999999999
 51
82.59000000007
  0
ARC
  5
C7
100
AcDbEntity
  8
WHITE
  6
CONTINUOUS
 62
          15
100
AcDbCircle
 10
-4550.04462261047
 20
-1683.094349231388
 30
0.0
 40
2.0
100
AcDbArc
 50
173.59
 51
262.59000000002
  0
ARC
  5
C8
100
AcDbEntity
  8
WHITE
  6
CONTINUOUS
 62
          15
100
AcDbCircle
 10
-4547.420810185943
 20
-1686.610849753936
 30
0.0
 40
1.000000000001
100
AcDbArc
 50
219.162995999259
 51
262.590000000031
  0
ARC
  5
C9
100
AcDbEntity
  8
WHITE
  6
CONTINUOUS
 62
          15
100
AcDbCircle
 10
-4547.420810185943
 20
-1686.610849753936
 30
0.0
 40
1.0
100
AcDbArc
 50
173.59
 51
219.162995999262
  0
ARC
  5
CA
100
AcDbEntity
  8
WHITE
  6
CONTINUOUS
 62
          15
100
AcDbCircle
 10
-4553.721094134937
 20
-1715.819269777473
 30
0.0
 40
1.999999999999
100
AcDbArc
 50
84.589999999927
 51
173.59
  0
ARC
  5
CB
100
AcDbEntity
  8
WHITE
  6
CONTINUOUS
 62
          15
100
AcDbCircle
 10
-4552.39041881501
 20
-1712.931866735155
 30
0.0
 40
1.0
100
AcDbArc
 50
264.58999999993
 51
353.589999999999
  0
ARC
  5
CC
100
AcDbEntity
  8
WHITE
  6
CONTINUOUS
 62
          15
100
AcDbCircle
 10
-4550.382415865308
 20
-1712.972623509304
 30
0.0
 40
1.0
100
AcDbArc
 50
128.017004000809
 51
173.59
  0
ARC
  5
CD
100
AcDbEntity
  8
WHITE
  6
CONTINUOUS
 62
          15
100
AcDbCircle
 10
-4550.382415865308
 20
-1712.972623509304
 30
0.0
 40
1.0
100
AcDbArc
 50
84.589999999969
 51
128.017004000808
  0
LINE
  5
CE
100
AcDbEntity
  8
WHITE
  6
CONTINUOUS
 62
          15
100
AcDbLine
 10
-4917.916962786754
 20
-1666.420283734232
 30
0.0
 11
-4917.82764888617
 21
-1665.625284975011
 31
0.0
  0
LINE
  5
CF
100
AcDbEntity
  8
WHITE
  6
CONTINUOUS
 62
          15
100
AcDbLine
 10
-4917.82764888617
 20
-1665.625284975011
 30
0.0
 11
-4916.219998675665
 21
-1651.315307309038
 31
0.0
  0
LINE
  5
D0
100
AcDbEntity
  8
WHITE
  6
CONTINUOUS
 62
          15
100
AcDbLine
 10
-4916.219998675665
 20
-1651.315307309038
 30
0.0
 11
-4916.130684775081
 21
-1650.520308549817
 31
0.0
  0
LINE
  5
D1
100
AcDbEntity
  8
WHITE
  6
CONTINUOUS
 62
          15
100
AcDbLine
 10
-4916.130684775081
 20
-1650.520308549817
 30
0.0
 11
-4915.639458321872
 21
-1646.147815374103
 31
0.0
  0
LINE
  5
D2
100
AcDbEntity
  8
WHITE
  6
CONTINUOUS
 62
          15
100
AcDbLine
 10
-4950.610052161421
 20
-1670.797715303093
 30
0.0
 11
-4948.882027014163
 21
-1670.991849777415
 31
0.0
  0
LINE
  5
D3
100
AcDbEntity
  8
WHITE
  6
CONTINUOUS
 62
          15
100
AcDbLine
 10
-4945.309470990816
 20
-1639.191899408586
 30
0.0
 11
-4947.037496138075
 21
-1638.997764934263
 31
0.0
  0
LINE
  5
D4
100
AcDbEntity
  8
WHITE
  6
CONTINUOUS
 62
          15
100
AcDbLine
 10
-4948.882027014163
 20
-1670.991849777415
 30
0.0
 11
-4943.852562708044
 21
-1671.556883458054
 31
0.0
  0
LINE
  5
D5
100
AcDbEntity
  8
WHITE
  6
CONTINUOUS
 62
          15
100
AcDbLine
 10
-4940.280006684698
 20
-1639.756933089224
 30
0.0
 11
-4945.309470990816
 21
-1639.191899408586
 31
0.0
  0
LINE
  5
D6
100
AcDbEntity
  8
WHITE
  6
CONTINUOUS
 62
          15
100
AcDbLine
 10
-4994.122488011008
 20
-1633.708015441769
 30
0.0
 11
-4947.037496138075
 21
-1638.997764934263
 31
0.0
  0
LINE
  5
D7
100
AcDbEntity
  8
WHITE
  6
CONTINUOUS
 62
          15
100
AcDbLine
 10
-4997.695044034354
 20
-1665.507965810599
 30
0.0
 11
-4950.610052161421
 21
-1670.797715303093
 31
0.0
  0
LINE
  5
D8
100
AcDbEntity
  8
WHITE
  6
CONTINUOUS
 62
          15
100
AcDbLine
 10
-4939.355450247618
 20
-1642.275900217762
 30
0.0
 11
-4942.392122867463
 21
-1669.305858031268
 31
0.0
  0
LINE
  5
D9
100
AcDbEntity
  8
WHITE
  6
CONTINUOUS
 62
          15
100
AcDbLine
 10
-4916.697985609826
 20
-1644.821346384396
 30
0.0
 11
-4920.302482885567
 21
-1644.41640020353
 31
0.0
  0
LINE
  5
DA
100
AcDbEntity
  8
WHITE
  6
CONTINUOUS
 62
          15
100
AcDbLine
 10
-4918.408189239965
 20
-1670.792776909946
 30
0.0
 11
-4917.916962786754
 21
-1666.420283734232
 31
0.0
  0
LINE
  5
DB
100
AcDbEntity
  8
WHITE
  6
CONTINUOUS
 62
          15
100
AcDbLine
 10
-4941.199624728632
 20
-1669.439828882143
 30
0.0
 11
-4938.760914514997
 21
-1669.713805060151
 31
0.0
  0
LINE
  5
DC
100
AcDbEntity
  8
WHITE
  6
CONTINUOUS
 62
          15
100
AcDbLine
 10
-4935.545614093985
 20
-1641.093849728205
 30
0.0
 11
-4935.724241895153
 21
-1642.683847246646
 31
0.0
  0
LINE
  5
DD
100
AcDbEntity
  8
WHITE
  6
CONTINUOUS
 62
          15
100
AcDbLine
 10
-4935.724241895153
 20
-1642.683847246646
 30
0.0
 11
-4938.162952108787
 21
-1642.409871068637
 31
0.0
  0
LINE
  5
DE
100
AcDbEntity
  8
WHITE
  6
CONTINUOUS
 62
          15
100
AcDbLine
 10
-4935.724241895153
 20
-1642.683847246646
 30
0.0
 11
-4938.760914514997
 21
-1669.713805060151
 31
0.0
  0
LINE
  5
DF
100
AcDbEntity
  8
WHITE
  6
CONTINUOUS
 62
          15
100
AcDbLine
 10
-4938.760914514997
 20
-1669.713805060151
 30
0.0
 11
-4938.939542316164
 21
-1671.303802578593
 31
0.0
  0
LINE
  5
E0
100
AcDbEntity
  8
WHITE
  6
CONTINUOUS
 62
          15
100
AcDbLine
 10
-4923.517783306579
 20
-1673.036355535477
 30
0.0
 11
-4923.339155505411
 21
-1671.446358017036
 31
0.0
  0
LINE
  5
E1
100
AcDbEntity
  8
WHITE
  6
CONTINUOUS
 62
          15
100
AcDbLine
 10
-4923.339155505411
 20
-1671.446358017036
 30
0.0
 11
-4919.734658229671
 21
-1671.851304197902
 31
0.0
  0
LINE
  5
E2
100
AcDbEntity
  8
WHITE
  6
CONTINUOUS
 62
          15
100
AcDbLine
 10
-4923.339155505411
 20
-1671.446358017036
 30
0.0
 11
-4920.302482885567
 21
-1644.41640020353
 31
0.0
  0
LINE
  5
E3
100
AcDbEntity
  8
WHITE
  6
CONTINUOUS
 62
          15
100
AcDbLine
 10
-4920.302482885567
 20
-1644.41640020353
 30
0.0
 11
-4920.123855084399
 21
-1642.826402685089
 31
0.0
  0
LINE
  5
E4
100
AcDbEntity
  8
WHITE
  6
CONTINUOUS
 62
          15
100
AcDbLine
 10
-4935.545614093985
 20
-1641.093849728205
 30
0.0
 11
-4920.123855084399
 21
-1642.826402685089
 31
0.0
  0
LINE
  5
E5
100
AcDbEntity
  8
WHITE
  6
CONTINUOUS
 62
          15
100
AcDbLine
 10
-4938.939542316164
 20
-1671.303802578593
 30
0.0
 11
-4923.517783306579
 21
-1673.036355535477
 31
0.0
  0
ARC
  5
E6
100
AcDbEntity
  8
WHITE
  6
CONTINUOUS
 62
          15
100
AcDbCircle
 10
-4969.713833733872
 20
-1652.55085255031
 30
0.0
 40
27.821476415486
100
AcDbArc
 50
318.483694434248
 51
28.696305565753
  0
ARC
  5
E7
100
AcDbEntity
  8
WHITE
  6
CONTINUOUS
 62
          15
100
AcDbCircle
 10
-4956.608990758917
 20
-1654.023112260221
 30
0.0
 40
39.547005383793
100
AcDbArc
 50
149.72507458395
 51
197.45492541605
  0
ARC
  5
E8
100
AcDbEntity
  8
WHITE
  6
CONTINUOUS
 62
          15
100
AcDbCircle
 10
-4970.664164902399
 20
-1652.444087876123
 30
0.0
 40
30.022213997861
100
AcDbArc
 50
141.385772496028
 51
205.794227503972
  0
ARC
  5
E9
100
AcDbEntity
  8
WHITE
  6
CONTINUOUS
 62
          15
100
AcDbCircle
 10
-4940.413977535573
 20
-1640.949431228055
 30
0.0
 40
1.2
100
AcDbArc
 50
353.589999999999
 51
83.59
  0
ARC
  5
EA
100
AcDbEntity
  8
WHITE
  6
CONTINUOUS
 62
          15
100
AcDbCircle
 10
-4938.028981257911
 20
-1641.217372929806
 30
0.0
 40
1.2
100
AcDbArc
 50
173.59
 51
263.589999999999
  0
ARC
  5
EB
100
AcDbEntity
  8
WHITE
  6
CONTINUOUS
 62
          15
100
AcDbCircle
 10
-4916.831956460702
 20
-1646.013844523228
 30
0.0
 40
1.2
100
AcDbArc
 50
353.589999999999
 51
83.59
  0
ARC
  5
EC
100
AcDbEntity
  8
WHITE
  6
CONTINUOUS
 62
          15
100
AcDbCircle
 10
-4919.600687378796
 20
-1670.658806059071
 30
0.0
 40
1.2
100
AcDbArc
 50
263.589999999999
 51
353.589999999999
  0
ARC
  5
ED
100
AcDbEntity
  8
WHITE
  6
CONTINUOUS
 62
          15
100
AcDbCircle
 10
-4941.333595579506
 20
-1670.632327020974
 30
0.0
 40
1.2
100
AcDbArc
 50
83.59
 51
173.59
  0
ARC
  5
EE
100
AcDbEntity
  8
WHITE
  6
CONTINUOUS
 62
          15
100
AcDbCircle
 10
-4943.718591857169
 20
-1670.364385319223
 30
0.0
 40
1.2
100
AcDbArc
 50
263.589999999999
 51
353.589999999999
  0
LINE
  5
EF
100
AcDbEntity
  8
WHITE
  6
CONTINUOUS
 62
          15
100
AcDbLine
 10
-4724.317143195305
 20
-1675.344933918804
 30
0.0
 11
-4720.840805353657
 21
-1676.183368572248
 31
0.0
  0
LINE
  5
F0
100
AcDbEntity
  8
WHITE
  6
CONTINUOUS
 62
          15
100
AcDbLine
 10
-4724.4669376969
 20
-1672.75711916995
 30
0.0
 11
-4724.696787180475
 21
-1674.803049904769
 31
0.0
  0
LINE
  5
F1
100
AcDbEntity
  8
WHITE
  6
CONTINUOUS
 62
          15
100
AcDbLine
 10
-4723.635027598415
 20
-1669.273302855453
 30
0.0
 11
-4720.05930872355
 21
-1669.227129429067
 31
0.0
  0
LINE
  5
F2
100
AcDbEntity
  8
WHITE
  6
CONTINUOUS
 62
          15
100
AcDbLine
 10
-4724.355295321169
 20
-1671.763370720924
 30
0.0
 11
-4724.125445837593
 21
-1669.717439986104
 31
0.0
  0
LINE
  5
F3
100
AcDbEntity
  8
WHITE
  6
CONTINUOUS
 62
          15
100
AcDbLine
 10
-4722.890537423289
 20
-1672.934219392666
 30
0.0
 11
-4724.4669376969
 21
-1672.75711916995
 31
0.0
  0
LINE
  5
F4
100
AcDbEntity
  8
WHITE
  6
CONTINUOUS
 62
          15
100
AcDbLine
 10
-4722.834716235425
 20
-1672.437345168154
 30
0.0
 11
-4722.890537423289
 21
-1672.934219392666
 31
0.0
  0
LINE
  5
F5
100
AcDbEntity
  8
WHITE
  6
CONTINUOUS
 62
          15
100
AcDbLine
 10
-4722.778895047561
 20
-1671.94047094364
 30
0.0
 11
-4722.834716235425
 21
-1672.437345168154
 31
0.0
  0
LINE
  5
F6
100
AcDbEntity
  8
WHITE
  6
CONTINUOUS
 62
          15
100
AcDbLine
 10
-4724.355295321169
 20
-1671.763370720924
 30
0.0
 11
-4722.778895047561
 21
-1671.94047094364
 31
0.0
  0
LINE
  5
F7
100
AcDbEntity
  8
WHITE
  6
CONTINUOUS
 62
          15
100
AcDbLine
 10
-4719.836023972091
 20
-1667.239632531014
 30
0.0
 11
-4709.401665257318
 21
-1668.411877476174
 31
0.0
  0
LINE
  5
F8
100
AcDbEntity
  8
WHITE
  6
CONTINUOUS
 62
          15
100
AcDbLine
 10
-4719.836023972091
 20
-1667.239632531014
 30
0.0
 11
-4720.896626541522
 21
-1676.680242796761
 31
0.0
  0
LINE
  5
F9
100
AcDbEntity
  8
WHITE
  6
CONTINUOUS
 62
          15
100
AcDbLine
 10
-4713.510104684166
 20
-1704.98182040033
 30
0.0
 11
-4705.063242867445
 21
-1705.930780594031
 31
0.0
  0
LINE
  5
FA
100
AcDbEntity
  8
WHITE
  6
CONTINUOUS
 62
          15
100
AcDbLine
 10
-4705.063242867445
 20
-1705.930780594031
 30
0.0
 11
-4705.007421679581
 21
-1705.433906369518
 31
0.0
  0
LINE
  5
FB
100
AcDbEntity
  8
WHITE
  6
CONTINUOUS
 62
          15
100
AcDbLine
 10
-4705.007421679581
 20
-1705.433906369518
 30
0.0
 11
-4699.816051208156
 21
-1659.224603489812
 31
0.0
  0
LINE
  5
FC
100
AcDbEntity
  8
WHITE
  6
CONTINUOUS
 62
          15
100
AcDbLine
 10
-4698.82230275913
 20
-1659.336245865542
 30
0.0
 11
-4698.878123946995
 21
-1659.833120090055
 31
0.0
  0
LINE
  5
FD
100
AcDbEntity
  8
WHITE
  6
CONTINUOUS
 62
          15
100
AcDbLine
 10
-4698.878123946995
 20
-1659.833120090055
 30
0.0
 11
-4699.871872396021
 21
-1659.721477714325
 31
0.0
  0
LINE
  5
FE
100
AcDbEntity
  8
WHITE
  6
CONTINUOUS
 62
          15
100
AcDbLine
 10
-4698.878123946995
 20
-1659.833120090055
 30
0.0
 11
-4704.013673230556
 21
-1705.545548745248
 31
0.0
  0
LINE
  5
FF
100
AcDbEntity
  8
WHITE
  6
CONTINUOUS
 62
          15
100
AcDbLine
 10
-4704.013673230556
 20
-1705.545548745248
 30
0.0
 11
-4705.007421679581
 21
-1705.433906369518
 31
0.0
  0
LINE
  5
100
100
AcDbEntity
  8
WHITE
  6
CONTINUOUS
 62
          15
100
AcDbLine
 10
-4709.898539481831
 20
-1668.35605628831
 30
0.0
 11
-4708.75978724939
 21
-1658.219822108246
 31
0.0
  0
LINE
  5
101
100
AcDbEntity
  8
WHITE
  6
CONTINUOUS
 62
          15
100
AcDbLine
 10
-4699.816051208156
 20
-1659.224603489812
 30
0.0
 11
-4708.75978724939
 21
-1658.219822108246
 31
0.0
  0
LINE
  5
102
100
AcDbEntity
  8
WHITE
  6
CONTINUOUS
 62
          15
100
AcDbLine
 10
-4622.303672184133
 20
-1667.932708796719
 30
0.0
 11
-4698.82230275913
 21
-1659.336245865542
 31
0.0
  0
LINE
  5
103
100
AcDbEntity
  8
WHITE
  6
CONTINUOUS
 62
          15
100
AcDbLine
 10
-4709.898539481831
 20
-1668.35605628831
 30
0.0
 11
-4709.401665257318
 21
-1668.411877476174
 31
0.0
  0
LINE
  5
104
100
AcDbEntity
  8
WHITE
  6
CONTINUOUS
 62
          15
100
AcDbLine
 10
-4709.401665257318
 20
-1668.411877476174
 30
0.0
 11
-4713.510104684166
 21
-1704.98182040033
 31
0.0
  0
LINE
  5
105
100
AcDbEntity
  8
WHITE
  6
CONTINUOUS
 62
          15
100
AcDbLine
 10
-4627.550863843423
 20
-1714.638885900938
 30
0.0
 11
-4622.303672184133
 21
-1667.932708796719
 31
0.0
  0
LINE
  5
106
100
AcDbEntity
  8
WHITE
  6
CONTINUOUS
 62
          15
100
AcDbLine
 10
-4704.06949441842
 20
-1706.042422969761
 30
0.0
 11
-4627.550863843423
 21
-1714.638885900938
 31
0.0
  0
LINE
  5
107
100
AcDbEntity
  8
WHITE
  6
CONTINUOUS
 62
          15
100
AcDbLine
 10
-4704.013673230556
 20
-1705.545548745248
 30
0.0
 11
-4704.06949441842
 21
-1706.042422969761
 31
0.0
  0
LINE
  5
108
100
AcDbEntity
  8
WHITE
  6
CONTINUOUS
 62
          15
100
AcDbLine
 10
-4726.736113664825
 20
-1688.351270606545
 30
0.0
 11
-4726.149991192246
 21
-1683.134091249159
 31
0.0
  0
LINE
  5
109
100
AcDbEntity
  8
WHITE
  6
CONTINUOUS
 62
          15
100
AcDbLine
 10
-4727.880448016054
 20
-1698.537192209061
 30
0.0
 11
-4724.419534368437
 21
-1667.730990289257
 31
0.0
  0
LINE
  5
10A
100
AcDbEntity
  8
WHITE
  6
CONTINUOUS
 62
          15
100
AcDbLine
 10
-4723.314143543681
 20
-1666.84888421596
 30
0.0
 11
-4719.836023972091
 21
-1667.239632531014
 31
0.0
  0
LINE
  5
10B
100
AcDbEntity
  8
WHITE
  6
CONTINUOUS
 62
          15
100
AcDbLine
 10
-4726.998341942757
 20
-1699.642583033816
 30
0.0
 11
-4713.085863656394
 21
-1701.20557629403
 31
0.0
  0
LINE
  5
10C
100
AcDbEntity
  8
WHITE
  6
CONTINUOUS
 62
           1
100
AcDbLine
 10
-4753.740104860841
 20
-1704.789243701957
 30
0.0
 11
-4735.852632778375
 21
-1706.79880646509
 31
0.0
  0
LINE
  5
10D
100
AcDbEntity
  8
WHITE
  6
CONTINUOUS
 62
           1
100
AcDbLine
 10
-4735.852632778375
 20
-1706.79880646509
 30
0.0
 11
-4736.381896422352
 21
-1706.135571970237
 31
0.0
  0
LINE
  5
10E
100
AcDbEntity
  8
WHITE
  6
CONTINUOUS
 62
           1
100
AcDbLine
 10
-4736.381896422352
 20
-1706.135571970237
 30
0.0
 11
-4735.718661927499
 21
-1705.60630832626
 31
0.0
  0
LINE
  5
10F
100
AcDbEntity
  8
WHITE
  6
CONTINUOUS
 62
           1
100
AcDbLine
 10
-4735.718661927499
 20
-1705.60630832626
 30
0.0
 11
-4753.606134009966
 21
-1703.596745563127
 31
0.0
  0
LINE
  5
110
100
AcDbEntity
  8
WHITE
  6
CONTINUOUS
 62
           1
100
AcDbLine
 10
-4753.606134009966
 20
-1703.596745563127
 30
0.0
 11
-4753.076870365988
 21
-1704.25998005798
 31
0.0
  0
LINE
  5
111
100
AcDbEntity
  8
WHITE
  6
CONTINUOUS
 62
           1
100
AcDbLine
 10
-4753.076870365988
 20
-1704.25998005798
 30
0.0
 11
-4753.740104860841
 21
-1704.789243701957
 31
0.0
  0
LINE
  5
112
100
AcDbEntity
  8
WHITE
  6
CONTINUOUS
 62
           1
100
AcDbLine
 10
-4753.076870365988
 20
-1704.25998005798
 30
0.0
 11
-4736.381896422352
 21
-1706.135571970237
 31
0.0
  0
LINE
  5
113
100
AcDbEntity
  8
WHITE
  6
CONTINUOUS
 62
           1
100
AcDbLine
 10
-4753.300155117447
 20
-1706.247476956032
 30
0.0
 11
-4753.829418761425
 21
-1705.584242461179
 31
0.0
  0
LINE
  5
114
100
AcDbEntity
  8
WHITE
  6
CONTINUOUS
 62
           1
100
AcDbLine
 10
-4753.829418761425
 20
-1705.584242461179
 30
0.0
 11
-4735.941946678959
 21
-1707.593805224312
 31
0.0
  0
LINE
  5
115
100
AcDbEntity
  8
WHITE
  6
CONTINUOUS
 62
           1
100
AcDbLine
 10
-4735.941946678959
 20
-1707.593805224312
 30
0.0
 11
-4736.605181173811
 21
-1708.123068868289
 31
0.0
  0
LINE
  5
116
100
AcDbEntity
  8
WHITE
  6
CONTINUOUS
 62
           1
100
AcDbLine
 10
-4736.605181173811
 20
-1708.123068868289
 30
0.0
 11
-4736.075917529834
 21
-1708.786303363141
 31
0.0
  0
LINE
  5
117
100
AcDbEntity
  8
WHITE
  6
CONTINUOUS
 62
           1
100
AcDbLine
 10
-4736.075917529834
 20
-1708.786303363141
 30
0.0
 11
-4753.963389612301
 21
-1706.776740600009
 31
0.0
  0
LINE
  5
118
100
AcDbEntity
  8
WHITE
  6
CONTINUOUS
 62
           1
100
AcDbLine
 10
-4753.963389612301
 20
-1706.776740600009
 30
0.0
 11
-4753.300155117447
 21
-1706.247476956032
 31
0.0
  0
LINE
  5
119
100
AcDbEntity
  8
WHITE
  6
CONTINUOUS
 62
           1
100
AcDbLine
 10
-4736.605181173811
 20
-1708.123068868289
 30
0.0
 11
-4753.300155117447
 21
-1706.247476956032
 31
0.0
  0
LINE
  5
11A
100
AcDbEntity
  8
WHITE
  6
CONTINUOUS
 62
           1
100
AcDbLine
 10
-4753.523439868906
 20
-1708.234973854084
 30
0.0
 11
-4754.052703512884
 21
-1707.571739359231
 31
0.0
  0
LINE
  5
11B
100
AcDbEntity
  8
WHITE
  6
CONTINUOUS
 62
           1
100
AcDbLine
 10
-4754.052703512884
 20
-1707.571739359231
 30
0.0
 11
-4736.165231430417
 21
-1709.581302122363
 31
0.0
  0
LINE
  5
11C
100
AcDbEntity
  8
WHITE
  6
CONTINUOUS
 62
           1
100
AcDbLine
 10
-4736.165231430417
 20
-1709.581302122363
 30
0.0
 11
-4736.82846592527
 21
-1710.110565766341
 31
0.0
  0
LINE
  5
11D
100
AcDbEntity
  8
WHITE
  6
CONTINUOUS
 62
           1
100
AcDbLine
 10
-4736.82846592527
 20
-1710.110565766341
 30
0.0
 11
-4736.299202281292
 21
-1710.773800261193
 31
0.0
  0
LINE
  5
11E
100
AcDbEntity
  8
WHITE
  6
CONTINUOUS
 62
           1
100
AcDbLine
 10
-4736.299202281292
 20
-1710.773800261193
 30
0.0
 11
-4754.18667436376
 21
-1708.764237498061
 31
0.0
  0
LINE
  5
11F
100
AcDbEntity
  8
WHITE
  6
CONTINUOUS
 62
           1
100
AcDbLine
 10
-4754.18667436376
 20
-1708.764237498061
 30
0.0
 11
-4753.523439868906
 21
-1708.234973854084
 31
0.0
  0
LINE
  5
120
100
AcDbEntity
  8
WHITE
  6
CONTINUOUS
 62
           1
100
AcDbLine
 10
-4753.746724620365
 20
-1710.222470752136
 30
0.0
 11
-4754.275988264343
 21
-1709.559236257283
 31
0.0
  0
LINE
  5
121
100
AcDbEntity
  8
WHITE
  6
CONTINUOUS
 62
           1
100
AcDbLine
 10
-4754.275988264343
 20
-1709.559236257283
 30
0.0
 11
-4748.221159171845
 21
-1710.239464241725
 31
0.0
  0
LINE
  5
122
100
AcDbEntity
  8
WHITE
  6
CONTINUOUS
 62
           1
100
AcDbLine
 10
-4736.388516181876
 20
-1711.568799020415
 30
0.0
 11
-4737.051750676729
 21
-1712.098062664393
 31
0.0
  0
LINE
  5
123
100
AcDbEntity
  8
WHITE
  6
CONTINUOUS
 62
           1
100
AcDbLine
 10
-4737.051750676729
 20
-1712.098062664393
 30
0.0
 11
-4736.522487032751
 21
-1712.761297159245
 31
0.0
  0
LINE
  5
124
100
AcDbEntity
  8
WHITE
  6
CONTINUOUS
 62
           1
100
AcDbLine
 10
-4736.522487032751
 20
-1712.761297159245
 30
0.0
 11
-4742.577316125248
 21
-1712.081069174804
 31
0.0
  0
LINE
  5
125
100
AcDbEntity
  8
WHITE
  6
CONTINUOUS
 62
           1
100
AcDbLine
 10
-4754.409959115219
 20
-1710.751734396113
 30
0.0
 11
-4753.746724620365
 21
-1710.222470752136
 31
0.0
  0
LINE
  5
126
100
AcDbEntity
  8
WHITE
  6
CONTINUOUS
 62
           1
100
AcDbLine
 10
-4753.970009371824
 20
-1712.209967650187
 30
0.0
 11
-4754.499273015803
 21
-1711.546733155335
 31
0.0
  0
LINE
  5
127
100
AcDbEntity
  8
WHITE
  6
CONTINUOUS
 62
           1
100
AcDbLine
 10
-4754.499273015803
 20
-1711.546733155335
 30
0.0
 11
-4749.185995013613
 21
-1712.143651801756
 31
0.0
  0
LINE
  5
128
100
AcDbEntity
  8
WHITE
  6
CONTINUOUS
 62
           1
100
AcDbLine
 10
-4736.611800933335
 20
-1713.556295918467
 30
0.0
 11
-4737.275035428189
 21
-1714.085559562444
 31
0.0
  0
LINE
  5
129
100
AcDbEntity
  8
WHITE
  6
CONTINUOUS
 62
           1
100
AcDbLine
 10
-4753.746724620365
 20
-1710.222470752136
 30
0.0
 11
-4747.691895527868
 21
-1710.902698736578
 31
0.0
  0
LINE
  5
12A
100
AcDbEntity
  8
WHITE
  6
CONTINUOUS
 62
           1
100
AcDbLine
 10
-4753.523439868906
 20
-1708.234973854084
 30
0.0
 11
-4736.82846592527
 21
-1710.110565766341
 31
0.0
  0
LINE
  5
12B
100
AcDbEntity
  8
WHITE
  6
CONTINUOUS
 62
           1
100
AcDbLine
 10
-4748.355130022721
 20
-1711.431962380555
 30
0.0
 11
-4747.691895527868
 21
-1710.902698736578
 31
0.0
  0
LINE
  5
12C
100
AcDbEntity
  8
WHITE
  6
CONTINUOUS
 62
           1
100
AcDbLine
 10
-4748.355130022721
 20
-1711.431962380555
 30
0.0
 11
-4754.409959115219
 21
-1710.751734396113
 31
0.0
  0
LINE
  5
12D
100
AcDbEntity
  8
WHITE
  6
CONTINUOUS
 62
           1
100
AcDbLine
 10
-4747.691895527868
 20
-1710.902698736578
 30
0.0
 11
-4748.221159171845
 21
-1710.239464241725
 31
0.0
  0
LINE
  5
12E
100
AcDbEntity
  8
WHITE
  6
CONTINUOUS
 62
           1
100
AcDbLine
 10
-4749.185995013613
 20
-1712.143651801756
 30
0.0
 11
-4748.656731369636
 21
-1712.806886296609
 31
0.0
  0
LINE
  5
12F
100
AcDbEntity
  8
WHITE
  6
CONTINUOUS
 62
           1
100
AcDbLine
 10
-4742.588313430379
 20
-1713.488640916022
 30
0.0
 11
-4741.925078935525
 21
-1712.959377272045
 31
0.0
  0
LINE
  5
130
100
AcDbEntity
  8
WHITE
  6
CONTINUOUS
 62
           1
100
AcDbLine
 10
-4741.925078935525
 20
-1712.959377272045
 30
0.0
 11
-4736.611800933335
 21
-1713.556295918467
 31
0.0
  0
LINE
  5
131
100
AcDbEntity
  8
WHITE
  6
CONTINUOUS
 62
           1
100
AcDbLine
 10
-4742.577316125248
 20
-1712.081069174804
 30
0.0
 11
-4743.106579769226
 21
-1711.417834679951
 31
0.0
  0
LINE
  5
132
100
AcDbEntity
  8
WHITE
  6
CONTINUOUS
 62
           1
100
AcDbLine
 10
-4743.106579769226
 20
-1711.417834679951
 30
0.0
 11
-4737.051750676729
 21
-1712.098062664393
 31
0.0
  0
LINE
  5
133
100
AcDbEntity
  8
WHITE
  6
CONTINUOUS
 62
           1
100
AcDbLine
 10
-4743.106579769226
 20
-1711.417834679951
 30
0.0
 11
-4742.443345274372
 21
-1710.888571035973
 31
0.0
  0
LINE
  5
134
100
AcDbEntity
  8
WHITE
  6
CONTINUOUS
 62
           1
100
AcDbLine
 10
-4742.443345274372
 20
-1710.888571035973
 30
0.0
 11
-4736.388516181876
 21
-1711.568799020415
 31
0.0
  0
LINE
  5
135
100
AcDbEntity
  8
WHITE
  6
CONTINUOUS
 62
           1
100
AcDbLine
 10
-4754.275988264343
 20
-1709.559236257283
 30
0.0
 11
-4754.409959115219
 21
-1710.751734396113
 31
0.0
  0
LINE
  5
136
100
AcDbEntity
  8
WHITE
  6
CONTINUOUS
 62
           1
100
AcDbLine
 10
-4754.18667436376
 20
-1708.764237498061
 30
0.0
 11
-4754.052703512884
 21
-1707.571739359231
 31
0.0
  0
LINE
  5
137
100
AcDbEntity
  8
WHITE
  6
CONTINUOUS
 62
           1
100
AcDbLine
 10
-4753.963389612301
 20
-1706.776740600009
 30
0.0
 11
-4753.829418761425
 21
-1705.584242461179
 31
0.0
  0
LINE
  5
138
100
AcDbEntity
  8
WHITE
  6
CONTINUOUS
 62
           1
100
AcDbLine
 10
-4753.740104860841
 20
-1704.789243701957
 30
0.0
 11
-4753.606134009966
 21
-1703.596745563127
 31
0.0
  0
LINE
  5
139
100
AcDbEntity
  8
WHITE
  6
CONTINUOUS
 62
           1
100
AcDbLine
 10
-4754.499273015803
 20
-1711.546733155335
 30
0.0
 11
-4754.56625844124
 21
-1712.142982224749
 31
0.0
  0
LINE
  5
13A
100
AcDbEntity
  8
WHITE
  6
CONTINUOUS
 62
           1
100
AcDbLine
 10
-4736.678786358773
 20
-1714.152544987882
 30
0.0
 11
-4736.611800933335
 21
-1713.556295918467
 31
0.0
  0
LINE
  5
13B
100
AcDbEntity
  8
WHITE
  6
CONTINUOUS
 62
           1
100
AcDbLine
 10
-4736.522487032751
 20
-1712.761297159245
 30
0.0
 11
-4736.388516181876
 21
-1711.568799020415
 31
0.0
  0
LINE
  5
13C
100
AcDbEntity
  8
WHITE
  6
CONTINUOUS
 62
           1
100
AcDbLine
 10
-4736.299202281292
 20
-1710.773800261193
 30
0.0
 11
-4736.165231430417
 21
-1709.581302122363
 31
0.0
  0
LINE
  5
13D
100
AcDbEntity
  8
WHITE
  6
CONTINUOUS
 62
           1
100
AcDbLine
 10
-4736.075917529834
 20
-1708.786303363141
 30
0.0
 11
-4735.941946678959
 21
-1707.593805224312
 31
0.0
  0
LINE
  5
13E
100
AcDbEntity
  8
WHITE
  6
CONTINUOUS
 62
           1
100
AcDbLine
 10
-4735.852632778375
 20
-1706.79880646509
 30
0.0
 11
-4735.718661927499
 21
-1705.60630832626
 31
0.0
  0
LINE
  5
13F
100
AcDbEntity
  8
WHITE
  6
CONTINUOUS
 62
           1
100
AcDbLine
 10
-4737.638910790048
 20
-1722.698781649505
 30
0.0
 11
-4737.504939939172
 21
-1721.506283510675
 31
0.0
  0
LINE
  5
140
100
AcDbEntity
  8
WHITE
  6
CONTINUOUS
 62
           1
100
AcDbLine
 10
-4737.415626038588
 20
-1720.711284751453
 30
0.0
 11
-4737.281655187713
 21
-1719.518786612623
 31
0.0
  0
LINE
  5
141
100
AcDbEntity
  8
WHITE
  6
CONTINUOUS
 62
           1
100
AcDbLine
 10
-4737.192341287129
 20
-1718.723787853401
 30
0.0
 11
-4737.058370436254
 21
-1717.531289714571
 31
0.0
  0
LINE
  5
142
100
AcDbEntity
  8
WHITE
  6
CONTINUOUS
 62
           1
100
AcDbLine
 10
-4736.969056535671
 20
-1716.736290955349
 30
0.0
 11
-4736.835085684795
 21
-1715.543792816519
 31
0.0
  0
LINE
  5
143
100
AcDbEntity
  8
WHITE
  6
CONTINUOUS
 62
           1
100
AcDbLine
 10
-4736.745771784211
 20
-1714.748794057297
 30
0.0
 11
-4736.678786358773
 21
-1714.152544987882
 31
0.0
  0
LINE
  5
144
100
AcDbEntity
  8
WHITE
  6
CONTINUOUS
 62
           1
100
AcDbLine
 10
-4754.56625844124
 20
-1712.142982224749
 30
0.0
 11
-4754.633243866678
 21
-1712.739231294165
 31
0.0
  0
LINE
  5
145
100
AcDbEntity
  8
WHITE
  6
CONTINUOUS
 62
           1
100
AcDbLine
 10
-4755.526382872515
 20
-1720.689218886372
 30
0.0
 11
-4755.39241202164
 21
-1719.496720747542
 31
0.0
  0
LINE
  5
146
100
AcDbEntity
  8
WHITE
  6
CONTINUOUS
 62
           1
100
AcDbLine
 10
-4755.303098121056
 20
-1718.70172198832
 30
0.0
 11
-4755.16912727018
 21
-1717.50922384949
 31
0.0
  0
LINE
  5
147
100
AcDbEntity
  8
WHITE
  6
CONTINUOUS
 62
           1
100
AcDbLine
 10
-4755.079813369596
 20
-1716.714225090268
 30
0.0
 11
-4754.94584251872
 21
-1715.521726951439
 31
0.0
  0
LINE
  5
148
100
AcDbEntity
  8
WHITE
  6
CONTINUOUS
 62
           1
100
AcDbLine
 10
-4754.722557767262
 20
-1713.534230053387
 30
0.0
 11
-4754.856528618137
 21
-1714.726728192217
 31
0.0
  0
LINE
  5
149
100
AcDbEntity
  8
WHITE
  6
CONTINUOUS
 62
           1
100
AcDbLine
 10
-4736.969056535671
 20
-1716.736290955349
 30
0.0
 11
-4743.023885628167
 21
-1716.056062970907
 31
0.0
  0
LINE
  5
14A
100
AcDbEntity
  8
WHITE
  6
CONTINUOUS
 62
           1
100
AcDbLine
 10
-4743.023885628167
 20
-1716.056062970907
 30
0.0
 11
-4743.553149272145
 21
-1715.392828476054
 31
0.0
  0
LINE
  5
14B
100
AcDbEntity
  8
WHITE
  6
CONTINUOUS
 62
           1
100
AcDbLine
 10
-4737.498320179648
 20
-1716.073056460496
 30
0.0
 11
-4743.553149272145
 21
-1715.392828476054
 31
0.0
  0
LINE
  5
14C
100
AcDbEntity
  8
WHITE
  6
CONTINUOUS
 62
           1
100
AcDbLine
 10
-4743.553149272145
 20
-1715.392828476054
 30
0.0
 11
-4742.889914777292
 21
-1714.863564832078
 31
0.0
  0
LINE
  5
14D
100
AcDbEntity
  8
WHITE
  6
CONTINUOUS
 62
           1
100
AcDbLine
 10
-4736.745771784211
 20
-1714.748794057297
 30
0.0
 11
-4742.0590497864
 21
-1714.151875410875
 31
0.0
  0
LINE
  5
14E
100
AcDbEntity
  8
WHITE
  6
CONTINUOUS
 62
           1
100
AcDbLine
 10
-4742.0590497864
 20
-1714.151875410875
 30
0.0
 11
-4742.588313430379
 21
-1713.488640916022
 31
0.0
  0
LINE
  5
14F
100
AcDbEntity
  8
WHITE
  6
CONTINUOUS
 62
           1
100
AcDbLine
 10
-4753.970009371824
 20
-1712.209967650187
 30
0.0
 11
-4748.656731369636
 21
-1712.806886296609
 31
0.0
  0
LINE
  5
150
100
AcDbEntity
  8
WHITE
  6
CONTINUOUS
 62
           1
100
AcDbLine
 10
-4748.656731369636
 20
-1712.806886296609
 30
0.0
 11
-4749.319965864488
 21
-1713.336149940586
 31
0.0
  0
LINE
  5
151
100
AcDbEntity
  8
WHITE
  6
CONTINUOUS
 62
           1
100
AcDbLine
 10
-4748.801699525639
 20
-1715.406956176659
 30
0.0
 11
-4748.138465030786
 21
-1714.87769253268
 31
0.0
  0
LINE
  5
152
100
AcDbEntity
  8
WHITE
  6
CONTINUOUS
 62
           1
100
AcDbLine
 10
-4754.722557767262
 20
-1713.534230053387
 30
0.0
 11
-4748.667728674764
 21
-1714.214458037828
 31
0.0
  0
LINE
  5
153
100
AcDbEntity
  8
WHITE
  6
CONTINUOUS
 62
           1
100
AcDbLine
 10
-4748.138465030786
 20
-1714.87769253268
 30
0.0
 11
-4748.667728674764
 21
-1714.214458037828
 31
0.0
  0
LINE
  5
154
100
AcDbEntity
  8
WHITE
  6
CONTINUOUS
 62
           1
100
AcDbLine
 10
-4737.721604931106
 20
-1718.060553358548
 30
0.0
 11
-4754.416578874742
 21
-1716.184961446291
 31
0.0
  0
LINE
  5
155
100
AcDbEntity
  8
WHITE
  6
CONTINUOUS
 62
           1
100
AcDbLine
 10
-4748.138465030786
 20
-1714.87769253268
 30
0.0
 11
-4754.193294123284
 21
-1714.197464548239
 31
0.0
  0
LINE
  5
156
100
AcDbEntity
  8
WHITE
  6
CONTINUOUS
 62
           1
100
AcDbLine
 10
-4742.588313430379
 20
-1713.488640916022
 30
0.0
 11
-4737.275035428189
 21
-1714.085559562444
 31
0.0
  0
LINE
  5
157
100
AcDbEntity
  8
WHITE
  6
CONTINUOUS
 62
           1
100
AcDbLine
 10
-4737.275035428189
 20
-1714.085559562444
 30
0.0
 11
-4736.745771784211
 21
-1714.748794057297
 31
0.0
  0
LINE
  5
158
100
AcDbEntity
  8
WHITE
  6
CONTINUOUS
 62
           1
100
AcDbLine
 10
-4749.319965864488
 20
-1713.336149940586
 30
0.0
 11
-4754.633243866678
 21
-1712.739231294165
 31
0.0
  0
LINE
  5
159
100
AcDbEntity
  8
WHITE
  6
CONTINUOUS
 62
           1
100
AcDbLine
 10
-4754.633243866678
 20
-1712.739231294165
 30
0.0
 11
-4753.970009371824
 21
-1712.209967650187
 31
0.0
  0
LINE
  5
15A
100
AcDbEntity
  8
WHITE
  6
CONTINUOUS
 62
           1
100
AcDbLine
 10
-4754.193294123284
 20
-1714.197464548239
 30
0.0
 11
-4754.722557767262
 21
-1713.534230053387
 31
0.0
  0
LINE
  5
15B
100
AcDbEntity
  8
WHITE
  6
CONTINUOUS
 62
           1
100
AcDbLine
 10
-4742.889914777292
 20
-1714.863564832078
 30
0.0
 11
-4736.835085684795
 21
-1715.543792816519
 31
0.0
  0
LINE
  5
15C
100
AcDbEntity
  8
WHITE
  6
CONTINUOUS
 62
           1
100
AcDbLine
 10
-4736.835085684795
 20
-1715.543792816519
 30
0.0
 11
-4737.498320179648
 21
-1716.073056460496
 31
0.0
  0
LINE
  5
15D
100
AcDbEntity
  8
WHITE
  6
CONTINUOUS
 62
           1
100
AcDbLine
 10
-4737.498320179648
 20
-1716.073056460496
 30
0.0
 11
-4736.969056535671
 21
-1716.736290955349
 31
0.0
  0
LINE
  5
15E
100
AcDbEntity
  8
WHITE
  6
CONTINUOUS
 62
           1
100
AcDbLine
 10
-4748.801699525639
 20
-1715.406956176659
 30
0.0
 11
-4754.856528618137
 21
-1714.726728192217
 31
0.0
  0
LINE
  5
15F
100
AcDbEntity
  8
WHITE
  6
CONTINUOUS
 62
           1
100
AcDbLine
 10
-4754.856528618137
 20
-1714.726728192217
 30
0.0
 11
-4754.193294123284
 21
-1714.197464548239
 31
0.0
  0
LINE
  5
160
100
AcDbEntity
  8
WHITE
  6
CONTINUOUS
 62
           1
100
AcDbLine
 10
-4754.416578874742
 20
-1716.184961446291
 30
0.0
 11
-4754.94584251872
 21
-1715.521726951439
 31
0.0
  0
LINE
  5
161
100
AcDbEntity
  8
WHITE
  6
CONTINUOUS
 62
           1
100
AcDbLine
 10
-4754.94584251872
 20
-1715.521726951439
 30
0.0
 11
-4737.058370436254
 21
-1717.531289714571
 31
0.0
  0
LINE
  5
162
100
AcDbEntity
  8
WHITE
  6
CONTINUOUS
 62
           1
100
AcDbLine
 10
-4737.058370436254
 20
-1717.531289714571
 30
0.0
 11
-4737.721604931106
 21
-1718.060553358548
 31
0.0
  0
LINE
  5
163
100
AcDbEntity
  8
WHITE
  6
CONTINUOUS
 62
           1
100
AcDbLine
 10
-4737.721604931106
 20
-1718.060553358548
 30
0.0
 11
-4737.192341287129
 21
-1718.723787853401
 31
0.0
  0
LINE
  5
164
100
AcDbEntity
  8
WHITE
  6
CONTINUOUS
 62
           1
100
AcDbLine
 10
-4737.192341287129
 20
-1718.723787853401
 30
0.0
 11
-4755.079813369596
 21
-1716.714225090268
 31
0.0
  0
LINE
  5
165
100
AcDbEntity
  8
WHITE
  6
CONTINUOUS
 62
           1
100
AcDbLine
 10
-4755.079813369596
 20
-1716.714225090268
 30
0.0
 11
-4754.416578874742
 21
-1716.184961446291
 31
0.0
  0
LINE
  5
166
100
AcDbEntity
  8
WHITE
  6
CONTINUOUS
 62
           1
100
AcDbLine
 10
-4754.639863626202
 20
-1718.172458344343
 30
0.0
 11
-4737.944889682565
 21
-1720.0480502566
 31
0.0
  0
LINE
  5
167
100
AcDbEntity
  8
WHITE
  6
CONTINUOUS
 62
           1
100
AcDbLine
 10
-4754.639863626202
 20
-1718.172458344343
 30
0.0
 11
-4755.16912727018
 21
-1717.50922384949
 31
0.0
  0
LINE
  5
168
100
AcDbEntity
  8
WHITE
  6
CONTINUOUS
 62
           1
100
AcDbLine
 10
-4755.16912727018
 20
-1717.50922384949
 30
0.0
 11
-4737.281655187713
 21
-1719.518786612623
 31
0.0
  0
LINE
  5
169
100
AcDbEntity
  8
WHITE
  6
CONTINUOUS
 62
           1
100
AcDbLine
 10
-4737.281655187713
 20
-1719.518786612623
 30
0.0
 11
-4737.944889682565
 21
-1720.0480502566
 31
0.0
  0
LINE
  5
16A
100
AcDbEntity
  8
WHITE
  6
CONTINUOUS
 62
           1
100
AcDbLine
 10
-4737.944889682565
 20
-1720.0480502566
 30
0.0
 11
-4737.415626038588
 21
-1720.711284751453
 31
0.0
  0
LINE
  5
16B
100
AcDbEntity
  8
WHITE
  6
CONTINUOUS
 62
           1
100
AcDbLine
 10
-4737.415626038588
 20
-1720.711284751453
 30
0.0
 11
-4755.303098121056
 21
-1718.70172198832
 31
0.0
  0
LINE
  5
16C
100
AcDbEntity
  8
WHITE
  6
CONTINUOUS
 62
           1
100
AcDbLine
 10
-4755.303098121056
 20
-1718.70172198832
 30
0.0
 11
-4754.639863626202
 21
-1718.172458344343
 31
0.0
  0
LINE
  5
16D
100
AcDbEntity
  8
WHITE
  6
CONTINUOUS
 62
           1
100
AcDbLine
 10
-4738.168174434025
 20
-1722.035547154652
 30
0.0
 11
-4754.863148377661
 21
-1720.159955242395
 31
0.0
  0
LINE
  5
16E
100
AcDbEntity
  8
WHITE
  6
CONTINUOUS
 62
           1
100
AcDbLine
 10
-4755.39241202164
 20
-1719.496720747542
 30
0.0
 11
-4754.863148377661
 21
-1720.159955242395
 31
0.0
  0
LINE
  5
16F
100
AcDbEntity
  8
WHITE
  6
CONTINUOUS
 62
           1
100
AcDbLine
 10
-4754.863148377661
 20
-1720.159955242395
 30
0.0
 11
-4755.526382872515
 21
-1720.689218886372
 31
0.0
  0
LINE
  5
170
100
AcDbEntity
  8
WHITE
  6
CONTINUOUS
 62
           1
100
AcDbLine
 10
-4755.526382872515
 20
-1720.689218886372
 30
0.0
 11
-4737.638910790048
 21
-1722.698781649505
 31
0.0
  0
LINE
  5
171
100
AcDbEntity
  8
WHITE
  6
CONTINUOUS
 62
           1
100
AcDbLine
 10
-4737.638910790048
 20
-1722.698781649505
 30
0.0
 11
-4738.168174434025
 21
-1722.035547154652
 31
0.0
  0
LINE
  5
172
100
AcDbEntity
  8
WHITE
  6
CONTINUOUS
 62
           1
100
AcDbLine
 10
-4738.168174434025
 20
-1722.035547154652
 30
0.0
 11
-4737.504939939172
 21
-1721.506283510675
 31
0.0
  0
LINE
  5
173
100
AcDbEntity
  8
WHITE
  6
CONTINUOUS
 62
           1
100
AcDbLine
 10
-4737.504939939172
 20
-1721.506283510675
 30
0.0
 11
-4755.39241202164
 21
-1719.496720747542
 31
0.0
  0
LINE
  5
174
100
AcDbEntity
  8
WHITE
  6
CONTINUOUS
 62
          15
100
AcDbLine
 10
-4781.694187452026
 20
-1722.607981487976
 30
0.0
 11
-4780.796745807551
 21
-1721.391165944087
 31
0.0
  0
LINE
  5
175
100
AcDbEntity
  8
WHITE
  6
CONTINUOUS
 62
          15
100
AcDbLine
 10
-4776.579260559905
 20
-1721.864978077442
 30
0.0
 11
-4780.796745807551
 21
-1721.391165944087
 31
0.0
  0
LINE
  5
176
100
AcDbEntity
  8
WHITE
  6
CONTINUOUS
 62
          15
100
AcDbLine
 10
-4780.796745807551
 20
-1721.391165944087
 30
0.0
 11
-4781.255633511049
 21
-1718.70433562043
 31
0.0
  0
LINE
  5
177
100
AcDbEntity
  8
WHITE
  6
CONTINUOUS
 62
          15
100
AcDbLine
 10
-4780.809064008132
 20
-1714.729341824326
 30
0.0
 11
-4779.765437716664
 21
-1712.211310991256
 31
0.0
  0
LINE
  5
178
100
AcDbEntity
  8
WHITE
  6
CONTINUOUS
 62
          15
100
AcDbLine
 10
-4775.547952469018
 20
-1712.685123124612
 30
0.0
 11
-4779.765437716664
 21
-1712.211310991256
 31
0.0
  0
LINE
  5
179
100
AcDbEntity
  8
WHITE
  6
CONTINUOUS
 62
          15
100
AcDbLine
 10
-4779.765437716664
 20
-1712.211310991256
 30
0.0
 11
-4780.370510067155
 21
-1710.825695956783
 31
0.0
  0
LINE
  5
17A
100
AcDbEntity
  8
WHITE
  6
CONTINUOUS
 62
          15
100
AcDbLine
 10
-4781.312399852995
 20
-1725.981093420502
 30
0.0
 11
-4781.917472203486
 21
-1724.595478386027
 31
0.0
  0
LINE
  5
17B
100
AcDbEntity
  8
WHITE
  6
CONTINUOUS
 62
          15
100
AcDbLine
 10
-4775.032298423574
 20
-1708.095195648196
 30
0.0
 11
-4779.249783671221
 21
-1707.62138351484
 31
0.0
  0
LINE
  5
17C
100
AcDbEntity
  8
WHITE
  6
CONTINUOUS
 62
          15
100
AcDbLine
 10
-4780.147225315695
 20
-1708.838199058731
 30
0.0
 11
-4779.249783671221
 21
-1707.62138351484
 31
0.0
  0
LINE
  5
17D
100
AcDbEntity
  8
WHITE
  6
CONTINUOUS
 62
          15
100
AcDbLine
 10
-4777.094914605348
 20
-1726.454905553858
 30
0.0
 11
-4776.948729958356
 21
-1725.153690264675
 31
0.0
  0
LINE
  5
17E
100
AcDbEntity
  8
WHITE
  6
CONTINUOUS
 62
          15
100
AcDbLine
 10
-4781.694187452026
 20
-1722.607981487976
 30
0.0
 11
-4781.917472203486
 21
-1724.595478386027
 31
0.0
  0
LINE
  5
17F
100
AcDbEntity
  8
WHITE
  6
CONTINUOUS
 62
          15
100
AcDbLine
 10
-4776.948729958356
 20
-1725.153690264675
 30
0.0
 11
-4781.917472203486
 21
-1724.595478386027
 31
0.0
  0
LINE
  5
180
100
AcDbEntity
  8
WHITE
  6
CONTINUOUS
 62
          15
100
AcDbLine
 10
-4776.948729958356
 20
-1725.153690264675
 30
0.0
 11
-4776.725445206897
 21
-1723.166193366624
 31
0.0
  0
LINE
  5
181
100
AcDbEntity
  8
WHITE
  6
CONTINUOUS
 62
          15
100
AcDbLine
 10
-4781.255633511049
 20
-1718.70433562043
 30
0.0
 11
-4781.694187452026
 21
-1722.607981487976
 31
0.0
  0
LINE
  5
182
100
AcDbEntity
  8
WHITE
  6
CONTINUOUS
 62
          15
100
AcDbLine
 10
-4776.725445206897
 20
-1723.166193366624
 30
0.0
 11
-4781.694187452026
 21
-1722.607981487976
 31
0.0
  0
LINE
  5
183
100
AcDbEntity
  8
WHITE
  6
CONTINUOUS
 62
          15
100
AcDbLine
 10
-4776.725445206897
 20
-1723.166193366624
 30
0.0
 11
-4776.579260559905
 21
-1721.864978077442
 31
0.0
  0
LINE
  5
184
100
AcDbEntity
  8
WHITE
  6
CONTINUOUS
 62
          15
100
AcDbLine
 10
-4776.579260559905
 20
-1721.864978077442
 30
0.0
 11
-4776.286891265921
 21
-1719.262547499078
 31
0.0
  0
LINE
  5
185
100
AcDbEntity
  8
WHITE
  6
CONTINUOUS
 62
          15
100
AcDbLine
 10
-4780.809064008132
 20
-1714.729341824326
 30
0.0
 11
-4781.255633511049
 21
-1718.70433562043
 31
0.0
  0
LINE
  5
186
100
AcDbEntity
  8
WHITE
  6
CONTINUOUS
 62
          15
100
AcDbLine
 10
-4776.286891265921
 20
-1719.262547499078
 30
0.0
 11
-4781.255633511049
 21
-1718.70433562043
 31
0.0
  0
LINE
  5
187
100
AcDbEntity
  8
WHITE
  6
CONTINUOUS
 62
          15
100
AcDbLine
 10
-4776.286891265921
 20
-1719.262547499078
 30
0.0
 11
-4775.840321763002
 21
-1715.287553702974
 31
0.0
  0
LINE
  5
188
100
AcDbEntity
  8
WHITE
  6
CONTINUOUS
 62
          15
100
AcDbLine
 10
-4780.370510067155
 20
-1710.825695956783
 30
0.0
 11
-4780.809064008132
 21
-1714.729341824326
 31
0.0
  0
LINE
  5
189
100
AcDbEntity
  8
WHITE
  6
CONTINUOUS
 62
          15
100
AcDbLine
 10
-4775.840321763002
 20
-1715.287553702974
 30
0.0
 11
-4780.809064008132
 21
-1714.729341824326
 31
0.0
  0
LINE
  5
18A
100
AcDbEntity
  8
WHITE
  6
CONTINUOUS
 62
          15
100
AcDbLine
 10
-4775.840321763002
 20
-1715.287553702974
 30
0.0
 11
-4775.547952469018
 21
-1712.685123124612
 31
0.0
  0
LINE
  5
18B
100
AcDbEntity
  8
WHITE
  6
CONTINUOUS
 62
          15
100
AcDbLine
 10
-4775.547952469018
 20
-1712.685123124612
 30
0.0
 11
-4775.401767822026
 21
-1711.383907835431
 31
0.0
  0
LINE
  5
18C
100
AcDbEntity
  8
WHITE
  6
CONTINUOUS
 62
          15
100
AcDbLine
 10
-4780.147225315695
 20
-1708.838199058731
 30
0.0
 11
-4780.370510067155
 21
-1710.825695956783
 31
0.0
  0
LINE
  5
18D
100
AcDbEntity
  8
WHITE
  6
CONTINUOUS
 62
          15
100
AcDbLine
 10
-4775.401767822026
 20
-1711.383907835431
 30
0.0
 11
-4780.370510067155
 21
-1710.825695956783
 31
0.0
  0
LINE
  5
18E
100
AcDbEntity
  8
WHITE
  6
CONTINUOUS
 62
          15
100
AcDbLine
 10
-4775.401767822026
 20
-1711.383907835431
 30
0.0
 11
-4775.178483070567
 21
-1709.396410937379
 31
0.0
  0
LINE
  5
18F
100
AcDbEntity
  8
WHITE
  6
CONTINUOUS
 62
          15
100
AcDbLine
 10
-4780.147225315695
 20
-1708.838199058731
 30
0.0
 11
-4775.178483070567
 21
-1709.396410937379
 31
0.0
  0
LINE
  5
190
100
AcDbEntity
  8
WHITE
  6
CONTINUOUS
 62
          15
100
AcDbLine
 10
-4781.312399852995
 20
-1725.981093420502
 30
0.0
 11
-4777.094914605348
 21
-1726.454905553858
 31
0.0
  0
LINE
  5
191
100
AcDbEntity
  8
WHITE
  6
CONTINUOUS
 62
          15
100
AcDbLine
 10
-4775.178483070567
 20
-1709.396410937379
 30
0.0
 11
-4775.032298423574
 21
-1708.095195648196
 31
0.0
  0
LINE
  5
192
100
AcDbEntity
  8
WHITE
  6
CONTINUOUS
 62
          15
100
AcDbLine
 10
-4726.149991192246
 20
-1683.134091249159
 30
0.0
 11
-4725.563868719665
 21
-1677.916911891773
 31
0.0
  0
LINE
  5
193
100
AcDbEntity
  8
WHITE
  6
CONTINUOUS
 62
          15
100
AcDbLine
 10
-4728.031362180838
 20
-1686.444747257155
 30
0.0
 11
-4728.422110495892
 21
-1689.922866828747
 31
0.0
  0
LINE
  5
194
100
AcDbEntity
  8
WHITE
  6
CONTINUOUS
 62
          15
100
AcDbLine
 10
-4728.422110495892
 20
-1689.922866828747
 30
0.0
 11
-4727.67084794165
 21
-1690.007267198311
 31
0.0
  0
LINE
  5
195
100
AcDbEntity
  8
WHITE
  6
CONTINUOUS
 62
          15
100
AcDbLine
 10
-4727.249865550731
 20
-1679.488508113974
 30
0.0
 11
-4728.031362180838
 21
-1686.444747257155
 31
0.0
  0
LINE
  5
196
100
AcDbEntity
  8
WHITE
  6
CONTINUOUS
 62
          15
100
AcDbLine
 10
-4728.031362180838
 20
-1686.444747257155
 30
0.0
 11
-4727.280099626596
 21
-1686.52914762672
 31
0.0
  0
LINE
  5
197
100
AcDbEntity
  8
WHITE
  6
CONTINUOUS
 62
          15
100
AcDbLine
 10
-4726.859117235677
 20
-1676.010388542384
 30
0.0
 11
-4727.249865550731
 21
-1679.488508113974
 31
0.0
  0
LINE
  5
198
100
AcDbEntity
  8
WHITE
  6
CONTINUOUS
 62
          15
100
AcDbLine
 10
-4727.249865550731
 20
-1679.488508113974
 30
0.0
 11
-4726.498602996489
 21
-1679.572908483538
 31
0.0
  0
LINE
  5
199
100
AcDbEntity
  8
WHITE
  6
CONTINUOUS
 62
          15
100
AcDbLine
 10
-4726.245084169164
 20
-1670.54477207274
 30
0.0
 11
-4726.859117235677
 21
-1676.010388542384
 31
0.0
  0
LINE
  5
19A
100
AcDbEntity
  8
WHITE
  6
CONTINUOUS
 62
          15
100
AcDbLine
 10
-4726.859117235677
 20
-1676.010388542384
 30
0.0
 11
-4726.107854681436
 21
-1676.094788911948
 31
0.0
  0
LINE
  5
19B
100
AcDbEntity
  8
WHITE
  6
CONTINUOUS
 62
          15
100
AcDbLine
 10
-4771.627445638275
 20
-1711.735684510885
 30
0.0
 11
-4772.967154147031
 21
-1723.660665899198
 31
0.0
  0
LINE
  5
19C
100
AcDbEntity
  8
WHITE
  6
CONTINUOUS
 62
           2
100
AcDbLine
 10
-4772.967154147031
 20
-1723.660665899198
 30
0.0
 11
-4776.733460768839
 21
-1723.237541295183
 31
0.0
  0
LINE
  5
19D
100
AcDbEntity
  8
WHITE
  6
CONTINUOUS
 62
          15
100
AcDbLine
 10
-4771.515803262546
 20
-1710.741936061859
 30
0.0
 11
-4771.627445638275
 21
-1711.735684510885
 31
0.0
  0
LINE
  5
19E
100
AcDbEntity
  8
WHITE
  6
CONTINUOUS
 62
           2
100
AcDbLine
 10
-4771.627445638275
 20
-1711.735684510885
 30
0.0
 11
-4775.393752260084
 21
-1711.312559906871
 31
0.0
  0
LINE
  5
19F
100
AcDbEntity
  8
WHITE
  6
CONTINUOUS
 62
          15
100
AcDbLine
 10
-4772.967154147031
 20
-1723.660665899198
 30
0.0
 11
-4773.07879652276
 21
-1724.654414348223
 31
0.0
  0
LINE
  5
1A0
100
AcDbEntity
  8
WHITE
  6
CONTINUOUS
 62
          15
100
AcDbLine
 10
-4776.845103144568
 20
-1724.231289744208
 30
0.0
 11
-4773.07879652276
 21
-1724.654414348223
 31
0.0
  0
LINE
  5
1A1
100
AcDbEntity
  8
WHITE
  6
CONTINUOUS
 62
          15
100
AcDbLine
 10
-4771.459982074681
 20
-1710.245061837346
 30
0.0
 11
-4771.515803262546
 21
-1710.741936061859
 31
0.0
  0
LINE
  5
1A2
100
AcDbEntity
  8
WHITE
  6
CONTINUOUS
 62
          15
100
AcDbLine
 10
-4775.282109884354
 20
-1710.318811457845
 30
0.0
 11
-4771.515803262546
 21
-1710.741936061859
 31
0.0
  0
LINE
  5
1A3
100
AcDbEntity
  8
WHITE
  6
CONTINUOUS
 62
          15
100
AcDbLine
 10
-4734.819481235261
 20
-1728.952645813812
 30
0.0
 11
-4753.736375731033
 21
-1726.827432893979
 31
0.0
  0
LINE
  5
1A4
100
AcDbEntity
  8
WHITE
  6
CONTINUOUS
 62
          15
100
AcDbLine
 10
-4753.736375731033
 20
-1726.827432893979
 30
0.0
 11
-4761.377099885908
 21
-1727.98161975503
 31
0.0
  0
LINE
  5
1A5
100
AcDbEntity
  8
WHITE
  6
CONTINUOUS
 62
          15
100
AcDbLine
 10
-4729.594355441051
 20
-1700.357225543518
 30
0.0
 11
-4730.091229665564
 21
-1700.301404355653
 31
0.0
  0
LINE
  5
1A6
100
AcDbEntity
  8
WHITE
  6
CONTINUOUS
 62
          15
100
AcDbLine
 10
-4733.161394998127
 20
-1727.629486703867
 30
0.0
 11
-4730.091229665564
 21
-1700.301404355653
 31
0.0
  0
LINE
  5
1A7
100
AcDbEntity
  8
WHITE
  6
CONTINUOUS
 62
          15
100
AcDbLine
 10
-4759.66319246091
 20
-1726.161586420573
 30
0.0
 11
-4753.736375731033
 21
-1726.827432893979
 31
0.0
  0
LINE
  5
1A8
100
AcDbEntity
  8
WHITE
  6
CONTINUOUS
 62
          15
100
AcDbLine
 10
-4730.091229665564
 20
-1700.301404355653
 30
0.0
 11
-4757.916186238292
 21
-1697.175417835225
 31
0.0
  0
LINE
  5
1A9
100
AcDbEntity
  8
WHITE
  6
CONTINUOUS
 62
          15
100
AcDbLine
 10
-4760.986351570855
 20
-1724.503500183439
 30
0.0
 11
-4757.916186238292
 21
-1697.175417835225
 31
0.0
  0
LINE
  5
1AA
100
AcDbEntity
  8
WHITE
  6
CONTINUOUS
 62
          15
100
AcDbLine
 10
-4771.811458600681
 20
-1726.80937480987
 30
0.0
 11
-4761.377099885908
 21
-1727.98161975503
 31
0.0
  0
LINE
  5
1AB
100
AcDbEntity
  8
WHITE
  6
CONTINUOUS
 62
          15
100
AcDbLine
 10
-4773.07879652276
 20
-1724.654414348223
 30
0.0
 11
-4773.134617710624
 21
-1725.151288572735
 31
0.0
  0
LINE
  5
1AC
100
AcDbEntity
  8
WHITE
  6
CONTINUOUS
 62
          15
100
AcDbLine
 10
-4769.801895837548
 20
-1708.921902727402
 30
0.0
 11
-4759.367537122776
 21
-1710.094147672563
 31
0.0
  0
LINE
  5
1AD
100
AcDbEntity
  8
WHITE
  6
CONTINUOUS
 62
          15
100
AcDbLine
 10
-4729.482713065322
 20
-1699.363477094492
 30
0.0
 11
-4729.594355441051
 21
-1700.357225543518
 31
0.0
  0
LINE
  5
1AE
100
AcDbEntity
  8
WHITE
  6
CONTINUOUS
 62
          15
100
AcDbLine
 10
-4757.916186238292
 20
-1697.175417835225
 30
0.0
 11
-4758.413060462804
 21
-1697.11959664736
 31
0.0
  0
LINE
  5
1AF
100
AcDbEntity
  8
WHITE
  6
CONTINUOUS
 62
          15
100
AcDbLine
 10
-4758.413060462804
 20
-1697.11959664736
 30
0.0
 11
-4758.301418087074
 21
-1696.125848198335
 31
0.0
  0
LINE
  5
1B0
100
AcDbEntity
  8
WHITE
  6
CONTINUOUS
 62
          15
100
AcDbLine
 10
-4729.482713065322
 20
-1699.363477094492
 30
0.0
 11
-4758.301418087074
 21
-1696.125848198335
 31
0.0
  0
LINE
  5
1B1
100
AcDbEntity
  8
WHITE
  6
CONTINUOUS
 62
           7
100
AcDbLine
 10
-4755.392473261369
 20
-1670.232817976111
 30
0.0
 11
-4755.45453750597
 21
-1670.785262748174
 31
0.0
  0
LINE
  5
1B2
100
AcDbEntity
  8
WHITE
  6
CONTINUOUS
 62
          15
100
AcDbLine
 10
-4753.251190272335
 20
-1668.462024033481
 30
0.0
 11
-4726.245084169164
 21
-1670.54477207274
 31
0.0
  0
LINE
  5
1B3
100
AcDbEntity
  8
WHITE
  6
CONTINUOUS
 62
           7
100
AcDbLine
 10
-4761.70716707199
 20
-1681.655158033324
 30
0.0
 11
-4761.651345884126
 21
-1681.158283808811
 31
0.0
  0
LINE
  5
1B4
100
AcDbEntity
  8
WHITE
  6
CONTINUOUS
 62
           1
100
AcDbLine
 10
-4759.178550993973
 20
-1681.436089219727
 30
0.0
 11
-4761.651345884126
 21
-1681.158283808811
 31
0.0
  0
LINE
  5
1B5
100
AcDbEntity
  8
WHITE
  6
CONTINUOUS
 62
           7
100
AcDbLine
 10
-4761.651345884126
 20
-1681.158283808811
 30
0.0
 11
-4761.204776381207
 21
-1677.183290012708
 31
0.0
  0
LINE
  5
1B6
100
AcDbEntity
  8
WHITE
  6
CONTINUOUS
 62
           1
100
AcDbLine
 10
-4758.731981491054
 20
-1677.461095423623
 30
0.0
 11
-4761.204776381207
 21
-1677.183290012708
 31
0.0
  0
LINE
  5
1B7
100
AcDbEntity
  8
WHITE
  6
CONTINUOUS
 62
           7
100
AcDbLine
 10
-4761.762988259855
 20
-1682.152032257837
 30
0.0
 11
-4761.70716707199
 21
-1681.655158033324
 31
0.0
  0
LINE
  5
1B8
100
AcDbEntity
  8
WHITE
  6
CONTINUOUS
 62
           1
100
AcDbLine
 10
-4759.234372181837
 20
-1681.93296344424
 30
0.0
 11
-4761.70716707199
 21
-1681.655158033324
 31
0.0
  0
LINE
  5
1B9
100
AcDbEntity
  8
WHITE
  6
CONTINUOUS
 62
           7
100
AcDbLine
 10
-4761.204776381207
 20
-1677.183290012708
 30
0.0
 11
-4761.148955193342
 21
-1676.686415788194
 31
0.0
  0
LINE
  5
1BA
100
AcDbEntity
  8
WHITE
  6
CONTINUOUS
 62
           1
100
AcDbLine
 10
-4758.676160303189
 20
-1676.96422119911
 30
0.0
 11
-4761.148955193342
 21
-1676.686415788194
 31
0.0
  0
LINE
  5
1BB
100
AcDbEntity
  8
WHITE
  6
CONTINUOUS
 62
           7
100
AcDbLine
 10
-4760.099385556451
 20
-1676.301183939411
 30
0.0
 11
-4760.769239810828
 21
-1682.263674633567
 31
0.0
  0
LINE
  5
1BC
100
AcDbEntity
  8
WHITE
  6
CONTINUOUS
 62
           2
100
AcDbLine
 10
-4760.769239810828
 20
-1682.263674633567
 30
0.0
 11
-4761.762988259855
 21
-1682.152032257837
 31
0.0
  0
LINE
  5
1BD
100
AcDbEntity
  8
WHITE
  6
CONTINUOUS
 62
           7
100
AcDbLine
 10
-4759.987743180722
 20
-1675.307435490385
 30
0.0
 11
-4760.099385556451
 21
-1676.301183939411
 31
0.0
  0
LINE
  5
1BE
100
AcDbEntity
  8
WHITE
  6
CONTINUOUS
 62
           2
100
AcDbLine
 10
-4760.099385556451
 20
-1676.301183939411
 30
0.0
 11
-4761.093134005478
 21
-1676.189541563682
 31
0.0
  0
LINE
  5
1BF
100
AcDbEntity
  8
WHITE
  6
CONTINUOUS
 62
           7
100
AcDbLine
 10
-4760.769239810828
 20
-1682.263674633567
 30
0.0
 11
-4760.880882186559
 21
-1683.257423082593
 31
0.0
  0
LINE
  5
1C0
100
AcDbEntity
  8
WHITE
  6
CONTINUOUS
 62
           7
100
AcDbLine
 10
-4760.880882186559
 20
-1683.257423082593
 30
0.0
 11
-4761.762988259855
 21
-1682.152032257837
 31
0.0
  0
LINE
  5
1C1
100
AcDbEntity
  8
WHITE
  6
CONTINUOUS
 62
           7
100
AcDbLine
 10
-4761.148955193342
 20
-1676.686415788194
 30
0.0
 11
-4761.093134005478
 21
-1676.189541563682
 31
0.0
  0
LINE
  5
1C2
100
AcDbEntity
  8
WHITE
  6
CONTINUOUS
 62
           7
100
AcDbLine
 10
-4759.429531302074
 20
-1670.338693245256
 30
0.0
 11
-4759.987743180722
 21
-1675.307435490385
 31
0.0
  0
LINE
  5
1C3
100
AcDbEntity
  8
WHITE
  6
CONTINUOUS
 62
           7
100
AcDbLine
 10
-4761.093134005478
 20
-1676.189541563682
 30
0.0
 11
-4759.987743180722
 21
-1675.307435490385
 31
0.0
  0
LINE
  5
1C4
100
AcDbEntity
  8
WHITE
  6
CONTINUOUS
 62
          15
100
AcDbLine
 10
-4728.422110495892
 20
-1689.922866828747
 30
0.0
 11
-4729.482713065322
 21
-1699.363477094492
 31
0.0
  0
LINE
  5
1C5
100
AcDbEntity
  8
WHITE
  6
CONTINUOUS
 62
          15
100
AcDbLine
 10
-4758.301418087074
 20
-1696.125848198335
 30
0.0
 11
-4757.464100269102
 21
-1688.672734830641
 31
0.0
  0
LINE
  5
1C6
100
AcDbEntity
  8
WHITE
  6
CONTINUOUS
 62
           7
100
AcDbLine
 10
-4758.569491093858
 20
-1689.554840903937
 30
0.0
 11
-4756.336643579267
 21
-1669.679871923419
 31
0.0
  0
LINE
  5
1C7
100
AcDbEntity
  8
WHITE
  6
CONTINUOUS
 62
           7
100
AcDbLine
 10
-4760.556987991909
 20
-1689.331556152478
 30
0.0
 11
-4758.324140477318
 21
-1669.456587171959
 31
0.0
  0
LINE
  5
1C8
100
AcDbEntity
  8
WHITE
  6
CONTINUOUS
 62
           7
100
AcDbLine
 10
-4760.556987991909
 20
-1689.331556152478
 30
0.0
 11
-4761.439094065207
 21
-1688.226165327723
 31
0.0
  0
LINE
  5
1C9
100
AcDbEntity
  8
WHITE
  6
CONTINUOUS
 62
           7
100
AcDbLine
 10
-4757.464100269102
 20
-1688.672734830641
 30
0.0
 11
-4758.569491093858
 21
-1689.554840903937
 31
0.0
  0
LINE
  5
1CA
100
AcDbEntity
  8
WHITE
  6
CONTINUOUS
 62
           7
100
AcDbLine
 10
-4756.336643579267
 20
-1669.679871923419
 30
0.0
 11
-4755.45453750597
 21
-1670.785262748174
 31
0.0
  0
LINE
  5
1CB
100
AcDbEntity
  8
WHITE
  6
CONTINUOUS
 62
           7
100
AcDbLine
 10
-4758.324140477318
 20
-1669.456587171959
 30
0.0
 11
-4759.429531302074
 21
-1670.338693245256
 31
0.0
  0
LINE
  5
1CC
100
AcDbEntity
  8
WHITE
  6
CONTINUOUS
 62
           7
100
AcDbLine
 10
-4760.880882186559
 20
-1683.257423082593
 30
0.0
 11
-4761.439094065207
 21
-1688.226165327723
 31
0.0
  0
LINE
  5
1CD
100
AcDbEntity
  8
WHITE
  6
CONTINUOUS
 62
           7
100
AcDbLine
 10
-4760.556987991909
 20
-1689.331556152478
 30
0.0
 11
-4758.569491093858
 21
-1689.554840903937
 31
0.0
  0
LINE
  5
1CE
100
AcDbEntity
  8
WHITE
  6
CONTINUOUS
 62
          15
100
AcDbLine
 10
-4757.464100269102
 20
-1688.672734830641
 30
0.0
 11
-4755.45453750597
 21
-1670.785262748174
 31
0.0
  0
LINE
  5
1CF
100
AcDbEntity
  8
WHITE
  6
CONTINUOUS
 62
           7
100
AcDbLine
 10
-4756.336643579267
 20
-1669.679871923419
 30
0.0
 11
-4758.324140477318
 21
-1669.456587171959
 31
0.0
  0
LINE
  5
1D0
100
AcDbEntity
  8
WHITE
  6
CONTINUOUS
 62
          15
100
AcDbLine
 10
-4709.898539481831
 20
-1668.35605628831
 30
0.0
 11
-4709.401665257318
 21
-1668.411877476174
 31
0.0
  0
LINE
  5
1D1
100
AcDbEntity
  8
WHITE
  6
CONTINUOUS
 62
          15
100
AcDbLine
 10
-4725.368494562139
 20
-1676.177852105978
 30
0.0
 11
-4720.896626541522
 21
-1676.680242796761
 31
0.0
  0
LINE
  5
1D2
100
AcDbEntity
  8
WHITE
  6
CONTINUOUS
 62
           7
100
AcDbLine
 10
-4737.593137154741
 20
-1690.811282938267
 30
0.0
 11
-4745.862227849605
 21
-1689.882294388696
 31
0.0
  0
LINE
  5
1D3
100
AcDbEntity
  8
WHITE
  6
CONTINUOUS
 62
           7
100
AcDbLine
 10
-4745.862227849605
 20
-1689.882294388696
 30
0.0
 11
-4745.096000097129
 21
-1683.061966214494
 31
0.0
  0
LINE
  5
1D4
100
AcDbEntity
  8
WHITE
  6
CONTINUOUS
 62
           7
100
AcDbLine
 10
-4745.096000097129
 20
-1683.061966214494
 30
0.0
 11
-4736.826909402265
 21
-1683.990954764064
 31
0.0
  0
LINE
  5
1D5
100
AcDbEntity
  8
WHITE
  6
CONTINUOUS
 62
           7
100
AcDbLine
 10
-4736.826909402265
 20
-1683.990954764064
 30
0.0
 11
-4737.593137154741
 21
-1690.811282938267
 31
0.0
  0
ARC
  5
1D6
100
AcDbEntity
  8
WHITE
  6
CONTINUOUS
 62
          15
100
AcDbCircle
 10
-4681.325578991717
 20
-1664.823928200265
 30
0.0
 40
2.25
100
AcDbArc
 50
173.59
 51
353.589999999999
  0
ARC
  5
1D7
100
AcDbEntity
  8
WHITE
  6
CONTINUOUS
 62
          15
100
AcDbCircle
 10
-4681.325578991717
 20
-1664.823928200265
 30
0.0
 40
2.25
100
AcDbArc
 50
353.589999999999
 51
173.59
  0
ARC
  5
1D8
100
AcDbEntity
  8
WHITE
  6
CONTINUOUS
 62
          15
100
AcDbCircle
 10
-4734.700607333338
 20
-1682.173474806559
 30
0.0
 40
8.604407030244
100
AcDbArc
 50
353.589999999999
 51
17.59198532828
  0
ARC
  5
1D9
100
AcDbEntity
  8
WHITE
  6
CONTINUOUS
 62
          15
100
AcDbCircle
 10
-4729.151027744836
 20
-1688.079967798133
 30
0.0
 40
2.430106011614
100
AcDbArc
 50
353.589999999999
 51
39.655478142734
  0
ARC
  5
1DA
100
AcDbEntity
  8
WHITE
  6
CONTINUOUS
 62
          15
100
AcDbCircle
 10
-4727.978782799675
 20
-1677.645609083362
 30
0.0
 40
2.430106011614
100
AcDbArc
 50
353.589999999999
 51
39.655478142734
  0
ARC
  5
1DB
100
AcDbEntity
  8
WHITE
  6
CONTINUOUS
 62
          15
100
AcDbCircle
 10
-4729.151027744836
 20
-1688.079967798133
 30
0.0
 40
2.430106011614
100
AcDbArc
 50
307.524521857251
 51
353.589999999999
  0
ARC
  5
1DC
100
AcDbEntity
  8
WHITE
  6
CONTINUOUS
 62
          15
100
AcDbCircle
 10
-4727.978782799675
 20
-1677.645609083362
 30
0.0
 40
2.430106011613
100
AcDbArc
 50
307.524521857281
 51
353.589999999999
  0
ARC
  5
1DD
100
AcDbEntity
  8
WHITE
  6
CONTINUOUS
 62
          15
100
AcDbCircle
 10
-4734.700607333338
 20
-1682.173474806559
 30
0.0
 40
8.604407030244
100
AcDbArc
 50
329.588014671731
 51
353.589999999999
  0
CIRCLE
  5
1DE
100
AcDbEntity
  8
WHITE
  6
CONTINUOUS
 62
          15
100
AcDbCircle
 10
-4654.985072101095
 20
-1708.034779808919
 30
0.0
 40
2.25
  0
CIRCLE
  5
1DF
100
AcDbEntity
  8
WHITE
  6
CONTINUOUS
 62
          15
100
AcDbCircle
 10
-4675.85378953064
 20
-1705.690289918598
 30
0.0
 40
2.25
  0
CIRCLE
  5
1E0
100
AcDbEntity
  8
WHITE
  6
CONTINUOUS
 62
          15
100
AcDbCircle
 10
-4640.581892581653
 20
-1669.401265605178
 30
0.0
 40
2.25
  0
ARC
  5
1E1
100
AcDbEntity
  8
WHITE
  6
CONTINUOUS
 62
          15
100
AcDbCircle
 10
-4723.628571613081
 20
-1669.773261173969
 30
0.0
 40
0.5
100
AcDbArc
 50
90.739821982564
 51
173.59
  0
ARC
  5
1E2
100
AcDbEntity
  8
WHITE
  6
CONTINUOUS
 62
          15
100
AcDbCircle
 10
-4724.199912955963
 20
-1674.858871092634
 30
0.0
 40
0.5
100
AcDbArc
 50
173.59
 51
256.44017801742
  0
ARC
  5
1E3
100
AcDbEntity
  8
WHITE
  6
CONTINUOUS
 62
          15
100
AcDbCircle
 10
-4723.425785919411
 20
-1667.842632664986
 30
0.0
 40
1.0
100
AcDbArc
 50
83.59
 51
173.59
  0
ARC
  5
1E4
100
AcDbEntity
  8
WHITE
  6
CONTINUOUS
 62
          15
100
AcDbCircle
 10
-4726.886699567028
 20
-1698.64883458479
 30
0.0
 40
1.0
100
AcDbArc
 50
173.59
 51
263.59
  0
ARC
  5
1E5
100
AcDbEntity
  8
WHITE
  6
CONTINUOUS
 62
          15
100
AcDbCircle
 10
-4734.652017671667
 20
-1727.462023140272
 30
0.0
 40
1.500000000001
100
AcDbArc
 50
263.59
 51
353.589999999999
  0
ARC
  5
1E6
100
AcDbEntity
  8
WHITE
  6
CONTINUOUS
 62
          15
100
AcDbCircle
 10
-4759.495728897315
 20
-1724.670963747033
 30
0.0
 40
1.5
100
AcDbArc
 50
173.59
 51
263.59
  0
ARC
  5
1E7
100
AcDbEntity
  8
WHITE
  6
CONTINUOUS
 62
          15
100
AcDbCircle
 10
-4769.969359401142
 20
-1710.412525400941
 30
0.0
 40
1.5
100
AcDbArc
 50
83.59
 51
173.59
  0
ARC
  5
1E8
100
AcDbEntity
  8
WHITE
  6
CONTINUOUS
 62
          15
100
AcDbCircle
 10
-4771.643995037086
 20
-1725.31875213633
 30
0.0
 40
1.5
100
AcDbArc
 50
173.59
 51
263.59
  0
ARC
  5
1E9
100
AcDbEntity
  8
WHITE
  6
CONTINUOUS
 62
          15
100
AcDbCircle
 10
-4753.404976363317
 20
-1670.45610272757
 30
0.0
 40
2.0
100
AcDbArc
 50
85.59
 51
173.59
  0
TEXT
  5
1EA
100
AcDbEntity
  8
WHITE
  6
CONTINUOUS
 62
           7
100
AcDbText
 10
-4744.366870457069
 20
-1688.460133129428
 30
0.0
 40
4.0
  1
14
 50
-6.41
 41
0.955
  7
TXT
100
AcDbText
  0
ENDSEC
  0
SECTION
  2
OBJECTS
  0
DICTIONARY
  5
19
100
AcDbDictionary
  3
ACAD_GROUP
350
1A
  3
ACAD_MLINESTYLE
350
1B
  0
DICTIONARY
  5
1A
102
{ACAD_REACTORS
330
19
102
}
100
AcDbDictionary
  0
DICTIONARY
  5
1B
102
{ACAD_REACTORS
330
19
102
}
100
AcDbDictionary
  3
STANDARD
350
1C
  0
MLINESTYLE
  5
1C
102
{ACAD_REACTORS
330
1B
102
}
100
AcDbMlineStyle
  2
STANDARD
 70
           0
  3

 62
           0
 51
90.0
 52
90.0
 71
           2
 49
0.5
 62
         256
  6
BYLAYER
 49
-0.5
 62
         256
  6
BYLAYER
  0
ENDSEC
  0
EOF
