  0
SECTION
  2
HEADER
  9
$ACADVER
  1
AC1012
  9
$DWGCODEPAGE
  3
dos850
  9
$INSBASE
 10
0.0
 20
0.0
 30
0.0
  9
$EXTMIN
 10
-5149.208125223143
 20
2896.291309024672
 30
0.0
  9
$EXTMAX
 10
-4677.789625243559
 20
3027.177871004256
 30
0.0
  9
$LIMMIN
 10
-5149.208125223143
 20
2896.291309024672
  9
$LIMMAX
 10
-4677.789625243559
 20
3027.177871004256
  9
$ORTHOMODE
 70
           0
  9
$REGENMODE
 70
           1
  9
$FILLMODE
 70
           1
  9
$QTEXTMODE
 70
           0
  9
$MIRRTEXT
 70
           1
  9
$DRAGMODE
 70
           2
  9
$LTSCALE
 40
5.0
  9
$OSMODE
 70
           0
  9
$ATTMODE
 70
           1
  9
$TEXTSIZE
 40
0.2
  9
$TRACEWID
 40
0.05
  9
$TEXTSTYLE
  7
TXT
  9
$CLAYER
  8
0
  9
$CELTYPE
  6
CONTINUOUS
  9
$CECOLOR
 62
         256
  9
$CELTSCALE
 40
1.0
  9
$DELOBJ
 70
           1
  9
$DISPSILH
 70
           0
  9
$DIMSCALE
 40
1.0
  9
$DIMASZ
 40
3.5
  9
$DIMEXO
 40
0.0625
  9
$DIMDLI
 40
0.38
  9
$DIMRND
 40
0.0
  9
$DIMDLE
 40
0.0
  9
$DIMEXE
 40
0.18
  9
$DIMTP
 40
0.0
  9
$DIMTM
 40
0.0
  9
$DIMTXT
 40
3.5
  9
$DIMCEN
 40
0.09
  9
$DIMTSZ
 40
0.0
  9
$DIMTOL
 70
           0
  9
$DIMLIM
 70
           0
  9
$DIMTIH
 70
           1
  9
$DIMTOH
 70
           1
  9
$DIMSE1
 70
           0
  9
$DIMSE2
 70
           0
  9
$DIMTAD
 70
           0
  9
$DIMZIN
 70
           0
  9
$DIMBLK
  1

  9
$DIMASO
 70
           1
  9
$DIMSHO
 70
           1
  9
$DIMPOST
  1

  9
$DIMAPOST
  1

  9
$DIMALT
 70
           0
  9
$DIMALTD
 70
           2
  9
$DIMALTF
 40
25.4
  9
$DIMLFAC
 40
1.0
  9
$DIMTOFL
 70
           0
  9
$DIMTVP
 40
0.0
  9
$DIMTIX
 70
           0
  9
$DIMSOXD
 70
           0
  9
$DIMSAH
 70
           0
  9
$DIMBLK1
  1

  9
$DIMBLK2
  1

  9
$DIMSTYLE
  2
STANDARD
  9
$DIMCLRD
 70
           0
  9
$DIMCLRE
 70
           0
  9
$DIMCLRT
 70
           0
  9
$DIMTFAC
 40
1.0
  9
$DIMGAP
 40
0.09
  9
$DIMJUST
 70
           0
  9
$DIMSD1
 70
           0
  9
$DIMSD2
 70
           0
  9
$DIMTOLJ
 70
           1
  9
$DIMTZIN
 70
           0
  9
$DIMALTZ
 70
           0
  9
$DIMALTTZ
 70
           0
  9
$DIMFIT
 70
           3
  9
$DIMUPT
 70
           0
  9
$DIMUNIT
 70
           2
  9
$DIMDEC
 70
           4
  9
$DIMTDEC
 70
           4
  9
$DIMALTU
 70
           2
  9
$DIMALTTD
 70
           2
  9
$DIMTXSTY
  7
TXT
  9
$DIMAUNIT
 70
           0
  9
$LUNITS
 70
           2
  9
$LUPREC
 70
           2
  9
$SKETCHINC
 40
0.1
  9
$FILLETRAD
 40
0.0
  9
$AUNITS
 70
           0
  9
$AUPREC
 70
           2
  9
$MENU
  1
acad
  9
$ELEVATION
 40
0.0
  9
$PELEVATION
 40
0.0
  9
$THICKNESS
 40
0.0
  9
$LIMCHECK
 70
           0
  9
$BLIPMODE
 70
           1
  9
$CHAMFERA
 40
0.0
  9
$CHAMFERB
 40
0.0
  9
$CHAMFERC
 40
0.0
  9
$CHAMFERD
 40
0.0
  9
$SKPOLY
 70
           0
  9
$TDCREATE
 40
0.000000000
  9
$TDUPDATE
 40
0.000000000
  9
$TDINDWG
 40
0.0000000000
  9
$TDUSRTIMER
 40
0.0000000000
  9
$USRTIMER
 70
           1
  9
$ANGBASE
 50
0.0
  9
$ANGDIR
 70
           0
  9
$PDMODE
 70
           2
  9
$PDSIZE
 40
0.5
  9
$PLINEWID
 40
0.0
  9
$COORDS
 70
           0
  9
$SPLFRAME
 70
           0
  9
$SPLINETYPE
 70
           6
  9
$SPLINESEGS
 70
           8
  9
$ATTDIA
 70
           0
  9
$ATTREQ
 70
           1
  9
$HANDLING
 70
           1
  9
$HANDSEED
  5
21E
  9
$SURFTAB1
 70
           6
  9
$SURFTAB2
 70
           6
  9
$SURFTYPE
 70
           6
  9
$SURFU
 70
           6
  9
$SURFV
 70
           6
  9
$UCSNAME
  2

  9
$UCSORG
 10
0.0
 20
0.0
 30
0.0
  9
$UCSXDIR
 10
1.0
 20
0.0
 30
0.0
  9
$UCSYDIR
 10
0.0
 20
1.0
 30
0.0
  9
$PUCSNAME
  2

  9
$PUCSORG
 10
0.0
 20
0.0
 30
0.0
  9
$PUCSXDIR
 10
1.0
 20
0.0
 30
0.0
  9
$PUCSYDIR
 10
0.0
 20
1.0
 30
0.0
  9
$USERI1
 70
           0
  9
$USERI2
 70
           0
  9
$USERI3
 70
           0
  9
$USERI4
 70
           0
  9
$USERI5
 70
           0
  9
$USERR1
 40
0.0
  9
$USERR2
 40
0.0
  9
$USERR3
 40
0.0
  9
$USERR4
 40
0.0
  9
$USERR5
 40
0.0
  9
$WORLDVIEW
 70
           1
  9
$SHADEDGE
 70
           3
  9
$SHADEDIF
 70
          70
  9
$TILEMODE
 70
           1
  9
$MAXACTVP
 70
          16
  9
$PINSBASE
 10
0.0
 20
0.0
 30
0.0
  9
$PLIMCHECK
 70
           0
  9
$PEXTMIN
 10
1.000000000000E+20
 20
1.000000000000E+20
 30
1.000000000000E+20
  9
$PEXTMAX
 10
-1.000000000000E+20
 20
-1.000000000000E+20
 30
-1.000000000000E+20
  9
$PLIMMIN
 10
0.0
 20
0.0
  9
$PLIMMAX
 10
12.0
 20
9.0
  9
$UNITMODE
 70
           0
  9
$VISRETAIN
 70
           0
  9
$PLINEGEN
 70
           1
  9
$PSLTSCALE
 70
           0
  9
$TREEDEPTH
 70
        3020
  9
$PICKSTYLE
 70
           1
  9
$CMLSTYLE
  2
STANDARD
  9
$CMLJUST
 70
           0
  9
$CMLSCALE
 40
1.0
  9
$SAVEIMAGES
 70
           0
  0
ENDSEC
  0
SECTION
  2
CLASSES
  0
CLASS
  1
LWPOLYLINE
  2
AcDbPolyline
  3
"AutoCAD"
 90
        0
280
           0
281
           1
  0
CLASS
  1
IMAGE
  2
AcDbRasterImage
  3
ISM
 90
      127
280
           0
281
           1
  0
CLASS
  1
OLE2FRAME
  2
AcDbOle2Frame
  3
""
 90
        0
280
           0
281
           1
  0
CLASS
  1
HATCH
  2
AcDbHatch
  3
"ACAD_SEDONA"
 90
        0
280
           0
281
           1
  0
CLASS
  1
DICTIONARYVAR
  2
AcDbDictionaryVar
  3
"AutoCAD"
 90
        0
280
           0
281
           0
  0
CLASS
  1
RASTERVARIABLES
  2
AcDbRasterVariables
  3
ISM
 90
        0
280
           0
281
           0
  0
CLASS
  1
IMAGEDEF
  2
AcDbRasterImageDef
  3
ISM
 90
        0
280
           0
281
           0
  0
CLASS
  1
IMAGEDEF_REACTOR
  2
AcDbRasterImageDefReactor
  3
ISM
 90
        1
280
           0
281
           0
  0
CLASS
  1
IDBUFFER
  2
AcDbIdBuffer
  3
"Acad"
 90
        0
280
           0
281
           0
  0
CLASS
  1
SPATIAL_FILTER
  2
AcDbSpatialFilter
  3
"Acad"
 90
        0
280
           0
281
           0
  0
CLASS
  1
XRECORD
  2
AcDbXrecord
  3
"<Built In>"
 90
        0
280
           0
281
           0
  0
ENDSEC
  0
SECTION
  2
TABLES
  0
TABLE
  2
VPORT
  5
7
100
AcDbSymbolTable
 70
           1
  0
VPORT
  5
15
100
AcDbSymbolTableRecord
100
AcDbViewportTableRecord
  2
*ACTIVE
 70
           0
 10
0.0
 20
0.0
 11
1.0
 21
1.0
 12
6.591288
 22
4.579184
 13
0.0
 23
0.0
 14
1.0
 24
1.0
 15
0.0
 25
0.0
 16
0.0
 26
0.0
 36
1.0
 17
0.0
 27
0.0
 37
0.0
 40
9.158369
 41
0.688564
 42
50.0
 43
0.0
 44
0.0
 50
0.0
 51
0.0
 71
           0
 72
         100
 73
           1
 74
           1
 75
           0
 76
           0
 77
           0
 78
           0
  0
ENDTAB
  0
TABLE
  2
LTYPE
  5
4
100
AcDbSymbolTable
 70
           5
  0
LTYPE
  5
11
100
AcDbSymbolTableRecord
100
AcDbLinetypeTableRecord
  2
BYBLOCK
 70
           0
  3

 72
          65
 73
           0
 40
0.0
  0
LTYPE
  5
12
100
AcDbSymbolTableRecord
100
AcDbLinetypeTableRecord
  2
BYLAYER
 70
           0
  3

 72
          65
 73
           0
 40
0.0
  0
LTYPE
  5
13
100
AcDbSymbolTableRecord
100
AcDbLinetypeTableRecord
  2
CONTINUOUS
 70
           0
  3
Solid line
 72
          65
 73
           0
 40
0.0
  0
LTYPE
  5
1D
100
AcDbSymbolTableRecord
100
AcDbLinetypeTableRecord
  2
GESTRICHELT
 70
           0
  3

 72
          65
 73
           2
 40
0.75
 49
0.5
 74
           0
 49
-0.25
 74
           0
  0
LTYPE
  5
1E
100
AcDbSymbolTableRecord
100
AcDbLinetypeTableRecord
  2
STRICHPUNKT
 70
           0
  3

 72
          65
 73
           4
 40
1.0
 49
0.5
 74
           0
 49
-0.25
 74
           0
 49
0.0
 74
           0
 49
-0.25
 74
           0
  0
ENDTAB
  0
TABLE
  2
LAYER
  5
2
100
AcDbSymbolTable
 70
           4
  0
LAYER
  5
14
100
AcDbSymbolTableRecord
100
AcDbLayerTableRecord
  2
0
 70
           0
 62
           7
  6
CONTINUOUS
  0
LAYER
  5
20
100
AcDbSymbolTableRecord
100
AcDbLayerTableRecord
  2
BLACK
 70
           0
 62
           7
  6
CONTINUOUS
  0
LAYER
  5
21
100
AcDbSymbolTableRecord
100
AcDbLayerTableRecord
  2
WHITE
 70
           0
 62
           7
  6
CONTINUOUS
  0
LAYER
  5
22
100
AcDbSymbolTableRecord
100
AcDbLayerTableRecord
  2
YELLOW
 70
           0
 62
           7
  6
CONTINUOUS
  0
ENDTAB
  0
TABLE
  2
STYLE
  5
3
100
AcDbSymbolTable
 70
           2
  0
STYLE
  5
17
100
AcDbSymbolTableRecord
100
AcDbTextStyleTableRecord
  2
TXT
 70
           0
 40
3.5
 41
1.0
 50
0.0
 71
           0
 42
3.5
  3
TXT
  4

  0
STYLE
  5
1F
100
AcDbSymbolTableRecord
100
AcDbTextStyleTableRecord
  2
GOTHICG
 70
           0
 40
3.5
 41
1.0
 50
0.0
 71
           0
 42
3.5
  3
GOTHICG
  4

  0
ENDTAB
  0
TABLE
  2
VIEW
  5
5
100
AcDbSymbolTable
 70
           0
  0
ENDTAB
  0
TABLE
  2
UCS
  5
6
100
AcDbSymbolTable
 70
           0
  0
ENDTAB
  0
TABLE
  2
APPID
  5
8
100
AcDbSymbolTable
 70
           2
  0
APPID
  5
16
100
AcDbSymbolTableRecord
100
AcDbRegAppTableRecord
  2
ACAD
 70
           0
  0
APPID
  5
23
100
AcDbSymbolTableRecord
100
AcDbRegAppTableRecord
  2
MegaCADPntStyle
 70
           0
  0
ENDTAB
  0
TABLE
  2
DIMSTYLE
  5
9
100
AcDbSymbolTable
 70
           1
  0
DIMSTYLE
105
18
100
AcDbSymbolTableRecord
100
AcDbDimStyleTableRecord
  2
STANDARD
 70
           0
  3

  4

  5

  6

  7

 40
1.0
 41
0.18
 42
0.0625
 43
0.38
 44
0.18
 45
0.0
 46
0.0
 47
0.0
 48
0.0
140
0.18
141
0.09
142
0.0
143
25.4
144
1.0
145
0.0
146
1.0
147
0.09
 71
           0
 72
           0
 73
           1
 74
           1
 75
           0
 76
           0
 77
           0
 78
           0
170
           0
171
           2
172
           0
173
           0
174
           0
175
           0
176
           0
177
           0
178
           0
270
           2
271
           4
272
           4
273
           2
274
           2
340
17
275
           0
280
           0
281
           0
282
           0
283
           1
284
           0
285
           0
286
           0
287
           0
288
           0
  0
ENDTAB
  0
TABLE
  2
BLOCK_RECORD
  5
1
100
AcDbSymbolTable
 70
           3
  0
BLOCK_RECORD
  5
A
100
AcDbSymbolTableRecord
100
AcDbBlockTableRecord
  2
*MODEL_SPACE
  0
BLOCK_RECORD
  5
B
100
AcDbSymbolTableRecord
100
AcDbBlockTableRecord
  2
*PAPER_SPACE
  0
BLOCK_RECORD
  5
24
100
AcDbSymbolTableRecord
100
AcDbBlockTableRecord
  2
ELIPPSE
  0
BLOCK_RECORD
  5
25
100
AcDbSymbolTableRecord
100
AcDbBlockTableRecord
  2
01081201_SNCB-____TOP__1
  0
BLOCK_RECORD
  5
26
100
AcDbSymbolTableRecord
100
AcDbBlockTableRecord
  2
MAK2
  0
ENDTAB
  0
ENDSEC
  0
SECTION
  2
BLOCKS
  0
BLOCK
  5
D
100
AcDbEntity
  8
0
100
AcDbBlockBegin
  2
*MODEL_SPACE
 70
           0
 10
0.0
 20
0.0
 30
0.0
  3
*MODEL_SPACE
  1

  0
ENDBLK
  5
E
100
AcDbEntity
  8
0
100
AcDbBlockEnd
  0
BLOCK
  5
F
100
AcDbEntity
 67
           1
  8
0
100
AcDbBlockBegin
  2
*PAPER_SPACE
 70
           0
 10
0.0
 20
0.0
 30
0.0
  3
*PAPER_SPACE
  1

  0
ENDBLK
  5
10
100
AcDbEntity
 67
           1
  8
0
100
AcDbBlockEnd
  0
BLOCK
  5
1CC
100
AcDbEntity
  8
0
100
AcDbBlockBegin
  2
ELIPPSE
 70
          64
 10
0.0
 20
0.0
 30
0.0
  3
ELIPPSE
  1

  0
CIRCLE
  5
1CD
100
AcDbEntity
  8
0
  6
BYBLOCK
 62
           0
100
AcDbCircle
 10
0.0
 20
0.0
 30
0.0
 40
1.0
  0
ENDBLK
  5
1CE
100
AcDbEntity
  8
0
  6
BYBLOCK
 62
           0
100
AcDbBlockEnd
  0
BLOCK
  5
1CF
100
AcDbEntity
  8
0
100
AcDbBlockBegin
  2
01081201_SNCB-____TOP__1
 70
          64
 10
0.0
 20
0.0
 30
0.0
  3
01081201_SNCB-____TOP__1
  1

  0
LINE
  5
1D0
100
AcDbEntity
  8
BLACK
  6
CONTINUOUS
 62
          15
100
AcDbLine
 10
1258.600515180217
 20
-267.768116173917
 30
0.0
 11
1257.548157960908
 21
-267.786485137506
 31
0.0
  0
LINE
  5
1D1
100
AcDbEntity
  8
BLACK
  6
CONTINUOUS
 62
          15
100
AcDbLine
 10
1259.583062773781
 20
-266.76826847876
 30
0.0
 11
1259.583062773781
 21
-275.754670443263
 31
0.0
  0
LINE
  5
1D2
100
AcDbEntity
  8
BLACK
  6
CONTINUOUS
 62
          15
100
AcDbLine
 10
1259.583062773781
 20
-239.873303524415
 30
0.0
 11
1259.583062773781
 21
-240.056979763094
 31
0.0
  0
LINE
  5
1D3
100
AcDbEntity
  8
BLACK
  6
CONTINUOUS
 62
          15
100
AcDbLine
 10
1257.548157960907
 20
-238.855086865668
 30
0.0
 11
1258.600515180217
 21
-238.873455829258
 31
0.0
  0
LINE
  5
1D4
100
AcDbEntity
  8
WHITE
  6
CONTINUOUS
 62
          15
100
AcDbLine
 10
1259.88306277378
 20
-240.771122605949
 30
0.0
 11
1259.88306277378
 21
-265.870449397227
 31
0.0
  0
LINE
  5
1D5
100
AcDbEntity
  8
WHITE
  6
CONTINUOUS
 62
          15
100
AcDbLine
 10
1275.792491651027
 20
-265.318958343465
 30
0.0
 11
1260.565610367343
 21
-265.584744544925
 31
0.0
  0
LINE
  5
1D6
100
AcDbEntity
  8
WHITE
  6
CONTINUOUS
 62
          15
100
AcDbLine
 10
1275.792491651027
 20
-241.32261365971
 30
0.0
 11
1260.565610367344
 21
-241.056827458249
 31
0.0
  0
LINE
  5
1D7
100
AcDbEntity
  8
BLACK
  6
CONTINUOUS
 62
          15
100
AcDbLine
 10
1259.583062773781
 20
-266.584592240081
 30
0.0
 11
1259.583062773781
 21
-266.76826847876
 31
0.0
  0
LINE
  5
1D8
100
AcDbEntity
  8
WHITE
  6
CONTINUOUS
 62
          15
100
AcDbLine
 10
1255.583062773781
 20
-227.850152157526
 30
0.0
 11
1256.687761263888
 21
-227.888729078856
 31
0.0
  0
LINE
  5
1D9
100
AcDbEntity
  8
BLACK
  6
CONTINUOUS
 62
          15
100
AcDbLine
 10
1259.58306277378
 20
-230.886901559913
 30
0.0
 11
1259.583062773781
 21
-239.873303524415
 31
0.0
  0
LINE
  5
1DA
100
AcDbEntity
  8
WHITE
  6
CONTINUOUS
 62
          15
100
AcDbLine
 10
1256.687761263886
 20
-278.75284292432
 30
0.0
 11
1255.583062773781
 21
-278.791419845651
 31
0.0
  0
LINE
  5
1DB
100
AcDbEntity
  8
BLACK
  6
CONTINUOUS
 62
          15
100
AcDbLine
 10
1253.652861767186
 20
-221.532748053097
 30
0.0
 11
1248.58306277378
 21
-221.355706771079
 31
0.0
  0
LINE
  5
1DC
100
AcDbEntity
  8
BLACK
  6
CONTINUOUS
 62
          15
100
AcDbLine
 10
1253.652861767185
 20
-285.108823950077
 30
0.0
 11
1248.58306277378
 21
-285.285865232095
 31
0.0
  0
LINE
  5
1DD
100
AcDbEntity
  8
WHITE
  6
CONTINUOUS
 62
          15
100
AcDbLine
 10
1255.583062773781
 20
-269.786180527818
 30
0.0
 11
1255.583062773781
 21
-278.791419845651
 31
0.0
  0
LINE
  5
1DE
100
AcDbEntity
  8
WHITE
  6
CONTINUOUS
 62
          15
100
AcDbLine
 10
1255.583062773781
 20
-227.850152157526
 30
0.0
 11
1255.583062773781
 21
-236.855391475356
 31
0.0
  0
LINE
  5
1DF
100
AcDbEntity
  8
WHITE
  6
CONTINUOUS
 62
          15
100
AcDbLine
 10
1255.58306277378
 20
-223.531529707135
 30
0.0
 11
1255.583062773781
 21
-227.850152157526
 31
0.0
  0
LINE
  5
1E0
100
AcDbEntity
  8
WHITE
  6
CONTINUOUS
 62
          15
100
AcDbLine
 10
1255.583062773781
 20
-278.791419845651
 30
0.0
 11
1255.583062773781
 21
-283.110042296039
 31
0.0
  0
LINE
  5
1E1
100
AcDbEntity
  8
WHITE
  6
CONTINUOUS
 62
          15
100
AcDbLine
 10
1248.58306277378
 20
-221.320336260378
 30
0.0
 11
1248.58306277378
 21
-285.320336260378
 31
0.0
  0
ARC
  5
1E2
100
AcDbEntity
  8
WHITE
  6
CONTINUOUS
 62
          15
100
AcDbCircle
 10
1275.583062773781
 20
-253.320786001587
 30
0.0
 40
12.0
100
AcDbArc
 50
271.0
 51
89.000000000001
  0
ARC
  5
1E3
100
AcDbEntity
  8
BLACK
  6
CONTINUOUS
 62
          15
100
AcDbCircle
 10
1260.583062773781
 20
-266.584592240081
 30
0.0
 40
0.999999999999
100
AcDbArc
 50
91.000000000009
 51
134.427004000836
  0
ARC
  5
1E4
100
AcDbEntity
  8
BLACK
  6
CONTINUOUS
 62
          15
100
AcDbCircle
 10
1260.583062773781
 20
-266.584592240081
 30
0.0
 40
1.0
100
AcDbArc
 50
134.42700400083
 51
180.0
  0
ARC
  5
1E5
100
AcDbEntity
  8
BLACK
  6
CONTINUOUS
 62
          15
100
AcDbCircle
 10
1258.583062773781
 20
-266.76826847876
 30
0.0
 40
1.0
100
AcDbArc
 50
270.999999999927
 51
0.0
  0
ARC
  5
1E6
100
AcDbEntity
  8
BLACK
  6
CONTINUOUS
 62
          15
100
AcDbCircle
 10
1257.583062773781
 20
-269.786180527818
 30
0.0
 40
1.999999999999
100
AcDbArc
 50
90.999999999919
 51
180.0
  0
ARC
  5
1E7
100
AcDbEntity
  8
BLACK
  6
CONTINUOUS
 62
          15
100
AcDbCircle
 10
1260.583062773781
 20
-240.056979763094
 30
0.0
 40
1.0
100
AcDbArc
 50
180.0
 51
225.572995999247
  0
ARC
  5
1E8
100
AcDbEntity
  8
BLACK
  6
CONTINUOUS
 62
          15
100
AcDbCircle
 10
1260.583062773781
 20
-240.056979763094
 30
0.0
 40
1.000000000001
100
AcDbArc
 50
225.572995999246
 51
268.999999999992
  0
ARC
  5
1E9
100
AcDbEntity
  8
BLACK
  6
CONTINUOUS
 62
          15
100
AcDbCircle
 10
1257.583062773781
 20
-236.855391475356
 30
0.0
 40
2.0
100
AcDbArc
 50
180.0
 51
269.000000000016
  0
ARC
  5
1EA
100
AcDbEntity
  8
BLACK
  6
CONTINUOUS
 62
          15
100
AcDbCircle
 10
1258.583062773781
 20
-239.873303524415
 30
0.0
 40
1.0
100
AcDbArc
 50
0.0
 51
89.000000000073
  0
ARC
  5
1EB
100
AcDbEntity
  8
BLACK
  6
CONTINUOUS
 62
          15
100
AcDbCircle
 10
1253.583062773781
 20
-283.110042296039
 30
0.0
 40
2.0
100
AcDbArc
 50
271.999999999993
 51
0.0
  0
ARC
  5
1EC
100
AcDbEntity
  8
BLACK
  6
CONTINUOUS
 62
          15
100
AcDbCircle
 10
1256.583062773781
 20
-275.754670443263
 30
0.0
 40
3.0
100
AcDbArc
 50
271.999999999993
 51
0.0
  0
ARC
  5
1ED
100
AcDbEntity
  8
BLACK
  6
CONTINUOUS
 62
          15
100
AcDbCircle
 10
1256.58306277378
 20
-230.886901559913
 30
0.0
 40
3.0
100
AcDbArc
 50
0.0
 51
87.99999999999
  0
ARC
  5
1EE
100
AcDbEntity
  8
BLACK
  6
CONTINUOUS
 62
          15
100
AcDbCircle
 10
1253.58306277378
 20
-223.531529707136
 30
0.0
 40
2.0
100
AcDbArc
 50
0.0
 51
88.000000000006
  0
ENDBLK
  5
1EF
100
AcDbEntity
  8
0
  6
BYBLOCK
 62
           0
100
AcDbBlockEnd
  0
BLOCK
  5
1F0
100
AcDbEntity
  8
0
100
AcDbBlockBegin
  2
MAK2
 70
          64
 10
0.0
 20
0.0
 30
0.0
  3
MAK2
  1

  0
LINE
  5
1F1
100
AcDbEntity
  8
WHITE
  6
CONTINUOUS
 62
           2
100
AcDbLine
 10
-15.50693229743
 20
611.597948837689
 30
0.0
 11
-15.596491646589
 21
611.687508186849
 31
0.0
  0
LINE
  5
1F2
100
AcDbEntity
  8
WHITE
  6
CONTINUOUS
 62
           2
100
AcDbLine
 10
-14.44627212565
 20
611.597948837688
 30
0.0
 11
-15.596491646588
 21
612.748168358628
 31
0.0
  0
LINE
  5
1F3
100
AcDbEntity
  8
WHITE
  6
CONTINUOUS
 62
           2
100
AcDbLine
 10
-13.596491646588
 20
611.808828530408
 30
0.0
 11
-15.596491646588
 21
613.808828530408
 31
0.0
  0
LINE
  5
1F4
100
AcDbEntity
  8
WHITE
  6
CONTINUOUS
 62
           2
100
AcDbLine
 10
-13.596491646588
 20
612.869488702188
 30
0.0
 11
-15.596491646588
 21
614.869488702188
 31
0.0
  0
LINE
  5
1F5
100
AcDbEntity
  8
WHITE
  6
CONTINUOUS
 62
           2
100
AcDbLine
 10
-13.596491646588
 20
613.930148873968
 30
0.0
 11
-15.596491646588
 21
615.930148873968
 31
0.0
  0
LINE
  5
1F6
100
AcDbEntity
  8
WHITE
  6
CONTINUOUS
 62
           2
100
AcDbLine
 10
-13.596491646588
 20
614.990809045747
 30
0.0
 11
-15.596491646588
 21
616.990809045747
 31
0.0
  0
LINE
  5
1F7
100
AcDbEntity
  8
WHITE
  6
CONTINUOUS
 62
           2
100
AcDbLine
 10
-13.596491646588
 20
616.051469217527
 30
0.0
 11
-15.596491646588
 21
618.051469217527
 31
0.0
  0
LINE
  5
1F8
100
AcDbEntity
  8
WHITE
  6
CONTINUOUS
 62
           2
100
AcDbLine
 10
-13.596491646588
 20
617.112129389307
 30
0.0
 11
-15.596491646588
 21
619.112129389307
 31
0.0
  0
LINE
  5
1F9
100
AcDbEntity
  8
WHITE
  6
CONTINUOUS
 62
           2
100
AcDbLine
 10
-13.596491646588
 20
618.172789561087
 30
0.0
 11
-15.596491646588
 21
620.172789561087
 31
0.0
  0
LINE
  5
1FA
100
AcDbEntity
  8
WHITE
  6
CONTINUOUS
 62
           2
100
AcDbLine
 10
-13.596491646588
 20
619.233449732867
 30
0.0
 11
-15.596491646589
 21
621.233449732867
 31
0.0
  0
LINE
  5
1FB
100
AcDbEntity
  8
WHITE
  6
CONTINUOUS
 62
           2
100
AcDbLine
 10
-13.596491646589
 20
620.294109904646
 30
0.0
 11
-15.596491646589
 21
622.294109904647
 31
0.0
  0
LINE
  5
1FC
100
AcDbEntity
  8
WHITE
  6
CONTINUOUS
 62
           2
100
AcDbLine
 10
-13.596491646589
 20
621.354770076426
 30
0.0
 11
-15.596491646589
 21
623.354770076426
 31
0.0
  0
LINE
  5
1FD
100
AcDbEntity
  8
WHITE
  6
CONTINUOUS
 62
           2
100
AcDbLine
 10
-13.596491646588
 20
622.415430248206
 30
0.0
 11
-15.596491646589
 21
624.415430248206
 31
0.0
  0
LINE
  5
1FE
100
AcDbEntity
  8
WHITE
  6
CONTINUOUS
 62
           2
100
AcDbLine
 10
-13.596491646588
 20
623.476090419986
 30
0.0
 11
-15.596491646589
 21
625.476090419986
 31
0.0
  0
LINE
  5
1FF
100
AcDbEntity
  8
WHITE
  6
CONTINUOUS
 62
           2
100
AcDbLine
 10
-13.596491646588
 20
624.536750591766
 30
0.0
 11
-15.596491646589
 21
626.536750591765
 31
0.0
  0
LINE
  5
200
100
AcDbEntity
  8
WHITE
  6
CONTINUOUS
 62
           2
100
AcDbLine
 10
-13.596491646588
 20
625.597410763545
 30
0.0
 11
-15.596491646589
 21
627.597410763545
 31
0.0
  0
LINE
  5
201
100
AcDbEntity
  8
WHITE
  6
CONTINUOUS
 62
           2
100
AcDbLine
 10
-13.596491646588
 20
626.658070935325
 30
0.0
 11
-15.596491646589
 21
628.658070935325
 31
0.0
  0
LINE
  5
202
100
AcDbEntity
  8
WHITE
  6
CONTINUOUS
 62
           2
100
AcDbLine
 10
-13.596491646588
 20
627.718731107105
 30
0.0
 11
-15.596491646589
 21
629.718731107105
 31
0.0
  0
LINE
  5
203
100
AcDbEntity
  8
WHITE
  6
CONTINUOUS
 62
           2
100
AcDbLine
 10
-13.596491646588
 20
628.779391278885
 30
0.0
 11
-15.596491646589
 21
630.779391278885
 31
0.0
  0
LINE
  5
204
100
AcDbEntity
  8
WHITE
  6
CONTINUOUS
 62
           2
100
AcDbLine
 10
-13.596491646588
 20
629.840051450665
 30
0.0
 11
-15.354389033612
 21
631.597948837688
 31
0.0
  0
LINE
  5
205
100
AcDbEntity
  8
WHITE
  6
CONTINUOUS
 62
           2
100
AcDbLine
 10
-13.596491646588
 20
630.900711622444
 30
0.0
 11
-14.293728861833
 21
631.597948837688
 31
0.0
  0
LINE
  5
206
100
AcDbEntity
  8
WHITE
  6
CONTINUOUS
 62
           2
100
AcDbLine
 10
-15.596491646589
 20
631.406213139101
 30
0.0
 11
-15.404755948001
 21
631.597948837688
 31
0.0
  0
LINE
  5
207
100
AcDbEntity
  8
WHITE
  6
CONTINUOUS
 62
           2
100
AcDbLine
 10
-15.596491646589
 20
630.345552967321
 30
0.0
 11
-14.344095776221
 21
631.597948837688
 31
0.0
  0
LINE
  5
208
100
AcDbEntity
  8
WHITE
  6
CONTINUOUS
 62
           2
100
AcDbLine
 10
-15.596491646589
 20
629.284892795542
 30
0.0
 11
-13.596491646588
 21
631.284892795542
 31
0.0
  0
LINE
  5
209
100
AcDbEntity
  8
WHITE
  6
CONTINUOUS
 62
           2
100
AcDbLine
 10
-15.596491646589
 20
628.224232623762
 30
0.0
 11
-13.596491646588
 21
630.224232623762
 31
0.0
  0
LINE
  5
20A
100
AcDbEntity
  8
WHITE
  6
CONTINUOUS
 62
           2
100
AcDbLine
 10
-15.596491646589
 20
627.163572451982
 30
0.0
 11
-13.596491646588
 21
629.163572451982
 31
0.0
  0
LINE
  5
20B
100
AcDbEntity
  8
WHITE
  6
CONTINUOUS
 62
           2
100
AcDbLine
 10
-15.596491646589
 20
626.102912280202
 30
0.0
 11
-13.596491646588
 21
628.102912280202
 31
0.0
  0
LINE
  5
20C
100
AcDbEntity
  8
WHITE
  6
CONTINUOUS
 62
           2
100
AcDbLine
 10
-15.596491646589
 20
625.042252108422
 30
0.0
 11
-13.596491646588
 21
627.042252108422
 31
0.0
  0
LINE
  5
20D
100
AcDbEntity
  8
WHITE
  6
CONTINUOUS
 62
           2
100
AcDbLine
 10
-15.596491646588
 20
623.981591936642
 30
0.0
 11
-13.596491646588
 21
625.981591936642
 31
0.0
  0
LINE
  5
20E
100
AcDbEntity
  8
WHITE
  6
CONTINUOUS
 62
           2
100
AcDbLine
 10
-15.596491646588
 20
622.920931764863
 30
0.0
 11
-13.596491646588
 21
624.920931764863
 31
0.0
  0
LINE
  5
20F
100
AcDbEntity
  8
WHITE
  6
CONTINUOUS
 62
           2
100
AcDbLine
 10
-15.596491646588
 20
621.860271593083
 30
0.0
 11
-13.596491646588
 21
623.860271593083
 31
0.0
  0
LINE
  5
210
100
AcDbEntity
  8
WHITE
  6
CONTINUOUS
 62
           2
100
AcDbLine
 10
-15.596491646588
 20
620.799611421304
 30
0.0
 11
-13.596491646588
 21
622.799611421303
 31
0.0
  0
LINE
  5
211
100
AcDbEntity
  8
WHITE
  6
CONTINUOUS
 62
           2
100
AcDbLine
 10
-15.596491646588
 20
619.738951249524
 30
0.0
 11
-13.596491646588
 21
621.738951249523
 31
0.0
  0
LINE
  5
212
100
AcDbEntity
  8
WHITE
  6
CONTINUOUS
 62
           2
100
AcDbLine
 10
-15.596491646588
 20
618.678291077744
 30
0.0
 11
-13.596491646588
 21
620.678291077744
 31
0.0
  0
LINE
  5
213
100
AcDbEntity
  8
WHITE
  6
CONTINUOUS
 62
           2
100
AcDbLine
 10
-15.596491646588
 20
617.617630905964
 30
0.0
 11
-13.596491646588
 21
619.617630905964
 31
0.0
  0
LINE
  5
214
100
AcDbEntity
  8
WHITE
  6
CONTINUOUS
 62
           2
100
AcDbLine
 10
-15.596491646588
 20
616.556970734184
 30
0.0
 11
-13.596491646589
 21
618.556970734184
 31
0.0
  0
LINE
  5
215
100
AcDbEntity
  8
WHITE
  6
CONTINUOUS
 62
           2
100
AcDbLine
 10
-15.596491646588
 20
615.496310562405
 30
0.0
 11
-13.596491646589
 21
617.496310562405
 31
0.0
  0
LINE
  5
216
100
AcDbEntity
  8
WHITE
  6
CONTINUOUS
 62
           2
100
AcDbLine
 10
-15.596491646588
 20
614.435650390625
 30
0.0
 11
-13.596491646589
 21
616.435650390625
 31
0.0
  0
LINE
  5
217
100
AcDbEntity
  8
WHITE
  6
CONTINUOUS
 62
           2
100
AcDbLine
 10
-15.596491646589
 20
613.374990218845
 30
0.0
 11
-13.596491646589
 21
615.374990218845
 31
0.0
  0
LINE
  5
218
100
AcDbEntity
  8
WHITE
  6
CONTINUOUS
 62
           2
100
AcDbLine
 10
-15.596491646589
 20
612.314330047065
 30
0.0
 11
-13.596491646589
 21
614.314330047065
 31
0.0
  0
LINE
  5
219
100
AcDbEntity
  8
WHITE
  6
CONTINUOUS
 62
           2
100
AcDbLine
 10
-15.252212684185
 20
611.597948837688
 30
0.0
 11
-13.596491646589
 21
613.253669875285
 31
0.0
  0
LINE
  5
21A
100
AcDbEntity
  8
WHITE
  6
CONTINUOUS
 62
           2
100
AcDbLine
 10
-14.191552512406
 20
611.597948837688
 30
0.0
 11
-13.596491646589
 21
612.193009703506
 31
0.0
  0
ENDBLK
  5
21B
100
AcDbEntity
  8
0
  6
BYBLOCK
 62
           0
100
AcDbBlockEnd
  0
ENDSEC
  0
SECTION
  2
ENTITIES
  0
INSERT
  5
27
100
AcDbEntity
  8
0
  6
CONTINUOUS
 62
           7
100
AcDbBlockReference
  2
01081201_SNCB-____TOP__1
 10
-5760.410830746497
 20
3300.828703852551
 30
0.0
 41
0.84375
 42
0.84375
 43
0.84375
 50
353.069999999999
  0
INSERT
  5
28
100
AcDbEntity
  8
0
  6
CONTINUOUS
 62
           7
100
AcDbBlockReference
  2
MAK2
 10
-4997.854028538603
 20
2363.435879660763
 30
0.0
 50
353.069999999999
  0
LINE
  5
29
100
AcDbEntity
  8
0
  6
CONTINUOUS
 62
          15
100
AcDbLine
 10
-5119.900082521926
 20
3021.291309024672
 30
0.0
 11
-5041.321563243559
 21
3021.291309024672
 31
0.0
  0
LINE
  5
2A
100
AcDbEntity
  8
0
  6
CONTINUOUS
 62
          15
100
AcDbLine
 10
-5120.321563243559
 20
3021.291309024672
 30
0.0
 11
-5119.900082521926
 21
3021.291309024672
 31
0.0
  0
LINE
  5
2B
100
AcDbEntity
  8
0
  6
CONTINUOUS
 62
          15
100
AcDbLine
 10
-5041.321563243559
 20
2918.791309024672
 30
0.0
 11
-5041.321563243559
 21
2896.291309024672
 31
0.0
  0
LINE
  5
2C
100
AcDbEntity
  8
0
  6
GESTRICHELT
 62
          15
100
AcDbLine
 10
-5041.321563243559
 20
3006.174125999997
 30
0.0
 11
-5041.321563243559
 21
2918.791309024672
 31
0.0
  0
LINE
  5
2D
100
AcDbEntity
  8
0
  6
CONTINUOUS
 62
          15
100
AcDbLine
 10
-5041.321563243559
 20
3021.291309024672
 30
0.0
 11
-5041.321563243559
 21
3006.174125999997
 31
0.0
  0
LINE
  5
2E
100
AcDbEntity
  8
0
  6
CONTINUOUS
 62
          15
100
AcDbLine
 10
-5041.321563243559
 20
2896.291309024672
 30
0.0
 11
-5120.321563243559
 21
2896.291309024672
 31
0.0
  0
LINE
  5
2F
100
AcDbEntity
  8
0
  6
GESTRICHELT
 62
          15
100
AcDbLine
 10
-5120.321563243559
 20
2933.791309024672
 30
0.0
 11
-5120.321563243559
 21
3021.291309024672
 31
0.0
  0
LINE
  5
30
100
AcDbEntity
  8
0
  6
CONTINUOUS
 62
          15
100
AcDbLine
 10
-5120.321563243559
 20
2896.291309024672
 30
0.0
 11
-5120.321563243559
 21
2933.791309024672
 31
0.0
  0
LINE
  5
31
100
AcDbEntity
  8
0
  6
STRICHPUNKT
 62
          15
100
AcDbLine
 10
-5080.821563243559
 20
3021.291309024672
 30
0.0
 11
-5080.821563243559
 21
2896.291309024672
 31
0.0
  0
LINE
  5
32
100
AcDbEntity
  8
0
  6
GESTRICHELT
 62
          15
100
AcDbLine
 10
-5120.321563243559
 20
2958.791309024672
 30
0.0
 11
-5041.321563243559
 21
2958.791309024672
 31
0.0
  0
CIRCLE
  5
33
100
AcDbEntity
  8
0
  6
CONTINUOUS
 62
          15
100
AcDbCircle
 10
-5080.821563243559
 20
2958.791309024672
 30
0.0
 40
7.25
  0
LINE
  5
34
100
AcDbEntity
  8
0
  6
GESTRICHELT
 62
          15
100
AcDbLine
 10
-5127.321563243559
 20
2980.542571683142
 30
0.0
 11
-5127.321563243559
 21
2983.791309024672
 31
0.0
  0
LINE
  5
35
100
AcDbEntity
  8
0
  6
CONTINUOUS
 62
          15
100
AcDbLine
 10
-5127.321563243559
 20
2933.791309024672
 30
0.0
 11
-5127.321563243559
 21
2980.542571683142
 31
0.0
  0
LINE
  5
36
100
AcDbEntity
  8
0
  6
GESTRICHELT
 62
          15
100
AcDbLine
 10
-5034.321563243559
 20
2983.791309024672
 30
0.0
 11
-5034.321563243559
 21
2933.791309024672
 31
0.0
  0
LINE
  5
37
100
AcDbEntity
  8
0
  6
GESTRICHELT
 62
          15
100
AcDbLine
 10
-5127.321563243559
 20
2983.791309024672
 30
0.0
 11
-5034.321563243559
 21
2983.791309024672
 31
0.0
  0
LINE
  5
38
100
AcDbEntity
  8
0
  6
GESTRICHELT
 62
          15
100
AcDbLine
 10
-5118.636904243559
 20
2933.791309024672
 30
0.0
 11
-5034.321563243559
 21
2933.791309024672
 31
0.0
  0
LINE
  5
39
100
AcDbEntity
  8
0
  6
CONTINUOUS
 62
          15
100
AcDbLine
 10
-5127.321563243559
 20
2933.791309024672
 30
0.0
 11
-5118.636904243559
 21
2933.791309024672
 31
0.0
  0
TEXT
  5
3A
100
AcDbEntity
  8
0
  6
CONTINUOUS
 62
          15
100
AcDbText
 10
-5113.4909370023
 20
2908.455769877895
 30
0.0
 40
3.5
  1
80-730
 41
0.900000010218
  7
GOTHICG
100
AcDbText
  0
CIRCLE
  5
3B
100
AcDbEntity
  8
0
  6
GESTRICHELT
 62
          15
100
AcDbCircle
 10
-5080.821563243559
 20
2958.791309024672
 30
0.0
 40
12.5
  0
LINE
  5
3C
100
AcDbEntity
  8
WHITE
  6
CONTINUOUS
 62
          15
100
AcDbLine
 10
-4677.789625243559
 20
2998.791309024672
 30
0.0
 11
-4677.789625243559
 21
2918.791309024672
 31
0.0
  0
LINE
  5
3D
100
AcDbEntity
  8
WHITE
  6
GESTRICHELT
 62
          15
100
AcDbLine
 10
-5118.636904243559
 20
2971.857912683143
 30
0.0
 11
-5118.636904243559
 21
2998.791309024672
 31
0.0
  0
LINE
  5
3E
100
AcDbEntity
  8
WHITE
  6
CONTINUOUS
 62
          15
100
AcDbLine
 10
-5118.636904243559
 20
2918.791309024672
 30
0.0
 11
-5118.636904243559
 21
2971.857912683143
 31
0.0
  0
ARC
  5
3F
100
AcDbEntity
  8
WHITE
  6
GESTRICHELT
 62
          15
100
AcDbCircle
 10
-5080.821563243559
 20
2958.791309024672
 30
0.0
 40
22.5
100
AcDbArc
 50
109.064916387405
 51
186.057558731021
  0
ARC
  5
40
100
AcDbEntity
  8
WHITE
  6
CONTINUOUS
 62
          15
100
AcDbCircle
 10
-5080.821563243559
 20
2958.791309024672
 30
0.0
 40
22.5
100
AcDbArc
 50
186.057558731021
 51
109.064916387405
  0
LINE
  5
41
100
AcDbEntity
  8
YELLOW
  6
CONTINUOUS
 62
          15
100
AcDbLine
 10
-5118.636904243559
 20
2918.791309024672
 30
0.0
 11
-4677.789625243559
 21
2918.791309024672
 31
0.0
  0
LINE
  5
42
100
AcDbEntity
  8
YELLOW
  6
CONTINUOUS
 62
          15
100
AcDbLine
 10
-4827.252261057323
 20
2998.791309024672
 30
0.0
 11
-4677.789625243559
 21
2998.791309024672
 31
0.0
  0
LINE
  5
43
100
AcDbEntity
  8
YELLOW
  6
GESTRICHELT
 62
          15
100
AcDbLine
 10
-4964.043667668837
 20
2998.791309024672
 30
0.0
 11
-4827.252261057323
 21
2998.791309024672
 31
0.0
  0
LINE
  5
44
100
AcDbEntity
  8
YELLOW
  6
CONTINUOUS
 62
          15
100
AcDbLine
 10
-4980.57993292277
 20
2998.791309024672
 30
0.0
 11
-4964.043667668837
 21
2998.791309024672
 31
0.0
  0
LINE
  5
45
100
AcDbEntity
  8
YELLOW
  6
GESTRICHELT
 62
          15
100
AcDbLine
 10
-5118.636904243559
 20
2998.791309024672
 30
0.0
 11
-4980.57993292277
 21
2998.791309024672
 31
0.0
  0
CIRCLE
  5
46
100
AcDbEntity
  8
0
  6
CONTINUOUS
 62
          15
100
AcDbCircle
 10
-4717.789625243559
 20
2958.791309024672
 30
0.0
 40
6.25
  0
LINE
  5
47
100
AcDbEntity
  8
WHITE
  6
CONTINUOUS
 62
          15
100
AcDbLine
 10
-5091.78171835195
 20
2945.002726791534
 30
0.0
 11
-5144.814726940941
 21
2998.035735380525
 31
0.0
  0
ARC
  5
48
100
AcDbEntity
  8
WHITE
  6
CONTINUOUS
 62
          15
100
AcDbCircle
 10
-5134.208125223143
 20
3008.642337098323
 30
0.0
 40
15.0
100
AcDbArc
 50
135.0
 51
225.0
  0
LINE
  5
49
100
AcDbEntity
  8
WHITE
  6
CONTINUOUS
 62
          15
100
AcDbLine
 10
-5144.814726940941
 20
3019.248938816121
 30
0.0
 11
-5141.279193035009
 21
3022.784472722054
 31
0.0
  0
ARC
  5
4A
100
AcDbEntity
  8
WHITE
  6
CONTINUOUS
 62
          15
100
AcDbCircle
 10
-5130.67259131721
 20
3012.177871004256
 30
0.0
 40
15.0
100
AcDbArc
 50
45.0
 51
135.0
  0
LINE
  5
4B
100
AcDbEntity
  8
WHITE
  6
CONTINUOUS
 62
          15
100
AcDbLine
 10
-5117.003905577142
 20
2995.22571652162
 30
0.0
 11
-5116.53045569348
 21
2990.96466756866
 31
0.0
  0
LINE
  5
4C
100
AcDbEntity
  8
WHITE
  6
GESTRICHELT
 62
          15
100
AcDbLine
 10
-5119.726972375427
 20
3019.733317706183
 30
0.0
 11
-5117.003905577142
 21
2995.22571652162
 31
0.0
  0
LINE
  5
4D
100
AcDbEntity
  8
WHITE
  6
CONTINUOUS
 62
          15
100
AcDbLine
 10
-5120.065989599412
 20
3022.784472722054
 30
0.0
 11
-5119.726972375427
 21
3019.733317706183
 31
0.0
  0
LINE
  5
4E
100
AcDbEntity
  8
WHITE
  6
CONTINUOUS
 62
          15
100
AcDbLine
 10
-5116.53045569348
 20
2990.96466756866
 30
0.0
 11
-5070.568514916354
 21
2973.286998038996
 31
0.0
  0
LINE
  5
4F
100
AcDbEntity
  8
WHITE
  6
CONTINUOUS
 62
          15
100
AcDbLine
 10
-5070.568514916354
 20
2973.286998038996
 30
0.0
 11
-5067.032981010421
 21
2969.751464133063
 31
0.0
  0
ARC
  5
50
100
AcDbEntity
  8
WHITE
  6
CONTINUOUS
 62
          15
100
AcDbCircle
 10
-5077.63958272822
 20
2959.144862415265
 30
0.0
 40
15.0
100
AcDbArc
 50
314.999999999999
 51
45.0
  0
LINE
  5
51
100
AcDbEntity
  8
WHITE
  6
CONTINUOUS
 62
          15
100
AcDbLine
 10
-5067.032981010421
 20
2948.538260697467
 30
0.0
 11
-5070.568514916354
 21
2945.002726791534
 31
0.0
  0
ARC
  5
52
100
AcDbEntity
  8
WHITE
  6
CONTINUOUS
 62
          15
100
AcDbCircle
 10
-5081.175116634152
 20
2955.609328509332
 30
0.0
 40
15.0
100
AcDbArc
 50
224.999999999999
 51
314.999999999999
  0
CIRCLE
  5
53
100
AcDbEntity
  8
WHITE
  6
CONTINUOUS
 62
          15
100
AcDbCircle
 10
-5131.026144707804
 20
3008.995890488917
 30
0.0
 40
6.5
  0
LINE
  5
54
100
AcDbEntity
  8
BLACK
  6
GESTRICHELT
 62
          15
100
AcDbLine
 10
-4736.433619324019
 20
2961.057768032524
 30
0.0
 11
-4734.322128318768
 21
2978.429918323571
 31
0.0
  0
LINE
  5
55
100
AcDbEntity
  8
BLACK
  6
GESTRICHELT
 62
          15
100
AcDbLine
 10
-4734.322128318768
 20
2978.429918323571
 30
0.0
 11
-4738.292905528149
 21
2978.912544839057
 31
0.0
  0
LINE
  5
56
100
AcDbEntity
  8
BLACK
  6
CONTINUOUS
 62
          15
100
AcDbLine
 10
-4737.14666755387
 20
2988.34314071134
 30
0.0
 11
-4766.5304189033
 21
2991.914576925937
 31
0.0
  0
LINE
  5
57
100
AcDbEntity
  8
BLACK
  6
CONTINUOUS
 62
          15
100
AcDbLine
 10
-4766.5304189033
 20
2991.914576925937
 30
0.0
 11
-4766.590747217735
 21
2991.418229774764
 31
0.0
  0
LINE
  5
58
100
AcDbEntity
  8
BLACK
  6
CONTINUOUS
 62
          15
100
AcDbLine
 10
-4766.590747217735
 20
2991.418229774764
 30
0.0
 11
-4911.325576499719
 21
3009.009966264228
 31
0.0
  0
LINE
  5
59
100
AcDbEntity
  8
BLACK
  6
CONTINUOUS
 62
          15
100
AcDbLine
 10
-4911.325576499719
 20
3009.009966264228
 30
0.0
 11
-4911.265248185284
 21
3009.506313415401
 31
0.0
  0
LINE
  5
5A
100
AcDbEntity
  8
BLACK
  6
CONTINUOUS
 62
          15
100
AcDbLine
 10
-4911.265248185284
 20
3009.506313415401
 30
0.0
 11
-4940.648999534713
 21
3013.077749629998
 31
0.0
  0
LINE
  5
5B
100
AcDbEntity
  8
BLACK
  6
CONTINUOUS
 62
          15
100
AcDbLine
 10
-4940.648999534713
 20
3013.077749629998
 30
0.0
 11
-4941.795237508993
 21
3003.647153757715
 31
0.0
  0
LINE
  5
5C
100
AcDbEntity
  8
BLACK
  6
CONTINUOUS
 62
          15
100
AcDbLine
 10
-4941.795237508993
 20
3003.647153757715
 30
0.0
 11
-4952.218527683621
 21
3004.914048360865
 31
0.0
  0
LINE
  5
5D
100
AcDbEntity
  8
BLACK
  6
CONTINUOUS
 62
          15
100
AcDbLine
 10
-4952.218527683621
 20
3004.914048360865
 30
0.0
 11
-4952.278855998056
 21
3004.417701209693
 31
0.0
  0
LINE
  5
5E
100
AcDbEntity
  8
BLACK
  6
CONTINUOUS
 62
          15
100
AcDbLine
 10
-4952.278855998056
 20
3004.417701209693
 30
0.0
 11
-4963.198493323857
 21
3005.744924127279
 31
0.0
  0
LINE
  5
5F
100
AcDbEntity
  8
BLACK
  6
CONTINUOUS
 62
          15
100
AcDbLine
 10
-4963.198493323857
 20
3005.744924127279
 30
0.0
 11
-4967.300818705488
 21
2971.993317847529
 31
0.0
  0
LINE
  5
60
100
AcDbEntity
  8
BLACK
  6
CONTINUOUS
 62
          15
100
AcDbLine
 10
-4967.300818705488
 20
2971.993317847529
 30
0.0
 11
-4956.381181379687
 21
2970.666094929943
 31
0.0
  0
LINE
  5
61
100
AcDbEntity
  8
BLACK
  6
CONTINUOUS
 62
          15
100
AcDbLine
 10
-4956.381181379687
 20
2970.666094929943
 30
0.0
 11
-4956.441509694123
 21
2970.16974777877
 31
0.0
  0
LINE
  5
62
100
AcDbEntity
  8
BLACK
  6
CONTINUOUS
 62
          15
100
AcDbLine
 10
-4956.441509694123
 20
2970.16974777877
 30
0.0
 11
-4946.018219519495
 21
2968.902853175619
 31
0.0
  0
LINE
  5
63
100
AcDbEntity
  8
BLACK
  6
CONTINUOUS
 62
          15
100
AcDbLine
 10
-4946.018219519495
 20
2968.902853175619
 30
0.0
 11
-4947.164457493774
 21
2959.472257303336
 31
0.0
  0
LINE
  5
64
100
AcDbEntity
  8
BLACK
  6
GESTRICHELT
 62
          15
100
AcDbLine
 10
-4937.733861621491
 20
2958.326019329057
 30
0.0
 11
-4917.780706144345
 21
2955.90082108874
 31
0.0
  0
LINE
  5
65
100
AcDbEntity
  8
BLACK
  6
CONTINUOUS
 62
          15
100
AcDbLine
 10
-4947.164457493774
 20
2959.472257303336
 30
0.0
 11
-4937.733861621491
 21
2958.326019329057
 31
0.0
  0
LINE
  5
66
100
AcDbEntity
  8
BLACK
  6
GESTRICHELT
 62
          15
100
AcDbLine
 10
-4917.780706144345
 20
2955.90082108874
 30
0.0
 11
-4917.720377829909
 21
2956.397168239913
 31
0.0
  0
LINE
  5
67
100
AcDbEntity
  8
BLACK
  6
CONTINUOUS
 62
          15
100
AcDbLine
 10
-4909.878092841379
 20
2955.443980871828
 30
0.0
 11
-4772.985548547925
 21
2938.805431750448
 31
0.0
  0
LINE
  5
68
100
AcDbEntity
  8
BLACK
  6
GESTRICHELT
 62
          15
100
AcDbLine
 10
-4917.720377829909
 20
2956.397168239913
 30
0.0
 11
-4909.878092841379
 21
2955.443980871828
 31
0.0
  0
LINE
  5
69
100
AcDbEntity
  8
BLACK
  6
CONTINUOUS
 62
          15
100
AcDbLine
 10
-4772.985548547925
 20
2938.805431750448
 30
0.0
 11
-4773.04587686236
 21
2938.309084599276
 31
0.0
  0
LINE
  5
6A
100
AcDbEntity
  8
BLACK
  6
CONTINUOUS
 62
          15
100
AcDbLine
 10
-4773.04587686236
 20
2938.309084599276
 30
0.0
 11
-4743.662125512931
 21
2934.737648384679
 31
0.0
  0
LINE
  5
6B
100
AcDbEntity
  8
BLACK
  6
GESTRICHELT
 62
          15
100
AcDbLine
 10
-4742.515887538651
 20
2944.168244256962
 30
0.0
 11
-4738.54511032927
 21
2943.685617741476
 31
0.0
  0
LINE
  5
6C
100
AcDbEntity
  8
BLACK
  6
GESTRICHELT
 62
          15
100
AcDbLine
 10
-4738.54511032927
 20
2943.685617741476
 30
0.0
 11
-4736.433619324019
 21
2961.057768032524
 31
0.0
  0
LINE
  5
6D
100
AcDbEntity
  8
BLACK
  6
CONTINUOUS
 62
          15
100
AcDbLine
 10
-4766.590747217735
 20
2991.418229774764
 30
0.0
 11
-4772.985548547925
 21
2938.805431750448
 31
0.0
  0
LINE
  5
6E
100
AcDbEntity
  8
BLACK
  6
GESTRICHELT
 62
          15
100
AcDbLine
 10
-4913.436263263835
 20
2991.644432813058
 30
0.0
 11
-4917.720377829909
 21
2956.397168239913
 31
0.0
  0
LINE
  5
6F
100
AcDbEntity
  8
BLACK
  6
CONTINUOUS
 62
          15
100
AcDbLine
 10
-4911.325576499719
 20
3009.009966264228
 30
0.0
 11
-4913.436263263835
 21
2991.644432813058
 31
0.0
  0
LINE
  5
70
100
AcDbEntity
  8
BLACK
  6
CONTINUOUS
 62
          15
100
AcDbLine
 10
-4941.795237508993
 20
3003.647153757715
 30
0.0
 11
-4946.018219519495
 21
2968.902853175619
 31
0.0
  0
LINE
  5
71
100
AcDbEntity
  8
BLACK
  6
CONTINUOUS
 62
          15
100
AcDbLine
 10
-4952.218527683621
 20
3004.914048360865
 30
0.0
 11
-4956.441509694123
 21
2970.16974777877
 31
0.0
  0
LINE
  5
72
100
AcDbEntity
  8
BLACK
  6
GESTRICHELT
 62
          15
100
AcDbLine
 10
-5076.70734814244
 20
3008.46035803589
 30
0.0
 11
-5094.800166160021
 21
3010.659442309497
 31
0.0
  0
LINE
  5
73
100
AcDbEntity
  8
BLACK
  6
CONTINUOUS
 62
          15
100
AcDbLine
 10
-5071.736700894766
 20
3007.856202719599
 30
0.0
 11
-5076.70734814244
 21
3008.46035803589
 31
0.0
  0
LINE
  5
74
100
AcDbEntity
  8
BLACK
  6
GESTRICHELT
 62
          15
100
AcDbLine
 10
-5078.155227688898
 20
2996.548026407743
 30
0.0
 11
-5096.248045706479
 21
2998.74711068135
 31
0.0
  0
LINE
  5
75
100
AcDbEntity
  8
BLACK
  6
CONTINUOUS
 62
          15
100
AcDbLine
 10
-5073.184580441224
 20
2995.943871091452
 30
0.0
 11
-5078.155227688898
 21
2996.548026407743
 31
0.0
  0
LINE
  5
76
100
AcDbEntity
  8
BLACK
  6
GESTRICHELT
 62
          15
100
AcDbLine
 10
-5095.653882447512
 20
3009.99077374842
 30
0.0
 11
-5094.800166160021
 21
3010.659442309497
 31
0.0
  0
LINE
  5
77
100
AcDbEntity
  8
BLACK
  6
GESTRICHELT
 62
          15
100
AcDbLine
 10
-5096.916725401065
 20
2999.600818248464
 30
0.0
 11
-5096.248045706479
 21
2998.74711068135
 31
0.0
  0
LINE
  5
78
100
AcDbEntity
  8
BLACK
  6
GESTRICHELT
 62
          15
100
AcDbLine
 10
-5095.653882447512
 20
3009.99077374842
 30
0.0
 11
-5096.916725401065
 21
2999.600818248464
 31
0.0
  0
LINE
  5
79
100
AcDbEntity
  8
BLACK
  6
CONTINUOUS
 62
          15
100
AcDbLine
 10
-5076.799866438892
 20
3007.699169971795
 30
0.0
 11
-5071.829219191219
 21
3007.095014655504
 31
0.0
  0
LINE
  5
7A
100
AcDbEntity
  8
BLACK
  6
GESTRICHELT
 62
          15
100
AcDbLine
 10
-5095.653882447512
 20
3009.99077374842
 30
0.0
 11
-5076.799866438892
 21
3007.699169971795
 31
0.0
  0
LINE
  5
7B
100
AcDbEntity
  8
BLACK
  6
CONTINUOUS
 62
          15
100
AcDbLine
 10
-5078.062709392446
 20
2997.309214471839
 30
0.0
 11
-5073.092062144772
 21
2996.705059155548
 31
0.0
  0
LINE
  5
7C
100
AcDbEntity
  8
BLACK
  6
GESTRICHELT
 62
          15
100
AcDbLine
 10
-5096.916725401065
 20
2999.600818248464
 30
0.0
 11
-5078.062709392446
 21
2997.309214471839
 31
0.0
  0
LINE
  5
7D
100
AcDbEntity
  8
BLACK
  6
GESTRICHELT
 62
          15
100
AcDbLine
 10
-5094.800166160021
 20
3010.659442309497
 30
0.0
 11
-5096.248045706479
 21
2998.74711068135
 31
0.0
  0
LINE
  5
7E
100
AcDbEntity
  8
BLACK
  6
CONTINUOUS
 62
          15
100
AcDbLine
 10
-4964.284402983701
 20
2996.810675406169
 30
0.0
 11
-5071.495387637023
 21
3009.84159132429
 31
0.0
  0
LINE
  5
7F
100
AcDbEntity
  8
BLACK
  6
CONTINUOUS
 62
          15
100
AcDbLine
 10
-5071.495387637023
 20
3009.84159132429
 30
0.0
 11
-5073.425893698967
 21
2993.958482486761
 31
0.0
  0
LINE
  5
80
100
AcDbEntity
  8
BLACK
  6
CONTINUOUS
 62
          15
100
AcDbLine
 10
-5073.425893698967
 20
2993.958482486761
 30
0.0
 11
-4966.214909045645
 21
2980.92756656864
 31
0.0
  0
LINE
  5
81
100
AcDbEntity
  8
BLACK
  6
CONTINUOUS
 62
          15
100
AcDbLine
 10
-5071.897935554493
 20
3006.529655396432
 30
0.0
 11
-5066.603569250965
 21
3005.886153777973
 31
0.0
  0
LINE
  5
82
100
AcDbEntity
  8
BLACK
  6
CONTINUOUS
 62
          15
100
AcDbLine
 10
-5073.023345781497
 20
2997.27041841462
 30
0.0
 11
-5067.728979477968
 21
2996.626916796161
 31
0.0
  0
LINE
  5
83
100
AcDbEntity
  8
BLACK
  6
CONTINUOUS
 62
          15
100
AcDbLine
 10
-5066.603569250965
 20
3005.886153777973
 30
0.0
 11
-5067.728979477968
 21
2996.626916796161
 31
0.0
  0
LINE
  5
84
100
AcDbEntity
  8
BLACK
  6
CONTINUOUS
 62
          15
100
AcDbLine
 10
-5071.897935554493
 20
3006.529655396432
 30
0.0
 11
-5067.728979477968
 21
2996.626916796161
 31
0.0
  0
LINE
  5
85
100
AcDbEntity
  8
BLACK
  6
CONTINUOUS
 62
          15
100
AcDbLine
 10
-5066.603569250965
 20
3005.886153777973
 30
0.0
 11
-5073.023345781497
 21
2997.27041841462
 31
0.0
  0
CIRCLE
  5
86
100
AcDbEntity
  8
BLACK
  6
GESTRICHELT
 62
          15
100
AcDbCircle
 10
-4930.732948054634
 20
2978.629644848393
 30
0.0
 40
5.7225
  0
ARC
  5
87
100
AcDbEntity
  8
BLACK
  6
GESTRICHELT
 62
          15
100
AcDbCircle
 10
-4930.732948054634
 20
2978.629644848393
 30
0.0
 40
6.5785
100
AcDbArc
 50
103.07
 51
13.07
  0
CIRCLE
  5
88
100
AcDbEntity
  8
BLACK
  6
CONTINUOUS
 62
          15
100
AcDbCircle
 10
-4753.578176993009
 20
2969.185753166284
 30
0.0
 40
5.7225
  0
ARC
  5
89
100
AcDbEntity
  8
BLACK
  6
CONTINUOUS
 62
          15
100
AcDbCircle
 10
-4753.578176993009
 20
2969.185753166284
 30
0.0
 40
6.57849
100
AcDbArc
 50
103.07
 51
13.07
  0
LINE
  5
8A
100
AcDbEntity
  8
BLACK
  6
GESTRICHELT
 62
          15
100
AcDbLine
 10
-4923.879194218598
 20
2992.545216149639
 30
0.0
 11
-4928.990120743436
 21
2988.542028055061
 31
0.0
  0
LINE
  5
8B
100
AcDbEntity
  8
BLACK
  6
CONTINUOUS
 62
          15
100
AcDbLine
 10
-4921.179289917557
 20
2994.659945191801
 30
0.0
 11
-4923.879194218598
 21
2992.545216149639
 31
0.0
  0
LINE
  5
8C
100
AcDbEntity
  8
BLACK
  6
GESTRICHELT
 62
          15
100
AcDbLine
 10
-4925.705127716075
 20
2992.702716996418
 30
0.0
 11
-4929.760816780155
 21
2989.526096950558
 31
0.0
  0
LINE
  5
8D
100
AcDbEntity
  8
BLACK
  6
CONTINUOUS
 62
          15
100
AcDbLine
 10
-4921.949996813374
 20
2995.64392474481
 30
0.0
 11
-4925.705127716075
 21
2992.702716996418
 31
0.0
  0
ARC
  5
8E
100
AcDbEntity
  8
BLACK
  6
GESTRICHELT
 62
          15
100
AcDbCircle
 10
-4925.470055761989
 20
2992.093001217293
 30
0.0
 40
5.0
100
AcDbArc
 50
168.324946168168
 51
1.815053831834
  0
ARC
  5
8F
100
AcDbEntity
  8
BLACK
  6
CONTINUOUS
 62
          15
100
AcDbCircle
 10
-4925.470055761989
 20
2992.093001217293
 30
0.0
 40
5.0
100
AcDbArc
 50
1.815053831834
 51
168.324946168168
  0
LINE
  5
90
100
AcDbEntity
  8
BLACK
  6
CONTINUOUS
 62
          15
100
AcDbLine
 10
-4754.550010459198
 20
2958.28926486713
 30
0.0
 11
-4762.3612275037
 21
2952.171485335529
 31
0.0
  0
LINE
  5
91
100
AcDbEntity
  8
BLACK
  6
CONTINUOUS
 62
          15
100
AcDbLine
 10
-4755.320905034778
 20
2959.273357893953
 30
0.0
 11
-4763.132132938377
 21
2953.155489019865
 31
0.0
  0
CIRCLE
  5
92
100
AcDbEntity
  8
BLACK
  6
CONTINUOUS
 62
          15
100
AcDbCircle
 10
-4758.841069285654
 20
2955.722396797383
 30
0.0
 40
5.0
  0
LINE
  5
93
100
AcDbEntity
  8
BLACK
  6
CONTINUOUS
 62
          15
100
AcDbLine
 10
-5076.494716351547
 20
3013.441090325012
 30
0.0
 11
-5079.081796826776
 21
3013.755535978647
 31
0.0
  0
LINE
  5
94
100
AcDbEntity
  8
BLACK
  6
CONTINUOUS
 62
          15
100
AcDbLine
 10
-5081.668857448119
 20
3014.069979219149
 30
0.0
 11
-5079.081796826776
 21
3013.755535978647
 31
0.0
  0
LINE
  5
95
100
AcDbEntity
  8
BLACK
  6
CONTINUOUS
 62
          15
100
AcDbLine
 10
-5084.316063885559
 20
2992.290266225687
 30
0.0
 11
-5081.729003264217
 21
2991.975822985185
 31
0.0
  0
LINE
  5
96
100
AcDbEntity
  8
BLACK
  6
CONTINUOUS
 62
          15
100
AcDbLine
 10
-5079.141922788987
 20
2991.66137733155
 30
0.0
 11
-5081.729003264217
 21
2991.975822985185
 31
0.0
  0
LINE
  5
97
100
AcDbEntity
  8
BLACK
  6
CONTINUOUS
 62
          15
100
AcDbLine
 10
-5077.156519167474
 20
3007.996152149703
 30
0.0
 11
-5079.743599642702
 21
3008.310597803338
 31
0.0
  0
LINE
  5
98
100
AcDbEntity
  8
BLACK
  6
CONTINUOUS
 62
          15
100
AcDbLine
 10
-5082.330660264045
 20
3008.62504104384
 30
0.0
 11
-5079.743599642702
 21
3008.310597803338
 31
0.0
  0
LINE
  5
99
100
AcDbEntity
  8
BLACK
  6
CONTINUOUS
 62
          15
100
AcDbLine
 10
-5083.654261069632
 20
2997.735204400995
 30
0.0
 11
-5081.06720044829
 21
2997.420761160493
 31
0.0
  0
LINE
  5
9A
100
AcDbEntity
  8
BLACK
  6
CONTINUOUS
 62
          15
100
AcDbLine
 10
-5078.480119973061
 20
2997.106315506859
 30
0.0
 11
-5081.06720044829
 21
2997.420761160493
 31
0.0
  0
ARC
  5
9B
100
AcDbEntity
  8
BLACK
  6
CONTINUOUS
 62
          15
100
AcDbCircle
 10
-5115.925590494321
 20
3007.182966713547
 30
0.0
 40
38.777600000016
100
AcDbArc
 50
353.929436999998
 51
1.201609999996
  0
ARC
  5
9C
100
AcDbEntity
  8
BLACK
  6
CONTINUOUS
 62
          15
100
AcDbCircle
 10
-5044.885209596688
 20
2998.548392250285
 30
0.0
 40
38.7776
100
AcDbArc
 50
164.937999999996
 51
172.210999999996
  0
ARC
  5
9D
100
AcDbEntity
  8
BLACK
  6
CONTINUOUS
 62
          15
100
AcDbCircle
 10
-5044.885209596687
 20
2998.54839225029
 30
0.0
 40
38.7776
100
AcDbArc
 50
173.929000000003
 51
181.202000000003
  0
ARC
  5
9E
100
AcDbEntity
  8
BLACK
  6
CONTINUOUS
 62
          15
100
AcDbCircle
 10
-5115.925590494321
 20
3007.182966713546
 30
0.0
 40
38.777600000016
100
AcDbArc
 50
344.938390000003
 51
352.210563
  0
LINE
  5
9F
100
AcDbEntity
  8
BLACK
  6
CONTINUOUS
 62
          15
100
AcDbLine
 10
-5077.365437099898
 20
3003.082110984124
 30
0.0
 11
-5077.43128791567
 21
3002.504192221817
 31
0.0
  0
LINE
  5
A0
100
AcDbEntity
  8
BLACK
  6
CONTINUOUS
 62
          15
100
AcDbLine
 10
-5083.304965357463
 20
3003.804028552253
 30
0.0
 11
-5083.379512175324
 21
3003.227166742015
 31
0.0
  0
LINE
  5
A1
100
AcDbEntity
  8
BLACK
  6
CONTINUOUS
 62
          15
100
AcDbLine
 10
-5083.445323283323
 20
3002.649243153443
 30
0.0
 11
-5083.379512175324
 21
3003.227166742015
 31
0.0
  0
LINE
  5
A2
100
AcDbEntity
  8
BLACK
  6
CONTINUOUS
 62
          15
100
AcDbLine
 10
-5077.505795025758
 20
3001.927325585314
 30
0.0
 11
-5077.43128791567
 21
3002.504192221817
 31
0.0
  0
ARC
  5
A3
100
AcDbEntity
  8
BLACK
  6
CONTINUOUS
 62
          15
100
AcDbCircle
 10
-5086.499048321907
 20
3011.894359345783
 30
0.0
 40
10.134500000026
100
AcDbArc
 50
337.351500000022
 51
353.069999999982
  0
ARC
  5
A4
100
AcDbEntity
  8
BLACK
  6
CONTINUOUS
 62
          15
100
AcDbCircle
 10
-5072.326341840358
 20
3010.171743448813
 30
0.0
 40
10.123199999994
100
AcDbArc
 50
173.069999999998
 51
188.789000000007
  0
ARC
  5
A5
100
AcDbEntity
  8
BLACK
  6
CONTINUOUS
 62
          15
100
AcDbCircle
 10
-5074.31174184215
 20
2993.836998411483
 30
0.0
 40
10.134500000018
100
AcDbArc
 50
157.351000000007
 51
173.069999999979
  0
ARC
  5
A6
100
AcDbEntity
  8
BLACK
  6
CONTINUOUS
 62
          15
100
AcDbCircle
 10
-5088.484448323684
 20
2995.559614308454
 30
0.0
 40
10.123199999986
100
AcDbArc
 50
353.069999999985
 51
8.788500000007
  0
ARC
  5
A7
100
AcDbEntity
  8
BLACK
  6
CONTINUOUS
 62
          15
100
AcDbCircle
 10
-5086.499048321869
 20
3011.894359345778
 30
0.0
 40
10.123199999986
100
AcDbArc
 50
353.069999999985
 51
8.788500000007
  0
ARC
  5
A8
100
AcDbEntity
  8
BLACK
  6
CONTINUOUS
 62
          15
100
AcDbCircle
 10
-5072.326341840335
 20
3010.171743448806
 30
0.0
 40
10.134500000018
100
AcDbArc
 50
157.351000000007
 51
173.069999999979
  0
ARC
  5
A9
100
AcDbEntity
  8
BLACK
  6
CONTINUOUS
 62
          15
100
AcDbCircle
 10
-5074.311741842173
 20
2993.836998411488
 30
0.0
 40
10.123199999994
100
AcDbArc
 50
173.069999999998
 51
188.789000000007
  0
ARC
  5
AA
100
AcDbEntity
  8
BLACK
  6
CONTINUOUS
 62
          15
100
AcDbCircle
 10
-5088.484448323723
 20
2995.559614308459
 30
0.0
 40
10.134500000026
100
AcDbArc
 50
337.351500000022
 51
353.069999999982
  0
LINE
  5
AB
100
AcDbEntity
  8
BLACK
  6
CONTINUOUS
 62
          15
100
AcDbLine
 10
-5076.438587914761
 20
3010.671564740479
 30
0.0
 11
-5077.43128791567
 21
3002.504192221817
 31
0.0
  0
LINE
  5
AC
100
AcDbEntity
  8
BLACK
  6
CONTINUOUS
 62
          15
100
AcDbLine
 10
-5082.386812174416
 20
3011.394539260677
 30
0.0
 11
-5083.379512175324
 21
3003.227166742015
 31
0.0
  0
LINE
  5
AD
100
AcDbEntity
  8
BLACK
  6
CONTINUOUS
 62
          15
100
AcDbLine
 10
-5084.372212176231
 20
2995.059794223353
 30
0.0
 11
-5083.379512175324
 21
3003.227166742015
 31
0.0
  0
LINE
  5
AE
100
AcDbEntity
  8
BLACK
  6
CONTINUOUS
 62
          15
100
AcDbLine
 10
-5078.423987916577
 20
2994.336819703155
 30
0.0
 11
-5077.43128791567
 21
3002.504192221817
 31
0.0
  0
LINE
  5
AF
100
AcDbEntity
  8
WHITE
  6
CONTINUOUS
 62
          15
100
AcDbLine
 10
-5084.103451948553
 20
2997.271000927941
 30
0.0
 11
-5084.03105797123
 21
2997.866617509349
 31
0.0
  0
LINE
  5
B0
100
AcDbEntity
  8
WHITE
  6
CONTINUOUS
 62
          15
100
AcDbLine
 10
-5084.03105797123
 20
2997.866617509349
 30
0.0
 11
-5082.727966379418
 21
3008.587715974681
 31
0.0
  0
LINE
  5
B1
100
AcDbEntity
  8
WHITE
  6
CONTINUOUS
 62
          15
100
AcDbLine
 10
-5082.727966379418
 20
3008.587715974681
 30
0.0
 11
-5082.655572402095
 21
3009.183332556088
 31
0.0
  0
LINE
  5
B2
100
AcDbEntity
  8
WHITE
  6
CONTINUOUS
 62
          15
100
AcDbLine
 10
-5082.655572402095
 20
3009.183332556088
 30
0.0
 11
-5082.257405526819
 21
3012.459223753829
 31
0.0
  0
LINE
  5
B3
100
AcDbEntity
  8
WHITE
  6
CONTINUOUS
 62
          15
100
AcDbLine
 10
-5108.652054978075
 20
2994.210594206784
 30
0.0
 11
-5107.357410906172
 21
2994.053237214873
 31
0.0
  0
LINE
  5
B4
100
AcDbEntity
  8
WHITE
  6
CONTINUOUS
 62
          15
100
AcDbLine
 10
-5104.461651813256
 20
3017.877900471166
 30
0.0
 11
-5105.75629588516
 21
3018.035257463077
 31
0.0
  0
LINE
  5
B5
100
AcDbEntity
  8
WHITE
  6
CONTINUOUS
 62
          15
100
AcDbLine
 10
-5107.357410906172
 20
2994.053237214873
 30
0.0
 11
-5103.589314036113
 21
2993.595245399539
 31
0.0
  0
LINE
  5
B6
100
AcDbEntity
  8
WHITE
  6
CONTINUOUS
 62
          15
100
AcDbLine
 10
-5100.693554943197
 20
3017.419908655833
 30
0.0
 11
-5104.461651813256
 21
3017.877900471166
 31
0.0
  0
LINE
  5
B7
100
AcDbEntity
  8
WHITE
  6
CONTINUOUS
 62
          15
100
AcDbLine
 10
-5141.032579740544
 20
3022.322899166115
 30
0.0
 11
-5105.75629588516
 21
3018.035257463077
 31
0.0
  0
LINE
  5
B8
100
AcDbEntity
  8
WHITE
  6
CONTINUOUS
 62
          15
100
AcDbLine
 10
-5143.92833883346
 20
2998.498235909821
 30
0.0
 11
-5108.652054978075
 21
2994.210594206784
 31
0.0
  0
LINE
  5
B9
100
AcDbEntity
  8
WHITE
  6
CONTINUOUS
 62
          15
100
AcDbLine
 10
-5100.017312003055
 20
3015.524467945627
 30
0.0
 11
-5102.478707232033
 21
2995.273504177777
 31
0.0
  0
LINE
  5
BA
100
AcDbEntity
  8
WHITE
  6
CONTINUOUS
 62
          15
100
AcDbLine
 10
-5083.042239432945
 20
3013.461239591924
 30
0.0
 11
-5085.742744710681
 21
3013.789471417463
 31
0.0
  0
LINE
  5
BB
100
AcDbEntity
  8
WHITE
  6
CONTINUOUS
 62
          15
100
AcDbLine
 10
-5084.501618823829
 20
2993.995109730201
 30
0.0
 11
-5084.103451948553
 21
2997.271000927941
 31
0.0
  0
LINE
  5
BC
100
AcDbEntity
  8
WHITE
  6
CONTINUOUS
 62
          15
100
AcDbLine
 10
-5101.585282359923
 20
2995.164913211793
 30
0.0
 11
-5099.758189897651
 21
2994.942839994878
 31
0.0
  0
LINE
  5
BD
100
AcDbEntity
  8
WHITE
  6
CONTINUOUS
 62
          15
100
AcDbLine
 10
-5097.152006714026
 20
3016.385036925543
 30
0.0
 11
-5097.296794668672
 21
3015.193803762728
 31
0.0
  0
LINE
  5
BE
100
AcDbEntity
  8
WHITE
  6
CONTINUOUS
 62
          15
100
AcDbLine
 10
-5097.296794668672
 20
3015.193803762728
 30
0.0
 11
-5099.123887130944
 21
3015.415876979642
 31
0.0
  0
LINE
  5
BF
100
AcDbEntity
  8
WHITE
  6
CONTINUOUS
 62
          15
100
AcDbLine
 10
-5097.296794668672
 20
3015.193803762728
 30
0.0
 11
-5099.758189897651
 21
2994.942839994878
 31
0.0
  0
LINE
  5
C0
100
AcDbEntity
  8
WHITE
  6
CONTINUOUS
 62
          15
100
AcDbLine
 10
-5099.758189897651
 20
2994.942839994878
 30
0.0
 11
-5099.902977852296
 21
2993.751606832064
 31
0.0
  0
LINE
  5
C1
100
AcDbEntity
  8
WHITE
  6
CONTINUOUS
 62
          15
100
AcDbLine
 10
-5088.348927894305
 20
2992.347274486799
 30
0.0
 11
-5088.204139939659
 21
2993.538507649614
 31
0.0
  0
LINE
  5
C2
100
AcDbEntity
  8
WHITE
  6
CONTINUOUS
 62
          15
100
AcDbLine
 10
-5088.204139939659
 20
2993.538507649614
 30
0.0
 11
-5085.503634661924
 21
2993.210275824074
 31
0.0
  0
LINE
  5
C3
100
AcDbEntity
  8
WHITE
  6
CONTINUOUS
 62
          15
100
AcDbLine
 10
-5088.204139939659
 20
2993.538507649614
 30
0.0
 11
-5085.742744710681
 21
3013.789471417463
 31
0.0
  0
LINE
  5
C4
100
AcDbEntity
  8
WHITE
  6
CONTINUOUS
 62
          15
100
AcDbLine
 10
-5085.742744710681
 20
3013.789471417463
 30
0.0
 11
-5085.597956756035
 21
3014.980704580278
 31
0.0
  0
LINE
  5
C5
100
AcDbEntity
  8
WHITE
  6
CONTINUOUS
 62
          15
100
AcDbLine
 10
-5097.152006714026
 20
3016.385036925543
 30
0.0
 11
-5085.597956756035
 21
3014.980704580278
 31
0.0
  0
LINE
  5
C6
100
AcDbEntity
  8
WHITE
  6
CONTINUOUS
 62
          15
100
AcDbLine
 10
-5099.902977852296
 20
2993.751606832064
 30
0.0
 11
-5088.348927894305
 21
2992.347274486799
 31
0.0
  0
ARC
  5
C7
100
AcDbEntity
  8
WHITE
  6
CONTINUOUS
 62
          15
100
AcDbCircle
 10
-5122.855100330025
 20
3008.025211193577
 30
0.0
 40
20.866107311614
100
AcDbArc
 50
317.963694434247
 51
28.176305565752
  0
ARC
  5
C8
100
AcDbEntity
  8
WHITE
  6
CONTINUOUS
 62
          15
100
AcDbCircle
 10
-5113.036894097507
 20
3006.831861274289
 30
0.0
 40
29.660254037848
100
AcDbArc
 50
149.205074583953
 51
196.934925416046
  0
ARC
  5
C9
100
AcDbEntity
  8
WHITE
  6
CONTINUOUS
 62
          15
100
AcDbCircle
 10
-5123.567092638488
 20
3008.111750011738
 30
0.0
 40
22.516660498396
100
AcDbArc
 50
140.865772496028
 51
205.274227503971
  0
ARC
  5
CA
100
AcDbEntity
  8
WHITE
  6
CONTINUOUS
 62
          15
100
AcDbCircle
 10
-5100.802145909182
 20
3016.526483783722
 30
0.0
 40
0.9
100
AcDbArc
 50
353.069999999999
 51
83.07
  0
ARC
  5
CB
100
AcDbEntity
  8
WHITE
  6
CONTINUOUS
 62
          15
100
AcDbCircle
 10
-5099.015296164959
 20
3016.309301851753
 30
0.0
 40
0.9
100
AcDbArc
 50
173.07
 51
263.069999999999
  0
ARC
  5
CC
100
AcDbEntity
  8
WHITE
  6
CONTINUOUS
 62
          15
100
AcDbCircle
 10
-5083.150830398929
 20
3012.567814719813
 30
0.0
 40
0.9
100
AcDbArc
 50
353.069999999999
 51
83.07
  0
ARC
  5
CD
100
AcDbEntity
  8
WHITE
  6
CONTINUOUS
 62
          15
100
AcDbCircle
 10
-5085.395043695939
 20
2994.103700696185
 30
0.0
 40
0.9
100
AcDbArc
 50
263.069999999999
 51
353.069999999999
  0
ARC
  5
CE
100
AcDbEntity
  8
WHITE
  6
CONTINUOUS
 62
          15
100
AcDbCircle
 10
-5101.693873325907
 20
2994.271488339682
 30
0.0
 40
0.9
100
AcDbArc
 50
83.07
 51
173.069999999985
  0
ARC
  5
CF
100
AcDbEntity
  8
WHITE
  6
CONTINUOUS
 62
          15
100
AcDbCircle
 10
-5103.480723070129
 20
2994.48867027165
 30
0.0
 40
0.9
100
AcDbArc
 50
263.069999999999
 51
353.069999999985
  0
LINE
  5
D0
100
AcDbEntity
  8
WHITE
  6
CONTINUOUS
 62
          15
100
AcDbLine
 10
-4903.177941091992
 20
2986.104647228091
 30
0.0
 11
-4899.709355706891
 21
2985.234697296407
 31
0.0
  0
LINE
  5
D1
100
AcDbEntity
  8
WHITE
  6
CONTINUOUS
 62
          15
100
AcDbLine
 10
-4903.304243485216
 20
2988.693714873512
 30
0.0
 11
-4903.552651526114
 21
2986.649954417392
 31
0.0
  0
LINE
  5
D2
100
AcDbEntity
  8
WHITE
  6
CONTINUOUS
 62
          15
100
AcDbLine
 10
-4902.440749968249
 20
2992.169837637636
 30
0.0
 11
-4898.86475930479
 21
2992.183557412826
 31
0.0
  0
LINE
  5
D3
100
AcDbEntity
  8
WHITE
  6
CONTINUOUS
 62
          15
100
AcDbLine
 10
-4903.183586856344
 20
2989.686409175857
 30
0.0
 11
-4902.935178815446
 21
2991.730169631976
 31
0.0
  0
LINE
  5
D4
100
AcDbEntity
  8
WHITE
  6
CONTINUOUS
 62
          15
100
AcDbLine
 10
-4901.729515422633
 20
2988.502315185842
 30
0.0
 11
-4903.304243485216
 21
2988.693714873512
 31
0.0
  0
LINE
  5
D5
100
AcDbEntity
  8
WHITE
  6
CONTINUOUS
 62
          15
100
AcDbLine
 10
-4901.669187108197
 20
2988.998662337013
 30
0.0
 11
-4901.729515422633
 21
2988.502315185842
 31
0.0
  0
LINE
  5
D6
100
AcDbEntity
  8
WHITE
  6
CONTINUOUS
 62
          15
100
AcDbLine
 10
-4901.608858793761
 20
2989.495009488187
 30
0.0
 11
-4901.669187108197
 21
2988.998662337013
 31
0.0
  0
LINE
  5
D7
100
AcDbEntity
  8
WHITE
  6
CONTINUOUS
 62
          15
100
AcDbLine
 10
-4903.183586856344
 20
2989.686409175857
 30
0.0
 11
-4901.608858793761
 21
2989.495009488187
 31
0.0
  0
LINE
  5
D8
100
AcDbEntity
  8
WHITE
  6
CONTINUOUS
 62
          15
100
AcDbLine
 10
-4898.623446047047
 20
2994.168946017518
 30
0.0
 11
-4888.200155872419
 21
2992.902051414367
 31
0.0
  0
LINE
  5
D9
100
AcDbEntity
  8
WHITE
  6
CONTINUOUS
 62
          15
100
AcDbLine
 10
-4898.623446047047
 20
2994.168946017518
 30
0.0
 11
-4899.769684021327
 21
2984.738350145234
 31
0.0
  0
LINE
  5
DA
100
AcDbEntity
  8
WHITE
  6
CONTINUOUS
 62
          15
100
AcDbLine
 10
-4892.64031981489
 20
2956.370901088049
 30
0.0
 11
-4884.202418244952
 21
2955.345319742642
 31
0.0
  0
LINE
  5
DB
100
AcDbEntity
  8
WHITE
  6
CONTINUOUS
 62
          15
100
AcDbLine
 10
-4884.202418244952
 20
2955.345319742642
 30
0.0
 11
-4884.142089930517
 21
2955.841666893814
 31
0.0
  0
LINE
  5
DC
100
AcDbEntity
  8
WHITE
  6
CONTINUOUS
 62
          15
100
AcDbLine
 10
-4884.142089930517
 20
2955.841666893814
 30
0.0
 11
-4878.531556687992
 21
3002.001951952883
 31
0.0
  0
LINE
  5
DD
100
AcDbEntity
  8
WHITE
  6
CONTINUOUS
 62
          15
100
AcDbLine
 10
-4877.538862385646
 20
3001.881295324012
 30
0.0
 11
-4877.599190700082
 21
3001.384948172839
 31
0.0
  0
LINE
  5
DE
100
AcDbEntity
  8
WHITE
  6
CONTINUOUS
 62
          15
100
AcDbLine
 10
-4877.599190700082
 20
3001.384948172839
 30
0.0
 11
-4878.591885002427
 21
3001.50560480171
 31
0.0
  0
LINE
  5
DF
100
AcDbEntity
  8
WHITE
  6
CONTINUOUS
 62
          15
100
AcDbLine
 10
-4877.599190700082
 20
3001.384948172839
 30
0.0
 11
-4883.149395628171
 21
2955.721010264943
 31
0.0
  0
LINE
  5
E0
100
AcDbEntity
  8
WHITE
  6
CONTINUOUS
 62
          15
100
AcDbLine
 10
-4883.149395628171
 20
2955.721010264943
 30
0.0
 11
-4884.142089930517
 21
2955.841666893814
 31
0.0
  0
LINE
  5
E1
100
AcDbEntity
  8
WHITE
  6
CONTINUOUS
 62
          15
100
AcDbLine
 10
-4888.696503023592
 20
2992.962379728803
 30
0.0
 11
-4887.465805409102
 21
3003.087861612727
 31
0.0
  0
LINE
  5
E2
100
AcDbEntity
  8
WHITE
  6
CONTINUOUS
 62
          15
100
AcDbLine
 10
-4878.531556687992
 20
3002.001951952883
 30
0.0
 11
-4887.465805409102
 21
3003.087861612727
 31
0.0
  0
LINE
  5
E3
100
AcDbEntity
  8
WHITE
  6
CONTINUOUS
 62
          15
100
AcDbLine
 10
-4888.696503023592
 20
2992.962379728803
 30
0.0
 11
-4888.200155872419
 21
2992.902051414367
 31
0.0
  0
LINE
  5
E4
100
AcDbEntity
  8
WHITE
  6
CONTINUOUS
 62
          15
100
AcDbLine
 10
-4888.200155872419
 20
2992.902051414367
 30
0.0
 11
-4892.64031981489
 21
2956.370901088049
 31
0.0
  0
LINE
  5
E5
100
AcDbEntity
  8
WHITE
  6
CONTINUOUS
 62
          15
100
AcDbLine
 10
-4801.101401105037
 20
2992.590734900907
 30
0.0
 11
-4877.538862385646
 21
3001.881295324012
 31
0.0
  0
LINE
  5
E6
100
AcDbEntity
  8
WHITE
  6
CONTINUOUS
 62
          15
100
AcDbLine
 10
-4806.772262661998
 20
2945.934102690665
 30
0.0
 11
-4801.101401105037
 21
2992.590734900907
 31
0.0
  0
LINE
  5
E7
100
AcDbEntity
  8
WHITE
  6
CONTINUOUS
 62
          15
100
AcDbLine
 10
-4883.209723942607
 20
2955.22466311377
 30
0.0
 11
-4806.772262661998
 21
2945.934102690665
 31
0.0
  0
LINE
  5
E8
100
AcDbEntity
  8
WHITE
  6
CONTINUOUS
 62
          15
100
AcDbLine
 10
-4883.149395628171
 20
2955.721010264943
 30
0.0
 11
-4883.209723942607
 21
2955.22466311377
 31
0.0
  0
LINE
  5
E9
100
AcDbEntity
  8
WHITE
  6
CONTINUOUS
 62
          15
100
AcDbLine
 10
-4905.714852085557
 20
2973.120799771423
 30
0.0
 11
-4905.081404783982
 21
2978.332444858737
 31
0.0
  0
LINE
  5
EA
100
AcDbEntity
  8
WHITE
  6
CONTINUOUS
 62
          15
100
AcDbLine
 10
-4906.95158253149
 20
2962.945683172381
 30
0.0
 11
-4903.211227036473
 21
2993.719206545094
 31
0.0
  0
LINE
  5
EB
100
AcDbEntity
  8
WHITE
  6
CONTINUOUS
 62
          15
100
AcDbLine
 10
-4902.097876105257
 20
2994.591244218568
 30
0.0
 11
-4898.623446047047
 21
2994.168946017518
 31
0.0
  0
LINE
  5
EC
100
AcDbEntity
  8
WHITE
  6
CONTINUOUS
 62
          15
100
AcDbLine
 10
-4906.079544858016
 20
2961.832332241164
 30
0.0
 11
-4892.181824625178
 21
2960.143139436963
 31
0.0
  0
LINE
  5
ED
100
AcDbEntity
  8
WHITE
  6
CONTINUOUS
 62
           1
100
AcDbLine
 10
-4932.86691541286
 20
2956.928580742824
 30
0.0
 11
-4914.99841797064
 21
2954.756761423137
 31
0.0
  0
LINE
  5
EE
100
AcDbEntity
  8
WHITE
  6
CONTINUOUS
 62
           1
100
AcDbLine
 10
-4914.99841797064
 20
2954.756761423137
 30
0.0
 11
-4915.521640574724
 21
2955.424771981866
 31
0.0
  0
LINE
  5
EF
100
AcDbEntity
  8
WHITE
  6
CONTINUOUS
 62
           1
100
AcDbLine
 10
-4915.521640574724
 20
2955.424771981866
 30
0.0
 11
-4914.853630015994
 21
2955.947994585951
 31
0.0
  0
LINE
  5
F0
100
AcDbEntity
  8
WHITE
  6
CONTINUOUS
 62
           1
100
AcDbLine
 10
-4914.853630015994
 20
2955.947994585951
 30
0.0
 11
-4932.722127458214
 21
2958.119813905638
 31
0.0
  0
LINE
  5
F1
100
AcDbEntity
  8
WHITE
  6
CONTINUOUS
 62
           1
100
AcDbLine
 10
-4932.722127458214
 20
2958.119813905638
 30
0.0
 11
-4932.19890485413
 21
2957.451803346908
 31
0.0
  0
LINE
  5
F2
100
AcDbEntity
  8
WHITE
  6
CONTINUOUS
 62
           1
100
AcDbLine
 10
-4932.19890485413
 20
2957.451803346908
 30
0.0
 11
-4932.86691541286
 21
2956.928580742824
 31
0.0
  0
LINE
  5
F3
100
AcDbEntity
  8
WHITE
  6
CONTINUOUS
 62
           1
100
AcDbLine
 10
-4932.19890485413
 20
2957.451803346908
 30
0.0
 11
-4915.521640574724
 21
2955.424771981866
 31
0.0
  0
LINE
  5
F4
100
AcDbEntity
  8
WHITE
  6
CONTINUOUS
 62
           1
100
AcDbLine
 10
-4932.440218111873
 20
2955.466414742216
 30
0.0
 11
-4932.963440715957
 21
2956.134425300947
 31
0.0
  0
LINE
  5
F5
100
AcDbEntity
  8
WHITE
  6
CONTINUOUS
 62
           1
100
AcDbLine
 10
-4932.963440715957
 20
2956.134425300947
 30
0.0
 11
-4915.094943273737
 21
2953.96260598126
 31
0.0
  0
LINE
  5
F6
100
AcDbEntity
  8
WHITE
  6
CONTINUOUS
 62
           1
100
AcDbLine
 10
-4915.094943273737
 20
2953.96260598126
 30
0.0
 11
-4915.762953832467
 21
2953.439383377175
 31
0.0
  0
LINE
  5
F7
100
AcDbEntity
  8
WHITE
  6
CONTINUOUS
 62
           1
100
AcDbLine
 10
-4915.762953832467
 20
2953.439383377175
 30
0.0
 11
-4915.239731228383
 21
2952.771372818446
 31
0.0
  0
LINE
  5
F8
100
AcDbEntity
  8
WHITE
  6
CONTINUOUS
 62
           1
100
AcDbLine
 10
-4915.239731228383
 20
2952.771372818446
 30
0.0
 11
-4933.108228670603
 21
2954.943192138133
 31
0.0
  0
LINE
  5
F9
100
AcDbEntity
  8
WHITE
  6
CONTINUOUS
 62
           1
100
AcDbLine
 10
-4933.108228670603
 20
2954.943192138133
 30
0.0
 11
-4932.440218111873
 21
2955.466414742216
 31
0.0
  0
LINE
  5
FA
100
AcDbEntity
  8
WHITE
  6
CONTINUOUS
 62
           1
100
AcDbLine
 10
-4915.762953832467
 20
2953.439383377175
 30
0.0
 11
-4932.440218111873
 21
2955.466414742216
 31
0.0
  0
LINE
  5
FB
100
AcDbEntity
  8
WHITE
  6
CONTINUOUS
 62
           1
100
AcDbLine
 10
-4932.681531369616
 20
2953.481026137525
 30
0.0
 11
-4933.204753973701
 21
2954.149036696255
 31
0.0
  0
LINE
  5
FC
100
AcDbEntity
  8
WHITE
  6
CONTINUOUS
 62
           1
100
AcDbLine
 10
-4933.204753973701
 20
2954.149036696255
 30
0.0
 11
-4915.33625653148
 21
2951.977217376568
 31
0.0
  0
LINE
  5
FD
100
AcDbEntity
  8
WHITE
  6
CONTINUOUS
 62
           1
100
AcDbLine
 10
-4915.33625653148
 20
2951.977217376568
 30
0.0
 11
-4916.00426709021
 21
2951.453994772484
 31
0.0
  0
LINE
  5
FE
100
AcDbEntity
  8
WHITE
  6
CONTINUOUS
 62
           1
100
AcDbLine
 10
-4916.00426709021
 20
2951.453994772484
 30
0.0
 11
-4915.481044486125
 21
2950.785984213755
 31
0.0
  0
LINE
  5
FF
100
AcDbEntity
  8
WHITE
  6
CONTINUOUS
 62
           1
100
AcDbLine
 10
-4915.481044486125
 20
2950.785984213755
 30
0.0
 11
-4933.349541928345
 21
2952.957803533442
 31
0.0
  0
LINE
  5
100
100
AcDbEntity
  8
WHITE
  6
CONTINUOUS
 62
           1
100
AcDbLine
 10
-4933.349541928345
 20
2952.957803533442
 30
0.0
 11
-4932.681531369616
 21
2953.481026137525
 31
0.0
  0
LINE
  5
101
100
AcDbEntity
  8
WHITE
  6
CONTINUOUS
 62
           1
100
AcDbLine
 10
-4932.922844627359
 20
2951.495637532834
 30
0.0
 11
-4933.446067231444
 21
2952.163648091565
 31
0.0
  0
LINE
  5
102
100
AcDbEntity
  8
WHITE
  6
CONTINUOUS
 62
           1
100
AcDbLine
 10
-4933.446067231444
 20
2952.163648091565
 30
0.0
 11
-4927.397660969587
 21
2951.428496990287
 31
0.0
  0
LINE
  5
103
100
AcDbEntity
  8
WHITE
  6
CONTINUOUS
 62
           1
100
AcDbLine
 10
-4915.577569789223
 20
2949.991828771877
 30
0.0
 11
-4916.245580347953
 21
2949.468606167793
 31
0.0
  0
LINE
  5
104
100
AcDbEntity
  8
WHITE
  6
CONTINUOUS
 62
           1
100
AcDbLine
 10
-4916.245580347953
 20
2949.468606167793
 30
0.0
 11
-4915.722357743868
 21
2948.800595609064
 31
0.0
  0
LINE
  5
105
100
AcDbEntity
  8
WHITE
  6
CONTINUOUS
 62
           1
100
AcDbLine
 10
-4915.722357743868
 20
2948.800595609064
 30
0.0
 11
-4921.770764005724
 21
2949.535746710341
 31
0.0
  0
LINE
  5
106
100
AcDbEntity
  8
WHITE
  6
CONTINUOUS
 62
           1
100
AcDbLine
 10
-4933.590855186088
 20
2950.972414928751
 30
0.0
 11
-4932.922844627359
 21
2951.495637532834
 31
0.0
  0
LINE
  5
107
100
AcDbEntity
  8
WHITE
  6
CONTINUOUS
 62
           1
100
AcDbLine
 10
-4933.164157885101
 20
2949.510248928144
 30
0.0
 11
-4933.687380489187
 21
2950.178259486873
 31
0.0
  0
LINE
  5
108
100
AcDbEntity
  8
WHITE
  6
CONTINUOUS
 62
           1
100
AcDbLine
 10
-4933.687380489187
 20
2950.178259486873
 30
0.0
 11
-4928.379738696415
 21
2949.533144304425
 31
0.0
  0
LINE
  5
109
100
AcDbEntity
  8
WHITE
  6
CONTINUOUS
 62
           1
100
AcDbLine
 10
-4915.818883046966
 20
2948.006440167186
 30
0.0
 11
-4916.486893605696
 21
2947.483217563103
 31
0.0
  0
LINE
  5
10A
100
AcDbEntity
  8
WHITE
  6
CONTINUOUS
 62
           1
100
AcDbLine
 10
-4932.922844627359
 20
2951.495637532834
 30
0.0
 11
-4926.874438365503
 21
2950.760486431557
 31
0.0
  0
LINE
  5
10B
100
AcDbEntity
  8
WHITE
  6
CONTINUOUS
 62
           1
100
AcDbLine
 10
-4932.681531369616
 20
2953.481026137525
 30
0.0
 11
-4916.00426709021
 21
2951.453994772484
 31
0.0
  0
LINE
  5
10C
100
AcDbEntity
  8
WHITE
  6
CONTINUOUS
 62
           1
100
AcDbLine
 10
-4927.542448924233
 20
2950.237263827474
 30
0.0
 11
-4926.874438365503
 21
2950.760486431557
 31
0.0
  0
LINE
  5
10D
100
AcDbEntity
  8
WHITE
  6
CONTINUOUS
 62
           1
100
AcDbLine
 10
-4927.542448924233
 20
2950.237263827474
 30
0.0
 11
-4933.590855186088
 21
2950.972414928751
 31
0.0
  0
LINE
  5
10E
100
AcDbEntity
  8
WHITE
  6
CONTINUOUS
 62
           1
100
AcDbLine
 10
-4926.874438365503
 20
2950.760486431557
 30
0.0
 11
-4927.397660969587
 21
2951.428496990287
 31
0.0
  0
LINE
  5
10F
100
AcDbEntity
  8
WHITE
  6
CONTINUOUS
 62
           1
100
AcDbLine
 10
-4928.379738696415
 20
2949.533144304425
 30
0.0
 11
-4927.856516092331
 21
2948.865133745695
 31
0.0
  0
LINE
  5
110
100
AcDbEntity
  8
WHITE
  6
CONTINUOUS
 62
           1
100
AcDbLine
 10
-4921.794535398467
 20
2948.128332745551
 30
0.0
 11
-4921.126524839737
 21
2948.651555349635
 31
0.0
  0
LINE
  5
111
100
AcDbEntity
  8
WHITE
  6
CONTINUOUS
 62
           1
100
AcDbLine
 10
-4921.126524839737
 20
2948.651555349635
 30
0.0
 11
-4915.818883046966
 21
2948.006440167186
 31
0.0
  0
LINE
  5
112
100
AcDbEntity
  8
WHITE
  6
CONTINUOUS
 62
           1
100
AcDbLine
 10
-4921.770764005724
 20
2949.535746710341
 30
0.0
 11
-4922.29398660981
 21
2950.20375726907
 31
0.0
  0
LINE
  5
113
100
AcDbEntity
  8
WHITE
  6
CONTINUOUS
 62
           1
100
AcDbLine
 10
-4922.29398660981
 20
2950.20375726907
 30
0.0
 11
-4916.245580347953
 21
2949.468606167793
 31
0.0
  0
LINE
  5
114
100
AcDbEntity
  8
WHITE
  6
CONTINUOUS
 62
           1
100
AcDbLine
 10
-4922.29398660981
 20
2950.20375726907
 30
0.0
 11
-4921.625976051079
 21
2950.726979873155
 31
0.0
  0
LINE
  5
115
100
AcDbEntity
  8
WHITE
  6
CONTINUOUS
 62
           1
100
AcDbLine
 10
-4921.625976051079
 20
2950.726979873155
 30
0.0
 11
-4915.577569789223
 21
2949.991828771877
 31
0.0
  0
LINE
  5
116
100
AcDbEntity
  8
WHITE
  6
CONTINUOUS
 62
           1
100
AcDbLine
 10
-4933.446067231444
 20
2952.163648091565
 30
0.0
 11
-4933.590855186088
 21
2950.972414928751
 31
0.0
  0
LINE
  5
117
100
AcDbEntity
  8
WHITE
  6
CONTINUOUS
 62
           1
100
AcDbLine
 10
-4933.349541928345
 20
2952.957803533442
 30
0.0
 11
-4933.204753973701
 21
2954.149036696255
 31
0.0
  0
LINE
  5
118
100
AcDbEntity
  8
WHITE
  6
CONTINUOUS
 62
           1
100
AcDbLine
 10
-4933.108228670603
 20
2954.943192138133
 30
0.0
 11
-4932.963440715957
 21
2956.134425300947
 31
0.0
  0
LINE
  5
119
100
AcDbEntity
  8
WHITE
  6
CONTINUOUS
 62
           1
100
AcDbLine
 10
-4932.86691541286
 20
2956.928580742824
 30
0.0
 11
-4932.722127458214
 21
2958.119813905638
 31
0.0
  0
LINE
  5
11A
100
AcDbEntity
  8
WHITE
  6
CONTINUOUS
 62
           1
100
AcDbLine
 10
-4933.687380489187
 20
2950.178259486873
 30
0.0
 11
-4933.759774466509
 21
2949.582642905467
 31
0.0
  0
LINE
  5
11B
100
AcDbEntity
  8
WHITE
  6
CONTINUOUS
 62
           1
100
AcDbLine
 10
-4915.891277024289
 20
2947.41082358578
 30
0.0
 11
-4915.818883046966
 21
2948.006440167186
 31
0.0
  0
LINE
  5
11C
100
AcDbEntity
  8
WHITE
  6
CONTINUOUS
 62
           1
100
AcDbLine
 10
-4915.722357743868
 20
2948.800595609064
 30
0.0
 11
-4915.577569789223
 21
2949.991828771877
 31
0.0
  0
LINE
  5
11D
100
AcDbEntity
  8
WHITE
  6
CONTINUOUS
 62
           1
100
AcDbLine
 10
-4915.481044486125
 20
2950.785984213755
 30
0.0
 11
-4915.33625653148
 21
2951.977217376568
 31
0.0
  0
LINE
  5
11E
100
AcDbEntity
  8
WHITE
  6
CONTINUOUS
 62
           1
100
AcDbLine
 10
-4915.239731228383
 20
2952.771372818446
 30
0.0
 11
-4915.094943273737
 21
2953.96260598126
 31
0.0
  0
LINE
  5
11F
100
AcDbEntity
  8
WHITE
  6
CONTINUOUS
 62
           1
100
AcDbLine
 10
-4914.99841797064
 20
2954.756761423137
 30
0.0
 11
-4914.853630015994
 21
2955.947994585951
 31
0.0
  0
LINE
  5
120
100
AcDbEntity
  8
WHITE
  6
CONTINUOUS
 62
           1
100
AcDbLine
 10
-4916.928924032583
 20
2938.873652585608
 30
0.0
 11
-4916.784136077938
 21
2940.064885748422
 31
0.0
  0
LINE
  5
121
100
AcDbEntity
  8
WHITE
  6
CONTINUOUS
 62
           1
100
AcDbLine
 10
-4916.68761077484
 20
2940.859041190299
 30
0.0
 11
-4916.542822820195
 21
2942.050274353113
 31
0.0
  0
LINE
  5
122
100
AcDbEntity
  8
WHITE
  6
CONTINUOUS
 62
           1
100
AcDbLine
 10
-4916.446297517097
 20
2942.84442979499
 30
0.0
 11
-4916.301509562451
 21
2944.035662957804
 31
0.0
  0
LINE
  5
123
100
AcDbEntity
  8
WHITE
  6
CONTINUOUS
 62
           1
100
AcDbLine
 10
-4916.204984259354
 20
2944.829818399681
 30
0.0
 11
-4916.060196304708
 21
2946.021051562495
 31
0.0
  0
LINE
  5
124
100
AcDbEntity
  8
WHITE
  6
CONTINUOUS
 62
           1
100
AcDbLine
 10
-4915.963671001611
 20
2946.815207004373
 30
0.0
 11
-4915.891277024289
 21
2947.41082358578
 31
0.0
  0
LINE
  5
125
100
AcDbEntity
  8
WHITE
  6
CONTINUOUS
 62
           1
100
AcDbLine
 10
-4933.759774466509
 20
2949.582642905467
 30
0.0
 11
-4933.832168443832
 21
2948.98702632406
 31
0.0
  0
LINE
  5
126
100
AcDbEntity
  8
WHITE
  6
CONTINUOUS
 62
           1
100
AcDbLine
 10
-4934.797421474804
 20
2941.045471905295
 30
0.0
 11
-4934.652633520158
 21
2942.236705068109
 31
0.0
  0
LINE
  5
127
100
AcDbEntity
  8
WHITE
  6
CONTINUOUS
 62
           1
100
AcDbLine
 10
-4934.556108217061
 20
2943.030860509986
 30
0.0
 11
-4934.411320262415
 21
2944.2220936728
 31
0.0
  0
LINE
  5
128
100
AcDbEntity
  8
WHITE
  6
CONTINUOUS
 62
           1
100
AcDbLine
 10
-4934.314794959318
 20
2945.016249114677
 30
0.0
 11
-4934.170007004672
 21
2946.207482277491
 31
0.0
  0
LINE
  5
129
100
AcDbEntity
  8
WHITE
  6
CONTINUOUS
 62
           1
100
AcDbLine
 10
-4933.928693746929
 20
2948.192870882182
 30
0.0
 11
-4934.073481701575
 21
2947.001637719368
 31
0.0
  0
LINE
  5
12A
100
AcDbEntity
  8
WHITE
  6
CONTINUOUS
 62
           1
100
AcDbLine
 10
-4916.204984259354
 20
2944.829818399681
 30
0.0
 11
-4922.25339052121
 21
2945.564969500958
 31
0.0
  0
LINE
  5
12B
100
AcDbEntity
  8
WHITE
  6
CONTINUOUS
 62
           1
100
AcDbLine
 10
-4922.25339052121
 20
2945.564969500958
 30
0.0
 11
-4922.776613125296
 21
2946.232980059689
 31
0.0
  0
LINE
  5
12C
100
AcDbEntity
  8
WHITE
  6
CONTINUOUS
 62
           1
100
AcDbLine
 10
-4916.72820686344
 20
2945.497828958411
 30
0.0
 11
-4922.776613125296
 21
2946.232980059689
 31
0.0
  0
LINE
  5
12D
100
AcDbEntity
  8
WHITE
  6
CONTINUOUS
 62
           1
100
AcDbLine
 10
-4922.776613125296
 20
2946.232980059689
 30
0.0
 11
-4922.108602566565
 21
2946.756202663772
 31
0.0
  0
LINE
  5
12E
100
AcDbEntity
  8
WHITE
  6
CONTINUOUS
 62
           1
100
AcDbLine
 10
-4915.963671001611
 20
2946.815207004373
 30
0.0
 11
-4921.271312794383
 21
2947.460322186821
 31
0.0
  0
LINE
  5
12F
100
AcDbEntity
  8
WHITE
  6
CONTINUOUS
 62
           1
100
AcDbLine
 10
-4921.271312794383
 20
2947.460322186821
 30
0.0
 11
-4921.794535398467
 21
2948.128332745551
 31
0.0
  0
LINE
  5
130
100
AcDbEntity
  8
WHITE
  6
CONTINUOUS
 62
           1
100
AcDbLine
 10
-4933.164157885101
 20
2949.510248928144
 30
0.0
 11
-4927.856516092331
 21
2948.865133745695
 31
0.0
  0
LINE
  5
131
100
AcDbEntity
  8
WHITE
  6
CONTINUOUS
 62
           1
100
AcDbLine
 10
-4927.856516092331
 20
2948.865133745695
 30
0.0
 11
-4928.524526651061
 21
2948.341911141611
 31
0.0
  0
LINE
  5
132
100
AcDbEntity
  8
WHITE
  6
CONTINUOUS
 62
           1
100
AcDbLine
 10
-4928.025075439719
 20
2946.266486618091
 30
0.0
 11
-4927.357064880988
 21
2946.789709222176
 31
0.0
  0
LINE
  5
133
100
AcDbEntity
  8
WHITE
  6
CONTINUOUS
 62
           1
100
AcDbLine
 10
-4933.928693746929
 20
2948.192870882182
 30
0.0
 11
-4927.880287485074
 21
2947.457719780905
 31
0.0
  0
LINE
  5
134
100
AcDbEntity
  8
WHITE
  6
CONTINUOUS
 62
           1
100
AcDbLine
 10
-4927.357064880988
 20
2946.789709222176
 30
0.0
 11
-4927.880287485074
 21
2947.457719780905
 31
0.0
  0
LINE
  5
135
100
AcDbEntity
  8
WHITE
  6
CONTINUOUS
 62
           1
100
AcDbLine
 10
-4916.969520121183
 20
2943.51244035372
 30
0.0
 11
-4933.646784400587
 21
2945.539471718761
 31
0.0
  0
LINE
  5
136
100
AcDbEntity
  8
WHITE
  6
CONTINUOUS
 62
           1
100
AcDbLine
 10
-4927.357064880988
 20
2946.789709222176
 30
0.0
 11
-4933.405471142844
 21
2947.524860323453
 31
0.0
  0
LINE
  5
137
100
AcDbEntity
  8
WHITE
  6
CONTINUOUS
 62
           1
100
AcDbLine
 10
-4921.794535398467
 20
2948.128332745551
 30
0.0
 11
-4916.486893605696
 21
2947.483217563103
 31
0.0
  0
LINE
  5
138
100
AcDbEntity
  8
WHITE
  6
CONTINUOUS
 62
           1
100
AcDbLine
 10
-4916.486893605696
 20
2947.483217563103
 30
0.0
 11
-4915.963671001611
 21
2946.815207004373
 31
0.0
  0
LINE
  5
139
100
AcDbEntity
  8
WHITE
  6
CONTINUOUS
 62
           1
100
AcDbLine
 10
-4928.524526651061
 20
2948.341911141611
 30
0.0
 11
-4933.832168443832
 21
2948.98702632406
 31
0.0
  0
LINE
  5
13A
100
AcDbEntity
  8
WHITE
  6
CONTINUOUS
 62
           1
100
AcDbLine
 10
-4933.832168443832
 20
2948.98702632406
 30
0.0
 11
-4933.164157885101
 21
2949.510248928144
 31
0.0
  0
LINE
  5
13B
100
AcDbEntity
  8
WHITE
  6
CONTINUOUS
 62
           1
100
AcDbLine
 10
-4933.405471142844
 20
2947.524860323453
 30
0.0
 11
-4933.928693746929
 21
2948.192870882182
 31
0.0
  0
LINE
  5
13C
100
AcDbEntity
  8
WHITE
  6
CONTINUOUS
 62
           1
100
AcDbLine
 10
-4922.108602566565
 20
2946.756202663772
 30
0.0
 11
-4916.060196304708
 21
2946.021051562495
 31
0.0
  0
LINE
  5
13D
100
AcDbEntity
  8
WHITE
  6
CONTINUOUS
 62
           1
100
AcDbLine
 10
-4916.060196304708
 20
2946.021051562495
 30
0.0
 11
-4916.72820686344
 21
2945.497828958411
 31
0.0
  0
LINE
  5
13E
100
AcDbEntity
  8
WHITE
  6
CONTINUOUS
 62
           1
100
AcDbLine
 10
-4916.72820686344
 20
2945.497828958411
 30
0.0
 11
-4916.204984259354
 21
2944.829818399681
 31
0.0
  0
LINE
  5
13F
100
AcDbEntity
  8
WHITE
  6
CONTINUOUS
 62
           1
100
AcDbLine
 10
-4928.025075439719
 20
2946.266486618091
 30
0.0
 11
-4934.073481701575
 21
2947.001637719368
 31
0.0
  0
LINE
  5
140
100
AcDbEntity
  8
WHITE
  6
CONTINUOUS
 62
           1
100
AcDbLine
 10
-4934.073481701575
 20
2947.001637719368
 30
0.0
 11
-4933.405471142844
 21
2947.524860323453
 31
0.0
  0
LINE
  5
141
100
AcDbEntity
  8
WHITE
  6
CONTINUOUS
 62
           1
100
AcDbLine
 10
-4933.646784400587
 20
2945.539471718761
 30
0.0
 11
-4934.170007004672
 21
2946.207482277491
 31
0.0
  0
LINE
  5
142
100
AcDbEntity
  8
WHITE
  6
CONTINUOUS
 62
           1
100
AcDbLine
 10
-4934.170007004672
 20
2946.207482277491
 30
0.0
 11
-4916.301509562451
 21
2944.035662957804
 31
0.0
  0
LINE
  5
143
100
AcDbEntity
  8
WHITE
  6
CONTINUOUS
 62
           1
100
AcDbLine
 10
-4916.301509562451
 20
2944.035662957804
 30
0.0
 11
-4916.969520121183
 21
2943.51244035372
 31
0.0
  0
LINE
  5
144
100
AcDbEntity
  8
WHITE
  6
CONTINUOUS
 62
           1
100
AcDbLine
 10
-4916.969520121183
 20
2943.51244035372
 30
0.0
 11
-4916.446297517097
 21
2942.84442979499
 31
0.0
  0
LINE
  5
145
100
AcDbEntity
  8
WHITE
  6
CONTINUOUS
 62
           1
100
AcDbLine
 10
-4916.446297517097
 20
2942.84442979499
 30
0.0
 11
-4934.314794959318
 21
2945.016249114677
 31
0.0
  0
LINE
  5
146
100
AcDbEntity
  8
WHITE
  6
CONTINUOUS
 62
           1
100
AcDbLine
 10
-4934.314794959318
 20
2945.016249114677
 30
0.0
 11
-4933.646784400587
 21
2945.539471718761
 31
0.0
  0
LINE
  5
147
100
AcDbEntity
  8
WHITE
  6
CONTINUOUS
 62
           1
100
AcDbLine
 10
-4933.888097658331
 20
2943.554083114071
 30
0.0
 11
-4917.210833378926
 21
2941.527051749029
 31
0.0
  0
LINE
  5
148
100
AcDbEntity
  8
WHITE
  6
CONTINUOUS
 62
           1
100
AcDbLine
 10
-4933.888097658331
 20
2943.554083114071
 30
0.0
 11
-4934.411320262415
 21
2944.2220936728
 31
0.0
  0
LINE
  5
149
100
AcDbEntity
  8
WHITE
  6
CONTINUOUS
 62
           1
100
AcDbLine
 10
-4934.411320262415
 20
2944.2220936728
 30
0.0
 11
-4916.542822820195
 21
2942.050274353113
 31
0.0
  0
LINE
  5
14A
100
AcDbEntity
  8
WHITE
  6
CONTINUOUS
 62
           1
100
AcDbLine
 10
-4916.542822820195
 20
2942.050274353113
 30
0.0
 11
-4917.210833378926
 21
2941.527051749029
 31
0.0
  0
LINE
  5
14B
100
AcDbEntity
  8
WHITE
  6
CONTINUOUS
 62
           1
100
AcDbLine
 10
-4917.210833378926
 20
2941.527051749029
 30
0.0
 11
-4916.68761077484
 21
2940.859041190299
 31
0.0
  0
LINE
  5
14C
100
AcDbEntity
  8
WHITE
  6
CONTINUOUS
 62
           1
100
AcDbLine
 10
-4916.68761077484
 20
2940.859041190299
 30
0.0
 11
-4934.556108217061
 21
2943.030860509986
 31
0.0
  0
LINE
  5
14D
100
AcDbEntity
  8
WHITE
  6
CONTINUOUS
 62
           1
100
AcDbLine
 10
-4934.556108217061
 20
2943.030860509986
 30
0.0
 11
-4933.888097658331
 21
2943.554083114071
 31
0.0
  0
LINE
  5
14E
100
AcDbEntity
  8
WHITE
  6
CONTINUOUS
 62
           1
100
AcDbLine
 10
-4917.452146636669
 20
2939.541663144338
 30
0.0
 11
-4934.129410916074
 21
2941.568694509379
 31
0.0
  0
LINE
  5
14F
100
AcDbEntity
  8
WHITE
  6
CONTINUOUS
 62
           1
100
AcDbLine
 10
-4934.652633520158
 20
2942.236705068109
 30
0.0
 11
-4934.129410916074
 21
2941.568694509379
 31
0.0
  0
LINE
  5
150
100
AcDbEntity
  8
WHITE
  6
CONTINUOUS
 62
           1
100
AcDbLine
 10
-4934.129410916074
 20
2941.568694509379
 30
0.0
 11
-4934.797421474804
 21
2941.045471905295
 31
0.0
  0
LINE
  5
151
100
AcDbEntity
  8
WHITE
  6
CONTINUOUS
 62
           1
100
AcDbLine
 10
-4934.797421474804
 20
2941.045471905295
 30
0.0
 11
-4916.928924032583
 21
2938.873652585608
 31
0.0
  0
LINE
  5
152
100
AcDbEntity
  8
WHITE
  6
CONTINUOUS
 62
           1
100
AcDbLine
 10
-4916.928924032583
 20
2938.873652585608
 30
0.0
 11
-4917.452146636669
 21
2939.541663144338
 31
0.0
  0
LINE
  5
153
100
AcDbEntity
  8
WHITE
  6
CONTINUOUS
 62
           1
100
AcDbLine
 10
-4917.452146636669
 20
2939.541663144338
 30
0.0
 11
-4916.784136077938
 21
2940.064885748422
 31
0.0
  0
LINE
  5
154
100
AcDbEntity
  8
WHITE
  6
CONTINUOUS
 62
           1
100
AcDbLine
 10
-4916.784136077938
 20
2940.064885748422
 30
0.0
 11
-4934.652633520158
 21
2942.236705068109
 31
0.0
  0
LINE
  5
155
100
AcDbEntity
  8
WHITE
  6
CONTINUOUS
 62
          15
100
AcDbLine
 10
-4960.981562257568
 20
2939.36427652663
 30
0.0
 11
-4960.07311425736
 21
2940.572897147009
 31
0.0
  0
LINE
  5
156
100
AcDbEntity
  8
WHITE
  6
CONTINUOUS
 62
          15
100
AcDbLine
 10
-4955.860102826078
 20
2940.060828370655
 30
0.0
 11
-4960.07311425736
 21
2940.572897147009
 31
0.0
  0
LINE
  5
157
100
AcDbEntity
  8
WHITE
  6
CONTINUOUS
 62
          15
100
AcDbLine
 10
-4960.07311425736
 20
2940.572897147009
 30
0.0
 11
-4960.507598498281
 21
2943.26378149178
 31
0.0
  0
LINE
  5
158
100
AcDbEntity
  8
WHITE
  6
CONTINUOUS
 62
          15
100
AcDbLine
 10
-4960.024971982794
 20
2947.234558701162
 30
0.0
 11
-4958.958536062825
 21
2949.743014309925
 31
0.0
  0
LINE
  5
159
100
AcDbEntity
  8
WHITE
  6
CONTINUOUS
 62
          15
100
AcDbLine
 10
-4954.745524631542
 20
2949.23094553357
 30
0.0
 11
-4958.958536062825
 21
2949.743014309925
 31
0.0
  0
LINE
  5
15A
100
AcDbEntity
  8
WHITE
  6
CONTINUOUS
 62
          15
100
AcDbLine
 10
-4958.958536062825
 20
2949.743014309925
 30
0.0
 11
-4959.551008223508
 21
2951.134063666311
 31
0.0
  0
LINE
  5
15B
100
AcDbEntity
  8
WHITE
  6
CONTINUOUS
 62
          15
100
AcDbLine
 10
-4960.630403354629
 20
2935.987838565551
 30
0.0
 11
-4961.222875515311
 21
2937.378887921938
 31
0.0
  0
LINE
  5
15C
100
AcDbEntity
  8
WHITE
  6
CONTINUOUS
 62
          15
100
AcDbLine
 10
-4954.188235534274
 20
2953.81600411503
 30
0.0
 11
-4958.401246965557
 21
2954.328072891383
 31
0.0
  0
LINE
  5
15D
100
AcDbEntity
  8
WHITE
  6
CONTINUOUS
 62
          15
100
AcDbLine
 10
-4959.309694965765
 20
2953.119452271002
 30
0.0
 11
-4958.401246965557
 21
2954.328072891383
 31
0.0
  0
LINE
  5
15E
100
AcDbEntity
  8
WHITE
  6
CONTINUOUS
 62
          15
100
AcDbLine
 10
-4956.417391923345
 20
2935.475769789197
 30
0.0
 11
-4956.259404003583
 21
2936.775604777581
 31
0.0
  0
LINE
  5
15F
100
AcDbEntity
  8
WHITE
  6
CONTINUOUS
 62
          15
100
AcDbLine
 10
-4960.981562257568
 20
2939.36427652663
 30
0.0
 11
-4961.222875515311
 21
2937.378887921938
 31
0.0
  0
LINE
  5
160
100
AcDbEntity
  8
WHITE
  6
CONTINUOUS
 62
          15
100
AcDbLine
 10
-4956.259404003583
 20
2936.775604777581
 30
0.0
 11
-4961.222875515311
 21
2937.378887921938
 31
0.0
  0
LINE
  5
161
100
AcDbEntity
  8
WHITE
  6
CONTINUOUS
 62
          15
100
AcDbLine
 10
-4956.259404003583
 20
2936.775604777581
 30
0.0
 11
-4956.018090745841
 21
2938.760993382272
 31
0.0
  0
LINE
  5
162
100
AcDbEntity
  8
WHITE
  6
CONTINUOUS
 62
          15
100
AcDbLine
 10
-4960.507598498281
 20
2943.26378149178
 30
0.0
 11
-4960.981562257568
 21
2939.36427652663
 31
0.0
  0
LINE
  5
163
100
AcDbEntity
  8
WHITE
  6
CONTINUOUS
 62
          15
100
AcDbLine
 10
-4956.018090745841
 20
2938.760993382272
 30
0.0
 11
-4960.981562257568
 21
2939.36427652663
 31
0.0
  0
LINE
  5
164
100
AcDbEntity
  8
WHITE
  6
CONTINUOUS
 62
          15
100
AcDbLine
 10
-4956.018090745841
 20
2938.760993382272
 30
0.0
 11
-4955.860102826078
 21
2940.060828370655
 31
0.0
  0
LINE
  5
165
100
AcDbEntity
  8
WHITE
  6
CONTINUOUS
 62
          15
100
AcDbLine
 10
-4955.860102826078
 20
2940.060828370655
 30
0.0
 11
-4955.544126986553
 21
2942.660498347422
 31
0.0
  0
LINE
  5
166
100
AcDbEntity
  8
WHITE
  6
CONTINUOUS
 62
          15
100
AcDbLine
 10
-4960.024971982794
 20
2947.234558701162
 30
0.0
 11
-4960.507598498281
 21
2943.26378149178
 31
0.0
  0
LINE
  5
167
100
AcDbEntity
  8
WHITE
  6
CONTINUOUS
 62
          15
100
AcDbLine
 10
-4955.544126986553
 20
2942.660498347422
 30
0.0
 11
-4960.507598498281
 21
2943.26378149178
 31
0.0
  0
LINE
  5
168
100
AcDbEntity
  8
WHITE
  6
CONTINUOUS
 62
          15
100
AcDbLine
 10
-4955.544126986553
 20
2942.660498347422
 30
0.0
 11
-4955.061500471067
 21
2946.631275556805
 31
0.0
  0
LINE
  5
169
100
AcDbEntity
  8
WHITE
  6
CONTINUOUS
 62
          15
100
AcDbLine
 10
-4959.551008223508
 20
2951.134063666311
 30
0.0
 11
-4960.024971982794
 21
2947.234558701162
 31
0.0
  0
LINE
  5
16A
100
AcDbEntity
  8
WHITE
  6
CONTINUOUS
 62
          15
100
AcDbLine
 10
-4955.061500471067
 20
2946.631275556805
 30
0.0
 11
-4960.024971982794
 21
2947.234558701162
 31
0.0
  0
LINE
  5
16B
100
AcDbEntity
  8
WHITE
  6
CONTINUOUS
 62
          15
100
AcDbLine
 10
-4955.061500471067
 20
2946.631275556805
 30
0.0
 11
-4954.745524631542
 21
2949.23094553357
 31
0.0
  0
LINE
  5
16C
100
AcDbEntity
  8
WHITE
  6
CONTINUOUS
 62
          15
100
AcDbLine
 10
-4954.745524631542
 20
2949.23094553357
 30
0.0
 11
-4954.58753671178
 21
2950.530780521953
 31
0.0
  0
LINE
  5
16D
100
AcDbEntity
  8
WHITE
  6
CONTINUOUS
 62
          15
100
AcDbLine
 10
-4959.309694965765
 20
2953.119452271002
 30
0.0
 11
-4959.551008223508
 21
2951.134063666311
 31
0.0
  0
LINE
  5
16E
100
AcDbEntity
  8
WHITE
  6
CONTINUOUS
 62
          15
100
AcDbLine
 10
-4954.58753671178
 20
2950.530780521953
 30
0.0
 11
-4959.551008223508
 21
2951.134063666311
 31
0.0
  0
LINE
  5
16F
100
AcDbEntity
  8
WHITE
  6
CONTINUOUS
 62
          15
100
AcDbLine
 10
-4954.58753671178
 20
2950.530780521953
 30
0.0
 11
-4954.346223454038
 21
2952.516169126644
 31
0.0
  0
LINE
  5
170
100
AcDbEntity
  8
WHITE
  6
CONTINUOUS
 62
          15
100
AcDbLine
 10
-4959.309694965765
 20
2953.119452271002
 30
0.0
 11
-4954.346223454038
 21
2952.516169126644
 31
0.0
  0
LINE
  5
171
100
AcDbEntity
  8
WHITE
  6
CONTINUOUS
 62
          15
100
AcDbLine
 10
-4960.630403354629
 20
2935.987838565551
 30
0.0
 11
-4956.417391923345
 21
2935.475769789197
 31
0.0
  0
LINE
  5
172
100
AcDbEntity
  8
WHITE
  6
CONTINUOUS
 62
          15
100
AcDbLine
 10
-4954.346223454038
 20
2952.516169126644
 30
0.0
 11
-4954.188235534274
 21
2953.81600411503
 31
0.0
  0
LINE
  5
173
100
AcDbEntity
  8
WHITE
  6
CONTINUOUS
 62
          15
100
AcDbLine
 10
-4905.081404783982
 20
2978.332444858737
 30
0.0
 11
-4904.447957482406
 21
2983.544089946051
 31
0.0
  0
LINE
  5
174
100
AcDbEntity
  8
WHITE
  6
CONTINUOUS
 62
          15
100
AcDbLine
 10
-4906.99274443855
 20
2975.038999743836
 30
0.0
 11
-4907.415042639601
 21
2971.564569685625
 31
0.0
  0
LINE
  5
175
100
AcDbEntity
  8
WHITE
  6
CONTINUOUS
 62
          15
100
AcDbLine
 10
-4907.415042639601
 20
2971.564569685625
 30
0.0
 11
-4906.664577008291
 21
2971.473354642944
 31
0.0
  0
LINE
  5
176
100
AcDbEntity
  8
WHITE
  6
CONTINUOUS
 62
          15
100
AcDbLine
 10
-4906.14814803645
 20
2981.987859860255
 30
0.0
 11
-4906.99274443855
 21
2975.038999743836
 31
0.0
  0
LINE
  5
177
100
AcDbEntity
  8
WHITE
  6
CONTINUOUS
 62
          15
100
AcDbLine
 10
-4906.99274443855
 20
2975.038999743836
 30
0.0
 11
-4906.242278807241
 21
2974.947784701154
 31
0.0
  0
LINE
  5
178
100
AcDbEntity
  8
WHITE
  6
CONTINUOUS
 62
          15
100
AcDbLine
 10
-4905.7258498354
 20
2985.462289918463
 30
0.0
 11
-4906.14814803645
 21
2981.987859860255
 31
0.0
  0
LINE
  5
179
100
AcDbEntity
  8
WHITE
  6
CONTINUOUS
 62
          15
100
AcDbLine
 10
-4906.14814803645
 20
2981.987859860255
 30
0.0
 11
-4905.397682405141
 21
2981.896644817573
 31
0.0
  0
LINE
  5
17A
100
AcDbEntity
  8
WHITE
  6
CONTINUOUS
 62
          15
100
AcDbLine
 10
-4905.062238376607
 20
2990.922108581365
 30
0.0
 11
-4905.7258498354
 21
2985.462289918463
 31
0.0
  0
LINE
  5
17B
100
AcDbEntity
  8
WHITE
  6
CONTINUOUS
 62
          15
100
AcDbLine
 10
-4905.7258498354
 20
2985.462289918463
 30
0.0
 11
-4904.97538420409
 21
2985.371074875782
 31
0.0
  0
LINE
  5
17C
100
AcDbEntity
  8
WHITE
  6
CONTINUOUS
 62
          15
100
AcDbLine
 10
-4950.816562549691
 20
2950.144764142764
 30
0.0
 11
-4952.264442096149
 21
2938.232432514616
 31
0.0
  0
LINE
  5
17D
100
AcDbEntity
  8
WHITE
  6
CONTINUOUS
 62
           2
100
AcDbLine
 10
-4952.264442096149
 20
2938.232432514616
 30
0.0
 11
-4956.026753502039
 21
2938.689721138039
 31
0.0
  0
LINE
  5
17E
100
AcDbEntity
  8
WHITE
  6
CONTINUOUS
 62
          15
100
AcDbLine
 10
-4950.695905920819
 20
2951.13745844511
 30
0.0
 11
-4950.816562549691
 21
2950.144764142764
 31
0.0
  0
LINE
  5
17F
100
AcDbEntity
  8
WHITE
  6
CONTINUOUS
 62
           2
100
AcDbLine
 10
-4950.816562549691
 20
2950.144764142764
 30
0.0
 11
-4954.578873955581
 21
2950.602052766187
 31
0.0
  0
LINE
  5
180
100
AcDbEntity
  8
WHITE
  6
CONTINUOUS
 62
          15
100
AcDbLine
 10
-4952.264442096149
 20
2938.232432514616
 30
0.0
 11
-4952.385098725021
 21
2937.239738212271
 31
0.0
  0
LINE
  5
181
100
AcDbEntity
  8
WHITE
  6
CONTINUOUS
 62
          15
100
AcDbLine
 10
-4956.14741013091
 20
2937.697026835694
 30
0.0
 11
-4952.385098725021
 21
2937.239738212271
 31
0.0
  0
LINE
  5
182
100
AcDbEntity
  8
WHITE
  6
CONTINUOUS
 62
          15
100
AcDbLine
 10
-4950.635577606384
 20
2951.633805596282
 30
0.0
 11
-4950.695905920819
 21
2951.13745844511
 31
0.0
  0
LINE
  5
183
100
AcDbEntity
  8
WHITE
  6
CONTINUOUS
 62
          15
100
AcDbLine
 10
-4954.45821732671
 20
2951.594747068532
 30
0.0
 11
-4950.695905920819
 21
2951.13745844511
 31
0.0
  0
LINE
  5
184
100
AcDbEntity
  8
WHITE
  6
CONTINUOUS
 62
          15
100
AcDbLine
 10
-4914.166368084716
 20
2932.594458000718
 30
0.0
 11
-4933.063195951399
 21
2934.891265327376
 31
0.0
  0
LINE
  5
185
100
AcDbEntity
  8
WHITE
  6
CONTINUOUS
 62
          15
100
AcDbLine
 10
-4933.063195951399
 20
2934.891265327376
 30
0.0
 11
-4940.714080354617
 21
2933.806470061121
 31
0.0
  0
LINE
  5
186
100
AcDbEntity
  8
WHITE
  6
CONTINUOUS
 62
          15
100
AcDbLine
 10
-4908.681937242752
 20
2961.141279510997
 30
0.0
 11
-4909.178284393925
 21
2961.201607825433
 31
0.0
  0
LINE
  5
187
100
AcDbEntity
  8
WHITE
  6
CONTINUOUS
 62
          15
100
AcDbLine
 10
-4912.49634168789
 20
2933.90251451093
 30
0.0
 11
-4909.178284393925
 21
2961.201607825433
 31
0.0
  0
LINE
  5
188
100
AcDbEntity
  8
WHITE
  6
CONTINUOUS
 62
          15
100
AcDbLine
 10
-4938.983725643356
 20
2935.610873722505
 30
0.0
 11
-4933.063195951399
 21
2934.891265327376
 31
0.0
  0
LINE
  5
189
100
AcDbEntity
  8
WHITE
  6
CONTINUOUS
 62
          15
100
AcDbLine
 10
-4909.178284393925
 20
2961.201607825433
 30
0.0
 11
-4936.9737248596
 21
2964.579993433835
 31
0.0
  0
LINE
  5
18A
100
AcDbEntity
  8
WHITE
  6
CONTINUOUS
 62
          15
100
AcDbLine
 10
-4940.291782153567
 20
2937.280900119332
 30
0.0
 11
-4936.9737248596
 21
2964.579993433835
 31
0.0
  0
LINE
  5
18B
100
AcDbEntity
  8
WHITE
  6
CONTINUOUS
 62
          15
100
AcDbLine
 10
-4951.137370529245
 20
2935.073364664272
 30
0.0
 11
-4940.714080354617
 21
2933.806470061121
 31
0.0
  0
LINE
  5
18C
100
AcDbEntity
  8
WHITE
  6
CONTINUOUS
 62
          15
100
AcDbLine
 10
-4952.385098725021
 20
2937.239738212271
 30
0.0
 11
-4952.445427039456
 21
2936.743391061099
 31
0.0
  0
LINE
  5
18D
100
AcDbEntity
  8
WHITE
  6
CONTINUOUS
 62
          15
100
AcDbLine
 10
-4948.965551209558
 20
2952.941862106493
 30
0.0
 11
-4938.54226103493
 21
2951.674967503343
 31
0.0
  0
LINE
  5
18E
100
AcDbEntity
  8
WHITE
  6
CONTINUOUS
 62
          15
100
AcDbLine
 10
-4908.56128061388
 20
2962.133973813343
 30
0.0
 11
-4908.681937242752
 21
2961.141279510997
 31
0.0
  0
LINE
  5
18F
100
AcDbEntity
  8
WHITE
  6
CONTINUOUS
 62
          15
100
AcDbLine
 10
-4936.9737248596
 20
2964.579993433835
 30
0.0
 11
-4937.470072010773
 21
2964.640321748271
 31
0.0
  0
LINE
  5
190
100
AcDbEntity
  8
WHITE
  6
CONTINUOUS
 62
          15
100
AcDbLine
 10
-4937.470072010773
 20
2964.640321748271
 30
0.0
 11
-4937.349415381902
 21
2965.633016050616
 31
0.0
  0
LINE
  5
191
100
AcDbEntity
  8
WHITE
  6
CONTINUOUS
 62
          15
100
AcDbLine
 10
-4908.56128061388
 20
2962.133973813343
 30
0.0
 11
-4937.349415381902
 21
2965.633016050616
 31
0.0
  0
LINE
  5
192
100
AcDbEntity
  8
WHITE
  6
CONTINUOUS
 62
           7
100
AcDbLine
 10
-4934.205595896253
 20
2991.498579511126
 30
0.0
 11
-4934.272671345679
 21
2990.946720760428
 31
0.0
  0
LINE
  5
193
100
AcDbEntity
  8
WHITE
  6
CONTINUOUS
 62
          15
100
AcDbLine
 10
-4932.048330098397
 20
2993.249867124222
 30
0.0
 11
-4905.062238376607
 21
2990.922108581365
 31
0.0
  0
LINE
  5
194
100
AcDbEntity
  8
WHITE
  6
CONTINUOUS
 62
           7
100
AcDbLine
 10
-4940.623694089429
 20
2980.134019427812
 30
0.0
 11
-4940.563365774993
 21
2980.630366578984
 31
0.0
  0
LINE
  5
195
100
AcDbEntity
  8
WHITE
  6
CONTINUOUS
 62
           1
100
AcDbLine
 10
-4938.093193971727
 20
2980.330130542763
 30
0.0
 11
-4940.563365774993
 21
2980.630366578984
 31
0.0
  0
LINE
  5
196
100
AcDbEntity
  8
WHITE
  6
CONTINUOUS
 62
           7
100
AcDbLine
 10
-4940.563365774993
 20
2980.630366578984
 30
0.0
 11
-4940.080739259507
 21
2984.601143788366
 31
0.0
  0
LINE
  5
197
100
AcDbEntity
  8
WHITE
  6
CONTINUOUS
 62
           1
100
AcDbLine
 10
-4937.610567456241
 20
2984.300907752145
 30
0.0
 11
-4940.080739259507
 21
2984.601143788366
 31
0.0
  0
LINE
  5
198
100
AcDbEntity
  8
WHITE
  6
CONTINUOUS
 62
           7
100
AcDbLine
 10
-4940.684022403864
 20
2979.637672276638
 30
0.0
 11
-4940.623694089429
 21
2980.134019427812
 31
0.0
  0
LINE
  5
199
100
AcDbEntity
  8
WHITE
  6
CONTINUOUS
 62
           1
100
AcDbLine
 10
-4938.153522286162
 20
2979.833783391591
 30
0.0
 11
-4940.623694089429
 21
2980.134019427812
 31
0.0
  0
LINE
  5
19A
100
AcDbEntity
  8
WHITE
  6
CONTINUOUS
 62
           7
100
AcDbLine
 10
-4940.080739259507
 20
2984.601143788366
 30
0.0
 11
-4940.020410945071
 21
2985.09749093954
 31
0.0
  0
LINE
  5
19B
100
AcDbEntity
  8
WHITE
  6
CONTINUOUS
 62
           1
100
AcDbLine
 10
-4937.550239141804
 20
2984.797254903318
 30
0.0
 11
-4940.020410945071
 21
2985.09749093954
 31
0.0
  0
LINE
  5
19C
100
AcDbEntity
  8
WHITE
  6
CONTINUOUS
 62
           7
100
AcDbLine
 10
-4938.967388328289
 20
2985.47318146184
 30
0.0
 11
-4939.691328101519
 21
2979.517015647767
 31
0.0
  0
LINE
  5
19D
100
AcDbEntity
  8
WHITE
  6
CONTINUOUS
 62
           2
100
AcDbLine
 10
-4939.691328101519
 20
2979.517015647767
 30
0.0
 11
-4940.684022403864
 21
2979.637672276638
 31
0.0
  0
LINE
  5
19E
100
AcDbEntity
  8
WHITE
  6
CONTINUOUS
 62
           7
100
AcDbLine
 10
-4938.846731699418
 20
2986.465875764186
 30
0.0
 11
-4938.967388328289
 21
2985.47318146184
 31
0.0
  0
LINE
  5
19F
100
AcDbEntity
  8
WHITE
  6
CONTINUOUS
 62
           2
100
AcDbLine
 10
-4938.967388328289
 20
2985.47318146184
 30
0.0
 11
-4939.960082630635
 21
2985.593838090711
 31
0.0
  0
LINE
  5
1A0
100
AcDbEntity
  8
WHITE
  6
CONTINUOUS
 62
           7
100
AcDbLine
 10
-4939.691328101519
 20
2979.517015647767
 30
0.0
 11
-4939.81198473039
 21
2978.524321345421
 31
0.0
  0
LINE
  5
1A1
100
AcDbEntity
  8
WHITE
  6
CONTINUOUS
 62
           7
100
AcDbLine
 10
-4939.81198473039
 20
2978.524321345421
 30
0.0
 11
-4940.684022403864
 21
2979.637672276638
 31
0.0
  0
LINE
  5
1A2
100
AcDbEntity
  8
WHITE
  6
CONTINUOUS
 62
           7
100
AcDbLine
 10
-4940.020410945071
 20
2985.09749093954
 30
0.0
 11
-4939.960082630635
 21
2985.593838090711
 31
0.0
  0
LINE
  5
1A3
100
AcDbEntity
  8
WHITE
  6
CONTINUOUS
 62
           7
100
AcDbLine
 10
-4938.24344855506
 20
2991.429347275914
 30
0.0
 11
-4938.846731699418
 21
2986.465875764186
 31
0.0
  0
LINE
  5
1A4
100
AcDbEntity
  8
WHITE
  6
CONTINUOUS
 62
           7
100
AcDbLine
 10
-4939.960082630635
 20
2985.593838090711
 30
0.0
 11
-4938.846731699418
 21
2986.465875764186
 31
0.0
  0
LINE
  5
1A5
100
AcDbEntity
  8
WHITE
  6
CONTINUOUS
 62
          15
100
AcDbLine
 10
-4907.415042639601
 20
2971.564569685625
 30
0.0
 11
-4908.56128061388
 21
2962.133973813343
 31
0.0
  0
LINE
  5
1A6
100
AcDbEntity
  8
WHITE
  6
CONTINUOUS
 62
          15
100
AcDbLine
 10
-4937.349415381902
 20
2965.633016050616
 30
0.0
 11
-4936.444490665365
 21
2973.078223318207
 31
0.0
  0
LINE
  5
1A7
100
AcDbEntity
  8
WHITE
  6
CONTINUOUS
 62
           7
100
AcDbLine
 10
-4937.557841596582
 20
2972.206185644733
 30
0.0
 11
-4935.144709019152
 21
2992.060071691645
 31
0.0
  0
LINE
  5
1A8
100
AcDbEntity
  8
WHITE
  6
CONTINUOUS
 62
           7
100
AcDbLine
 10
-4939.543230201273
 20
2972.447498902476
 30
0.0
 11
-4937.130097623844
 21
2992.301384949388
 31
0.0
  0
LINE
  5
1A9
100
AcDbEntity
  8
WHITE
  6
CONTINUOUS
 62
           7
100
AcDbLine
 10
-4939.543230201273
 20
2972.447498902476
 30
0.0
 11
-4940.415267874748
 21
2973.560849833693
 31
0.0
  0
LINE
  5
1AA
100
AcDbEntity
  8
WHITE
  6
CONTINUOUS
 62
           7
100
AcDbLine
 10
-4936.444490665365
 20
2973.078223318207
 30
0.0
 11
-4937.557841596582
 21
2972.206185644733
 31
0.0
  0
LINE
  5
1AB
100
AcDbEntity
  8
WHITE
  6
CONTINUOUS
 62
           7
100
AcDbLine
 10
-4935.144709019152
 20
2992.060071691645
 30
0.0
 11
-4934.272671345679
 21
2990.946720760428
 31
0.0
  0
LINE
  5
1AC
100
AcDbEntity
  8
WHITE
  6
CONTINUOUS
 62
           7
100
AcDbLine
 10
-4937.130097623844
 20
2992.301384949388
 30
0.0
 11
-4938.24344855506
 21
2991.429347275914
 31
0.0
  0
LINE
  5
1AD
100
AcDbEntity
  8
WHITE
  6
CONTINUOUS
 62
           7
100
AcDbLine
 10
-4939.81198473039
 20
2978.524321345421
 30
0.0
 11
-4940.415267874748
 21
2973.560849833693
 31
0.0
  0
LINE
  5
1AE
100
AcDbEntity
  8
WHITE
  6
CONTINUOUS
 62
           7
100
AcDbLine
 10
-4939.543230201273
 20
2972.447498902476
 30
0.0
 11
-4937.557841596582
 21
2972.206185644733
 31
0.0
  0
LINE
  5
1AF
100
AcDbEntity
  8
WHITE
  6
CONTINUOUS
 62
          15
100
AcDbLine
 10
-4936.444490665365
 20
2973.078223318207
 30
0.0
 11
-4934.272671345679
 21
2990.946720760428
 31
0.0
  0
LINE
  5
1B0
100
AcDbEntity
  8
WHITE
  6
CONTINUOUS
 62
           7
100
AcDbLine
 10
-4935.144709019152
 20
2992.060071691645
 30
0.0
 11
-4937.130097623844
 21
2992.301384949388
 31
0.0
  0
LINE
  5
1B1
100
AcDbEntity
  8
WHITE
  6
CONTINUOUS
 62
          15
100
AcDbLine
 10
-4888.696503023592
 20
2992.962379728803
 30
0.0
 11
-4888.200155872419
 21
2992.902051414367
 31
0.0
  0
LINE
  5
1B2
100
AcDbEntity
  8
WHITE
  6
CONTINUOUS
 62
          15
100
AcDbLine
 10
-4904.236808381881
 20
2985.281304975156
 30
0.0
 11
-4899.769684021327
 21
2984.738350145234
 31
0.0
  0
LINE
  5
1B3
100
AcDbEntity
  8
WHITE
  6
CONTINUOUS
 62
           7
100
AcDbLine
 10
-4916.593754497113
 20
2970.759422619706
 30
0.0
 11
-4924.854073520923
 21
2971.76341976612
 31
0.0
  0
LINE
  5
1B4
100
AcDbEntity
  8
WHITE
  6
CONTINUOUS
 62
           7
100
AcDbLine
 10
-4924.854073520923
 20
2971.76341976612
 30
0.0
 11
-4924.025978839514
 21
2978.576513084951
 31
0.0
  0
LINE
  5
1B5
100
AcDbEntity
  8
WHITE
  6
CONTINUOUS
 62
           7
100
AcDbLine
 10
-4924.025978839514
 20
2978.576513084951
 30
0.0
 11
-4915.765659815705
 21
2977.572515938538
 31
0.0
  0
LINE
  5
1B6
100
AcDbEntity
  8
WHITE
  6
CONTINUOUS
 62
           7
100
AcDbLine
 10
-4915.765659815705
 20
2977.572515938538
 30
0.0
 11
-4916.593754497113
 21
2970.759422619706
 31
0.0
  0
ARC
  5
1B7
100
AcDbEntity
  8
WHITE
  6
CONTINUOUS
 62
          15
100
AcDbCircle
 10
-4860.092663144476
 20
2996.235045946115
 30
0.0
 40
2.25
100
AcDbArc
 50
173.07
 51
353.069999999999
  0
ARC
  5
1B8
100
AcDbEntity
  8
WHITE
  6
CONTINUOUS
 62
          15
100
AcDbCircle
 10
-4860.092663144476
 20
2996.235045946115
 30
0.0
 40
2.25
100
AcDbArc
 50
353.069999999999
 51
173.07
  0
ARC
  5
1B9
100
AcDbEntity
  8
WHITE
  6
CONTINUOUS
 62
          15
100
AcDbCircle
 10
-4913.622950617968
 20
2979.370623604445
 30
0.0
 40
8.604407030244
100
AcDbArc
 50
353.069999999999
 51
17.07198532828
  0
ARC
  5
1BA
100
AcDbEntity
  8
WHITE
  6
CONTINUOUS
 62
          15
100
AcDbCircle
 10
-4908.127204477382
 20
2973.414008170585
 30
0.0
 40
2.430106011614
100
AcDbArc
 50
353.069999999999
 51
39.135478142734
  0
ARC
  5
1BB
100
AcDbEntity
  8
WHITE
  6
CONTINUOUS
 62
          15
100
AcDbCircle
 10
-4906.860309874232
 20
2983.837298345213
 30
0.0
 40
2.430106011614
100
AcDbArc
 50
353.069999999999
 51
39.135478142734
  0
ARC
  5
1BC
100
AcDbEntity
  8
WHITE
  6
CONTINUOUS
 62
          15
100
AcDbCircle
 10
-4908.127204477382
 20
2973.414008170585
 30
0.0
 40
2.430106011614
100
AcDbArc
 50
307.004521857251
 51
353.069999999999
  0
ARC
  5
1BD
100
AcDbEntity
  8
WHITE
  6
CONTINUOUS
 62
          15
100
AcDbCircle
 10
-4906.860309874232
 20
2983.837298345213
 30
0.0
 40
2.430106011613
100
AcDbArc
 50
307.004521857281
 51
353.069999999999
  0
ARC
  5
1BE
100
AcDbEntity
  8
WHITE
  6
CONTINUOUS
 62
          15
100
AcDbCircle
 10
-4913.622950617968
 20
2979.370623604445
 30
0.0
 40
8.604407030244
100
AcDbArc
 50
329.068014671731
 51
353.069999999999
  0
CIRCLE
  5
1BF
100
AcDbEntity
  8
WHITE
  6
CONTINUOUS
 62
          15
100
AcDbCircle
 10
-4834.145404926623
 20
2952.786918357276
 30
0.0
 40
2.25
  0
CIRCLE
  5
1C0
100
AcDbEntity
  8
WHITE
  6
CONTINUOUS
 62
          15
100
AcDbCircle
 10
-4854.99198527588
 20
2955.320707563577
 30
0.0
 40
2.25
  0
CIRCLE
  5
1C1
100
AcDbEntity
  8
WHITE
  6
CONTINUOUS
 62
          15
100
AcDbCircle
 10
-4819.392196748308
 20
2991.288124162384
 30
0.0
 40
2.25
  0
ARC
  5
1C2
100
AcDbEntity
  8
WHITE
  6
CONTINUOUS
 62
          15
100
AcDbCircle
 10
-4902.438831664274
 20
2991.66984131754
 30
0.0
 40
0.5
100
AcDbArc
 50
90.219821982564
 51
173.07
  0
ARC
  5
1C3
100
AcDbEntity
  8
WHITE
  6
CONTINUOUS
 62
          15
100
AcDbCircle
 10
-4903.056304374941
 20
2986.589626102956
 30
0.0
 40
0.5
100
AcDbArc
 50
173.07
 51
255.92017801742
  0
ARC
  5
1C4
100
AcDbEntity
  8
WHITE
  6
CONTINUOUS
 62
          15
100
AcDbCircle
 10
-4902.218532734128
 20
2993.598549916223
 30
0.0
 40
1.0
100
AcDbArc
 50
83.07
 51
173.07
  0
ARC
  5
1C5
100
AcDbEntity
  8
WHITE
  6
CONTINUOUS
 62
          15
100
AcDbCircle
 10
-4905.958888229145
 20
2962.82502654351
 30
0.0
 40
1.0
100
AcDbArc
 50
173.07
 51
263.07
  0
ARC
  5
1C6
100
AcDbEntity
  8
WHITE
  6
CONTINUOUS
 62
          15
100
AcDbCircle
 10
-4913.985383141408
 20
2934.083499454237
 30
0.0
 40
1.500000000001
100
AcDbArc
 50
263.07
 51
353.069999999999
  0
ARC
  5
1C7
100
AcDbEntity
  8
WHITE
  6
CONTINUOUS
 62
          15
100
AcDbCircle
 10
-4938.802740700048
 20
2937.099915176024
 30
0.0
 40
1.5
100
AcDbArc
 50
173.07
 51
263.07
  0
ARC
  5
1C8
100
AcDbEntity
  8
WHITE
  6
CONTINUOUS
 62
          15
100
AcDbCircle
 10
-4949.146536152865
 20
2951.452820652975
 30
0.0
 40
1.5
100
AcDbArc
 50
83.07
 51
173.07
  0
ARC
  5
1C9
100
AcDbEntity
  8
WHITE
  6
CONTINUOUS
 62
          15
100
AcDbCircle
 10
-4950.956385585938
 20
2936.562406117791
 30
0.0
 40
1.5
100
AcDbArc
 50
173.07
 51
263.07
  0
ARC
  5
1CA
100
AcDbEntity
  8
WHITE
  6
CONTINUOUS
 62
          15
100
AcDbCircle
 10
-4932.220207291562
 20
2991.257266253383
 30
0.0
 40
2.0
100
AcDbArc
 50
85.07
 51
173.07
  0
TEXT
  5
1CB
100
AcDbEntity
  8
WHITE
  6
CONTINUOUS
 62
           7
100
AcDbText
 10
-4923.3458707642
 20
2973.171951208222
 30
0.0
 40
4.0
  1
14
 50
-6.93
 41
0.955
  7
TXT
100
AcDbText
  0
ENDSEC
  0
SECTION
  2
OBJECTS
  0
DICTIONARY
  5
19
100
AcDbDictionary
  3
ACAD_GROUP
350
1A
  3
ACAD_MLINESTYLE
350
1B
  0
DICTIONARY
  5
1A
102
{ACAD_REACTORS
330
19
102
}
100
AcDbDictionary
  0
DICTIONARY
  5
1B
102
{ACAD_REACTORS
330
19
102
}
100
AcDbDictionary
  3
STANDARD
350
1C
  0
MLINESTYLE
  5
1C
102
{ACAD_REACTORS
330
1B
102
}
100
AcDbMlineStyle
  2
STANDARD
 70
           0
  3

 62
           0
 51
90.0
 52
90.0
 71
           2
 49
0.5
 62
         256
  6
BYLAYER
 49
-0.5
 62
         256
  6
BYLAYER
  0
ENDSEC
  0
EOF
