  0
SECTION
  2
HEADER
  9
$ACADVER
  1
AC1012
  9
$DWGCODEPAGE
  3
dos850
  9
$INSBASE
 10
0.0
 20
0.0
 30
0.0
  9
$EXTMIN
 10
-15478.614404881577
 20
-547.994454798171
 30
0.0
  9
$EXTMAX
 10
-15202.295399195413
 20
-288.945076499662
 30
0.0
  9
$LIMMIN
 10
-15478.614404881577
 20
-547.994454798171
  9
$LIMMAX
 10
-15202.295399195413
 20
-288.945076499662
  9
$ORTHOMODE
 70
           0
  9
$REGENMODE
 70
           1
  9
$FILLMODE
 70
           1
  9
$QTEXTMODE
 70
           0
  9
$MIRRTEXT
 70
           1
  9
$DRAGMODE
 70
           2
  9
$LTSCALE
 40
5.0
  9
$OSMODE
 70
           0
  9
$ATTMODE
 70
           1
  9
$TEXTSIZE
 40
0.2
  9
$TRACEWID
 40
0.05
  9
$TEXTSTYLE
  7
TXT
  9
$CLAYER
  8
0
  9
$CELTYPE
  6
CONTINUOUS
  9
$CECOLOR
 62
         256
  9
$CELTSCALE
 40
1.0
  9
$DELOBJ
 70
           1
  9
$DISPSILH
 70
           0
  9
$DIMSCALE
 40
1.0
  9
$DIMASZ
 40
3.5
  9
$DIMEXO
 40
0.0625
  9
$DIMDLI
 40
0.38
  9
$DIMRND
 40
0.0
  9
$DIMDLE
 40
0.0
  9
$DIMEXE
 40
0.18
  9
$DIMTP
 40
0.0
  9
$DIMTM
 40
0.0
  9
$DIMTXT
 40
3.5
  9
$DIMCEN
 40
0.09
  9
$DIMTSZ
 40
0.0
  9
$DIMTOL
 70
           0
  9
$DIMLIM
 70
           0
  9
$DIMTIH
 70
           1
  9
$DIMTOH
 70
           1
  9
$DIMSE1
 70
           0
  9
$DIMSE2
 70
           0
  9
$DIMTAD
 70
           0
  9
$DIMZIN
 70
           0
  9
$DIMBLK
  1

  9
$DIMASO
 70
           1
  9
$DIMSHO
 70
           1
  9
$DIMPOST
  1

  9
$DIMAPOST
  1

  9
$DIMALT
 70
           0
  9
$DIMALTD
 70
           2
  9
$DIMALTF
 40
25.4
  9
$DIMLFAC
 40
1.0
  9
$DIMTOFL
 70
           0
  9
$DIMTVP
 40
0.0
  9
$DIMTIX
 70
           0
  9
$DIMSOXD
 70
           0
  9
$DIMSAH
 70
           0
  9
$DIMBLK1
  1

  9
$DIMBLK2
  1

  9
$DIMSTYLE
  2
STANDARD
  9
$DIMCLRD
 70
           0
  9
$DIMCLRE
 70
           0
  9
$DIMCLRT
 70
           0
  9
$DIMTFAC
 40
1.0
  9
$DIMGAP
 40
0.09
  9
$DIMJUST
 70
           0
  9
$DIMSD1
 70
           0
  9
$DIMSD2
 70
           0
  9
$DIMTOLJ
 70
           1
  9
$DIMTZIN
 70
           0
  9
$DIMALTZ
 70
           0
  9
$DIMALTTZ
 70
           0
  9
$DIMFIT
 70
           3
  9
$DIMUPT
 70
           0
  9
$DIMUNIT
 70
           2
  9
$DIMDEC
 70
           4
  9
$DIMTDEC
 70
           4
  9
$DIMALTU
 70
           2
  9
$DIMALTTD
 70
           2
  9
$DIMTXSTY
  7
TXT
  9
$DIMAUNIT
 70
           0
  9
$LUNITS
 70
           2
  9
$LUPREC
 70
           3
  9
$SKETCHINC
 40
0.1
  9
$FILLETRAD
 40
0.0
  9
$AUNITS
 70
           0
  9
$AUPREC
 70
           3
  9
$MENU
  1
acad
  9
$ELEVATION
 40
0.0
  9
$PELEVATION
 40
0.0
  9
$THICKNESS
 40
0.0
  9
$LIMCHECK
 70
           0
  9
$BLIPMODE
 70
           1
  9
$CHAMFERA
 40
0.0
  9
$CHAMFERB
 40
0.0
  9
$CHAMFERC
 40
0.0
  9
$CHAMFERD
 40
0.0
  9
$SKPOLY
 70
           0
  9
$TDCREATE
 40
0.000000000
  9
$TDUPDATE
 40
0.000000000
  9
$TDINDWG
 40
0.0000000000
  9
$TDUSRTIMER
 40
0.0000000000
  9
$USRTIMER
 70
           1
  9
$ANGBASE
 50
0.0
  9
$ANGDIR
 70
           0
  9
$PDMODE
 70
           2
  9
$PDSIZE
 40
0.5
  9
$PLINEWID
 40
0.0
  9
$COORDS
 70
           0
  9
$SPLFRAME
 70
           0
  9
$SPLINETYPE
 70
           6
  9
$SPLINESEGS
 70
           8
  9
$ATTDIA
 70
           0
  9
$ATTREQ
 70
           1
  9
$HANDLING
 70
           1
  9
$HANDSEED
  5
8B
  9
$SURFTAB1
 70
           6
  9
$SURFTAB2
 70
           6
  9
$SURFTYPE
 70
           6
  9
$SURFU
 70
           6
  9
$SURFV
 70
           6
  9
$UCSNAME
  2

  9
$UCSORG
 10
0.0
 20
0.0
 30
0.0
  9
$UCSXDIR
 10
1.0
 20
0.0
 30
0.0
  9
$UCSYDIR
 10
0.0
 20
1.0
 30
0.0
  9
$PUCSNAME
  2

  9
$PUCSORG
 10
0.0
 20
0.0
 30
0.0
  9
$PUCSXDIR
 10
1.0
 20
0.0
 30
0.0
  9
$PUCSYDIR
 10
0.0
 20
1.0
 30
0.0
  9
$USERI1
 70
           0
  9
$USERI2
 70
           0
  9
$USERI3
 70
           0
  9
$USERI4
 70
           0
  9
$USERI5
 70
           0
  9
$USERR1
 40
0.0
  9
$USERR2
 40
0.0
  9
$USERR3
 40
0.0
  9
$USERR4
 40
0.0
  9
$USERR5
 40
0.0
  9
$WORLDVIEW
 70
           1
  9
$SHADEDGE
 70
           3
  9
$SHADEDIF
 70
          70
  9
$TILEMODE
 70
           1
  9
$MAXACTVP
 70
          16
  9
$PINSBASE
 10
0.0
 20
0.0
 30
0.0
  9
$PLIMCHECK
 70
           0
  9
$PEXTMIN
 10
1.000000000000E+20
 20
1.000000000000E+20
 30
1.000000000000E+20
  9
$PEXTMAX
 10
-1.000000000000E+20
 20
-1.000000000000E+20
 30
-1.000000000000E+20
  9
$PLIMMIN
 10
0.0
 20
0.0
  9
$PLIMMAX
 10
12.0
 20
9.0
  9
$UNITMODE
 70
           0
  9
$VISRETAIN
 70
           0
  9
$PLINEGEN
 70
           1
  9
$PSLTSCALE
 70
           0
  9
$TREEDEPTH
 70
        3020
  9
$PICKSTYLE
 70
           1
  9
$CMLSTYLE
  2
STANDARD
  9
$CMLJUST
 70
           0
  9
$CMLSCALE
 40
1.0
  9
$SAVEIMAGES
 70
           0
  0
ENDSEC
  0
SECTION
  2
CLASSES
  0
CLASS
  1
LWPOLYLINE
  2
AcDbPolyline
  3
"AutoCAD"
 90
        0
280
           0
281
           1
  0
CLASS
  1
IMAGE
  2
AcDbRasterImage
  3
ISM
 90
      127
280
           0
281
           1
  0
CLASS
  1
OLE2FRAME
  2
AcDbOle2Frame
  3
""
 90
        0
280
           0
281
           1
  0
CLASS
  1
HATCH
  2
AcDbHatch
  3
"ACAD_SEDONA"
 90
        0
280
           0
281
           1
  0
CLASS
  1
DICTIONARYVAR
  2
AcDbDictionaryVar
  3
"AutoCAD"
 90
        0
280
           0
281
           0
  0
CLASS
  1
RASTERVARIABLES
  2
AcDbRasterVariables
  3
ISM
 90
        0
280
           0
281
           0
  0
CLASS
  1
IMAGEDEF
  2
AcDbRasterImageDef
  3
ISM
 90
        0
280
           0
281
           0
  0
CLASS
  1
IMAGEDEF_REACTOR
  2
AcDbRasterImageDefReactor
  3
ISM
 90
        1
280
           0
281
           0
  0
CLASS
  1
IDBUFFER
  2
AcDbIdBuffer
  3
"Acad"
 90
        0
280
           0
281
           0
  0
CLASS
  1
SPATIAL_FILTER
  2
AcDbSpatialFilter
  3
"Acad"
 90
        0
280
           0
281
           0
  0
CLASS
  1
XRECORD
  2
AcDbXrecord
  3
"<Built In>"
 90
        0
280
           0
281
           0
  0
ENDSEC
  0
SECTION
  2
TABLES
  0
TABLE
  2
VPORT
  5
7
100
AcDbSymbolTable
 70
           1
  0
VPORT
  5
15
100
AcDbSymbolTableRecord
100
AcDbViewportTableRecord
  2
*ACTIVE
 70
           0
 10
0.0
 20
0.0
 11
1.0
 21
1.0
 12
6.591288
 22
4.579184
 13
0.0
 23
0.0
 14
1.0
 24
1.0
 15
0.0
 25
0.0
 16
0.0
 26
0.0
 36
1.0
 17
0.0
 27
0.0
 37
0.0
 40
9.158369
 41
0.688564
 42
50.0
 43
0.0
 44
0.0
 50
0.0
 51
0.0
 71
           0
 72
         100
 73
           1
 74
           1
 75
           0
 76
           0
 77
           0
 78
           0
  0
ENDTAB
  0
TABLE
  2
LTYPE
  5
4
100
AcDbSymbolTable
 70
           5
  0
LTYPE
  5
11
100
AcDbSymbolTableRecord
100
AcDbLinetypeTableRecord
  2
BYBLOCK
 70
           0
  3

 72
          65
 73
           0
 40
0.0
  0
LTYPE
  5
12
100
AcDbSymbolTableRecord
100
AcDbLinetypeTableRecord
  2
BYLAYER
 70
           0
  3

 72
          65
 73
           0
 40
0.0
  0
LTYPE
  5
13
100
AcDbSymbolTableRecord
100
AcDbLinetypeTableRecord
  2
CONTINUOUS
 70
           0
  3
Solid line
 72
          65
 73
           0
 40
0.0
  0
LTYPE
  5
1D
100
AcDbSymbolTableRecord
100
AcDbLinetypeTableRecord
  2
GESTRICHELT
 70
           0
  3

 72
          65
 73
           2
 40
0.75
 49
0.5
 74
           0
 49
-0.25
 74
           0
  0
LTYPE
  5
1E
100
AcDbSymbolTableRecord
100
AcDbLinetypeTableRecord
  2
STRICHPUNKT
 70
           0
  3

 72
          65
 73
           4
 40
1.0
 49
0.5
 74
           0
 49
-0.25
 74
           0
 49
0.0
 74
           0
 49
-0.25
 74
           0
  0
ENDTAB
  0
TABLE
  2
LAYER
  5
2
100
AcDbSymbolTable
 70
           2
  0
LAYER
  5
14
100
AcDbSymbolTableRecord
100
AcDbLayerTableRecord
  2
0
 70
           0
 62
           7
  6
CONTINUOUS
  0
LAYER
  5
20
100
AcDbSymbolTableRecord
100
AcDbLayerTableRecord
  2
FREI
 70
           0
 62
           7
  6
CONTINUOUS
  0
ENDTAB
  0
TABLE
  2
STYLE
  5
3
100
AcDbSymbolTable
 70
           2
  0
STYLE
  5
17
100
AcDbSymbolTableRecord
100
AcDbTextStyleTableRecord
  2
TXT
 70
           0
 40
3.5
 41
1.0
 50
0.0
 71
           0
 42
3.5
  3
TXT
  4

  0
STYLE
  5
1F
100
AcDbSymbolTableRecord
100
AcDbTextStyleTableRecord
  2
GOTHICG
 70
           0
 40
3.5
 41
1.0
 50
0.0
 71
           0
 42
3.5
  3
GOTHICG
  4

  0
ENDTAB
  0
TABLE
  2
VIEW
  5
5
100
AcDbSymbolTable
 70
           0
  0
ENDTAB
  0
TABLE
  2
UCS
  5
6
100
AcDbSymbolTable
 70
           0
  0
ENDTAB
  0
TABLE
  2
APPID
  5
8
100
AcDbSymbolTable
 70
           2
  0
APPID
  5
16
100
AcDbSymbolTableRecord
100
AcDbRegAppTableRecord
  2
ACAD
 70
           0
  0
APPID
  5
21
100
AcDbSymbolTableRecord
100
AcDbRegAppTableRecord
  2
MegaCADPntStyle
 70
           0
  0
ENDTAB
  0
TABLE
  2
DIMSTYLE
  5
9
100
AcDbSymbolTable
 70
           1
  0
DIMSTYLE
105
18
100
AcDbSymbolTableRecord
100
AcDbDimStyleTableRecord
  2
STANDARD
 70
           0
  3

  4

  5

  6

  7

 40
1.0
 41
0.18
 42
0.0625
 43
0.38
 44
0.18
 45
0.0
 46
0.0
 47
0.0
 48
0.0
140
0.18
141
0.09
142
0.0
143
25.4
144
1.0
145
0.0
146
1.0
147
0.09
 71
           0
 72
           0
 73
           1
 74
           1
 75
           0
 76
           0
 77
           0
 78
           0
170
           0
171
           2
172
           0
173
           0
174
           0
175
           0
176
           0
177
           0
178
           0
270
           2
271
           4
272
           4
273
           2
274
           2
340
17
275
           0
280
           0
281
           0
282
           0
283
           1
284
           0
285
           0
286
           0
287
           0
288
           0
  0
ENDTAB
  0
TABLE
  2
BLOCK_RECORD
  5
1
100
AcDbSymbolTable
 70
           1
  0
BLOCK_RECORD
  5
A
100
AcDbSymbolTableRecord
100
AcDbBlockTableRecord
  2
*MODEL_SPACE
  0
BLOCK_RECORD
  5
B
100
AcDbSymbolTableRecord
100
AcDbBlockTableRecord
  2
*PAPER_SPACE
  0
BLOCK_RECORD
  5
22
100
AcDbSymbolTableRecord
100
AcDbBlockTableRecord
  2
ELIPPSE
  0
ENDTAB
  0
ENDSEC
  0
SECTION
  2
BLOCKS
  0
BLOCK
  5
D
100
AcDbEntity
  8
0
100
AcDbBlockBegin
  2
*MODEL_SPACE
 70
           0
 10
0.0
 20
0.0
 30
0.0
  3
*MODEL_SPACE
  1

  0
ENDBLK
  5
E
100
AcDbEntity
  8
0
100
AcDbBlockEnd
  0
BLOCK
  5
F
100
AcDbEntity
 67
           1
  8
0
100
AcDbBlockBegin
  2
*PAPER_SPACE
 70
           0
 10
0.0
 20
0.0
 30
0.0
  3
*PAPER_SPACE
  1

  0
ENDBLK
  5
10
100
AcDbEntity
 67
           1
  8
0
100
AcDbBlockEnd
  0
BLOCK
  5
86
100
AcDbEntity
  8
0
100
AcDbBlockBegin
  2
ELIPPSE
 70
          64
 10
0.0
 20
0.0
 30
0.0
  3
ELIPPSE
  1

  0
CIRCLE
  5
87
100
AcDbEntity
  8
0
  6
BYBLOCK
 62
           0
100
AcDbCircle
 10
0.0
 20
0.0
 30
0.0
 40
1.0
  0
ENDBLK
  5
88
100
AcDbEntity
  8
0
  6
BYBLOCK
 62
           0
100
AcDbBlockEnd
  0
ENDSEC
  0
SECTION
  2
ENTITIES
  0
LINE
  5
23
100
AcDbEntity
  8
FREI
  6
STRICHPUNKT
 62
          15
100
AcDbLine
 10
-15350.688779039372
 20
-390.420771249427
 30
0.0
 11
-15278.188779039372
 21
-515.994454798171
 31
0.0
  0
LINE
  5
24
100
AcDbEntity
  8
FREI
  6
STRICHPUNKT
 62
          15
100
AcDbLine
 10
-15350.688779039372
 20
-350.420771249427
 30
0.0
 11
-15350.688779039372
 21
-390.420771249427
 31
0.0
  0
LINE
  5
25
100
AcDbEntity
  8
FREI
  6
STRICHPUNKT
 62
          15
100
AcDbLine
 10
-15350.688779039372
 20
-390.420771249427
 30
0.0
 11
-15423.188779039372
 21
-515.994454798171
 31
0.0
  0
LINE
  5
26
100
AcDbEntity
  8
FREI
  6
CONTINUOUS
 62
          15
100
AcDbLine
 10
-15348.47583785093
 20
-390.420771249427
 30
0.0
 11
-15424.589613495644
 21
-390.420771249427
 31
0.0
  0
LINE
  5
27
100
AcDbEntity
  8
FREI
  6
GESTRICHELT
 62
          15
100
AcDbLine
 10
-15276.7879445831
 20
-390.420771249427
 30
0.0
 11
-15348.47583785093
 21
-390.420771249427
 31
0.0
  0
LINE
  5
28
100
AcDbEntity
  8
FREI
  6
CONTINUOUS
 62
          15
100
AcDbLine
 10
-15350.688779039372
 20
-515.127346819669
 30
0.0
 11
-15350.688779039372
 21
-518.420771249427
 31
0.0
  0
LINE
  5
29
100
AcDbEntity
  8
FREI
  6
GESTRICHELT
 62
          15
100
AcDbLine
 10
-15350.688779039372
 20
-440.668737573632
 30
0.0
 11
-15350.688779039372
 21
-515.127346819669
 31
0.0
  0
LINE
  5
2A
100
AcDbEntity
  8
FREI
  6
GESTRICHELT
 62
          15
100
AcDbLine
 10
-15350.688779039372
 20
-393.931088777788
 30
0.0
 11
-15350.688779039372
 21
-426.172804925222
 31
0.0
  0
LINE
  5
2B
100
AcDbEntity
  8
FREI
  6
CONTINUOUS
 62
          15
100
AcDbLine
 10
-15350.688779039372
 20
-390.420771249427
 30
0.0
 11
-15350.688779039372
 21
-393.931088777788
 31
0.0
  0
ARC
  5
2C
100
AcDbEntity
  8
FREI
  6
CONTINUOUS
 62
          15
100
AcDbCircle
 10
-15295.425333355239
 20
-324.100853140561
 30
0.0
 40
26.093904120701
100
AcDbArc
 50
29.970101035151
 51
77.275326881122
  0
ARC
  5
2D
100
AcDbEntity
  8
FREI
  6
CONTINUOUS
 62
          15
100
AcDbCircle
 10
-15228.389303316113
 20
-440.368525950736
 30
0.0
 40
26.093904120701
100
AcDbArc
 50
342.664835748251
 51
29.970101035151
  0
LINE
  5
2E
100
AcDbEntity
  8
FREI
  6
CONTINUOUS
 62
          15
100
AcDbLine
 10
-15216.546261131252
 20
-489.989218477985
 30
0.0
 11
-15203.48092876746
 21
-448.143394306962
 31
0.0
  0
LINE
  5
2F
100
AcDbEntity
  8
FREI
  6
CONTINUOUS
 62
          15
100
AcDbLine
 10
-15332.440201104762
 20
-288.98834679735
 30
0.0
 11
-15289.676893453563
 21
-298.644132872538
 31
0.0
  0
LINE
  5
30
100
AcDbEntity
  8
FREI
  6
CONTINUOUS
 62
          15
100
AcDbLine
 10
-15272.81602842887
 20
-311.063091231932
 30
0.0
 11
-15205.77999838974
 21
-427.330764042107
 31
0.0
  0
ARC
  5
31
100
AcDbEntity
  8
FREI
  6
CONTINUOUS
 62
          15
100
AcDbCircle
 10
-15369.565350674939
 20
-444.30803765527
 30
0.0
 40
10.893393173657
100
AcDbArc
 50
147.628285169611
 51
272.168526113971
  0
LINE
  5
32
100
AcDbEntity
  8
FREI
  6
CONTINUOUS
 62
          15
100
AcDbLine
 10
-15319.887985545409
 20
-345.072779368586
 30
0.0
 11
-15378.781541159458
 21
-438.493734999589
 31
0.0
  0
LINE
  5
33
100
AcDbEntity
  8
FREI
  6
CONTINUOUS
 62
          15
100
AcDbLine
 10
-15342.832731009608
 20
-305.285549183136
 30
0.0
 11
-15235.854769897722
 21
-490.816332132903
 31
0.0
  0
ARC
  5
34
100
AcDbEntity
  8
FREI
  6
CONTINUOUS
 62
          15
100
AcDbCircle
 10
-15333.394445191823
 20
-299.838852596308
 30
0.0
 40
10.893776096645
100
AcDbArc
 50
84.974072586301
 51
209.988620150222
  0
ARC
  5
35
100
AcDbEntity
  8
FREI
  6
CONTINUOUS
 62
          15
100
AcDbCircle
 10
-15226.418015771891
 20
-485.375762313888
 30
0.0
 40
10.893776096645
100
AcDbArc
 50
209.964734733568
 51
334.951481380678
  0
LINE
  5
36
100
AcDbEntity
  8
FREI
  6
GESTRICHELT
 62
          15
100
AcDbLine
 10
-15306.085909351958
 20
-452.854878756086
 30
0.0
 11
-15331.168896783314
 21
-453.688119178818
 31
0.0
  0
LINE
  5
37
100
AcDbEntity
  8
FREI
  6
CONTINUOUS
 62
          15
100
AcDbLine
 10
-15306.096631195633
 20
-452.897766130786
 30
0.0
 11
-15258.629497555075
 21
-451.323186802535
 31
0.0
  0
LINE
  5
38
100
AcDbEntity
  8
FREI
  6
CONTINUOUS
 62
          15
100
AcDbLine
 10
-15331.387928732673
 20
-453.767767160403
 30
0.0
 11
-15369.153325539433
 21
-455.189177293298
 31
0.0
  0
LINE
  5
39
100
AcDbEntity
  8
FREI
  6
CONTINUOUS
 62
          15
100
AcDbLine
 10
-15326.177112706691
 20
-469.2501094269
 30
0.0
 11
-15326.174049322783
 21
-465.73947146936
 31
0.0
  0
LINE
  5
3A
100
AcDbEntity
  8
FREI
  6
GESTRICHELT
 62
          15
100
AcDbLine
 10
-15326.177112706691
 20
-469.2501094269
 30
0.0
 11
-15326.206214853808
 21
-474.99089086881
 31
0.0
  0
LINE
  5
3B
100
AcDbEntity
  8
FREI
  6
GESTRICHELT
 62
          15
100
AcDbLine
 10
-15326.177112706691
 20
-433.420771249427
 30
0.0
 11
-15326.187834550365
 21
-465.776232076245
 31
0.0
  0
LINE
  5
3C
100
AcDbEntity
  8
FREI
  6
GESTRICHELT
 62
          15
100
AcDbLine
 10
-15375.203508755962
 20
-432.826474771449
 30
0.0
 11
-15375.200445372053
 21
-453.626851500676
 31
0.0
  0
ARC
  5
3D
100
AcDbEntity
  8
FREI
  6
CONTINUOUS
 62
          15
100
AcDbCircle
 10
-15350.688779039372
 20
-433.420771249427
 30
0.0
 40
24.511666332682
100
AcDbArc
 50
116.990965333067
 51
178.553410663232
  0
ARC
  5
3E
100
AcDbEntity
  8
FREI
  6
GESTRICHELT
 62
          15
100
AcDbCircle
 10
-15350.688779039372
 20
-433.420771249427
 30
0.0
 40
24.511666332682
100
AcDbArc
 50
0.000000683099
 51
116.990965333067
  0
LINE
  5
3F
100
AcDbEntity
  8
FREI
  6
CONTINUOUS
 62
          15
100
AcDbLine
 10
-15375.200445372053
 20
-515.127346819669
 30
0.0
 11
-15326.177112706691
 21
-515.127346819669
 31
0.0
  0
LINE
  5
40
100
AcDbEntity
  8
FREI
  6
CONTINUOUS
 62
          15
100
AcDbLine
 10
-15375.200445372053
 20
-453.626851500676
 30
0.0
 11
-15375.200445372053
 21
-515.127346819669
 31
0.0
  0
LINE
  5
41
100
AcDbEntity
  8
FREI
  6
CONTINUOUS
 62
          15
100
AcDbLine
 10
-15326.177112706691
 20
-515.127346819669
 30
0.0
 11
-15326.175581014737
 21
-474.880609048155
 31
0.0
  0
ARC
  5
42
100
AcDbEntity
  8
FREI
  6
CONTINUOUS
 62
          15
100
AcDbCircle
 10
-15350.688779039372
 20
-498.787257059184
 30
0.0
 40
11.775264815914
100
AcDbArc
 50
83.396411513612
 51
323.393951543439
  0
LINE
  5
43
100
AcDbEntity
  8
FREI
  6
GESTRICHELT
 62
          15
100
AcDbLine
 10
-15328.306164522126
 20
-469.170461445315
 30
0.0
 11
-15326.846462090392
 21
-469.342010944113
 31
0.0
  0
ARC
  5
44
100
AcDbEntity
  8
FREI
  6
GESTRICHELT
 62
          15
100
AcDbCircle
 10
-15282.729138752253
 20
-422.472237165442
 30
0.0
 40
2.716455679623
100
AcDbArc
 50
322.006040502197
 51
23.359604704482
  0
CIRCLE
  5
45
100
AcDbEntity
  8
FREI
  6
CONTINUOUS
 62
          15
100
AcDbCircle
 10
-15265.751865139089
 20
-384.455642878298
 30
0.0
 40
7.625528390755
  0
ARC
  5
46
100
AcDbEntity
  8
FREI
  6
GESTRICHELT
 62
          15
100
AcDbCircle
 10
-15272.748633982912
 20
-399.919604841352
 30
0.0
 40
2.716455679623
100
AcDbArc
 50
263.388406711703
 51
323.459608284301
  0
ARC
  5
47
100
AcDbEntity
  8
FREI
  6
GESTRICHELT
 62
          15
100
AcDbCircle
 10
-15270.256571174485
 20
-405.678766586705
 30
0.0
 40
2.716455679623
100
AcDbArc
 50
263.420531649356
 51
323.459608284301
  0
LINE
  5
48
100
AcDbEntity
  8
FREI
  6
GESTRICHELT
 62
          15
100
AcDbLine
 10
-15272.754760750728
 20
-387.476139410701
 30
0.0
 11
-15276.56867371507
 21
-389.124239952722
 31
0.0
  0
LINE
  5
49
100
AcDbEntity
  8
FREI
  6
GESTRICHELT
 62
          15
100
AcDbLine
 10
-15263.203129728381
 20
-391.642341524361
 30
0.0
 11
-15270.565972949102
 21
-401.537071544302
 31
0.0
  0
LINE
  5
4A
100
AcDbEntity
  8
FREI
  6
GESTRICHELT
 62
          15
100
AcDbLine
 10
-15268.073910140674
 20
-407.296233289655
 30
0.0
 11
-15256.307452553492
 21
-391.470792025563
 31
0.0
  0
ARC
  5
4B
100
AcDbEntity
  8
FREI
  6
GESTRICHELT
 62
          15
100
AcDbCircle
 10
-15265.76105529081
 20
-384.449516110484
 30
0.0
 40
11.774881892926
100
AcDbArc
 50
323.39839556867
 51
203.390402770664
  0
ARC
  5
4C
100
AcDbEntity
  8
FREI
  6
CONTINUOUS
 62
          15
100
AcDbCircle
 10
-15291.035504216363
 20
-403.270946835723
 30
0.0
 40
2.716455679623
100
AcDbArc
 50
89.482670676549
 51
203.385226065905
  0
LINE
  5
4D
100
AcDbEntity
  8
FREI
  6
GESTRICHELT
 62
          15
100
AcDbLine
 10
-15284.335883611528
 20
-406.781584793262
 30
0.0
 11
-15270.567504641056
 21
-408.374544424956
 31
0.0
  0
LINE
  5
4E
100
AcDbEntity
  8
FREI
  6
GESTRICHELT
 62
          15
100
AcDbLine
 10
-15273.061099141438
 20
-402.615382679603
 30
0.0
 11
-15287.690288989807
 21
-400.93664829851
 31
0.0
  0
ARC
  5
4F
100
AcDbEntity
  8
FREI
  6
CONTINUOUS
 62
          15
100
AcDbCircle
 10
-15289.272526777824
 20
-417.607583520963
 30
0.0
 40
1.357844916823
100
AcDbArc
 50
263.418060351511
 51
23.359604704482
  0
ARC
  5
50
100
AcDbEntity
  8
FREI
  6
CONTINUOUS
 62
          15
100
AcDbCircle
 10
-15282.729138752253
 20
-422.472237165442
 30
0.0
 40
2.716455679623
100
AcDbArc
 50
263.420531649356
 51
322.006040502197
  0
LINE
  5
51
100
AcDbEntity
  8
FREI
  6
CONTINUOUS
 62
          15
100
AcDbLine
 10
-15293.529098716743
 20
-404.349257971023
 30
0.0
 11
-15288.024197835681
 21
-417.068427953313
 31
0.0
  0
ARC
  5
52
100
AcDbEntity
  8
FREI
  6
CONTINUOUS
 62
          15
100
AcDbCircle
 10
-15296.96468376856
 20
-424.929071058938
 30
0.0
 40
1.357844916823
100
AcDbArc
 50
83.354100952973
 51
203.436618161791
  0
ARC
  5
53
100
AcDbEntity
  8
FREI
  6
CONTINUOUS
 62
          15
100
AcDbCircle
 10
-15303.508071794131
 20
-420.064417414459
 30
0.0
 40
2.716455679623
100
AcDbArc
 50
83.388401704415
 51
203.385226065905
  0
LINE
  5
54
100
AcDbEntity
  8
FREI
  6
CONTINUOUS
 62
          15
100
AcDbLine
 10
-15296.806919497343
 20
-423.575055371999
 30
0.0
 11
-15283.040072218824
 21
-425.168015003692
 31
0.0
  0
LINE
  5
55
100
AcDbEntity
  8
FREI
  6
CONTINUOUS
 62
          15
100
AcDbLine
 10
-15289.428759357086
 20
-418.961599207902
 30
0.0
 11
-15303.195606635605
 21
-417.368639576209
 31
0.0
  0
LINE
  5
56
100
AcDbEntity
  8
FREI
  6
CONTINUOUS
 62
          15
100
AcDbLine
 10
-15301.901326934856
 20
-435.755069786639
 30
0.0
 11
-15315.666642521421
 21
-434.162110154946
 31
0.0
  0
LINE
  5
57
100
AcDbEntity
  8
FREI
  6
CONTINUOUS
 62
          15
100
AcDbLine
 10
-15309.279487075111
 20
-440.368525950736
 30
0.0
 11
-15295.512639796592
 21
-441.961485582429
 31
0.0
  0
ARC
  5
58
100
AcDbEntity
  8
FREI
  6
CONTINUOUS
 62
          15
100
AcDbCircle
 10
-15315.979107679947
 20
-436.857887993196
 30
0.0
 40
2.716455679623
100
AcDbArc
 50
83.388401704415
 51
203.385226065905
  0
ARC
  5
59
100
AcDbEntity
  8
FREI
  6
CONTINUOUS
 62
          15
100
AcDbCircle
 10
-15309.435719654373
 20
-441.722541637675
 30
0.0
 40
1.357844916823
100
AcDbArc
 50
83.418055344222
 51
203.410895497621
  0
LINE
  5
5A
100
AcDbEntity
  8
FREI
  6
CONTINUOUS
 62
          15
100
AcDbLine
 10
-15306.001666294511
 20
-421.142728549759
 30
0.0
 11
-15300.496765413449
 21
-433.86189853205
 31
0.0
  0
LINE
  5
5B
100
AcDbEntity
  8
FREI
  6
CONTINUOUS
 62
          15
100
AcDbLine
 10
-15292.705048445732
 20
-438.187396608879
 30
0.0
 11
-15298.208417634842
 21
-425.468226626588
 31
0.0
  0
ARC
  5
5C
100
AcDbEntity
  8
FREI
  6
CONTINUOUS
 62
          15
100
AcDbCircle
 10
-15295.200174638068
 20
-439.265707744179
 30
0.0
 40
2.716455679623
100
AcDbArc
 50
263.388406711703
 51
23.372406255528
  0
ARC
  5
5D
100
AcDbEntity
  8
FREI
  6
CONTINUOUS
 62
          15
100
AcDbCircle
 10
-15301.745094355592
 20
-434.4010540997
 30
0.0
 40
1.357844916823
100
AcDbArc
 50
263.418060351511
 51
23.359604704482
  0
LINE
  5
5E
100
AcDbEntity
  8
FREI
  6
CONTINUOUS
 62
          15
100
AcDbLine
 10
-15314.373894512622
 20
-452.548540365376
 30
0.0
 11
-15328.139210099189
 21
-450.955580733683
 31
0.0
  0
LINE
  5
5F
100
AcDbEntity
  8
FREI
  6
CONTINUOUS
 62
          15
100
AcDbLine
 10
-15321.752054652881
 20
-457.161996529473
 30
0.0
 11
-15307.98520737436
 21
-458.754956161166
 31
0.0
  0
ARC
  5
60
100
AcDbEntity
  8
FREI
  6
CONTINUOUS
 62
          15
100
AcDbCircle
 10
-15328.451675257713
 20
-453.651358571933
 30
0.0
 40
2.716455679623
100
AcDbArc
 50
83.388401704415
 51
203.385226065905
  0
ARC
  5
61
100
AcDbEntity
  8
FREI
  6
CONTINUOUS
 62
          15
100
AcDbCircle
 10
-15321.908287232143
 20
-458.516012216412
 30
0.0
 40
1.357844916823
100
AcDbArc
 50
83.418055344222
 51
203.410895497621
  0
LINE
  5
62
100
AcDbEntity
  8
FREI
  6
CONTINUOUS
 62
          15
100
AcDbLine
 10
-15318.472702180326
 20
-437.936199128496
 30
0.0
 11
-15312.969332991217
 21
-450.655369110787
 31
0.0
  0
LINE
  5
63
100
AcDbEntity
  8
FREI
  6
CONTINUOUS
 62
          15
100
AcDbLine
 10
-15305.1776160235
 20
-454.980867187616
 30
0.0
 11
-15310.680985212612
 21
-442.261697205325
 31
0.0
  0
ARC
  5
64
100
AcDbEntity
  8
FREI
  6
CONTINUOUS
 62
          15
100
AcDbCircle
 10
-15307.672742215836
 20
-456.059178322916
 30
0.0
 40
2.716455679623
100
AcDbArc
 50
263.388406711703
 51
23.372406255528
  0
ARC
  5
65
100
AcDbEntity
  8
FREI
  6
CONTINUOUS
 62
          15
100
AcDbCircle
 10
-15314.21766193336
 20
-451.200651446251
 30
0.0
 40
1.357844916823
100
AcDbArc
 50
263.388406711703
 51
23.596177758969
  0
ARC
  5
66
100
AcDbEntity
  8
FREI
  6
CONTINUOUS
 62
          15
100
AcDbCircle
 10
-15326.69022951113
 20
-467.994122024988
 30
0.0
 40
1.357844916823
100
AcDbArc
 50
263.388406711703
 51
23.596177758969
  0
ARC
  5
67
100
AcDbEntity
  8
FREI
  6
CONTINUOUS
 62
          15
100
AcDbCircle
 10
-15320.145309793605
 20
-472.852648901653
 30
0.0
 40
2.716455679623
100
AcDbArc
 50
263.388406711703
 51
23.372406255528
  0
LINE
  5
68
100
AcDbEntity
  8
FREI
  6
CONTINUOUS
 62
          15
100
AcDbLine
 10
-15317.65018360127
 20
-471.774337766352
 30
0.0
 11
-15323.15355279038
 21
-459.055167784062
 31
0.0
  0
LINE
  5
69
100
AcDbEntity
  8
FREI
  6
CONTINUOUS
 62
          15
100
AcDbLine
 10
-15330.945269758095
 20
-454.729669707233
 30
0.0
 11
-15325.441900568985
 21
-467.448839689523
 31
0.0
  0
ARC
  5
6A
100
AcDbEntity
  8
FREI
  6
CONTINUOUS
 62
          15
100
AcDbCircle
 10
-15335.731807112943
 20
-489.284640179351
 30
0.0
 40
5.4344430512
100
AcDbArc
 50
323.388481348987
 51
23.385221057158
  0
ARC
  5
6B
100
AcDbEntity
  8
FREI
  6
CONTINUOUS
 62
          15
100
AcDbCircle
 10
-15341.965793363897
 20
-488.561681577275
 30
0.0
 40
5.4344430512
100
AcDbArc
 50
323.388481348987
 51
23.385221057158
  0
ARC
  5
6C
100
AcDbEntity
  8
FREI
  6
CONTINUOUS
 62
          15
100
AcDbCircle
 10
-15334.380854809911
 20
-475.309482795149
 30
0.0
 40
1.357844916823
100
AcDbArc
 50
83.418055344222
 51
203.436618161791
  0
ARC
  5
6D
100
AcDbEntity
  8
FREI
  6
CONTINUOUS
 62
          15
100
AcDbCircle
 10
-15340.924242835483
 20
-470.44482915067
 30
0.0
 40
2.716455679623
100
AcDbArc
 50
83.388401704415
 51
203.503718090275
  0
LINE
  5
6E
100
AcDbEntity
  8
FREI
  6
CONTINUOUS
 62
          15
100
AcDbLine
 10
-15334.224622230649
 20
-473.95546710821
 30
0.0
 11
-15320.457774952129
 21
-475.548426739903
 31
0.0
  0
LINE
  5
6F
100
AcDbEntity
  8
FREI
  6
CONTINUOUS
 62
          15
100
AcDbLine
 10
-15326.846462090392
 20
-469.342010944113
 30
0.0
 11
-15340.611777676957
 21
-467.74905131242
 31
0.0
  0
LINE
  5
70
100
AcDbEntity
  8
FREI
  6
CONTINUOUS
 62
          15
100
AcDbLine
 10
-15343.417837335865
 20
-471.529267053784
 30
0.0
 11
-15336.978604363134
 21
-486.405059306675
 31
0.0
  0
LINE
  5
71
100
AcDbEntity
  8
FREI
  6
CONTINUOUS
 62
          15
100
AcDbLine
 10
-15330.74461811218
 20
-487.128017908751
 30
0.0
 11
-15335.624588676195
 21
-475.848638362799
 31
0.0
  0
LINE
  5
72
100
AcDbEntity
  8
FREI
  6
CONTINUOUS
 62
          15
100
AcDbLine
 10
-15331.369548429229
 20
-492.525700353066
 30
0.0
 11
-15341.236707994007
 21
-505.808532974263
 31
0.0
  0
LINE
  5
73
100
AcDbEntity
  8
FREI
  6
CONTINUOUS
 62
          15
100
AcDbLine
 10
-15344.650849358472
 20
-501.293105095194
 30
0.0
 11
-15337.603534680182
 21
-491.80274175099
 31
0.0
  0
LINE
  5
74
100
AcDbEntity
  8
FREI
  6
CONTINUOUS
 62
          15
100
AcDbLine
 10
-15349.938249982131
 20
-492.292883176126
 30
0.0
 11
-15349.334763352434
 21
-487.091257301866
 31
0.0
  0
CIRCLE
  5
75
100
AcDbEntity
  8
FREI
  6
CONTINUOUS
 62
          15
100
AcDbCircle
 10
-15350.688779039372
 20
-498.787257059184
 30
0.0
 40
6.536878334769
  0
LINE
  5
76
100
AcDbEntity
  8
FREI
  6
CONTINUOUS
 62
          15
100
AcDbLine
 10
-15291.010997145104
 20
-400.55678869403
 30
0.0
 11
-15287.690288989807
 21
-400.93664829851
 31
0.0
  0
LINE
  5
77
100
AcDbEntity
  8
FREI
  6
CONTINUOUS
 62
          15
100
AcDbLine
 10
-15280.232480867964
 20
-421.393926030142
 30
0.0
 11
-15285.737381749028
 21
-408.674756047852
 31
0.0
  0
ARC
  5
78
100
AcDbEntity
  8
FREI
  6
CONTINUOUS
 62
          15
100
AcDbCircle
 10
-15284.49211619079
 20
-408.135600480201
 30
0.0
 40
1.357844916823
100
AcDbArc
 50
83.418055344222
 51
203.410895497621
  0
CIRCLE
  5
79
100
AcDbEntity
  8
FREI
  6
CONTINUOUS
 62
          15
100
AcDbCircle
 10
-15350.688779039372
 20
-433.420771249427
 30
0.0
 40
7.247966324205
  0
LINE
  5
7A
100
AcDbEntity
  8
FREI
  6
CONTINUOUS
 62
          15
100
AcDbLine
 10
-15424.589613495644
 20
-390.420771249427
 30
0.0
 11
-15478.614404881577
 21
-483.994454798171
 31
0.0
  0
LINE
  5
7B
100
AcDbEntity
  8
FREI
  6
CONTINUOUS
 62
          15
100
AcDbLine
 10
-15350.688779039372
 20
-518.420771249427
 30
0.0
 11
-15367.763153197167
 21
-547.994454798171
 31
0.0
  0
LINE
  5
7C
100
AcDbEntity
  8
FREI
  6
CONTINUOUS
 62
          15
100
AcDbLine
 10
-15350.688779039372
 20
-518.420771249427
 30
0.0
 11
-15333.614404881577
 21
-547.994454798171
 31
0.0
  0
LINE
  5
7D
100
AcDbEntity
  8
FREI
  6
GESTRICHELT
 62
          15
100
AcDbLine
 10
-15276.7879445831
 20
-390.420771249427
 30
0.0
 11
-15222.763153197167
 21
-483.994454798171
 31
0.0
  0
LINE
  5
7E
100
AcDbEntity
  8
FREI
  6
CONTINUOUS
 62
          15
100
AcDbLine
 10
-15425.166963764834
 20
-390.420771249427
 30
0.0
 11
-15414.688779039372
 21
-350.420771249427
 31
0.0
  0
LINE
  5
7F
100
AcDbEntity
  8
FREI
  6
GESTRICHELT
 62
          15
100
AcDbLine
 10
-15323.259416025116
 20
-350.420771249427
 30
0.0
 11
-15286.688779039372
 21
-350.420771249427
 31
0.0
  0
LINE
  5
80
100
AcDbEntity
  8
FREI
  6
CONTINUOUS
 62
          15
100
AcDbLine
 10
-15414.688779039372
 20
-350.420771249427
 30
0.0
 11
-15323.259416025116
 21
-350.420771249427
 31
0.0
  0
LINE
  5
81
100
AcDbEntity
  8
FREI
  6
GESTRICHELT
 62
          15
100
AcDbLine
 10
-15286.688779039372
 20
-350.420771249427
 30
0.0
 11
-15276.7879445831
 21
-390.420771249427
 31
0.0
  0
LINE
  5
82
100
AcDbEntity
  8
FREI
  6
CONTINUOUS
 62
          15
100
AcDbLine
 10
-15235.520861777164
 20
-491.360121281074
 30
0.0
 11
-15333.614404881577
 21
-547.994454798171
 31
0.0
  0
LINE
  5
83
100
AcDbEntity
  8
FREI
  6
GESTRICHELT
 62
          15
100
AcDbLine
 10
-15222.763153197167
 20
-483.994454798171
 30
0.0
 11
-15235.520861777164
 21
-491.360121281074
 31
0.0
  0
LINE
  5
84
100
AcDbEntity
  8
FREI
  6
CONTINUOUS
 62
          15
100
AcDbLine
 10
-15367.763153197167
 20
-547.994454798171
 30
0.0
 11
-15478.614404881577
 21
-483.994454798171
 31
0.0
  0
TEXT
  5
85
100
AcDbEntity
  8
FREI
  6
CONTINUOUS
 62
          15
100
AcDbText
 10
-15455.0192494533
 20
-477.86477164659
 30
0.0
 40
3.527777671814
  1
125-220
 41
0.899999979725
  7
GOTHICG
100
AcDbText
  0
ENDSEC
  0
SECTION
  2
OBJECTS
  0
DICTIONARY
  5
19
100
AcDbDictionary
  3
ACAD_GROUP
350
1A
  3
ACAD_MLINESTYLE
350
1B
  0
DICTIONARY
  5
1A
102
{ACAD_REACTORS
330
19
102
}
100
AcDbDictionary
  0
DICTIONARY
  5
1B
102
{ACAD_REACTORS
330
19
102
}
100
AcDbDictionary
  3
STANDARD
350
1C
  0
MLINESTYLE
  5
1C
102
{ACAD_REACTORS
330
1B
102
}
100
AcDbMlineStyle
  2
STANDARD
 70
           0
  3

 62
           0
 51
90.0
 52
90.0
 71
           2
 49
0.5
 62
         256
  6
BYLAYER
 49
-0.5
 62
         256
  6
BYLAYER
  0
ENDSEC
  0
EOF
