  0
SECTION
  2
HEADER
  9
$ACADVER
  1
AC1012
  9
$DWGCODEPAGE
  3
dos850
  9
$INSBASE
 10
0.0
 20
0.0
 30
0.0
  9
$EXTMIN
 10
-15539.128469180492
 20
-2067.21776391489
 30
0.0
  9
$EXTMAX
 10
-15183.243896499293
 20
-1764.536988408237
 30
0.0
  9
$LIMMIN
 10
-15539.128469180492
 20
-2067.21776391489
  9
$LIMMAX
 10
-15183.243896499293
 20
-1764.536988408237
  9
$ORTHOMODE
 70
           0
  9
$REGENMODE
 70
           1
  9
$FILLMODE
 70
           1
  9
$QTEXTMODE
 70
           0
  9
$MIRRTEXT
 70
           1
  9
$DRAGMODE
 70
           2
  9
$LTSCALE
 40
5.0
  9
$OSMODE
 70
           0
  9
$ATTMODE
 70
           1
  9
$TEXTSIZE
 40
0.2
  9
$TRACEWID
 40
0.05
  9
$TEXTSTYLE
  7
TXT
  9
$CLAYER
  8
0
  9
$CELTYPE
  6
CONTINUOUS
  9
$CECOLOR
 62
         256
  9
$CELTSCALE
 40
1.0
  9
$DELOBJ
 70
           1
  9
$DISPSILH
 70
           0
  9
$DIMSCALE
 40
1.0
  9
$DIMASZ
 40
3.5
  9
$DIMEXO
 40
0.0625
  9
$DIMDLI
 40
0.38
  9
$DIMRND
 40
0.0
  9
$DIMDLE
 40
0.0
  9
$DIMEXE
 40
0.18
  9
$DIMTP
 40
0.0
  9
$DIMTM
 40
0.0
  9
$DIMTXT
 40
3.5
  9
$DIMCEN
 40
0.09
  9
$DIMTSZ
 40
0.0
  9
$DIMTOL
 70
           0
  9
$DIMLIM
 70
           0
  9
$DIMTIH
 70
           1
  9
$DIMTOH
 70
           1
  9
$DIMSE1
 70
           0
  9
$DIMSE2
 70
           0
  9
$DIMTAD
 70
           0
  9
$DIMZIN
 70
           0
  9
$DIMBLK
  1

  9
$DIMASO
 70
           1
  9
$DIMSHO
 70
           1
  9
$DIMPOST
  1

  9
$DIMAPOST
  1

  9
$DIMALT
 70
           0
  9
$DIMALTD
 70
           2
  9
$DIMALTF
 40
25.4
  9
$DIMLFAC
 40
1.0
  9
$DIMTOFL
 70
           0
  9
$DIMTVP
 40
0.0
  9
$DIMTIX
 70
           0
  9
$DIMSOXD
 70
           0
  9
$DIMSAH
 70
           0
  9
$DIMBLK1
  1

  9
$DIMBLK2
  1

  9
$DIMSTYLE
  2
STANDARD
  9
$DIMCLRD
 70
           0
  9
$DIMCLRE
 70
           0
  9
$DIMCLRT
 70
           0
  9
$DIMTFAC
 40
1.0
  9
$DIMGAP
 40
0.09
  9
$DIMJUST
 70
           0
  9
$DIMSD1
 70
           0
  9
$DIMSD2
 70
           0
  9
$DIMTOLJ
 70
           1
  9
$DIMTZIN
 70
           0
  9
$DIMALTZ
 70
           0
  9
$DIMALTTZ
 70
           0
  9
$DIMFIT
 70
           3
  9
$DIMUPT
 70
           0
  9
$DIMUNIT
 70
           2
  9
$DIMDEC
 70
           4
  9
$DIMTDEC
 70
           4
  9
$DIMALTU
 70
           2
  9
$DIMALTTD
 70
           2
  9
$DIMTXSTY
  7
TXT
  9
$DIMAUNIT
 70
           0
  9
$LUNITS
 70
           2
  9
$LUPREC
 70
           3
  9
$SKETCHINC
 40
0.1
  9
$FILLETRAD
 40
0.0
  9
$AUNITS
 70
           0
  9
$AUPREC
 70
           3
  9
$MENU
  1
acad
  9
$ELEVATION
 40
0.0
  9
$PELEVATION
 40
0.0
  9
$THICKNESS
 40
0.0
  9
$LIMCHECK
 70
           0
  9
$BLIPMODE
 70
           1
  9
$CHAMFERA
 40
0.0
  9
$CHAMFERB
 40
0.0
  9
$CHAMFERC
 40
0.0
  9
$CHAMFERD
 40
0.0
  9
$SKPOLY
 70
           0
  9
$TDCREATE
 40
0.000000000
  9
$TDUPDATE
 40
0.000000000
  9
$TDINDWG
 40
0.0000000000
  9
$TDUSRTIMER
 40
0.0000000000
  9
$USRTIMER
 70
           1
  9
$ANGBASE
 50
0.0
  9
$ANGDIR
 70
           0
  9
$PDMODE
 70
           2
  9
$PDSIZE
 40
0.5
  9
$PLINEWID
 40
0.0
  9
$COORDS
 70
           0
  9
$SPLFRAME
 70
           0
  9
$SPLINETYPE
 70
           6
  9
$SPLINESEGS
 70
           8
  9
$ATTDIA
 70
           0
  9
$ATTREQ
 70
           1
  9
$HANDLING
 70
           1
  9
$HANDSEED
  5
8D
  9
$SURFTAB1
 70
           6
  9
$SURFTAB2
 70
           6
  9
$SURFTYPE
 70
           6
  9
$SURFU
 70
           6
  9
$SURFV
 70
           6
  9
$UCSNAME
  2

  9
$UCSORG
 10
0.0
 20
0.0
 30
0.0
  9
$UCSXDIR
 10
1.0
 20
0.0
 30
0.0
  9
$UCSYDIR
 10
0.0
 20
1.0
 30
0.0
  9
$PUCSNAME
  2

  9
$PUCSORG
 10
0.0
 20
0.0
 30
0.0
  9
$PUCSXDIR
 10
1.0
 20
0.0
 30
0.0
  9
$PUCSYDIR
 10
0.0
 20
1.0
 30
0.0
  9
$USERI1
 70
           0
  9
$USERI2
 70
           0
  9
$USERI3
 70
           0
  9
$USERI4
 70
           0
  9
$USERI5
 70
           0
  9
$USERR1
 40
0.0
  9
$USERR2
 40
0.0
  9
$USERR3
 40
0.0
  9
$USERR4
 40
0.0
  9
$USERR5
 40
0.0
  9
$WORLDVIEW
 70
           1
  9
$SHADEDGE
 70
           3
  9
$SHADEDIF
 70
          70
  9
$TILEMODE
 70
           1
  9
$MAXACTVP
 70
          16
  9
$PINSBASE
 10
0.0
 20
0.0
 30
0.0
  9
$PLIMCHECK
 70
           0
  9
$PEXTMIN
 10
1.000000000000E+20
 20
1.000000000000E+20
 30
1.000000000000E+20
  9
$PEXTMAX
 10
-1.000000000000E+20
 20
-1.000000000000E+20
 30
-1.000000000000E+20
  9
$PLIMMIN
 10
0.0
 20
0.0
  9
$PLIMMAX
 10
12.0
 20
9.0
  9
$UNITMODE
 70
           0
  9
$VISRETAIN
 70
           0
  9
$PLINEGEN
 70
           1
  9
$PSLTSCALE
 70
           0
  9
$TREEDEPTH
 70
        3020
  9
$PICKSTYLE
 70
           1
  9
$CMLSTYLE
  2
STANDARD
  9
$CMLJUST
 70
           0
  9
$CMLSCALE
 40
1.0
  9
$SAVEIMAGES
 70
           0
  0
ENDSEC
  0
SECTION
  2
CLASSES
  0
CLASS
  1
LWPOLYLINE
  2
AcDbPolyline
  3
"AutoCAD"
 90
        0
280
           0
281
           1
  0
CLASS
  1
IMAGE
  2
AcDbRasterImage
  3
ISM
 90
      127
280
           0
281
           1
  0
CLASS
  1
OLE2FRAME
  2
AcDbOle2Frame
  3
""
 90
        0
280
           0
281
           1
  0
CLASS
  1
HATCH
  2
AcDbHatch
  3
"ACAD_SEDONA"
 90
        0
280
           0
281
           1
  0
CLASS
  1
DICTIONARYVAR
  2
AcDbDictionaryVar
  3
"AutoCAD"
 90
        0
280
           0
281
           0
  0
CLASS
  1
RASTERVARIABLES
  2
AcDbRasterVariables
  3
ISM
 90
        0
280
           0
281
           0
  0
CLASS
  1
IMAGEDEF
  2
AcDbRasterImageDef
  3
ISM
 90
        0
280
           0
281
           0
  0
CLASS
  1
IMAGEDEF_REACTOR
  2
AcDbRasterImageDefReactor
  3
ISM
 90
        1
280
           0
281
           0
  0
CLASS
  1
IDBUFFER
  2
AcDbIdBuffer
  3
"Acad"
 90
        0
280
           0
281
           0
  0
CLASS
  1
SPATIAL_FILTER
  2
AcDbSpatialFilter
  3
"Acad"
 90
        0
280
           0
281
           0
  0
CLASS
  1
XRECORD
  2
AcDbXrecord
  3
"<Built In>"
 90
        0
280
           0
281
           0
  0
ENDSEC
  0
SECTION
  2
TABLES
  0
TABLE
  2
VPORT
  5
7
100
AcDbSymbolTable
 70
           1
  0
VPORT
  5
15
100
AcDbSymbolTableRecord
100
AcDbViewportTableRecord
  2
*ACTIVE
 70
           0
 10
0.0
 20
0.0
 11
1.0
 21
1.0
 12
6.591288
 22
4.579184
 13
0.0
 23
0.0
 14
1.0
 24
1.0
 15
0.0
 25
0.0
 16
0.0
 26
0.0
 36
1.0
 17
0.0
 27
0.0
 37
0.0
 40
9.158369
 41
0.688564
 42
50.0
 43
0.0
 44
0.0
 50
0.0
 51
0.0
 71
           0
 72
         100
 73
           1
 74
           1
 75
           0
 76
           0
 77
           0
 78
           0
  0
ENDTAB
  0
TABLE
  2
LTYPE
  5
4
100
AcDbSymbolTable
 70
           5
  0
LTYPE
  5
11
100
AcDbSymbolTableRecord
100
AcDbLinetypeTableRecord
  2
BYBLOCK
 70
           0
  3

 72
          65
 73
           0
 40
0.0
  0
LTYPE
  5
12
100
AcDbSymbolTableRecord
100
AcDbLinetypeTableRecord
  2
BYLAYER
 70
           0
  3

 72
          65
 73
           0
 40
0.0
  0
LTYPE
  5
13
100
AcDbSymbolTableRecord
100
AcDbLinetypeTableRecord
  2
CONTINUOUS
 70
           0
  3
Solid line
 72
          65
 73
           0
 40
0.0
  0
LTYPE
  5
1D
100
AcDbSymbolTableRecord
100
AcDbLinetypeTableRecord
  2
GESTRICHELT
 70
           0
  3

 72
          65
 73
           2
 40
0.75
 49
0.5
 74
           0
 49
-0.25
 74
           0
  0
LTYPE
  5
1E
100
AcDbSymbolTableRecord
100
AcDbLinetypeTableRecord
  2
STRICHPUNKT
 70
           0
  3

 72
          65
 73
           4
 40
1.0
 49
0.5
 74
           0
 49
-0.25
 74
           0
 49
0.0
 74
           0
 49
-0.25
 74
           0
  0
ENDTAB
  0
TABLE
  2
LAYER
  5
2
100
AcDbSymbolTable
 70
           2
  0
LAYER
  5
14
100
AcDbSymbolTableRecord
100
AcDbLayerTableRecord
  2
0
 70
           0
 62
           7
  6
CONTINUOUS
  0
LAYER
  5
20
100
AcDbSymbolTableRecord
100
AcDbLayerTableRecord
  2
FREI
 70
           0
 62
           7
  6
CONTINUOUS
  0
ENDTAB
  0
TABLE
  2
STYLE
  5
3
100
AcDbSymbolTable
 70
           2
  0
STYLE
  5
17
100
AcDbSymbolTableRecord
100
AcDbTextStyleTableRecord
  2
TXT
 70
           0
 40
3.5
 41
1.0
 50
0.0
 71
           0
 42
3.5
  3
TXT
  4

  0
STYLE
  5
1F
100
AcDbSymbolTableRecord
100
AcDbTextStyleTableRecord
  2
GOTHICG
 70
           0
 40
3.5
 41
1.0
 50
0.0
 71
           0
 42
3.5
  3
GOTHICG
  4

  0
ENDTAB
  0
TABLE
  2
VIEW
  5
5
100
AcDbSymbolTable
 70
           0
  0
ENDTAB
  0
TABLE
  2
UCS
  5
6
100
AcDbSymbolTable
 70
           0
  0
ENDTAB
  0
TABLE
  2
APPID
  5
8
100
AcDbSymbolTable
 70
           2
  0
APPID
  5
16
100
AcDbSymbolTableRecord
100
AcDbRegAppTableRecord
  2
ACAD
 70
           0
  0
APPID
  5
21
100
AcDbSymbolTableRecord
100
AcDbRegAppTableRecord
  2
MegaCADPntStyle
 70
           0
  0
ENDTAB
  0
TABLE
  2
DIMSTYLE
  5
9
100
AcDbSymbolTable
 70
           1
  0
DIMSTYLE
105
18
100
AcDbSymbolTableRecord
100
AcDbDimStyleTableRecord
  2
STANDARD
 70
           0
  3

  4

  5

  6

  7

 40
1.0
 41
0.18
 42
0.0625
 43
0.38
 44
0.18
 45
0.0
 46
0.0
 47
0.0
 48
0.0
140
0.18
141
0.09
142
0.0
143
25.4
144
1.0
145
0.0
146
1.0
147
0.09
 71
           0
 72
           0
 73
           1
 74
           1
 75
           0
 76
           0
 77
           0
 78
           0
170
           0
171
           2
172
           0
173
           0
174
           0
175
           0
176
           0
177
           0
178
           0
270
           2
271
           4
272
           4
273
           2
274
           2
340
17
275
           0
280
           0
281
           0
282
           0
283
           1
284
           0
285
           0
286
           0
287
           0
288
           0
  0
ENDTAB
  0
TABLE
  2
BLOCK_RECORD
  5
1
100
AcDbSymbolTable
 70
           1
  0
BLOCK_RECORD
  5
A
100
AcDbSymbolTableRecord
100
AcDbBlockTableRecord
  2
*MODEL_SPACE
  0
BLOCK_RECORD
  5
B
100
AcDbSymbolTableRecord
100
AcDbBlockTableRecord
  2
*PAPER_SPACE
  0
BLOCK_RECORD
  5
22
100
AcDbSymbolTableRecord
100
AcDbBlockTableRecord
  2
ELIPPSE
  0
ENDTAB
  0
ENDSEC
  0
SECTION
  2
BLOCKS
  0
BLOCK
  5
D
100
AcDbEntity
  8
0
100
AcDbBlockBegin
  2
*MODEL_SPACE
 70
           0
 10
0.0
 20
0.0
 30
0.0
  3
*MODEL_SPACE
  1

  0
ENDBLK
  5
E
100
AcDbEntity
  8
0
100
AcDbBlockEnd
  0
BLOCK
  5
F
100
AcDbEntity
 67
           1
  8
0
100
AcDbBlockBegin
  2
*PAPER_SPACE
 70
           0
 10
0.0
 20
0.0
 30
0.0
  3
*PAPER_SPACE
  1

  0
ENDBLK
  5
10
100
AcDbEntity
 67
           1
  8
0
100
AcDbBlockEnd
  0
BLOCK
  5
88
100
AcDbEntity
  8
0
100
AcDbBlockBegin
  2
ELIPPSE
 70
          64
 10
0.0
 20
0.0
 30
0.0
  3
ELIPPSE
  1

  0
CIRCLE
  5
89
100
AcDbEntity
  8
0
  6
BYBLOCK
 62
           0
100
AcDbCircle
 10
0.0
 20
0.0
 30
0.0
 40
1.0
  0
ENDBLK
  5
8A
100
AcDbEntity
  8
0
  6
BYBLOCK
 62
           0
100
AcDbBlockEnd
  0
ENDSEC
  0
SECTION
  2
ENTITIES
  0
LINE
  5
23
100
AcDbEntity
  8
FREI
  6
STRICHPUNKT
 62
          15
100
AcDbLine
 10
-15361.186182839892
 20
-1789.012683158002
 30
0.0
 11
-15361.186182839892
 21
-1849.012683158002
 31
0.0
  0
LINE
  5
24
100
AcDbEntity
  8
FREI
  6
STRICHPUNKT
 62
          15
100
AcDbLine
 10
-15361.186182839892
 20
-1849.012683158002
 30
0.0
 11
-15261.186182839892
 21
-2022.21776391489
 31
0.0
  0
LINE
  5
25
100
AcDbEntity
  8
FREI
  6
CONTINUOUS
 62
          15
100
AcDbLine
 10
-15214.02876007032
 20
-1923.896816105795
 30
0.0
 11
-15183.243896499293
 21
-1977.21776391489
 31
0.0
  0
LINE
  5
26
100
AcDbEntity
  8
FREI
  6
GESTRICHELT
 62
          15
100
AcDbLine
 10
-15257.263134385759
 20
-1849.012683158002
 30
0.0
 11
-15214.02876007032
 21
-1923.896816105795
 31
0.0
  0
LINE
  5
27
100
AcDbEntity
  8
FREI
  6
CONTINUOUS
 62
          15
100
AcDbLine
 10
-15361.186182839892
 20
-2029.012683158002
 30
0.0
 11
-15339.128469180492
 21
-2067.21776391489
 31
0.0
  0
LINE
  5
28
100
AcDbEntity
  8
FREI
  6
STRICHPUNKT
 62
          15
100
AcDbLine
 10
-15361.186182839892
 20
-1849.012683158002
 30
0.0
 11
-15461.186182839892
 21
-2022.21776391489
 31
0.0
  0
LINE
  5
29
100
AcDbEntity
  8
FREI
  6
CONTINUOUS
 62
          15
100
AcDbLine
 10
-15465.109231294025
 20
-1849.012683158002
 30
0.0
 11
-15539.128469180492
 21
-1977.21776391489
 31
0.0
  0
LINE
  5
2A
100
AcDbEntity
  8
FREI
  6
CONTINUOUS
 62
          15
100
AcDbLine
 10
-15361.186182839892
 20
-2029.012683158002
 30
0.0
 11
-15383.243896499293
 21
-2067.21776391489
 31
0.0
  0
LINE
  5
2B
100
AcDbEntity
  8
FREI
  6
CONTINUOUS
 62
          15
100
AcDbLine
 10
-15361.186182839892
 20
-1869.523000686364
 30
0.0
 11
-15361.186182839892
 21
-1849.012683158002
 31
0.0
  0
LINE
  5
2C
100
AcDbEntity
  8
FREI
  6
GESTRICHELT
 62
          15
100
AcDbLine
 10
-15361.186182839892
 20
-1901.764716833797
 30
0.0
 11
-15361.186182839892
 21
-1869.523000686364
 31
0.0
  0
LINE
  5
2D
100
AcDbEntity
  8
FREI
  6
GESTRICHELT
 62
          15
100
AcDbLine
 10
-15361.186182839892
 20
-1990.719258728244
 30
0.0
 11
-15361.186182839892
 21
-1916.260649482207
 31
0.0
  0
LINE
  5
2E
100
AcDbEntity
  8
FREI
  6
CONTINUOUS
 62
          15
100
AcDbLine
 10
-15361.186182839892
 20
-2029.012683158002
 30
0.0
 11
-15361.186182839892
 21
-1990.719258728244
 31
0.0
  0
LINE
  5
2F
100
AcDbEntity
  8
FREI
  6
CONTINUOUS
 62
          15
100
AcDbLine
 10
-15465.109231294025
 20
-1849.012683158002
 30
0.0
 11
-15451.186182839892
 21
-1789.012683158002
 31
0.0
  0
LINE
  5
30
100
AcDbEntity
  8
FREI
  6
CONTINUOUS
 62
          15
100
AcDbLine
 10
-15281.954073220513
 20
-1789.012683158002
 30
0.0
 11
-15271.186182839892
 21
-1789.012683158002
 31
0.0
  0
LINE
  5
31
100
AcDbEntity
  8
FREI
  6
GESTRICHELT
 62
          15
100
AcDbLine
 10
-15348.639325791768
 20
-1789.012683158002
 30
0.0
 11
-15281.954073220513
 21
-1789.012683158002
 31
0.0
  0
LINE
  5
32
100
AcDbEntity
  8
FREI
  6
CONTINUOUS
 62
          15
100
AcDbLine
 10
-15451.186182839892
 20
-1789.012683158002
 30
0.0
 11
-15348.639325791768
 21
-1789.012683158002
 31
0.0
  0
LINE
  5
33
100
AcDbEntity
  8
FREI
  6
GESTRICHELT
 62
          15
100
AcDbLine
 10
-15263.933396805096
 20
-1820.267847105849
 30
0.0
 11
-15257.263134385759
 21
-1849.012683158002
 31
0.0
  0
LINE
  5
34
100
AcDbEntity
  8
FREI
  6
CONTINUOUS
 62
          15
100
AcDbLine
 10
-15271.186182839892
 20
-1789.012683158002
 30
0.0
 11
-15263.933396805096
 21
-1820.267847105849
 31
0.0
  0
LINE
  5
35
100
AcDbEntity
  8
FREI
  6
CONTINUOUS
 62
          15
100
AcDbLine
 10
-15348.256262375478
 20
-1849.012683158002
 30
0.0
 11
-15465.109231294025
 21
-1849.012683158002
 31
0.0
  0
LINE
  5
36
100
AcDbEntity
  8
FREI
  6
GESTRICHELT
 62
          15
100
AcDbLine
 10
-15257.263134385759
 20
-1849.012683158002
 30
0.0
 11
-15348.256262375478
 21
-1849.012683158002
 31
0.0
  0
LINE
  5
37
100
AcDbEntity
  8
FREI
  6
CONTINUOUS
 62
          15
100
AcDbLine
 10
-15539.128469180492
 20
-1977.21776391489
 30
0.0
 11
-15383.243896499293
 21
-2067.21776391489
 31
0.0
  0
LINE
  5
38
100
AcDbEntity
  8
FREI
  6
CONTINUOUS
 62
          15
100
AcDbLine
 10
-15339.128469180492
 20
-2067.21776391489
 30
0.0
 11
-15183.243896499293
 21
-1977.21776391489
 31
0.0
  0
ARC
  5
39
100
AcDbEntity
  8
FREI
  6
CONTINUOUS
 62
          15
100
AcDbCircle
 10
-15305.922737155759
 20
-1799.692765049136
 30
0.0
 40
26.093904120701
100
AcDbArc
 50
29.970101035151
 51
77.275326881122
  0
ARC
  5
3A
100
AcDbEntity
  8
FREI
  6
CONTINUOUS
 62
          15
100
AcDbCircle
 10
-15238.886707116631
 20
-1915.960437859311
 30
0.0
 40
26.093904120701
100
AcDbArc
 50
342.664835748251
 51
29.970101035151
  0
LINE
  5
3B
100
AcDbEntity
  8
FREI
  6
CONTINUOUS
 62
          15
100
AcDbLine
 10
-15227.043664931773
 20
-1965.58113038656
 30
0.0
 11
-15213.97833256798
 21
-1923.735306215537
 31
0.0
  0
LINE
  5
3C
100
AcDbEntity
  8
FREI
  6
CONTINUOUS
 62
          15
100
AcDbLine
 10
-15342.937604905283
 20
-1764.580258705925
 30
0.0
 11
-15300.174297254083
 21
-1774.236044781113
 31
0.0
  0
LINE
  5
3D
100
AcDbEntity
  8
FREI
  6
CONTINUOUS
 62
          15
100
AcDbLine
 10
-15283.313432229388
 20
-1786.655003140507
 30
0.0
 11
-15216.277402190261
 21
-1902.922675950682
 31
0.0
  0
ARC
  5
3E
100
AcDbEntity
  8
FREI
  6
CONTINUOUS
 62
          15
100
AcDbCircle
 10
-15380.062754475459
 20
-1919.899949563845
 30
0.0
 40
10.893393173657
100
AcDbArc
 50
147.628285169611
 51
272.168526113971
  0
LINE
  5
3F
100
AcDbEntity
  8
FREI
  6
CONTINUOUS
 62
          15
100
AcDbLine
 10
-15330.385389345929
 20
-1820.664691277161
 30
0.0
 11
-15389.278944959977
 21
-1914.085646908164
 31
0.0
  0
LINE
  5
40
100
AcDbEntity
  8
FREI
  6
CONTINUOUS
 62
          15
100
AcDbLine
 10
-15353.330134810129
 20
-1780.877461091711
 30
0.0
 11
-15246.352173698242
 21
-1966.408244041478
 31
0.0
  0
ARC
  5
41
100
AcDbEntity
  8
FREI
  6
CONTINUOUS
 62
          15
100
AcDbCircle
 10
-15343.891848992344
 20
-1775.430764504883
 30
0.0
 40
10.893776096645
100
AcDbArc
 50
84.974072586301
 51
209.988620150222
  0
ARC
  5
42
100
AcDbEntity
  8
FREI
  6
CONTINUOUS
 62
          15
100
AcDbCircle
 10
-15236.915419572411
 20
-1960.967674222463
 30
0.0
 40
10.893776096645
100
AcDbArc
 50
209.964734733568
 51
334.951481380678
  0
LINE
  5
43
100
AcDbEntity
  8
FREI
  6
GESTRICHELT
 62
          15
100
AcDbLine
 10
-15316.583313152478
 20
-1928.446790664661
 30
0.0
 11
-15341.666300583835
 21
-1929.280031087393
 31
0.0
  0
LINE
  5
44
100
AcDbEntity
  8
FREI
  6
CONTINUOUS
 62
          15
100
AcDbLine
 10
-15316.594034996151
 20
-1928.489678039361
 30
0.0
 11
-15269.126901355596
 21
-1926.91509871111
 31
0.0
  0
LINE
  5
45
100
AcDbEntity
  8
FREI
  6
CONTINUOUS
 62
          15
100
AcDbLine
 10
-15341.885332533193
 20
-1929.359679068978
 30
0.0
 11
-15379.650729339954
 21
-1930.781089201874
 31
0.0
  0
LINE
  5
46
100
AcDbEntity
  8
FREI
  6
CONTINUOUS
 62
          15
100
AcDbLine
 10
-15336.67451650721
 20
-1944.842021335475
 30
0.0
 11
-15336.671453123303
 21
-1941.331383377935
 31
0.0
  0
LINE
  5
47
100
AcDbEntity
  8
FREI
  6
GESTRICHELT
 62
          15
100
AcDbLine
 10
-15336.67451650721
 20
-1944.842021335475
 30
0.0
 11
-15336.703618654328
 21
-1950.582802777385
 31
0.0
  0
LINE
  5
48
100
AcDbEntity
  8
FREI
  6
GESTRICHELT
 62
          15
100
AcDbLine
 10
-15336.67451650721
 20
-1909.012683158002
 30
0.0
 11
-15336.685238350885
 21
-1941.36814398482
 31
0.0
  0
LINE
  5
49
100
AcDbEntity
  8
FREI
  6
GESTRICHELT
 62
          15
100
AcDbLine
 10
-15385.700912556482
 20
-1908.418386680024
 30
0.0
 11
-15385.697849172573
 21
-1929.218763409251
 31
0.0
  0
ARC
  5
4A
100
AcDbEntity
  8
FREI
  6
CONTINUOUS
 62
          15
100
AcDbCircle
 10
-15361.186182839892
 20
-1909.012683158002
 30
0.0
 40
24.511666332682
100
AcDbArc
 50
116.990965333067
 51
178.553410663232
  0
ARC
  5
4B
100
AcDbEntity
  8
FREI
  6
GESTRICHELT
 62
          15
100
AcDbCircle
 10
-15361.186182839892
 20
-1909.012683158002
 30
0.0
 40
24.511666332682
100
AcDbArc
 50
0.000000683099
 51
116.990965333067
  0
LINE
  5
4C
100
AcDbEntity
  8
FREI
  6
CONTINUOUS
 62
          15
100
AcDbLine
 10
-15385.697849172573
 20
-1990.719258728244
 30
0.0
 11
-15336.67451650721
 21
-1990.719258728244
 31
0.0
  0
LINE
  5
4D
100
AcDbEntity
  8
FREI
  6
CONTINUOUS
 62
          15
100
AcDbLine
 10
-15385.697849172573
 20
-1929.218763409251
 30
0.0
 11
-15385.697849172573
 21
-1990.719258728244
 31
0.0
  0
LINE
  5
4E
100
AcDbEntity
  8
FREI
  6
CONTINUOUS
 62
          15
100
AcDbLine
 10
-15336.67451650721
 20
-1990.719258728244
 30
0.0
 11
-15336.672984815257
 21
-1950.472520956729
 31
0.0
  0
ARC
  5
4F
100
AcDbEntity
  8
FREI
  6
CONTINUOUS
 62
          15
100
AcDbCircle
 10
-15361.186182839892
 20
-1974.379168967759
 30
0.0
 40
11.775264815914
100
AcDbArc
 50
83.396411513612
 51
323.393951543439
  0
LINE
  5
50
100
AcDbEntity
  8
FREI
  6
GESTRICHELT
 62
          15
100
AcDbLine
 10
-15338.803568322646
 20
-1944.76237335389
 30
0.0
 11
-15337.343865890913
 21
-1944.933922852688
 31
0.0
  0
ARC
  5
51
100
AcDbEntity
  8
FREI
  6
GESTRICHELT
 62
          15
100
AcDbCircle
 10
-15293.226542552773
 20
-1898.064149074017
 30
0.0
 40
2.716455679623
100
AcDbArc
 50
322.006040502197
 51
23.359604704482
  0
CIRCLE
  5
52
100
AcDbEntity
  8
FREI
  6
CONTINUOUS
 62
          15
100
AcDbCircle
 10
-15276.249268939609
 20
-1860.047554786873
 30
0.0
 40
7.625528390755
  0
ARC
  5
53
100
AcDbEntity
  8
FREI
  6
GESTRICHELT
 62
          15
100
AcDbCircle
 10
-15283.246037783432
 20
-1875.511516749927
 30
0.0
 40
2.716455679623
100
AcDbArc
 50
263.388406711703
 51
323.459608284301
  0
ARC
  5
54
100
AcDbEntity
  8
FREI
  6
GESTRICHELT
 62
          15
100
AcDbCircle
 10
-15280.753974975005
 20
-1881.27067849528
 30
0.0
 40
2.716455679623
100
AcDbArc
 50
263.420531649356
 51
323.459608284301
  0
LINE
  5
55
100
AcDbEntity
  8
FREI
  6
GESTRICHELT
 62
          15
100
AcDbLine
 10
-15283.252164551246
 20
-1863.068051319276
 30
0.0
 11
-15287.06607751559
 21
-1864.716151861298
 31
0.0
  0
LINE
  5
56
100
AcDbEntity
  8
FREI
  6
GESTRICHELT
 62
          15
100
AcDbLine
 10
-15273.700533528901
 20
-1867.234253432936
 30
0.0
 11
-15281.063376749622
 21
-1877.128983452877
 31
0.0
  0
LINE
  5
57
100
AcDbEntity
  8
FREI
  6
GESTRICHELT
 62
          15
100
AcDbLine
 10
-15278.571313941195
 20
-1882.88814519823
 30
0.0
 11
-15266.804856354012
 21
-1867.062703934138
 31
0.0
  0
ARC
  5
58
100
AcDbEntity
  8
FREI
  6
GESTRICHELT
 62
          15
100
AcDbCircle
 10
-15276.25845909133
 20
-1860.041428019059
 30
0.0
 40
11.774881892926
100
AcDbArc
 50
323.39839556867
 51
203.390402770664
  0
ARC
  5
59
100
AcDbEntity
  8
FREI
  6
CONTINUOUS
 62
          15
100
AcDbCircle
 10
-15301.532908016883
 20
-1878.862858744298
 30
0.0
 40
2.716455679623
100
AcDbArc
 50
89.482670676549
 51
203.385226065905
  0
LINE
  5
5A
100
AcDbEntity
  8
FREI
  6
GESTRICHELT
 62
          15
100
AcDbLine
 10
-15294.833287412048
 20
-1882.373496701837
 30
0.0
 11
-15281.064908441576
 21
-1883.966456333531
 31
0.0
  0
LINE
  5
5B
100
AcDbEntity
  8
FREI
  6
GESTRICHELT
 62
          15
100
AcDbLine
 10
-15283.558502941958
 20
-1878.207294588178
 30
0.0
 11
-15298.187692790327
 21
-1876.528560207085
 31
0.0
  0
ARC
  5
5C
100
AcDbEntity
  8
FREI
  6
CONTINUOUS
 62
          15
100
AcDbCircle
 10
-15299.769930578344
 20
-1893.199495429538
 30
0.0
 40
1.357844916823
100
AcDbArc
 50
263.418060351511
 51
23.359604704482
  0
ARC
  5
5D
100
AcDbEntity
  8
FREI
  6
CONTINUOUS
 62
          15
100
AcDbCircle
 10
-15293.226542552773
 20
-1898.064149074017
 30
0.0
 40
2.716455679623
100
AcDbArc
 50
263.420531649356
 51
322.006040502197
  0
LINE
  5
5E
100
AcDbEntity
  8
FREI
  6
CONTINUOUS
 62
          15
100
AcDbLine
 10
-15304.026502517263
 20
-1879.941169879598
 30
0.0
 11
-15298.521601636201
 21
-1892.660339861888
 31
0.0
  0
ARC
  5
5F
100
AcDbEntity
  8
FREI
  6
CONTINUOUS
 62
          15
100
AcDbCircle
 10
-15307.46208756908
 20
-1900.520982967513
 30
0.0
 40
1.357844916823
100
AcDbArc
 50
83.354100952973
 51
203.436618161791
  0
ARC
  5
60
100
AcDbEntity
  8
FREI
  6
CONTINUOUS
 62
          15
100
AcDbCircle
 10
-15314.005475594649
 20
-1895.656329323034
 30
0.0
 40
2.716455679623
100
AcDbArc
 50
83.388401704415
 51
203.385226065905
  0
LINE
  5
61
100
AcDbEntity
  8
FREI
  6
CONTINUOUS
 62
          15
100
AcDbLine
 10
-15307.304323297863
 20
-1899.166967280574
 30
0.0
 11
-15293.537476019344
 21
-1900.759926912267
 31
0.0
  0
LINE
  5
62
100
AcDbEntity
  8
FREI
  6
CONTINUOUS
 62
          15
100
AcDbLine
 10
-15299.926163157606
 20
-1894.553511116477
 30
0.0
 11
-15313.693010436125
 21
-1892.960551484784
 31
0.0
  0
LINE
  5
63
100
AcDbEntity
  8
FREI
  6
CONTINUOUS
 62
          15
100
AcDbLine
 10
-15312.398730735375
 20
-1911.346981695214
 30
0.0
 11
-15326.164046321941
 21
-1909.754022063521
 31
0.0
  0
LINE
  5
64
100
AcDbEntity
  8
FREI
  6
CONTINUOUS
 62
          15
100
AcDbLine
 10
-15319.776890875632
 20
-1915.960437859311
 30
0.0
 11
-15306.010043597113
 21
-1917.553397491004
 31
0.0
  0
ARC
  5
65
100
AcDbEntity
  8
FREI
  6
CONTINUOUS
 62
          15
100
AcDbCircle
 10
-15326.476511480465
 20
-1912.449799901771
 30
0.0
 40
2.716455679623
100
AcDbArc
 50
83.388401704415
 51
203.385226065905
  0
ARC
  5
66
100
AcDbEntity
  8
FREI
  6
CONTINUOUS
 62
          15
100
AcDbCircle
 10
-15319.933123454894
 20
-1917.31445354625
 30
0.0
 40
1.357844916823
100
AcDbArc
 50
83.418055344222
 51
203.410895497621
  0
LINE
  5
67
100
AcDbEntity
  8
FREI
  6
CONTINUOUS
 62
          15
100
AcDbLine
 10
-15316.499070095031
 20
-1896.734640458335
 30
0.0
 11
-15310.994169213969
 21
-1909.453810440625
 31
0.0
  0
LINE
  5
68
100
AcDbEntity
  8
FREI
  6
CONTINUOUS
 62
          15
100
AcDbLine
 10
-15303.202452246253
 20
-1913.779308517454
 30
0.0
 11
-15308.705821435362
 21
-1901.060138535163
 31
0.0
  0
ARC
  5
69
100
AcDbEntity
  8
FREI
  6
CONTINUOUS
 62
          15
100
AcDbCircle
 10
-15305.697578438589
 20
-1914.857619652754
 30
0.0
 40
2.716455679623
100
AcDbArc
 50
263.388406711703
 51
23.372406255528
  0
ARC
  5
6A
100
AcDbEntity
  8
FREI
  6
CONTINUOUS
 62
          15
100
AcDbCircle
 10
-15312.242498156113
 20
-1909.992966008275
 30
0.0
 40
1.357844916823
100
AcDbArc
 50
263.418060351511
 51
23.359604704482
  0
LINE
  5
6B
100
AcDbEntity
  8
FREI
  6
CONTINUOUS
 62
          15
100
AcDbLine
 10
-15324.871298313143
 20
-1928.140452273951
 30
0.0
 11
-15338.636613899709
 21
-1926.547492642258
 31
0.0
  0
LINE
  5
6C
100
AcDbEntity
  8
FREI
  6
CONTINUOUS
 62
          15
100
AcDbLine
 10
-15332.249458453402
 20
-1932.753908438048
 30
0.0
 11
-15318.482611174881
 21
-1934.346868069741
 31
0.0
  0
ARC
  5
6D
100
AcDbEntity
  8
FREI
  6
CONTINUOUS
 62
          15
100
AcDbCircle
 10
-15338.949079058233
 20
-1929.243270480508
 30
0.0
 40
2.716455679623
100
AcDbArc
 50
83.388401704415
 51
203.385226065905
  0
ARC
  5
6E
100
AcDbEntity
  8
FREI
  6
CONTINUOUS
 62
          15
100
AcDbCircle
 10
-15332.405691032664
 20
-1934.107924124987
 30
0.0
 40
1.357844916823
100
AcDbArc
 50
83.418055344222
 51
203.410895497621
  0
LINE
  5
6F
100
AcDbEntity
  8
FREI
  6
CONTINUOUS
 62
          15
100
AcDbLine
 10
-15328.970105980847
 20
-1913.528111037071
 30
0.0
 11
-15323.466736791737
 21
-1926.247281019362
 31
0.0
  0
LINE
  5
70
100
AcDbEntity
  8
FREI
  6
CONTINUOUS
 62
          15
100
AcDbLine
 10
-15315.675019824021
 20
-1930.572779096191
 30
0.0
 11
-15321.178389013132
 21
-1917.8536091139
 31
0.0
  0
ARC
  5
71
100
AcDbEntity
  8
FREI
  6
CONTINUOUS
 62
          15
100
AcDbCircle
 10
-15318.170146016357
 20
-1931.651090231491
 30
0.0
 40
2.716455679623
100
AcDbArc
 50
263.388406711703
 51
23.372406255528
  0
ARC
  5
72
100
AcDbEntity
  8
FREI
  6
CONTINUOUS
 62
          15
100
AcDbCircle
 10
-15324.715065733881
 20
-1926.792563354826
 30
0.0
 40
1.357844916823
100
AcDbArc
 50
263.388406711703
 51
23.596177758969
  0
ARC
  5
73
100
AcDbEntity
  8
FREI
  6
CONTINUOUS
 62
          15
100
AcDbCircle
 10
-15337.187633311651
 20
-1943.586033933563
 30
0.0
 40
1.357844916823
100
AcDbArc
 50
263.388406711703
 51
23.596177758969
  0
ARC
  5
74
100
AcDbEntity
  8
FREI
  6
CONTINUOUS
 62
          15
100
AcDbCircle
 10
-15330.642713594125
 20
-1948.444560810228
 30
0.0
 40
2.716455679623
100
AcDbArc
 50
263.388406711703
 51
23.372406255528
  0
LINE
  5
75
100
AcDbEntity
  8
FREI
  6
CONTINUOUS
 62
          15
100
AcDbLine
 10
-15328.147587401791
 20
-1947.366249674927
 30
0.0
 11
-15333.6509565909
 21
-1934.647079692637
 31
0.0
  0
LINE
  5
76
100
AcDbEntity
  8
FREI
  6
CONTINUOUS
 62
          15
100
AcDbLine
 10
-15341.442673558615
 20
-1930.321581615808
 30
0.0
 11
-15335.939304369505
 21
-1943.040751598099
 31
0.0
  0
ARC
  5
77
100
AcDbEntity
  8
FREI
  6
CONTINUOUS
 62
          15
100
AcDbCircle
 10
-15346.229210913463
 20
-1964.876552087926
 30
0.0
 40
5.4344430512
100
AcDbArc
 50
323.388481348987
 51
23.385221057158
  0
ARC
  5
78
100
AcDbEntity
  8
FREI
  6
CONTINUOUS
 62
          15
100
AcDbCircle
 10
-15352.463197164418
 20
-1964.15359348585
 30
0.0
 40
5.4344430512
100
AcDbArc
 50
323.388481348987
 51
23.385221057158
  0
ARC
  5
79
100
AcDbEntity
  8
FREI
  6
CONTINUOUS
 62
          15
100
AcDbCircle
 10
-15344.878258610432
 20
-1950.901394703724
 30
0.0
 40
1.357844916823
100
AcDbArc
 50
83.418055344222
 51
203.436618161791
  0
ARC
  5
7A
100
AcDbEntity
  8
FREI
  6
CONTINUOUS
 62
          15
100
AcDbCircle
 10
-15351.421646636003
 20
-1946.036741059245
 30
0.0
 40
2.716455679623
100
AcDbArc
 50
83.388401704415
 51
203.503718090275
  0
LINE
  5
7B
100
AcDbEntity
  8
FREI
  6
CONTINUOUS
 62
          15
100
AcDbLine
 10
-15344.722026031168
 20
-1949.547379016785
 30
0.0
 11
-15330.955178752649
 21
-1951.140338648478
 31
0.0
  0
LINE
  5
7C
100
AcDbEntity
  8
FREI
  6
CONTINUOUS
 62
          15
100
AcDbLine
 10
-15337.343865890913
 20
-1944.933922852688
 30
0.0
 11
-15351.109181477477
 21
-1943.340963220994
 31
0.0
  0
LINE
  5
7D
100
AcDbEntity
  8
FREI
  6
CONTINUOUS
 62
          15
100
AcDbLine
 10
-15353.915241136385
 20
-1947.121178962359
 30
0.0
 11
-15347.476008163654
 21
-1961.99697121525
 31
0.0
  0
LINE
  5
7E
100
AcDbEntity
  8
FREI
  6
CONTINUOUS
 62
          15
100
AcDbLine
 10
-15341.2420219127
 20
-1962.719929817326
 30
0.0
 11
-15346.121992476716
 21
-1951.440550271374
 31
0.0
  0
LINE
  5
7F
100
AcDbEntity
  8
FREI
  6
CONTINUOUS
 62
          15
100
AcDbLine
 10
-15341.866952229748
 20
-1968.117612261641
 30
0.0
 11
-15351.734111794527
 21
-1981.400444882838
 31
0.0
  0
LINE
  5
80
100
AcDbEntity
  8
FREI
  6
CONTINUOUS
 62
          15
100
AcDbLine
 10
-15355.148253158992
 20
-1976.885017003769
 30
0.0
 11
-15348.100938480702
 21
-1967.394653659565
 31
0.0
  0
LINE
  5
81
100
AcDbEntity
  8
FREI
  6
CONTINUOUS
 62
          15
100
AcDbLine
 10
-15360.435653782652
 20
-1967.884795084701
 30
0.0
 11
-15359.832167152952
 21
-1962.683169210441
 31
0.0
  0
CIRCLE
  5
82
100
AcDbEntity
  8
FREI
  6
CONTINUOUS
 62
          15
100
AcDbCircle
 10
-15361.186182839892
 20
-1974.379168967759
 30
0.0
 40
6.536878334769
  0
LINE
  5
83
100
AcDbEntity
  8
FREI
  6
CONTINUOUS
 62
          15
100
AcDbLine
 10
-15301.508400945624
 20
-1876.148700602605
 30
0.0
 11
-15298.187692790327
 21
-1876.528560207085
 31
0.0
  0
LINE
  5
84
100
AcDbEntity
  8
FREI
  6
CONTINUOUS
 62
          15
100
AcDbLine
 10
-15290.729884668484
 20
-1896.985837938717
 30
0.0
 11
-15296.234785549548
 21
-1884.266667956427
 31
0.0
  0
ARC
  5
85
100
AcDbEntity
  8
FREI
  6
CONTINUOUS
 62
          15
100
AcDbCircle
 10
-15294.98951999131
 20
-1883.727512388776
 30
0.0
 40
1.357844916823
100
AcDbArc
 50
83.418055344222
 51
203.410895497621
  0
CIRCLE
  5
86
100
AcDbEntity
  8
FREI
  6
CONTINUOUS
 62
          15
100
AcDbCircle
 10
-15361.186182839892
 20
-1909.012683158002
 30
0.0
 40
7.247966324205
  0
TEXT
  5
87
100
AcDbEntity
  8
FREI
  6
CONTINUOUS
 62
          15
100
AcDbText
 10
-15509.806293336349
 20
-1971.319004903024
 30
0.0
 40
3.527777671814
  1
180-220
 41
0.899999979725
  7
GOTHICG
100
AcDbText
  0
ENDSEC
  0
SECTION
  2
OBJECTS
  0
DICTIONARY
  5
19
100
AcDbDictionary
  3
ACAD_GROUP
350
1A
  3
ACAD_MLINESTYLE
350
1B
  0
DICTIONARY
  5
1A
102
{ACAD_REACTORS
330
19
102
}
100
AcDbDictionary
  0
DICTIONARY
  5
1B
102
{ACAD_REACTORS
330
19
102
}
100
AcDbDictionary
  3
STANDARD
350
1C
  0
MLINESTYLE
  5
1C
102
{ACAD_REACTORS
330
1B
102
}
100
AcDbMlineStyle
  2
STANDARD
 70
           0
  3

 62
           0
 51
90.0
 52
90.0
 71
           2
 49
0.5
 62
         256
  6
BYLAYER
 49
-0.5
 62
         256
  6
BYLAYER
  0
ENDSEC
  0
EOF
