  0
SECTION
  2
HEADER
  9
$ACADVER
  1
AC1012
  9
$DWGCODEPAGE
  3
dos850
  9
$INSBASE
 10
0.0
 20
0.0
 30
0.0
  9
$EXTMIN
 10
-14712.870727568399
 20
-208.505329941972
 30
0.0
  9
$EXTMAX
 10
-14126.247589677285
 20
-49.332281487839
 30
0.0
  9
$LIMMIN
 10
-14712.870727568399
 20
-208.505329941972
  9
$LIMMAX
 10
-14126.247589677285
 20
-49.332281487839
  9
$ORTHOMODE
 70
           0
  9
$REGENMODE
 70
           1
  9
$FILLMODE
 70
           1
  9
$QTEXTMODE
 70
           0
  9
$MIRRTEXT
 70
           1
  9
$DRAGMODE
 70
           2
  9
$LTSCALE
 40
5.0
  9
$OSMODE
 70
           0
  9
$ATTMODE
 70
           1
  9
$TEXTSIZE
 40
0.2
  9
$TRACEWID
 40
0.05
  9
$TEXTSTYLE
  7
TXT
  9
$CLAYER
  8
0
  9
$CELTYPE
  6
CONTINUOUS
  9
$CECOLOR
 62
         256
  9
$CELTSCALE
 40
1.0
  9
$DELOBJ
 70
           1
  9
$DISPSILH
 70
           0
  9
$DIMSCALE
 40
1.0
  9
$DIMASZ
 40
3.5
  9
$DIMEXO
 40
0.0625
  9
$DIMDLI
 40
0.38
  9
$DIMRND
 40
0.0
  9
$DIMDLE
 40
0.0
  9
$DIMEXE
 40
0.18
  9
$DIMTP
 40
0.0
  9
$DIMTM
 40
0.0
  9
$DIMTXT
 40
3.5
  9
$DIMCEN
 40
0.09
  9
$DIMTSZ
 40
0.0
  9
$DIMTOL
 70
           0
  9
$DIMLIM
 70
           0
  9
$DIMTIH
 70
           1
  9
$DIMTOH
 70
           1
  9
$DIMSE1
 70
           0
  9
$DIMSE2
 70
           0
  9
$DIMTAD
 70
           0
  9
$DIMZIN
 70
           0
  9
$DIMBLK
  1

  9
$DIMASO
 70
           1
  9
$DIMSHO
 70
           1
  9
$DIMPOST
  1

  9
$DIMAPOST
  1

  9
$DIMALT
 70
           0
  9
$DIMALTD
 70
           2
  9
$DIMALTF
 40
25.4
  9
$DIMLFAC
 40
1.0
  9
$DIMTOFL
 70
           0
  9
$DIMTVP
 40
0.0
  9
$DIMTIX
 70
           0
  9
$DIMSOXD
 70
           0
  9
$DIMSAH
 70
           0
  9
$DIMBLK1
  1

  9
$DIMBLK2
  1

  9
$DIMSTYLE
  2
STANDARD
  9
$DIMCLRD
 70
           0
  9
$DIMCLRE
 70
           0
  9
$DIMCLRT
 70
           0
  9
$DIMTFAC
 40
1.0
  9
$DIMGAP
 40
0.09
  9
$DIMJUST
 70
           0
  9
$DIMSD1
 70
           0
  9
$DIMSD2
 70
           0
  9
$DIMTOLJ
 70
           1
  9
$DIMTZIN
 70
           0
  9
$DIMALTZ
 70
           0
  9
$DIMALTTZ
 70
           0
  9
$DIMFIT
 70
           3
  9
$DIMUPT
 70
           0
  9
$DIMUNIT
 70
           2
  9
$DIMDEC
 70
           4
  9
$DIMTDEC
 70
           4
  9
$DIMALTU
 70
           2
  9
$DIMALTTD
 70
           2
  9
$DIMTXSTY
  7
TXT
  9
$DIMAUNIT
 70
           0
  9
$LUNITS
 70
           2
  9
$LUPREC
 70
           3
  9
$SKETCHINC
 40
0.1
  9
$FILLETRAD
 40
0.0
  9
$AUNITS
 70
           0
  9
$AUPREC
 70
           3
  9
$MENU
  1
acad
  9
$ELEVATION
 40
0.0
  9
$PELEVATION
 40
0.0
  9
$THICKNESS
 40
0.0
  9
$LIMCHECK
 70
           0
  9
$BLIPMODE
 70
           1
  9
$CHAMFERA
 40
0.0
  9
$CHAMFERB
 40
0.0
  9
$CHAMFERC
 40
0.0
  9
$CHAMFERD
 40
0.0
  9
$SKPOLY
 70
           0
  9
$TDCREATE
 40
0.000000000
  9
$TDUPDATE
 40
0.000000000
  9
$TDINDWG
 40
0.0000000000
  9
$TDUSRTIMER
 40
0.0000000000
  9
$USRTIMER
 70
           1
  9
$ANGBASE
 50
0.0
  9
$ANGDIR
 70
           0
  9
$PDMODE
 70
           2
  9
$PDSIZE
 40
0.5
  9
$PLINEWID
 40
0.0
  9
$COORDS
 70
           0
  9
$SPLFRAME
 70
           0
  9
$SPLINETYPE
 70
           6
  9
$SPLINESEGS
 70
           8
  9
$ATTDIA
 70
           0
  9
$ATTREQ
 70
           1
  9
$HANDLING
 70
           1
  9
$HANDSEED
  5
3AB
  9
$SURFTAB1
 70
           6
  9
$SURFTAB2
 70
           6
  9
$SURFTYPE
 70
           6
  9
$SURFU
 70
           6
  9
$SURFV
 70
           6
  9
$UCSNAME
  2

  9
$UCSORG
 10
0.0
 20
0.0
 30
0.0
  9
$UCSXDIR
 10
1.0
 20
0.0
 30
0.0
  9
$UCSYDIR
 10
0.0
 20
1.0
 30
0.0
  9
$PUCSNAME
  2

  9
$PUCSORG
 10
0.0
 20
0.0
 30
0.0
  9
$PUCSXDIR
 10
1.0
 20
0.0
 30
0.0
  9
$PUCSYDIR
 10
0.0
 20
1.0
 30
0.0
  9
$USERI1
 70
           0
  9
$USERI2
 70
           0
  9
$USERI3
 70
           0
  9
$USERI4
 70
           0
  9
$USERI5
 70
           0
  9
$USERR1
 40
0.0
  9
$USERR2
 40
0.0
  9
$USERR3
 40
0.0
  9
$USERR4
 40
0.0
  9
$USERR5
 40
0.0
  9
$WORLDVIEW
 70
           1
  9
$SHADEDGE
 70
           3
  9
$SHADEDIF
 70
          70
  9
$TILEMODE
 70
           1
  9
$MAXACTVP
 70
          16
  9
$PINSBASE
 10
0.0
 20
0.0
 30
0.0
  9
$PLIMCHECK
 70
           0
  9
$PEXTMIN
 10
1.000000000000E+20
 20
1.000000000000E+20
 30
1.000000000000E+20
  9
$PEXTMAX
 10
-1.000000000000E+20
 20
-1.000000000000E+20
 30
-1.000000000000E+20
  9
$PLIMMIN
 10
0.0
 20
0.0
  9
$PLIMMAX
 10
12.0
 20
9.0
  9
$UNITMODE
 70
           0
  9
$VISRETAIN
 70
           0
  9
$PLINEGEN
 70
           1
  9
$PSLTSCALE
 70
           0
  9
$TREEDEPTH
 70
        3020
  9
$PICKSTYLE
 70
           1
  9
$CMLSTYLE
  2
STANDARD
  9
$CMLJUST
 70
           0
  9
$CMLSCALE
 40
1.0
  9
$SAVEIMAGES
 70
           0
  0
ENDSEC
  0
SECTION
  2
CLASSES
  0
CLASS
  1
LWPOLYLINE
  2
AcDbPolyline
  3
"AutoCAD"
 90
        0
280
           0
281
           1
  0
CLASS
  1
IMAGE
  2
AcDbRasterImage
  3
ISM
 90
      127
280
           0
281
           1
  0
CLASS
  1
OLE2FRAME
  2
AcDbOle2Frame
  3
""
 90
        0
280
           0
281
           1
  0
CLASS
  1
HATCH
  2
AcDbHatch
  3
"ACAD_SEDONA"
 90
        0
280
           0
281
           1
  0
CLASS
  1
DICTIONARYVAR
  2
AcDbDictionaryVar
  3
"AutoCAD"
 90
        0
280
           0
281
           0
  0
CLASS
  1
RASTERVARIABLES
  2
AcDbRasterVariables
  3
ISM
 90
        0
280
           0
281
           0
  0
CLASS
  1
IMAGEDEF
  2
AcDbRasterImageDef
  3
ISM
 90
        0
280
           0
281
           0
  0
CLASS
  1
IMAGEDEF_REACTOR
  2
AcDbRasterImageDefReactor
  3
ISM
 90
        1
280
           0
281
           0
  0
CLASS
  1
IDBUFFER
  2
AcDbIdBuffer
  3
"Acad"
 90
        0
280
           0
281
           0
  0
CLASS
  1
SPATIAL_FILTER
  2
AcDbSpatialFilter
  3
"Acad"
 90
        0
280
           0
281
           0
  0
CLASS
  1
XRECORD
  2
AcDbXrecord
  3
"<Built In>"
 90
        0
280
           0
281
           0
  0
ENDSEC
  0
SECTION
  2
TABLES
  0
TABLE
  2
VPORT
  5
7
100
AcDbSymbolTable
 70
           1
  0
VPORT
  5
15
100
AcDbSymbolTableRecord
100
AcDbViewportTableRecord
  2
*ACTIVE
 70
           0
 10
0.0
 20
0.0
 11
1.0
 21
1.0
 12
6.591288
 22
4.579184
 13
0.0
 23
0.0
 14
1.0
 24
1.0
 15
0.0
 25
0.0
 16
0.0
 26
0.0
 36
1.0
 17
0.0
 27
0.0
 37
0.0
 40
9.158369
 41
0.688564
 42
50.0
 43
0.0
 44
0.0
 50
0.0
 51
0.0
 71
           0
 72
         100
 73
           1
 74
           1
 75
           0
 76
           0
 77
           0
 78
           0
  0
ENDTAB
  0
TABLE
  2
LTYPE
  5
4
100
AcDbSymbolTable
 70
           5
  0
LTYPE
  5
11
100
AcDbSymbolTableRecord
100
AcDbLinetypeTableRecord
  2
BYBLOCK
 70
           0
  3

 72
          65
 73
           0
 40
0.0
  0
LTYPE
  5
12
100
AcDbSymbolTableRecord
100
AcDbLinetypeTableRecord
  2
BYLAYER
 70
           0
  3

 72
          65
 73
           0
 40
0.0
  0
LTYPE
  5
13
100
AcDbSymbolTableRecord
100
AcDbLinetypeTableRecord
  2
CONTINUOUS
 70
           0
  3
Solid line
 72
          65
 73
           0
 40
0.0
  0
LTYPE
  5
1D
100
AcDbSymbolTableRecord
100
AcDbLinetypeTableRecord
  2
GESTRICHELT
 70
           0
  3

 72
          65
 73
           2
 40
0.75
 49
0.5
 74
           0
 49
-0.25
 74
           0
  0
LTYPE
  5
1E
100
AcDbSymbolTableRecord
100
AcDbLinetypeTableRecord
  2
STRICHPUNKT
 70
           0
  3

 72
          65
 73
           4
 40
1.0
 49
0.5
 74
           0
 49
-0.25
 74
           0
 49
0.0
 74
           0
 49
-0.25
 74
           0
  0
ENDTAB
  0
TABLE
  2
LAYER
  5
2
100
AcDbSymbolTable
 70
           3
  0
LAYER
  5
14
100
AcDbSymbolTableRecord
100
AcDbLayerTableRecord
  2
0
 70
           0
 62
           7
  6
CONTINUOUS
  0
LAYER
  5
20
100
AcDbSymbolTableRecord
100
AcDbLayerTableRecord
  2
FREI
 70
           0
 62
           7
  6
CONTINUOUS
  0
LAYER
  5
21
100
AcDbSymbolTableRecord
100
AcDbLayerTableRecord
  2
Frei
 70
           0
 62
           7
  6
CONTINUOUS
  0
ENDTAB
  0
TABLE
  2
STYLE
  5
3
100
AcDbSymbolTable
 70
           2
  0
STYLE
  5
17
100
AcDbSymbolTableRecord
100
AcDbTextStyleTableRecord
  2
TXT
 70
           0
 40
3.5
 41
1.0
 50
0.0
 71
           0
 42
3.5
  3
TXT
  4

  0
STYLE
  5
1F
100
AcDbSymbolTableRecord
100
AcDbTextStyleTableRecord
  2
GOTHICG
 70
           0
 40
3.5
 41
1.0
 50
0.0
 71
           0
 42
3.5
  3
GOTHICG
  4

  0
ENDTAB
  0
TABLE
  2
VIEW
  5
5
100
AcDbSymbolTable
 70
           0
  0
ENDTAB
  0
TABLE
  2
UCS
  5
6
100
AcDbSymbolTable
 70
           0
  0
ENDTAB
  0
TABLE
  2
APPID
  5
8
100
AcDbSymbolTable
 70
           2
  0
APPID
  5
16
100
AcDbSymbolTableRecord
100
AcDbRegAppTableRecord
  2
ACAD
 70
           0
  0
APPID
  5
22
100
AcDbSymbolTableRecord
100
AcDbRegAppTableRecord
  2
MegaCADPntStyle
 70
           0
  0
ENDTAB
  0
TABLE
  2
DIMSTYLE
  5
9
100
AcDbSymbolTable
 70
           1
  0
DIMSTYLE
105
18
100
AcDbSymbolTableRecord
100
AcDbDimStyleTableRecord
  2
STANDARD
 70
           0
  3

  4

  5

  6

  7

 40
1.0
 41
0.18
 42
0.0625
 43
0.38
 44
0.18
 45
0.0
 46
0.0
 47
0.0
 48
0.0
140
0.18
141
0.09
142
0.0
143
25.4
144
1.0
145
0.0
146
1.0
147
0.09
 71
           0
 72
           0
 73
           1
 74
           1
 75
           0
 76
           0
 77
           0
 78
           0
170
           0
171
           2
172
           0
173
           0
174
           0
175
           0
176
           0
177
           0
178
           0
270
           2
271
           4
272
           4
273
           2
274
           2
340
17
275
           0
280
           0
281
           0
282
           0
283
           1
284
           0
285
           0
286
           0
287
           0
288
           0
  0
ENDTAB
  0
TABLE
  2
BLOCK_RECORD
  5
1
100
AcDbSymbolTable
 70
           3
  0
BLOCK_RECORD
  5
A
100
AcDbSymbolTableRecord
100
AcDbBlockTableRecord
  2
*MODEL_SPACE
  0
BLOCK_RECORD
  5
B
100
AcDbSymbolTableRecord
100
AcDbBlockTableRecord
  2
*PAPER_SPACE
  0
BLOCK_RECORD
  5
23
100
AcDbSymbolTableRecord
100
AcDbBlockTableRecord
  2
ELIPPSE
  0
BLOCK_RECORD
  5
24
100
AcDbSymbolTableRecord
100
AcDbBlockTableRecord
  2
MAK1
  0
BLOCK_RECORD
  5
25
100
AcDbSymbolTableRecord
100
AcDbBlockTableRecord
  2
MAK2
  0
ENDTAB
  0
ENDSEC
  0
SECTION
  2
BLOCKS
  0
BLOCK
  5
D
100
AcDbEntity
  8
0
100
AcDbBlockBegin
  2
*MODEL_SPACE
 70
           0
 10
0.0
 20
0.0
 30
0.0
  3
*MODEL_SPACE
  1

  0
ENDBLK
  5
E
100
AcDbEntity
  8
0
100
AcDbBlockEnd
  0
BLOCK
  5
F
100
AcDbEntity
 67
           1
  8
0
100
AcDbBlockBegin
  2
*PAPER_SPACE
 70
           0
 10
0.0
 20
0.0
 30
0.0
  3
*PAPER_SPACE
  1

  0
ENDBLK
  5
10
100
AcDbEntity
 67
           1
  8
0
100
AcDbBlockEnd
  0
BLOCK
  5
34F
100
AcDbEntity
  8
0
100
AcDbBlockBegin
  2
ELIPPSE
 70
          64
 10
0.0
 20
0.0
 30
0.0
  3
ELIPPSE
  1

  0
CIRCLE
  5
350
100
AcDbEntity
  8
0
  6
BYBLOCK
 62
           0
100
AcDbCircle
 10
0.0
 20
0.0
 30
0.0
 40
1.0
  0
ENDBLK
  5
351
100
AcDbEntity
  8
0
  6
BYBLOCK
 62
           0
100
AcDbBlockEnd
  0
BLOCK
  5
352
100
AcDbEntity
  8
0
100
AcDbBlockBegin
  2
MAK1
 70
          64
 10
0.0
 20
0.0
 30
0.0
  3
MAK1
  1

  0
LINE
  5
353
100
AcDbEntity
  8
Frei
  6
CONTINUOUS
 62
           2
100
AcDbLine
 10
191.903508353411
 20
615.10691689356
 30
0.0
 11
192.293358480831
 21
615.496767020978
 31
0.0
  0
LINE
  5
354
100
AcDbEntity
  8
Frei
  6
CONTINUOUS
 62
           2
100
AcDbLine
 10
191.903508353413
 20
614.04625672178
 30
0.0
 11
193.35401865261
 21
615.496767020978
 31
0.0
  0
LINE
  5
355
100
AcDbEntity
  8
Frei
  6
CONTINUOUS
 62
           2
100
AcDbLine
 10
191.903508353411
 20
612.98559655
 30
0.0
 11
193.903508353413
 21
614.98559655
 31
0.0
  0
LINE
  5
356
100
AcDbEntity
  8
Frei
  6
CONTINUOUS
 62
           2
100
AcDbLine
 10
191.903508353413
 20
611.924936378221
 30
0.0
 11
193.903508353413
 21
613.92493637822
 31
0.0
  0
LINE
  5
357
100
AcDbEntity
  8
Frei
  6
CONTINUOUS
 62
           2
100
AcDbLine
 10
191.903508353413
 20
610.864276206441
 30
0.0
 11
193.903508353415
 21
612.864276206441
 31
0.0
  0
LINE
  5
358
100
AcDbEntity
  8
Frei
  6
CONTINUOUS
 62
           2
100
AcDbLine
 10
191.903508353413
 20
609.803616034661
 30
0.0
 11
193.903508353413
 21
611.803616034661
 31
0.0
  0
LINE
  5
359
100
AcDbEntity
  8
Frei
  6
CONTINUOUS
 62
           2
100
AcDbLine
 10
191.903508353413
 20
608.742955862881
 30
0.0
 11
193.903508353415
 21
610.742955862881
 31
0.0
  0
LINE
  5
35A
100
AcDbEntity
  8
Frei
  6
CONTINUOUS
 62
           2
100
AcDbLine
 10
191.903508353411
 20
607.682295691101
 30
0.0
 11
193.903508353413
 21
609.682295691101
 31
0.0
  0
LINE
  5
35B
100
AcDbEntity
  8
Frei
  6
CONTINUOUS
 62
           2
100
AcDbLine
 10
191.903508353413
 20
606.621635519322
 30
0.0
 11
193.903508353411
 21
608.621635519321
 31
0.0
  0
LINE
  5
35C
100
AcDbEntity
  8
Frei
  6
CONTINUOUS
 62
           2
100
AcDbLine
 10
191.903508353411
 20
605.560975347542
 30
0.0
 11
193.903508353413
 21
607.560975347541
 31
0.0
  0
LINE
  5
35D
100
AcDbEntity
  8
Frei
  6
CONTINUOUS
 62
           2
100
AcDbLine
 10
191.903508353411
 20
604.500315175762
 30
0.0
 11
193.903508353413
 21
606.500315175762
 31
0.0
  0
LINE
  5
35E
100
AcDbEntity
  8
Frei
  6
CONTINUOUS
 62
           2
100
AcDbLine
 10
191.903508353411
 20
603.439655003982
 30
0.0
 11
193.903508353413
 21
605.439655003982
 31
0.0
  0
LINE
  5
35F
100
AcDbEntity
  8
Frei
  6
CONTINUOUS
 62
           2
100
AcDbLine
 10
191.903508353413
 20
602.378994832203
 30
0.0
 11
193.903508353413
 21
604.378994832202
 31
0.0
  0
LINE
  5
360
100
AcDbEntity
  8
Frei
  6
CONTINUOUS
 62
           2
100
AcDbLine
 10
191.903508353411
 20
601.318334660423
 30
0.0
 11
193.903508353415
 21
603.318334660422
 31
0.0
  0
LINE
  5
361
100
AcDbEntity
  8
Frei
  6
CONTINUOUS
 62
           2
100
AcDbLine
 10
191.903508353413
 20
600.257674488643
 30
0.0
 11
193.903508353413
 21
602.257674488643
 31
0.0
  0
LINE
  5
362
100
AcDbEntity
  8
Frei
  6
CONTINUOUS
 62
           2
100
AcDbLine
 10
191.903508353413
 20
599.197014316863
 30
0.0
 11
193.903508353415
 21
601.197014316863
 31
0.0
  0
LINE
  5
363
100
AcDbEntity
  8
Frei
  6
CONTINUOUS
 62
           2
100
AcDbLine
 10
191.903508353413
 20
598.136354145083
 30
0.0
 11
193.903508353413
 21
600.136354145083
 31
0.0
  0
LINE
  5
364
100
AcDbEntity
  8
Frei
  6
CONTINUOUS
 62
           2
100
AcDbLine
 10
191.903508353413
 20
597.075693973303
 30
0.0
 11
193.903508353413
 21
599.075693973303
 31
0.0
  0
LINE
  5
365
100
AcDbEntity
  8
Frei
  6
CONTINUOUS
 62
           2
100
AcDbLine
 10
191.903508353413
 20
596.015033801524
 30
0.0
 11
193.903508353413
 21
598.015033801523
 31
0.0
  0
LINE
  5
366
100
AcDbEntity
  8
Frei
  6
CONTINUOUS
 62
           2
100
AcDbLine
 10
192.445901744644
 20
595.496767020978
 30
0.0
 11
193.903508353413
 21
596.954373629744
 31
0.0
  0
LINE
  5
367
100
AcDbEntity
  8
Frei
  6
CONTINUOUS
 62
           2
100
AcDbLine
 10
193.506561916429
 20
595.496767020978
 30
0.0
 11
193.903508353413
 21
595.893713457964
 31
0.0
  0
LINE
  5
368
100
AcDbEntity
  8
Frei
  6
CONTINUOUS
 62
           2
100
AcDbLine
 10
192.573740611429
 20
595.496767020978
 30
0.0
 11
191.903508353413
 21
596.166999278996
 31
0.0
  0
LINE
  5
369
100
AcDbEntity
  8
Frei
  6
CONTINUOUS
 62
           2
100
AcDbLine
 10
193.634400783209
 20
595.496767020978
 30
0.0
 11
191.903508353413
 21
597.227659450776
 31
0.0
  0
LINE
  5
36A
100
AcDbEntity
  8
Frei
  6
CONTINUOUS
 62
           2
100
AcDbLine
 10
193.903508353415
 20
596.288319622556
 30
0.0
 11
191.903508353411
 21
598.288319622556
 31
0.0
  0
LINE
  5
36B
100
AcDbEntity
  8
Frei
  6
CONTINUOUS
 62
           2
100
AcDbLine
 10
193.903508353413
 20
597.348979794336
 30
0.0
 11
191.903508353413
 21
599.348979794336
 31
0.0
  0
LINE
  5
36C
100
AcDbEntity
  8
Frei
  6
CONTINUOUS
 62
           2
100
AcDbLine
 10
193.903508353413
 20
598.409639966115
 30
0.0
 11
191.903508353411
 21
600.409639966115
 31
0.0
  0
LINE
  5
36D
100
AcDbEntity
  8
Frei
  6
CONTINUOUS
 62
           2
100
AcDbLine
 10
193.903508353413
 20
599.470300137895
 30
0.0
 11
191.903508353411
 21
601.470300137895
 31
0.0
  0
LINE
  5
36E
100
AcDbEntity
  8
Frei
  6
CONTINUOUS
 62
           2
100
AcDbLine
 10
193.903508353413
 20
600.530960309675
 30
0.0
 11
191.903508353411
 21
602.530960309675
 31
0.0
  0
LINE
  5
36F
100
AcDbEntity
  8
Frei
  6
CONTINUOUS
 62
           2
100
AcDbLine
 10
193.903508353411
 20
601.591620481455
 30
0.0
 11
191.903508353413
 21
603.591620481455
 31
0.0
  0
LINE
  5
370
100
AcDbEntity
  8
Frei
  6
CONTINUOUS
 62
           2
100
AcDbLine
 10
193.903508353415
 20
602.652280653235
 30
0.0
 11
191.903508353411
 21
604.652280653234
 31
0.0
  0
LINE
  5
371
100
AcDbEntity
  8
Frei
  6
CONTINUOUS
 62
           2
100
AcDbLine
 10
193.903508353413
 20
603.712940825014
 30
0.0
 11
191.903508353413
 21
605.712940825014
 31
0.0
  0
LINE
  5
372
100
AcDbEntity
  8
Frei
  6
CONTINUOUS
 62
           2
100
AcDbLine
 10
193.903508353413
 20
604.773600996794
 30
0.0
 11
191.903508353413
 21
606.773600996794
 31
0.0
  0
LINE
  5
373
100
AcDbEntity
  8
Frei
  6
CONTINUOUS
 62
           2
100
AcDbLine
 10
193.903508353415
 20
605.834261168574
 30
0.0
 11
191.903508353411
 21
607.834261168574
 31
0.0
  0
LINE
  5
374
100
AcDbEntity
  8
Frei
  6
CONTINUOUS
 62
           2
100
AcDbLine
 10
193.903508353413
 20
606.894921340354
 30
0.0
 11
191.903508353413
 21
608.894921340354
 31
0.0
  0
LINE
  5
375
100
AcDbEntity
  8
Frei
  6
CONTINUOUS
 62
           2
100
AcDbLine
 10
193.903508353413
 20
607.955581512134
 30
0.0
 11
191.903508353411
 21
609.955581512133
 31
0.0
  0
LINE
  5
376
100
AcDbEntity
  8
Frei
  6
CONTINUOUS
 62
           2
100
AcDbLine
 10
193.903508353413
 20
609.016241683913
 30
0.0
 11
191.903508353413
 21
611.016241683913
 31
0.0
  0
LINE
  5
377
100
AcDbEntity
  8
Frei
  6
CONTINUOUS
 62
           2
100
AcDbLine
 10
193.903508353413
 20
610.076901855693
 30
0.0
 11
191.903508353411
 21
612.076901855693
 31
0.0
  0
LINE
  5
378
100
AcDbEntity
  8
Frei
  6
CONTINUOUS
 62
           2
100
AcDbLine
 10
193.903508353413
 20
611.137562027473
 30
0.0
 11
191.903508353413
 21
613.137562027473
 31
0.0
  0
LINE
  5
379
100
AcDbEntity
  8
Frei
  6
CONTINUOUS
 62
           2
100
AcDbLine
 10
193.903508353415
 20
612.198222199253
 30
0.0
 11
191.903508353413
 21
614.198222199253
 31
0.0
  0
LINE
  5
37A
100
AcDbEntity
  8
Frei
  6
CONTINUOUS
 62
           2
100
AcDbLine
 10
193.903508353413
 20
613.258882371032
 30
0.0
 11
191.903508353413
 21
615.258882371032
 31
0.0
  0
LINE
  5
37B
100
AcDbEntity
  8
Frei
  6
CONTINUOUS
 62
           2
100
AcDbLine
 10
193.903508353415
 20
614.319542542812
 30
0.0
 11
192.726283875245
 21
615.496767020978
 31
0.0
  0
LINE
  5
37C
100
AcDbEntity
  8
Frei
  6
CONTINUOUS
 62
           2
100
AcDbLine
 10
193.903508353413
 20
615.380202714592
 30
0.0
 11
193.786944047028
 21
615.496767020978
 31
0.0
  0
ENDBLK
  5
37D
100
AcDbEntity
  8
0
  6
BYBLOCK
 62
           0
100
AcDbBlockEnd
  0
BLOCK
  5
37E
100
AcDbEntity
  8
0
100
AcDbBlockBegin
  2
MAK2
 70
          64
 10
0.0
 20
0.0
 30
0.0
  3
MAK2
  1

  0
LINE
  5
37F
100
AcDbEntity
  8
Frei
  6
CONTINUOUS
 62
           2
100
AcDbLine
 10
-32.096491646589
 20
614.906213139102
 30
0.0
 11
-31.505937764712
 21
615.496767020978
 31
0.0
  0
LINE
  5
380
100
AcDbEntity
  8
Frei
  6
CONTINUOUS
 62
           2
100
AcDbLine
 10
-32.096491646589
 20
613.845552967322
 30
0.0
 11
-30.445277592933
 21
615.496767020978
 31
0.0
  0
LINE
  5
381
100
AcDbEntity
  8
Frei
  6
CONTINUOUS
 62
           2
100
AcDbLine
 10
-32.096491646589
 20
612.784892795542
 30
0.0
 11
-30.096491646587
 21
614.784892795542
 31
0.0
  0
LINE
  5
382
100
AcDbEntity
  8
Frei
  6
CONTINUOUS
 62
           2
100
AcDbLine
 10
-32.096491646589
 20
611.724232623762
 30
0.0
 11
-30.096491646589
 21
613.724232623762
 31
0.0
  0
LINE
  5
383
100
AcDbEntity
  8
Frei
  6
CONTINUOUS
 62
           2
100
AcDbLine
 10
-32.096491646587
 20
610.663572451983
 30
0.0
 11
-30.096491646589
 21
612.663572451982
 31
0.0
  0
LINE
  5
384
100
AcDbEntity
  8
Frei
  6
CONTINUOUS
 62
           2
100
AcDbLine
 10
-32.096491646589
 20
609.602912280203
 30
0.0
 11
-30.096491646589
 21
611.602912280203
 31
0.0
  0
LINE
  5
385
100
AcDbEntity
  8
Frei
  6
CONTINUOUS
 62
           2
100
AcDbLine
 10
-32.096491646587
 20
608.542252108423
 30
0.0
 11
-30.096491646591
 21
610.542252108423
 31
0.0
  0
LINE
  5
386
100
AcDbEntity
  8
Frei
  6
CONTINUOUS
 62
           2
100
AcDbLine
 10
-32.096491646589
 20
607.481591936643
 30
0.0
 11
-30.096491646589
 21
609.481591936643
 31
0.0
  0
LINE
  5
387
100
AcDbEntity
  8
Frei
  6
CONTINUOUS
 62
           2
100
AcDbLine
 10
-32.096491646589
 20
606.420931764864
 30
0.0
 11
-30.096491646589
 21
608.420931764863
 31
0.0
  0
LINE
  5
388
100
AcDbEntity
  8
Frei
  6
CONTINUOUS
 62
           2
100
AcDbLine
 10
-32.096491646589
 20
605.360271593084
 30
0.0
 11
-30.096491646589
 21
607.360271593084
 31
0.0
  0
LINE
  5
389
100
AcDbEntity
  8
Frei
  6
CONTINUOUS
 62
           2
100
AcDbLine
 10
-32.096491646587
 20
604.299611421304
 30
0.0
 11
-30.096491646589
 21
606.299611421304
 31
0.0
  0
LINE
  5
38A
100
AcDbEntity
  8
Frei
  6
CONTINUOUS
 62
           2
100
AcDbLine
 10
-32.096491646589
 20
603.238951249524
 30
0.0
 11
-30.096491646589
 21
605.238951249524
 31
0.0
  0
LINE
  5
38B
100
AcDbEntity
  8
Frei
  6
CONTINUOUS
 62
           2
100
AcDbLine
 10
-32.096491646587
 20
602.178291077744
 30
0.0
 11
-30.096491646589
 21
604.178291077744
 31
0.0
  0
LINE
  5
38C
100
AcDbEntity
  8
Frei
  6
CONTINUOUS
 62
           2
100
AcDbLine
 10
-32.096491646587
 20
601.117630905965
 30
0.0
 11
-30.096491646587
 21
603.117630905964
 31
0.0
  0
LINE
  5
38D
100
AcDbEntity
  8
Frei
  6
CONTINUOUS
 62
           2
100
AcDbLine
 10
-32.096491646587
 20
600.056970734185
 30
0.0
 11
-30.096491646591
 21
602.056970734185
 31
0.0
  0
LINE
  5
38E
100
AcDbEntity
  8
Frei
  6
CONTINUOUS
 62
           2
100
AcDbLine
 10
-32.096491646587
 20
598.996310562405
 30
0.0
 11
-30.096491646589
 21
600.996310562405
 31
0.0
  0
LINE
  5
38F
100
AcDbEntity
  8
Frei
  6
CONTINUOUS
 62
           2
100
AcDbLine
 10
-32.096491646591
 20
597.935650390625
 30
0.0
 11
-30.096491646589
 21
599.935650390625
 31
0.0
  0
LINE
  5
390
100
AcDbEntity
  8
Frei
  6
CONTINUOUS
 62
           2
100
AcDbLine
 10
-32.096491646589
 20
596.874990218846
 30
0.0
 11
-30.096491646589
 21
598.874990218845
 31
0.0
  0
LINE
  5
391
100
AcDbEntity
  8
Frei
  6
CONTINUOUS
 62
           2
100
AcDbLine
 10
-32.096491646589
 20
595.814330047066
 30
0.0
 11
-30.096491646589
 21
597.814330047066
 31
0.0
  0
LINE
  5
392
100
AcDbEntity
  8
Frei
  6
CONTINUOUS
 62
           2
100
AcDbLine
 10
-31.353394500899
 20
595.496767020978
 30
0.0
 11
-30.096491646589
 21
596.753669875286
 31
0.0
  0
LINE
  5
393
100
AcDbEntity
  8
Frei
  6
CONTINUOUS
 62
           2
100
AcDbLine
 10
-30.292734329116
 20
595.496767020978
 30
0.0
 11
-30.096491646589
 21
595.693009703506
 31
0.0
  0
LINE
  5
394
100
AcDbEntity
  8
Frei
  6
CONTINUOUS
 62
           2
100
AcDbLine
 10
-31.225555634113
 20
595.496767020979
 30
0.0
 11
-32.096491646589
 21
596.367703033455
 31
0.0
  0
LINE
  5
395
100
AcDbEntity
  8
Frei
  6
CONTINUOUS
 62
           2
100
AcDbLine
 10
-30.164895462332
 20
595.496767020978
 30
0.0
 11
-32.096491646589
 21
597.428363205234
 31
0.0
  0
LINE
  5
396
100
AcDbEntity
  8
Frei
  6
CONTINUOUS
 62
           2
100
AcDbLine
 10
-30.096491646589
 20
596.489023377014
 30
0.0
 11
-32.096491646589
 21
598.489023377014
 31
0.0
  0
LINE
  5
397
100
AcDbEntity
  8
Frei
  6
CONTINUOUS
 62
           2
100
AcDbLine
 10
-30.096491646589
 20
597.549683548794
 30
0.0
 11
-32.096491646587
 21
599.549683548794
 31
0.0
  0
LINE
  5
398
100
AcDbEntity
  8
Frei
  6
CONTINUOUS
 62
           2
100
AcDbLine
 10
-30.096491646589
 20
598.610343720574
 30
0.0
 11
-32.096491646587
 21
600.610343720574
 31
0.0
  0
LINE
  5
399
100
AcDbEntity
  8
Frei
  6
CONTINUOUS
 62
           2
100
AcDbLine
 10
-30.096491646589
 20
599.671003892353
 30
0.0
 11
-32.096491646589
 21
601.671003892353
 31
0.0
  0
LINE
  5
39A
100
AcDbEntity
  8
Frei
  6
CONTINUOUS
 62
           2
100
AcDbLine
 10
-30.096491646589
 20
600.731664064133
 30
0.0
 11
-32.096491646587
 21
602.731664064133
 31
0.0
  0
LINE
  5
39B
100
AcDbEntity
  8
Frei
  6
CONTINUOUS
 62
           2
100
AcDbLine
 10
-30.096491646589
 20
601.792324235913
 30
0.0
 11
-32.096491646589
 21
603.792324235913
 31
0.0
  0
LINE
  5
39C
100
AcDbEntity
  8
Frei
  6
CONTINUOUS
 62
           2
100
AcDbLine
 10
-30.096491646589
 20
602.852984407693
 30
0.0
 11
-32.096491646589
 21
604.852984407693
 31
0.0
  0
LINE
  5
39D
100
AcDbEntity
  8
Frei
  6
CONTINUOUS
 62
           2
100
AcDbLine
 10
-30.096491646589
 20
603.913644579473
 30
0.0
 11
-32.096491646589
 21
605.913644579472
 31
0.0
  0
LINE
  5
39E
100
AcDbEntity
  8
Frei
  6
CONTINUOUS
 62
           2
100
AcDbLine
 10
-30.096491646591
 20
604.974304751252
 30
0.0
 11
-32.096491646587
 21
606.974304751252
 31
0.0
  0
LINE
  5
39F
100
AcDbEntity
  8
Frei
  6
CONTINUOUS
 62
           2
100
AcDbLine
 10
-30.096491646589
 20
606.034964923032
 30
0.0
 11
-32.096491646587
 21
608.034964923032
 31
0.0
  0
LINE
  5
3A0
100
AcDbEntity
  8
Frei
  6
CONTINUOUS
 62
           2
100
AcDbLine
 10
-30.096491646589
 20
607.095625094812
 30
0.0
 11
-32.096491646587
 21
609.095625094812
 31
0.0
  0
LINE
  5
3A1
100
AcDbEntity
  8
Frei
  6
CONTINUOUS
 62
           2
100
AcDbLine
 10
-30.096491646587
 20
608.156285266592
 30
0.0
 11
-32.096491646589
 21
610.156285266592
 31
0.0
  0
LINE
  5
3A2
100
AcDbEntity
  8
Frei
  6
CONTINUOUS
 62
           2
100
AcDbLine
 10
-30.096491646589
 20
609.216945438371
 30
0.0
 11
-32.096491646587
 21
611.216945438372
 31
0.0
  0
LINE
  5
3A3
100
AcDbEntity
  8
Frei
  6
CONTINUOUS
 62
           2
100
AcDbLine
 10
-30.096491646589
 20
610.277605610151
 30
0.0
 11
-32.096491646589
 21
612.277605610151
 31
0.0
  0
LINE
  5
3A4
100
AcDbEntity
  8
Frei
  6
CONTINUOUS
 62
           2
100
AcDbLine
 10
-30.096491646589
 20
611.338265781931
 30
0.0
 11
-32.096491646589
 21
613.338265781931
 31
0.0
  0
LINE
  5
3A5
100
AcDbEntity
  8
Frei
  6
CONTINUOUS
 62
           2
100
AcDbLine
 10
-30.096491646589
 20
612.398925953711
 30
0.0
 11
-32.096491646589
 21
614.398925953711
 31
0.0
  0
LINE
  5
3A6
100
AcDbEntity
  8
Frei
  6
CONTINUOUS
 62
           2
100
AcDbLine
 10
-30.096491646591
 20
613.45958612549
 30
0.0
 11
-32.096491646589
 21
615.45958612549
 31
0.0
  0
LINE
  5
3A7
100
AcDbEntity
  8
Frei
  6
CONTINUOUS
 62
           2
100
AcDbLine
 10
-30.096491646589
 20
614.52024629727
 30
0.0
 11
-31.073012370298
 21
615.496767020978
 31
0.0
  0
ENDBLK
  5
3A8
100
AcDbEntity
  8
0
  6
BYBLOCK
 62
           0
100
AcDbBlockEnd
  0
ENDSEC
  0
SECTION
  2
ENTITIES
  0
INSERT
  5
26
100
AcDbEntity
  8
FREI
  6
CONTINUOUS
 62
           7
100
AcDbBlockReference
  2
MAK1
 10
-14454.320387732301
 20
-693.042885004332
 30
0.0
 50
353.682999999999
  0
INSERT
  5
27
100
AcDbEntity
  8
FREI
  6
CONTINUOUS
 62
           7
100
AcDbBlockReference
  2
MAK2
 10
-14454.320387732301
 20
-693.042885004332
 30
0.0
 50
353.682999999999
  0
LINE
  5
28
100
AcDbEntity
  8
FREI
  6
STRICHPUNKT
 62
          15
100
AcDbLine
 10
-14609.136444677284
 20
-79.332281487839
 30
0.0
 11
-14549.136444677284
 21
-183.255329941972
 31
0.0
  0
LINE
  5
29
100
AcDbEntity
  8
FREI
  6
CONTINUOUS
 62
          15
100
AcDbLine
 10
-14515.952369664994
 20
-139.731833865437
 30
0.0
 11
-14505.402161786171
 21
-158.005329941972
 31
0.0
  0
LINE
  5
2A
100
AcDbEntity
  8
FREI
  6
GESTRICHELT
 62
          15
100
AcDbLine
 10
-14550.824067489133
 20
-79.332281487839
 30
0.0
 11
-14515.952369664994
 21
-139.731833865437
 31
0.0
  0
LINE
  5
2B
100
AcDbEntity
  8
FREI
  6
CONTINUOUS
 62
          15
100
AcDbLine
 10
-14609.136444677284
 20
-180.332281487839
 30
0.0
 11
-14592.870727568399
 21
-208.505329941972
 31
0.0
  0
LINE
  5
2C
100
AcDbEntity
  8
FREI
  6
GESTRICHELT
 62
          15
100
AcDbLine
 10
-14554.721388378313
 20
-64.366334009938
 30
0.0
 11
-14550.824067489133
 21
-79.332281487839
 31
0.0
  0
LINE
  5
2D
100
AcDbEntity
  8
FREI
  6
CONTINUOUS
 62
          15
100
AcDbLine
 10
-14558.636444677284
 20
-49.332281487839
 30
0.0
 11
-14554.721388378313
 21
-64.366334009938
 31
0.0
  0
LINE
  5
2E
100
AcDbEntity
  8
FREI
  6
STRICHPUNKT
 62
          15
100
AcDbLine
 10
-14609.136444677284
 20
-49.332281487839
 30
0.0
 11
-14609.136444677284
 21
-79.332281487839
 31
0.0
  0
LINE
  5
2F
100
AcDbEntity
  8
FREI
  6
STRICHPUNKT
 62
          15
100
AcDbLine
 10
-14609.136444677284
 20
-79.332281487839
 30
0.0
 11
-14669.136444677284
 21
-183.255329941972
 31
0.0
  0
LINE
  5
30
100
AcDbEntity
  8
FREI
  6
CONTINUOUS
 62
          15
100
AcDbLine
 10
-14667.448821865437
 20
-79.332281487839
 30
0.0
 11
-14712.870727568399
 21
-158.005329941972
 31
0.0
  0
LINE
  5
31
100
AcDbEntity
  8
FREI
  6
CONTINUOUS
 62
          15
100
AcDbLine
 10
-14609.136444677284
 20
-180.332281487839
 30
0.0
 11
-14625.402161786171
 21
-208.505329941972
 31
0.0
  0
LINE
  5
32
100
AcDbEntity
  8
FREI
  6
CONTINUOUS
 62
          15
100
AcDbLine
 10
-14644.136475677285
 20
-79.332281487839
 30
0.0
 11
-14667.448821865437
 21
-79.332281487839
 31
0.0
  0
LINE
  5
33
100
AcDbEntity
  8
FREI
  6
GESTRICHELT
 62
          15
100
AcDbLine
 10
-14550.824067489133
 20
-79.332281487839
 30
0.0
 11
-14644.136475677285
 21
-79.332281487839
 31
0.0
  0
LINE
  5
34
100
AcDbEntity
  8
FREI
  6
CONTINUOUS
 62
          15
100
AcDbLine
 10
-14659.636444677284
 20
-49.332281487839
 30
0.0
 11
-14667.448821865437
 21
-79.332281487839
 31
0.0
  0
LINE
  5
35
100
AcDbEntity
  8
FREI
  6
CONTINUOUS
 62
          15
100
AcDbLine
 10
-14659.636444677284
 20
-49.332281487839
 30
0.0
 11
-14558.636444677284
 21
-49.332281487839
 31
0.0
  0
LINE
  5
36
100
AcDbEntity
  8
FREI
  6
CONTINUOUS
 62
          15
100
AcDbLine
 10
-14505.402161786171
 20
-158.005329941972
 30
0.0
 11
-14592.870727568399
 21
-208.505329941972
 31
0.0
  0
LINE
  5
37
100
AcDbEntity
  8
FREI
  6
CONTINUOUS
 62
          15
100
AcDbLine
 10
-14625.402161786171
 20
-208.505329941972
 30
0.0
 11
-14712.870727568399
 21
-158.005329941972
 31
0.0
  0
LINE
  5
38
100
AcDbEntity
  8
FREI
  6
GESTRICHELT
 62
          15
100
AcDbLine
 10
-14609.136444677284
 20
-109.148153322933
 30
0.0
 11
-14609.136444677284
 21
-79.332281487839
 31
0.0
  0
LINE
  5
39
100
AcDbEntity
  8
FREI
  6
GESTRICHELT
 62
          15
100
AcDbLine
 10
-14609.136444677284
 20
-139.731833865437
 30
0.0
 11
-14609.136444677284
 21
-120.315514407942
 31
0.0
  0
LINE
  5
3A
100
AcDbEntity
  8
FREI
  6
CONTINUOUS
 62
          15
100
AcDbLine
 10
-14609.136444677284
 20
-180.332281487839
 30
0.0
 11
-14609.136444677284
 21
-139.731833865437
 31
0.0
  0
CIRCLE
  5
3B
100
AcDbEntity
  8
FREI
  6
CONTINUOUS
 62
          15
100
AcDbCircle
 10
-14609.136444677284
 20
-114.731833865437
 30
0.0
 40
5.583680542505
  0
ARC
  5
3C
100
AcDbEntity
  8
FREI
  6
CONTINUOUS
 62
          15
100
AcDbCircle
 10
-14609.136444677284
 20
-114.731833865437
 30
0.0
 40
17.25
100
AcDbArc
 50
119.192990506928
 51
300.807009493073
  0
LINE
  5
3D
100
AcDbEntity
  8
FREI
  6
CONTINUOUS
 62
          15
100
AcDbLine
 10
-14545.155754361647
 20
-58.990937507103
 30
0.0
 11
-14617.550181569333
 21
-99.672898593933
 31
0.0
  0
LINE
  5
3E
100
AcDbEntity
  8
FREI
  6
GESTRICHELT
 62
          15
100
AcDbLine
 10
-14544.424183002355
 20
-58.57983186377
 30
0.0
 11
-14545.155754361647
 21
-58.990937507103
 31
0.0
  0
LINE
  5
3F
100
AcDbEntity
  8
FREI
  6
CONTINUOUS
 62
          15
100
AcDbLine
 10
-14542.584243980566
 20
-57.545880348803
 30
0.0
 11
-14544.424183002355
 21
-58.57983186377
 31
0.0
  0
LINE
  5
40
100
AcDbEntity
  8
FREI
  6
CONTINUOUS
 62
          15
100
AcDbLine
 10
-14596.258725833088
 20
-127.136929798935
 30
0.0
 11
-14600.30189262424
 21
-129.547811390463
 31
0.0
  0
ARC
  5
41
100
AcDbEntity
  8
FREI
  6
CONTINUOUS
 62
          15
100
AcDbCircle
 10
-14534.658259951822
 20
-71.731833865437
 30
0.0
 40
16.25
100
AcDbArc
 50
41.271034922086
 51
119.192990506929
  0
ARC
  5
42
100
AcDbEntity
  8
FREI
  6
GESTRICHELT
 62
          15
100
AcDbCircle
 10
-14534.658259951822
 20
-71.731833865437
 30
0.0
 40
16.25
100
AcDbArc
 50
306.069978667634
 51
41.271034922086
  0
ARC
  5
43
100
AcDbEntity
  8
FREI
  6
CONTINUOUS
 62
          15
100
AcDbCircle
 10
-14534.658259951822
 20
-71.731833865437
 30
0.0
 40
16.25
100
AcDbArc
 50
221.296021332365
 51
306.069978667634
  0
ARC
  5
44
100
AcDbEntity
  8
FREI
  6
GESTRICHELT
 62
          15
100
AcDbCircle
 10
-14534.658259951822
 20
-71.731833865437
 30
0.0
 40
16.25
100
AcDbArc
 50
217.634979203191
 51
221.296021332365
  0
LINE
  5
45
100
AcDbEntity
  8
FREI
  6
CONTINUOUS
 62
          15
100
AcDbLine
 10
-14555.23087962351
 20
-81.39414781509
 30
0.0
 11
-14593.200927192605
 21
-124.301165982052
 31
0.0
  0
ARC
  5
46
100
AcDbEntity
  8
FREI
  6
CONTINUOUS
 62
          15
100
AcDbCircle
 10
-14601.380205284137
 20
-118.547957320648
 30
0.0
 40
10.000000000014
100
AcDbArc
 50
300.807009493082
 51
324.877894256036
  0
ARC
  5
47
100
AcDbEntity
  8
FREI
  6
CONTINUOUS
 62
          15
100
AcDbCircle
 10
-14551.486496217232
 20
-84.7076946922
 30
0.0
 40
5.0
100
AcDbArc
 50
46.128970107972
 51
138.493166028592
  0
ARC
  5
48
100
AcDbEntity
  8
FREI
  6
GESTRICHELT
 62
          15
100
AcDbCircle
 10
-14551.486496217232
 20
-84.7076946922
 30
0.0
 40
5.0
100
AcDbArc
 50
37.634979203188
 51
46.128970107972
  0
LINE
  5
49
100
AcDbEntity
  8
Frei
  6
GESTRICHELT
 62
           7
100
AcDbLine
 10
-14163.74062810021
 20
-112.794961977811
 30
0.0
 11
-14161.815116743055
 21
-95.401215802433
 31
0.0
  0
LINE
  5
4A
100
AcDbEntity
  8
Frei
  6
GESTRICHELT
 62
           7
100
AcDbLine
 10
-14161.815116743055
 20
-95.401215802433
 30
0.0
 11
-14165.79083015457
 21
-94.961098920798
 31
0.0
  0
LINE
  5
4B
100
AcDbEntity
  8
Frei
  6
CONTINUOUS
 62
           7
100
AcDbLine
 10
-14165.79083015457
 20
-94.961098920798
 30
0.0
 11
-14164.745552560687
 21
-85.51877956845
 31
0.0
  0
LINE
  5
4C
100
AcDbEntity
  8
Frei
  6
CONTINUOUS
 62
           7
100
AcDbLine
 10
-14164.745552560687
 20
-85.51877956845
 30
0.0
 11
-14194.165831805898
 21
-82.26191464435
 31
0.0
  0
LINE
  5
4D
100
AcDbEntity
  8
Frei
  6
CONTINUOUS
 62
           7
100
AcDbLine
 10
-14194.165831805898
 20
-82.26191464435
 30
0.0
 11
-14194.220846416103
 21
-82.758878820789
 31
0.0
  0
LINE
  5
4E
100
AcDbEntity
  8
Frei
  6
CONTINUOUS
 62
           7
100
AcDbLine
 10
-14194.220846416103
 20
-82.758878820789
 30
0.0
 11
-14413.816388442554
 21
-58.449715658812
 31
0.0
  0
LINE
  5
4F
100
AcDbEntity
  8
Frei
  6
CONTINUOUS
 62
           7
100
AcDbLine
 10
-14413.816388442554
 20
-58.449715658812
 30
0.0
 11
-14413.761373832349
 21
-57.952751482373
 31
0.0
  0
LINE
  5
50
100
AcDbEntity
  8
Frei
  6
CONTINUOUS
 62
           7
100
AcDbLine
 10
-14413.761373832349
 20
-57.952751482373
 30
0.0
 11
-14443.18165307756
 21
-54.695886558273
 31
0.0
  0
LINE
  5
51
100
AcDbEntity
  8
Frei
  6
CONTINUOUS
 62
           7
100
AcDbLine
 10
-14443.18165307756
 20
-54.695886558273
 30
0.0
 11
-14444.226930671444
 21
-64.138205910621
 31
0.0
  0
LINE
  5
52
100
AcDbEntity
  8
Frei
  6
CONTINUOUS
 62
           7
100
AcDbLine
 10
-14444.226930671444
 20
-64.138205910621
 30
0.0
 11
-14454.663178376672
 21
-62.982899096329
 31
0.0
  0
LINE
  5
53
100
AcDbEntity
  8
Frei
  6
CONTINUOUS
 62
           7
100
AcDbLine
 10
-14454.663178376672
 20
-62.982899096329
 30
0.0
 11
-14454.718192986875
 21
-63.479863272769
 31
0.0
  0
LINE
  5
54
100
AcDbEntity
  8
Frei
  6
CONTINUOUS
 62
           7
100
AcDbLine
 10
-14454.718192986875
 20
-63.479863272769
 30
0.0
 11
-14465.65140486854
 21
-62.269541848272
 31
0.0
  0
LINE
  5
55
100
AcDbEntity
  8
Frei
  6
CONTINUOUS
 62
           7
100
AcDbLine
 10
-14465.65140486854
 20
-62.269541848272
 30
0.0
 11
-14469.392398362439
 21
-96.063105846149
 31
0.0
  0
LINE
  5
56
100
AcDbEntity
  8
Frei
  6
CONTINUOUS
 62
           7
100
AcDbLine
 10
-14469.392398362439
 20
-96.063105846149
 30
0.0
 11
-14458.459186480773
 21
-97.273427270646
 31
0.0
  0
LINE
  5
57
100
AcDbEntity
  8
Frei
  6
CONTINUOUS
 62
           7
100
AcDbLine
 10
-14458.459186480773
 20
-97.273427270646
 30
0.0
 11
-14458.514201090979
 21
-97.770391447085
 31
0.0
  0
LINE
  5
58
100
AcDbEntity
  8
Frei
  6
CONTINUOUS
 62
           7
100
AcDbLine
 10
-14458.514201090979
 20
-97.770391447085
 30
0.0
 11
-14448.077953385751
 21
-98.925698261377
 31
0.0
  0
LINE
  5
59
100
AcDbEntity
  8
Frei
  6
CONTINUOUS
 62
           7
100
AcDbLine
 10
-14448.077953385751
 20
-98.925698261377
 30
0.0
 11
-14449.123230979634
 21
-108.368017613725
 31
0.0
  0
LINE
  5
5A
100
AcDbEntity
  8
Frei
  6
CONTINUOUS
 62
           7
100
AcDbLine
 10
-14449.123230979634
 20
-108.368017613725
 30
0.0
 11
-14419.702951734424
 21
-111.624882537825
 31
0.0
  0
LINE
  5
5B
100
AcDbEntity
  8
Frei
  6
CONTINUOUS
 62
           7
100
AcDbLine
 10
-14419.702951734424
 20
-111.624882537825
 30
0.0
 11
-14419.647937124219
 21
-111.127918361385
 31
0.0
  0
LINE
  5
5C
100
AcDbEntity
  8
Frei
  6
CONTINUOUS
 62
           7
100
AcDbLine
 10
-14201.014246478093
 20
-135.330604852998
 30
0.0
 11
-14200.052395097768
 21
-135.437081523362
 31
0.0
  0
LINE
  5
5D
100
AcDbEntity
  8
Frei
  6
GESTRICHELT
 62
           7
100
AcDbLine
 10
-14228.844245375771
 20
-132.249832002337
 30
0.0
 11
-14201.014246478093
 21
-135.330604852998
 31
0.0
  0
LINE
  5
5E
100
AcDbEntity
  8
Frei
  6
CONTINUOUS
 62
           7
100
AcDbLine
 10
-14390.854596101535
 20
-114.315332907417
 30
0.0
 11
-14228.844245375771
 21
-132.249832002337
 31
0.0
  0
LINE
  5
5F
100
AcDbEntity
  8
Frei
  6
GESTRICHELT
 62
           7
100
AcDbLine
 10
-14418.684594999213
 20
-111.234560056756
 30
0.0
 11
-14390.854596101535
 21
-114.315332907417
 31
0.0
  0
LINE
  5
60
100
AcDbEntity
  8
Frei
  6
CONTINUOUS
 62
           7
100
AcDbLine
 10
-14419.647937124219
 20
-111.127918361385
 30
0.0
 11
-14418.684594999213
 21
-111.234560056756
 31
0.0
  0
LINE
  5
61
100
AcDbEntity
  8
Frei
  6
CONTINUOUS
 62
           7
100
AcDbLine
 10
-14200.052395097768
 20
-135.437081523362
 30
0.0
 11
-14200.107409707973
 21
-135.934045699802
 31
0.0
  0
LINE
  5
62
100
AcDbEntity
  8
Frei
  6
CONTINUOUS
 62
           7
100
AcDbLine
 10
-14200.107409707973
 20
-135.934045699802
 30
0.0
 11
-14170.687130462762
 21
-139.190910623901
 31
0.0
  0
LINE
  5
63
100
AcDbEntity
  8
Frei
  6
CONTINUOUS
 62
           7
100
AcDbLine
 10
-14170.687130462762
 20
-139.190910623901
 30
0.0
 11
-14169.641852868877
 21
-129.748591271553
 31
0.0
  0
LINE
  5
64
100
AcDbEntity
  8
Frei
  6
GESTRICHELT
 62
           7
100
AcDbLine
 10
-14169.641852868877
 20
-129.748591271553
 30
0.0
 11
-14165.666139457362
 21
-130.188708153188
 31
0.0
  0
LINE
  5
65
100
AcDbEntity
  8
Frei
  6
GESTRICHELT
 62
           7
100
AcDbLine
 10
-14165.666139457362
 20
-130.188708153188
 30
0.0
 11
-14163.74062810021
 21
-112.794961977811
 31
0.0
  0
LINE
  5
66
100
AcDbEntity
  8
Frei
  6
CONTINUOUS
 62
           7
100
AcDbLine
 10
-14165.79083015457
 20
-94.961098920798
 30
0.0
 11
-14169.641852868877
 21
-129.748591271553
 31
0.0
  0
LINE
  5
67
100
AcDbEntity
  8
Frei
  6
CONTINUOUS
 62
           7
100
AcDbLine
 10
-14198.530480460184
 20
-121.689150716116
 30
0.0
 11
-14200.052395097768
 21
-135.437081523362
 31
0.0
  0
LINE
  5
68
100
AcDbEntity
  8
Frei
  6
GESTRICHELT
 62
           7
100
AcDbLine
 10
-14196.447027239781
 20
-102.868666303323
 30
0.0
 11
-14198.530480460184
 21
-121.689150716116
 31
0.0
  0
LINE
  5
69
100
AcDbEntity
  8
Frei
  6
CONTINUOUS
 62
           7
100
AcDbLine
 10
-14194.220846416103
 20
-82.758878820789
 30
0.0
 11
-14196.447027239781
 21
-102.868666303323
 31
0.0
  0
LINE
  5
6A
100
AcDbEntity
  8
Frei
  6
CONTINUOUS
 62
           7
100
AcDbLine
 10
-14418.12614792633
 20
-97.381120690118
 30
0.0
 11
-14419.647937124219
 21
-111.127918361385
 31
0.0
  0
LINE
  5
6B
100
AcDbEntity
  8
Frei
  6
GESTRICHELT
 62
           7
100
AcDbLine
 10
-14416.042364651059
 20
-78.557654788501
 30
0.0
 11
-14418.12614792633
 21
-97.381120690118
 31
0.0
  0
LINE
  5
6C
100
AcDbEntity
  8
Frei
  6
CONTINUOUS
 62
           7
100
AcDbLine
 10
-14413.816388442554
 20
-58.449715658812
 30
0.0
 11
-14416.042364651059
 21
-78.557654788501
 31
0.0
  0
LINE
  5
6D
100
AcDbEntity
  8
Frei
  6
CONTINUOUS
 62
           7
100
AcDbLine
 10
-14444.226930671444
 20
-64.138205910621
 30
0.0
 11
-14448.077953385751
 21
-98.925698261377
 31
0.0
  0
LINE
  5
6E
100
AcDbEntity
  8
Frei
  6
CONTINUOUS
 62
           7
100
AcDbLine
 10
-14454.663178376672
 20
-62.982899096329
 30
0.0
 11
-14458.514201090979
 21
-97.770391447085
 31
0.0
  0
LINE
  5
6F
100
AcDbEntity
  8
Frei
  6
GESTRICHELT
 62
           7
100
AcDbLine
 10
-14480.334471177566
 20
-71.711302548253
 30
0.0
 11
-14498.40225350061
 21
-69.711174472863
 31
0.0
  0
LINE
  5
70
100
AcDbEntity
  8
Frei
  6
CONTINUOUS
 62
           7
100
AcDbLine
 10
-14475.310117292505
 20
-72.267505356464
 30
0.0
 11
-14480.334471177566
 21
-71.711302548253
 31
0.0
  0
LINE
  5
71
100
AcDbEntity
  8
Frei
  6
GESTRICHELT
 62
           7
100
AcDbLine
 10
-14481.654821822473
 20
-83.638442782798
 30
0.0
 11
-14499.722604145516
 21
-81.638314707407
 31
0.0
  0
LINE
  5
72
100
AcDbEntity
  8
Frei
  6
CONTINUOUS
 62
           7
100
AcDbLine
 10
-14476.630467937412
 20
-84.194645591008
 30
0.0
 11
-14481.654821822473
 21
-83.638442782798
 31
0.0
  0
LINE
  5
73
100
AcDbEntity
  8
Frei
  6
GESTRICHELT
 62
           7
100
AcDbLine
 10
-14499.248767067513
 20
-70.388938388357
 30
0.0
 11
-14498.40225350061
 21
-69.711174472863
 31
0.0
  0
LINE
  5
74
100
AcDbEntity
  8
Frei
  6
GESTRICHELT
 62
           7
100
AcDbLine
 10
-14500.400379100583
 20
-80.791809979494
 30
0.0
 11
-14499.722604145516
 21
-81.638314707407
 31
0.0
  0
LINE
  5
75
100
AcDbEntity
  8
Frei
  6
GESTRICHELT
 62
           7
100
AcDbLine
 10
-14499.248767067513
 20
-70.388938388357
 30
0.0
 11
-14500.400379100583
 21
-80.791809979494
 31
0.0
  0
LINE
  5
76
100
AcDbEntity
  8
Frei
  6
CONTINUOUS
 62
           7
100
AcDbLine
 10
-14480.418840483484
 20
-72.473436869957
 30
0.0
 11
-14475.394486598423
 21
-73.029639678167
 31
0.0
  0
LINE
  5
77
100
AcDbEntity
  8
Frei
  6
GESTRICHELT
 62
           7
100
AcDbLine
 10
-14499.248767067513
 20
-70.388938388357
 30
0.0
 11
-14480.418840483484
 21
-72.473436869957
 31
0.0
  0
LINE
  5
78
100
AcDbEntity
  8
Frei
  6
CONTINUOUS
 62
           7
100
AcDbLine
 10
-14481.570452516555
 20
-82.876308461094
 30
0.0
 11
-14476.546098631494
 21
-83.432511269305
 31
0.0
  0
LINE
  5
79
100
AcDbEntity
  8
Frei
  6
GESTRICHELT
 62
           7
100
AcDbLine
 10
-14500.400379100583
 20
-80.791809979494
 30
0.0
 11
-14481.570452516555
 21
-82.876308461094
 31
0.0
  0
LINE
  5
7A
100
AcDbEntity
  8
Frei
  6
GESTRICHELT
 62
           7
100
AcDbLine
 10
-14498.40225350061
 20
-69.711174472863
 30
0.0
 11
-14499.722604145516
 21
-81.638314707407
 31
0.0
  0
LINE
  5
7B
100
AcDbEntity
  8
Frei
  6
CONTINUOUS
 62
           7
100
AcDbLine
 10
-14466.64166785222
 20
-71.214897024181
 30
0.0
 11
-14475.090058851689
 21
-70.279648650706
 31
0.0
  0
LINE
  5
7C
100
AcDbEntity
  8
Frei
  6
CONTINUOUS
 62
           7
100
AcDbLine
 10
-14475.090058851689
 20
-70.279648650706
 30
0.0
 11
-14476.850526378228
 21
-86.182502296766
 31
0.0
  0
LINE
  5
7D
100
AcDbEntity
  8
Frei
  6
CONTINUOUS
 62
           7
100
AcDbLine
 10
-14476.850526378228
 20
-86.182502296766
 30
0.0
 11
-14468.402135378759
 21
-87.117750670241
 31
0.0
  0
LINE
  5
7E
100
AcDbEntity
  8
Frei
  6
CONTINUOUS
 62
           7
100
AcDbLine
 10
-14475.45715044003
 20
-73.595701753699
 30
0.0
 11
-14470.156202537773
 21
-74.182523895782
 31
0.0
  0
LINE
  5
7F
100
AcDbEntity
  8
Frei
  6
CONTINUOUS
 62
           7
100
AcDbLine
 10
-14476.483434789887
 20
-82.866449193773
 30
0.0
 11
-14471.18248688763
 21
-83.453271335856
 31
0.0
  0
LINE
  5
80
100
AcDbEntity
  8
Frei
  6
CONTINUOUS
 62
           7
100
AcDbLine
 10
-14470.156202537773
 20
-74.182523895782
 30
0.0
 11
-14471.18248688763
 21
-83.453271335856
 31
0.0
  0
LINE
  5
81
100
AcDbEntity
  8
Frei
  6
CONTINUOUS
 62
           7
100
AcDbLine
 10
-14475.45715044003
 20
-73.595701753699
 30
0.0
 11
-14471.18248688763
 21
-83.453271335856
 31
0.0
  0
LINE
  5
82
100
AcDbEntity
  8
Frei
  6
CONTINUOUS
 62
           7
100
AcDbLine
 10
-14470.156202537773
 20
-74.182523895782
 30
0.0
 11
-14476.483434789887
 21
-82.866449193773
 31
0.0
  0
CIRCLE
  5
83
100
AcDbEntity
  8
Frei
  6
CONTINUOUS
 62
           7
100
AcDbCircle
 10
-14432.897620410748
 20
-89.035931288994
 30
0.0
 40
5.7225
  0
ARC
  5
84
100
AcDbEntity
  8
Frei
  6
CONTINUOUS
 62
           7
100
AcDbCircle
 10
-14432.897620410748
 20
-89.035931288994
 30
0.0
 40
6.5785
100
AcDbArc
 50
103.683
 51
13.683
  0
CIRCLE
  5
85
100
AcDbEntity
  8
Frei
  6
CONTINUOUS
 62
           7
100
AcDbCircle
 10
-14180.971163129574
 20
-104.85086589318
 30
0.0
 40
5.7225
  0
ARC
  5
86
100
AcDbEntity
  8
Frei
  6
CONTINUOUS
 62
           7
100
AcDbCircle
 10
-14180.971163129574
 20
-104.85086589318
 30
0.0
 40
6.57849
100
AcDbArc
 50
103.682999999994
 51
13.683
  0
LINE
  5
87
100
AcDbEntity
  8
Frei
  6
CONTINUOUS
 62
           7
100
AcDbLine
 10
-14423.516011852445
 20
-72.904337016921
 30
0.0
 11
-14431.26094210506
 21
-79.105469467095
 31
0.0
  0
LINE
  5
88
100
AcDbEntity
  8
Frei
  6
CONTINUOUS
 62
           7
100
AcDbLine
 10
-14424.297201905723
 20
-71.92865931365
 30
0.0
 11
-14432.042122255711
 21
-78.129702310272
 31
0.0
  0
CIRCLE
  5
89
100
AcDbEntity
  8
Frei
  6
CONTINUOUS
 62
           7
100
AcDbCircle
 10
-14427.779069254662
 20
-75.517039542164
 30
0.0
 40
5.0
  0
LINE
  5
8A
100
AcDbEntity
  8
Frei
  6
CONTINUOUS
 62
           7
100
AcDbLine
 10
-14181.826363106107
 20
-115.757127880669
 30
0.0
 11
-14189.571681027433
 21
-121.958126865603
 31
0.0
  0
LINE
  5
8B
100
AcDbEntity
  8
Frei
  6
CONTINUOUS
 62
           7
100
AcDbLine
 10
-14182.607742042424
 20
-114.781338718002
 30
0.0
 11
-14190.353069866384
 21
-120.982427156487
 31
0.0
  0
CIRCLE
  5
8C
100
AcDbEntity
  8
Frei
  6
CONTINUOUS
 62
           7
100
AcDbCircle
 10
-14186.089714285661
 20
-118.369757640011
 30
0.0
 40
5.0
  0
LINE
  5
8D
100
AcDbEntity
  8
Frei
  6
CONTINUOUS
 62
           7
100
AcDbLine
 10
-14480.175138738354
 20
-66.728580441993
 30
0.0
 11
-14482.765435297357
 21
-66.441831090102
 31
0.0
  0
LINE
  5
8E
100
AcDbEntity
  8
Frei
  6
CONTINUOUS
 62
           7
100
AcDbLine
 10
-14485.355711977796
 20
-66.155083938794
 30
0.0
 11
-14482.765435297357
 21
-66.441831090102
 31
0.0
  0
LINE
  5
8F
100
AcDbEntity
  8
Frei
  6
CONTINUOUS
 62
           7
100
AcDbLine
 10
-14487.769753073566
 20
-87.961872000954
 30
0.0
 11
-14485.179476393127
 21
-88.248619152261
 31
0.0
  0
LINE
  5
90
100
AcDbEntity
  8
Frei
  6
CONTINUOUS
 62
           7
100
AcDbLine
 10
-14482.589179834124
 20
-88.535368504153
 30
0.0
 11
-14485.179476393127
 21
-88.248619152261
 31
0.0
  0
LINE
  5
91
100
AcDbEntity
  8
Frei
  6
CONTINUOUS
 62
           7
100
AcDbLine
 10
-14480.778650112588
 20
-72.180287396817
 30
0.0
 11
-14483.368946671591
 21
-71.893538044925
 31
0.0
  0
LINE
  5
92
100
AcDbEntity
  8
Frei
  6
CONTINUOUS
 62
           7
100
AcDbLine
 10
-14485.959223352031
 20
-71.606790893618
 30
0.0
 11
-14483.368946671591
 21
-71.893538044925
 31
0.0
  0
LINE
  5
93
100
AcDbEntity
  8
Frei
  6
CONTINUOUS
 62
           7
100
AcDbLine
 10
-14487.166241699331
 20
-82.51016504613
 30
0.0
 11
-14484.575965018892
 21
-82.796912197438
 31
0.0
  0
LINE
  5
94
100
AcDbEntity
  8
Frei
  6
CONTINUOUS
 62
           7
100
AcDbLine
 10
-14481.985668459889
 20
-83.083661549329
 30
0.0
 11
-14484.575965018892
 21
-82.796912197438
 31
0.0
  0
ARC
  5
95
100
AcDbEntity
  8
Frei
  6
CONTINUOUS
 62
           7
100
AcDbCircle
 10
-14519.536802596609
 20
-73.408203568203
 30
0.0
 40
38.7776
100
AcDbArc
 50
354.542436999999
 51
1.81461
  0
ARC
  5
96
100
AcDbEntity
  8
Frei
  6
CONTINUOUS
 62
           7
100
AcDbCircle
 10
-14448.408109093876
 20
-81.28224667416
 30
0.0
 40
38.7776
100
AcDbArc
 50
165.551
 51
172.824
  0
ARC
  5
97
100
AcDbEntity
  8
Frei
  6
CONTINUOUS
 62
           7
100
AcDbCircle
 10
-14448.408109093876
 20
-81.28224667416
 30
0.0
 40
38.7776
100
AcDbArc
 50
174.541999999999
 51
181.814999999999
  0
ARC
  5
98
100
AcDbEntity
  8
Frei
  6
CONTINUOUS
 62
           7
100
AcDbCircle
 10
-14519.536802596609
 20
-73.408203568203
 30
0.0
 40
38.7776
100
AcDbArc
 50
345.551389999999
 51
352.823562999999
  0
LINE
  5
99
100
AcDbEntity
  8
Frei
  6
CONTINUOUS
 62
           7
100
AcDbLine
 10
-14480.93498241182
 20
-77.0962824631
 30
0.0
 11
-14480.994646500019
 21
-77.674872665526
 31
0.0
  0
LINE
  5
9A
100
AcDbEntity
  8
Frei
  6
CONTINUOUS
 62
           7
100
AcDbLine
 10
-14486.881894289898
 20
-76.437951230381
 30
0.0
 11
-14486.950265190468
 21
-77.015577576837
 31
0.0
  0
LINE
  5
9B
100
AcDbEntity
  8
Frei
  6
CONTINUOUS
 62
           7
100
AcDbLine
 10
-14487.009889521531
 20
-77.594172180432
 30
0.0
 11
-14486.950265190468
 21
-77.015577576837
 31
0.0
  0
LINE
  5
9C
100
AcDbEntity
  8
Frei
  6
CONTINUOUS
 62
           7
100
AcDbLine
 10
-14481.062977643453
 20
-78.25250341315
 30
0.0
 11
-14480.994646500019
 21
-77.674872665526
 31
0.0
  0
ARC
  5
9D
100
AcDbEntity
  8
Frei
  6
CONTINUOUS
 62
           7
100
AcDbCircle
 10
-14490.162350181939
 20
-68.38225588655
 30
0.0
 40
10.1345
100
AcDbArc
 50
337.964499999999
 51
353.682999999999
  0
ARC
  5
9E
100
AcDbEntity
  8
Frei
  6
CONTINUOUS
 62
           7
100
AcDbCircle
 10
-14475.972025148607
 20
-69.953144166619
 30
0.0
 40
10.1232
100
AcDbArc
 50
173.683
 51
189.401999999999
  0
ARC
  5
9F
100
AcDbEntity
  8
Frei
  6
CONTINUOUS
 62
           7
100
AcDbCircle
 10
-14477.782551569264
 20
-86.308195456104
 30
0.0
 40
10.1345
100
AcDbArc
 50
157.964
 51
173.683
  0
ARC
  5
A0
100
AcDbEntity
  8
Frei
  6
CONTINUOUS
 62
           7
100
AcDbCircle
 10
-14491.972876602596
 20
-84.737307176036
 30
0.0
 40
10.1232
100
AcDbArc
 50
353.682999999999
 51
9.4015
  0
ARC
  5
A1
100
AcDbEntity
  8
Frei
  6
CONTINUOUS
 62
           7
100
AcDbCircle
 10
-14490.162350181939
 20
-68.38225588655
 30
0.0
 40
10.1232
100
AcDbArc
 50
353.682999999999
 51
9.4015
  0
ARC
  5
A2
100
AcDbEntity
  8
Frei
  6
CONTINUOUS
 62
           7
100
AcDbCircle
 10
-14475.972025148607
 20
-69.953144166619
 30
0.0
 40
10.1345
100
AcDbArc
 50
157.964
 51
173.683
  0
ARC
  5
A3
100
AcDbEntity
  8
Frei
  6
CONTINUOUS
 62
           7
100
AcDbCircle
 10
-14477.782551569264
 20
-86.308195456104
 30
0.0
 40
10.1232
100
AcDbArc
 50
173.683
 51
189.401999999999
  0
ARC
  5
A4
100
AcDbEntity
  8
Frei
  6
CONTINUOUS
 62
           7
100
AcDbCircle
 10
-14491.972876602596
 20
-84.737307176036
 30
0.0
 40
10.1345
100
AcDbArc
 50
337.964499999999
 51
353.682999999999
  0
LINE
  5
A5
100
AcDbEntity
  8
Frei
  6
CONTINUOUS
 62
           7
100
AcDbLine
 10
-14480.089383289691
 20
-69.497347020783
 30
0.0
 11
-14480.994646500019
 21
-77.674872665526
 31
0.0
  0
LINE
  5
A6
100
AcDbEntity
  8
Frei
  6
CONTINUOUS
 62
           7
100
AcDbLine
 10
-14486.045001980139
 20
-68.838051932094
 30
0.0
 11
-14486.950265190468
 21
-77.015577576837
 31
0.0
  0
LINE
  5
A7
100
AcDbEntity
  8
Frei
  6
CONTINUOUS
 62
           7
100
AcDbLine
 10
-14487.855528400796
 20
-85.193103221579
 30
0.0
 11
-14486.950265190468
 21
-77.015577576837
 31
0.0
  0
LINE
  5
A8
100
AcDbEntity
  8
Frei
  6
CONTINUOUS
 62
           7
100
AcDbLine
 10
-14481.899909710348
 20
-85.852398310269
 30
0.0
 11
-14480.994646500019
 21
-77.674872665526
 31
0.0
  0
LINE
  5
A9
100
AcDbEntity
  8
Frei
  6
CONTINUOUS
 62
           7
100
AcDbLine
 10
-14161.022779903848
 20
-124.72466155296
 30
0.0
 11
-14161.861170944145
 21
-124.646635464394
 31
0.0
  0
LINE
  5
AA
100
AcDbEntity
  8
Frei
  6
CONTINUOUS
 62
           7
100
AcDbLine
 10
-14160.153504404871
 20
-124.016127131326
 30
0.0
 11
-14160.944517846818
 21
-131.161598893634
 31
0.0
  0
LINE
  5
AB
100
AcDbEntity
  8
Frei
  6
CONTINUOUS
 62
           7
100
AcDbLine
 10
-14157.786118783393
 20
-102.630792557083
 30
0.0
 11
-14157.802286586073
 21
-102.776841374181
 31
0.0
  0
LINE
  5
AC
100
AcDbEntity
  8
Frei
  6
CONTINUOUS
 62
           7
100
AcDbLine
 10
-14159.314531586397
 20
-101.642045839749
 30
0.0
 11
-14158.479374342489
 21
-101.749283822274
 31
0.0
  0
LINE
  5
AD
100
AcDbEntity
  8
Frei
  6
CONTINUOUS
 62
           7
100
AcDbLine
 10
-14157.626605045589
 20
-103.371093842695
 30
0.0
 11
-14159.835932533293
 21
-123.328639871512
 31
0.0
  0
LINE
  5
AE
100
AcDbEntity
  8
Frei
  6
CONTINUOUS
 62
           7
100
AcDbLine
 10
-14147.137122477365
 20
-124.290527440966
 30
0.0
 11
-14159.268061103216
 21
-123.161543892595
 31
0.0
  0
LINE
  5
AF
100
AcDbEntity
  8
Frei
  6
CONTINUOUS
 62
           7
100
AcDbLine
 10
-14145.024883198794
 20
-105.210009563659
 30
0.0
 11
-14157.109031026977
 21
-103.65835010899
 31
0.0
  0
LINE
  5
B0
100
AcDbEntity
  8
Frei
  6
CONTINUOUS
 62
           7
100
AcDbLine
 10
-14160.137336602191
 20
-123.870078314228
 30
0.0
 11
-14160.153504404871
 21
-124.016127131326
 31
0.0
  0
LINE
  5
B1
100
AcDbEntity
  8
Frei
  6
CONTINUOUS
 62
           7
100
AcDbLine
 10
-14159.9083711352
 20
-92.718578224172
 30
0.0
 11
-14159.033373885504
 21
-92.846491671797
 31
0.0
  0
LINE
  5
B2
100
AcDbEntity
  8
Frei
  6
CONTINUOUS
 62
           7
100
AcDbLine
 10
-14156.995105341446
 20
-95.485320794776
 30
0.0
 11
-14157.786118783393
 21
-102.630792557083
 31
0.0
  0
LINE
  5
B3
100
AcDbEntity
  8
Frei
  6
CONTINUOUS
 62
           7
100
AcDbLine
 10
-14163.510604920064
 20
-133.290719587844
 30
0.0
 11
-14164.392393511487
 21
-133.224154453623
 31
0.0
  0
LINE
  5
B4
100
AcDbEntity
  8
Frei
  6
CONTINUOUS
 62
           7
100
AcDbLine
 10
-14160.887077102076
 20
-87.525437769794
 30
0.0
 11
-14164.902706901035
 21
-86.938403865233
 31
0.0
  0
LINE
  5
B5
100
AcDbEntity
  8
Frei
  6
CONTINUOUS
 62
           7
100
AcDbLine
 10
-14166.48325795615
 20
-138.077489288818
 30
0.0
 11
-14170.530055297895
 21
-137.772001543981
 31
0.0
  0
LINE
  5
B6
100
AcDbEntity
  8
Frei
  6
CONTINUOUS
 62
           7
100
AcDbLine
 10
-14163.599721942099
 20
-126.06370430766
 30
0.0
 11
-14164.392393511487
 21
-133.224154453623
 31
0.0
  0
LINE
  5
B7
100
AcDbEntity
  8
Frei
  6
CONTINUOUS
 62
           7
100
AcDbLine
 10
-14159.9083711352
 20
-92.718578224172
 30
0.0
 11
-14160.701042704588
 21
-99.879028370131
 31
0.0
  0
LINE
  5
B8
100
AcDbEntity
  8
Frei
  6
CONTINUOUS
 62
           7
100
AcDbLine
 10
-14159.528231406035
 20
-89.284657185115
 30
0.0
 11
-14159.9083711352
 21
-92.718578224172
 31
0.0
  0
LINE
  5
B9
100
AcDbEntity
  8
Frei
  6
CONTINUOUS
 62
           7
100
AcDbLine
 10
-14164.392393511487
 20
-133.224154453623
 30
0.0
 11
-14164.772533240652
 21
-136.658075492678
 31
0.0
  0
ARC
  5
BA
100
AcDbEntity
  8
Frei
  6
CONTINUOUS
 62
           7
100
AcDbCircle
 10
-14146.247528677284
 20
-114.731833865437
 30
0.0
 40
9.6
100
AcDbArc
 50
264.682999999997
 51
82.683000000002
  0
ARC
  5
BB
100
AcDbEntity
  8
Frei
  6
CONTINUOUS
 62
           7
100
AcDbCircle
 10
-14146.247528677284
 20
-114.731833865438
 30
0.0
 40
4.799999999999
100
AcDbArc
 50
173.682999999991
 51
353.683000000007
  0
ARC
  5
BC
100
AcDbEntity
  8
Frei
  6
CONTINUOUS
 62
           7
100
AcDbCircle
 10
-14146.247528677281
 20
-114.731833865434
 30
0.0
 40
4.799999999995
100
AcDbArc
 50
353.682999999957
 51
63.886117282784
  0
ARC
  5
BD
100
AcDbEntity
  8
Frei
  6
CONTINUOUS
 62
           7
100
AcDbCircle
 10
-14146.247528677282
 20
-114.731833865437
 30
0.0
 40
4.8
100
AcDbArc
 50
63.886117282778
 51
173.683
  0
ARC
  5
BE
100
AcDbEntity
  8
Frei
  6
CONTINUOUS
 62
           7
100
AcDbCircle
 10
-14159.342193919889
 20
-123.95810169055
 30
0.0
 40
0.799999999995
100
AcDbArc
 50
84.682999999852
 51
128.110004000953
  0
ARC
  5
BF
100
AcDbEntity
  8
Frei
  6
CONTINUOUS
 62
           7
100
AcDbCircle
 10
-14159.3421939199
 20
-123.958101690548
 30
0.0
 40
0.799999999986
100
AcDbArc
 50
128.110004000438
 51
173.683000000423
  0
ARC
  5
C0
100
AcDbEntity
  8
Frei
  6
CONTINUOUS
 62
           7
100
AcDbCircle
 10
-14160.948647087174
 20
-123.928103754999
 30
0.0
 40
0.8
100
AcDbArc
 50
264.682999999975
 51
353.682999999991
  0
ARC
  5
C1
100
AcDbEntity
  8
Frei
  6
CONTINUOUS
 62
           7
100
AcDbCircle
 10
-14162.009436577493
 20
-126.239751060315
 30
0.0
 40
1.599999999999
100
AcDbArc
 50
84.682999999911
 51
173.682999999991
  0
ARC
  5
C2
100
AcDbEntity
  8
Frei
  6
CONTINUOUS
 62
           7
100
AcDbCircle
 10
-14157.007143903782
 20
-102.864864750513
 30
0.0
 40
0.799999999987
100
AcDbArc
 50
173.682999999556
 51
219.255995999584
  0
ARC
  5
C3
100
AcDbEntity
  8
Frei
  6
CONTINUOUS
 62
           7
100
AcDbCircle
 10
-14157.007143903771
 20
-102.864864750514
 30
0.0
 40
0.799999999995
100
AcDbArc
 50
219.2559959991
 51
262.683000000148
  0
ARC
  5
C4
100
AcDbEntity
  8
Frei
  6
CONTINUOUS
 62
           7
100
AcDbCircle
 10
-14159.110757339982
 20
-100.055075122785
 30
0.0
 40
1.600000000001
100
AcDbArc
 50
173.683000000032
 51
262.683000000024
  0
ARC
  5
C5
100
AcDbEntity
  8
Frei
  6
CONTINUOUS
 62
           7
100
AcDbCircle
 10
-14158.581261465697
 20
-102.542769180756
 30
0.0
 40
0.8
100
AcDbArc
 50
353.682999999999
 51
82.683000000024
  0
ARC
  5
C6
100
AcDbEntity
  8
Frei
  6
CONTINUOUS
 62
           7
100
AcDbCircle
 10
-14166.362818605256
 20
-136.482028740025
 30
0.0
 40
1.599999999999
100
AcDbArc
 50
265.682999999913
 51
353.683000000036
  0
ARC
  5
C7
100
AcDbEntity
  8
Frei
  6
CONTINUOUS
 62
           7
100
AcDbCircle
 10
-14163.329945893729
 20
-130.897528764653
 30
0.0
 40
2.4
100
AcDbArc
 50
265.68300000002
 51
353.682999999997
  0
ARC
  5
C8
100
AcDbEntity
  8
Frei
  6
CONTINUOUS
 62
           7
100
AcDbCircle
 10
-14159.380533388357
 20
-95.221250665796
 30
0.0
 40
2.400000000001
100
AcDbArc
 50
353.683000000013
 51
81.682999999936
  0
ARC
  5
C9
100
AcDbEntity
  8
Frei
  6
CONTINUOUS
 62
           7
100
AcDbCircle
 10
-14161.118516770639
 20
-89.10861043246
 30
0.0
 40
1.599999999999
100
AcDbArc
 50
353.682999999963
 51
81.683000000086
  0
LINE
  5
CA
100
AcDbEntity
  8
Frei
  6
CONTINUOUS
 62
           7
100
AcDbLine
 10
-14487.610440512921
 20
-82.979147694109
 30
0.0
 11
-14487.544422980674
 21
-82.382790682382
 31
0.0
  0
LINE
  5
CB
100
AcDbEntity
  8
Frei
  6
CONTINUOUS
 62
           7
100
AcDbLine
 10
-14487.544422980674
 20
-82.382790682382
 30
0.0
 11
-14486.356107400261
 21
-71.648364471291
 31
0.0
  0
LINE
  5
CC
100
AcDbEntity
  8
Frei
  6
CONTINUOUS
 62
           7
100
AcDbLine
 10
-14486.356107400261
 20
-71.648364471291
 30
0.0
 11
-14486.290089868015
 21
-71.052007459564
 31
0.0
  0
LINE
  5
CD
100
AcDbEntity
  8
Frei
  6
CONTINUOUS
 62
           7
100
AcDbLine
 10
-14486.290089868015
 20
-71.052007459564
 30
0.0
 11
-14485.926993440666
 21
-67.772043895064
 31
0.0
  0
LINE
  5
CE
100
AcDbEntity
  8
Frei
  6
CONTINUOUS
 62
           7
100
AcDbLine
 10
-14512.124896304464
 20
-86.302016521571
 30
0.0
 11
-14510.82864281846
 21
-86.44551354538
 31
0.0
  0
LINE
  5
CF
100
AcDbEntity
  8
Frei
  6
CONTINUOUS
 62
           7
100
AcDbLine
 10
-14508.187941528649
 20
-62.59123307629
 30
0.0
 11
-14509.484195014653
 21
-62.447736052481
 31
0.0
  0
LINE
  5
D0
100
AcDbEntity
  8
Frei
  6
CONTINUOUS
 62
           7
100
AcDbLine
 10
-14510.82864281846
 20
-86.44551354538
 30
0.0
 11
-14507.055861704783
 21
-86.863165545656
 31
0.0
  0
LINE
  5
D1
100
AcDbEntity
  8
Frei
  6
CONTINUOUS
 62
           7
100
AcDbLine
 10
-14504.415160414972
 20
-63.008885076566
 30
0.0
 11
-14508.187941528649
 21
-62.59123307629
 31
0.0
  0
LINE
  5
D2
100
AcDbEntity
  8
Frei
  6
CONTINUOUS
 62
           7
100
AcDbLine
 10
-14544.804331964386
 20
-58.53774885667
 30
0.0
 11
-14509.484195014653
 21
-62.447736052481
 31
0.0
  0
LINE
  5
D3
100
AcDbEntity
  8
Frei
  6
CONTINUOUS
 62
           7
100
AcDbLine
 10
-14547.445033254196
 20
-82.392029325759
 30
0.0
 11
-14512.124896304464
 21
-86.302016521571
 31
0.0
  0
LINE
  5
D4
100
AcDbEntity
  8
Frei
  6
CONTINUOUS
 62
           7
100
AcDbLine
 10
-14503.718677494116
 20
-64.896982410116
 30
0.0
 11
-14505.963273590454
 21
-85.173120808842
 31
0.0
  0
LINE
  5
D5
100
AcDbEntity
  8
Frei
  6
CONTINUOUS
 62
           7
100
AcDbLine
 10
-14486.72250265989
 20
-66.778482079106
 30
0.0
 11
-14489.426365023457
 21
-66.479160838199
 31
0.0
  0
LINE
  5
D6
100
AcDbEntity
  8
Frei
  6
CONTINUOUS
 62
           7
100
AcDbLine
 10
-14487.97353694027
 20
-86.259111258609
 30
0.0
 11
-14487.610440512921
 21
-82.979147694109
 31
0.0
  0
LINE
  5
D7
100
AcDbEntity
  8
Frei
  6
CONTINUOUS
 62
           7
100
AcDbLine
 10
-14505.068738072861
 20
-85.27214710721
 30
0.0
 11
-14503.239374292601
 21
-85.474660165624
 31
0.0
  0
LINE
  5
D8
100
AcDbEntity
  8
Frei
  6
CONTINUOUS
 62
           7
100
AcDbLine
 10
-14500.862743131773
 20
-64.005807743443
 30
0.0
 11
-14500.994778196264
 21
-65.198521766898
 31
0.0
  0
LINE
  5
D9
100
AcDbEntity
  8
Frei
  6
CONTINUOUS
 62
           7
100
AcDbLine
 10
-14500.994778196264
 20
-65.198521766898
 30
0.0
 11
-14502.824141976524
 21
-64.996008708484
 31
0.0
  0
LINE
  5
DA
100
AcDbEntity
  8
Frei
  6
CONTINUOUS
 62
           7
100
AcDbLine
 10
-14500.994778196264
 20
-65.198521766898
 30
0.0
 11
-14503.239374292601
 21
-85.474660165624
 31
0.0
  0
LINE
  5
DB
100
AcDbEntity
  8
Frei
  6
CONTINUOUS
 62
           7
100
AcDbLine
 10
-14503.239374292601
 20
-85.474660165624
 30
0.0
 11
-14503.371409357092
 21
-86.667374189079
 31
0.0
  0
LINE
  5
DC
100
AcDbEntity
  8
Frei
  6
CONTINUOUS
 62
           7
100
AcDbLine
 10
-14491.802996184286
 20
-87.94801326038
 30
0.0
 11
-14491.670961119795
 21
-86.755299236925
 31
0.0
  0
LINE
  5
DD
100
AcDbEntity
  8
Frei
  6
CONTINUOUS
 62
           7
100
AcDbLine
 10
-14491.670961119795
 20
-86.755299236925
 30
0.0
 11
-14488.967098756228
 21
-87.054620477832
 31
0.0
  0
LINE
  5
DE
100
AcDbEntity
  8
Frei
  6
CONTINUOUS
 62
           7
100
AcDbLine
 10
-14491.670961119795
 20
-86.755299236925
 30
0.0
 11
-14489.426365023457
 21
-66.479160838199
 31
0.0
  0
LINE
  5
DF
100
AcDbEntity
  8
Frei
  6
CONTINUOUS
 62
           7
100
AcDbLine
 10
-14489.426365023457
 20
-66.479160838199
 30
0.0
 11
-14489.294329958966
 21
-65.286446814744
 31
0.0
  0
LINE
  5
E0
100
AcDbEntity
  8
Frei
  6
CONTINUOUS
 62
           7
100
AcDbLine
 10
-14500.862743131773
 20
-64.005807743443
 30
0.0
 11
-14489.294329958966
 21
-65.286446814744
 31
0.0
  0
LINE
  5
E1
100
AcDbEntity
  8
Frei
  6
CONTINUOUS
 62
           7
100
AcDbLine
 10
-14503.371409357092
 20
-86.667374189079
 30
0.0
 11
-14491.802996184286
 21
-87.94801326038
 31
0.0
  0
ARC
  5
E2
100
AcDbEntity
  8
Frei
  6
CONTINUOUS
 62
           7
100
AcDbCircle
 10
-14526.4749267311
 20
-72.640143790648
 30
0.0
 40
20.866107311614
100
AcDbArc
 50
318.576694434247
 51
28.789305565753
  0
ARC
  5
E3
100
AcDbEntity
  8
Frei
  6
CONTINUOUS
 62
           7
100
AcDbCircle
 10
-14516.644515167491
 20
-73.728383720124
 30
0.0
 40
29.660254037844
100
AcDbArc
 50
149.81807458395
 51
197.54792541605
  0
ARC
  5
E4
100
AcDbEntity
  8
Frei
  6
CONTINUOUS
 62
           7
100
AcDbCircle
 10
-14527.187804140329
 20
-72.561227291931
 30
0.0
 40
22.516660498395
100
AcDbArc
 50
141.478772496028
 51
205.887227503973
  0
CIRCLE
  5
E5
100
AcDbEntity
  8
Frei
  6
CONTINUOUS
 62
           7
100
AcDbCircle
 10
-14534.658826128647
 20
-71.734174997216
 30
0.0
 40
6.0
  0
CIRCLE
  5
E6
100
AcDbEntity
  8
Frei
  6
CONTINUOUS
 62
           7
100
AcDbCircle
 10
-14534.658826128647
 20
-71.734174997216
 30
0.0
 40
5.1
  0
ARC
  5
E7
100
AcDbEntity
  8
Frei
  6
CONTINUOUS
 62
           7
100
AcDbCircle
 10
-14504.514186713339
 20
-63.903420594157
 30
0.0
 40
0.9
100
AcDbArc
 50
353.682999999999
 51
83.683
  0
ARC
  5
E8
100
AcDbEntity
  8
Frei
  6
CONTINUOUS
 62
           7
100
AcDbCircle
 10
-14502.725115678155
 20
-64.101473190893
 30
0.0
 40
0.9
100
AcDbArc
 50
173.683
 51
263.682999999999
  0
ARC
  5
E9
100
AcDbEntity
  8
Frei
  6
CONTINUOUS
 62
           7
100
AcDbCircle
 10
-14486.821528958257
 20
-67.673017596696
 30
0.0
 40
0.9
100
AcDbArc
 50
353.682999999999
 51
83.683
  0
ARC
  5
EA
100
AcDbEntity
  8
Frei
  6
CONTINUOUS
 62
           7
100
AcDbCircle
 10
-14488.868072457861
 20
-86.160084960241
 30
0.0
 40
0.9
100
AcDbArc
 50
263.682999999999
 51
353.682999999999
  0
ARC
  5
EB
100
AcDbEntity
  8
Frei
  6
CONTINUOUS
 62
           7
100
AcDbCircle
 10
-14505.16776437123
 20
-86.166682624801
 30
0.0
 40
0.9
100
AcDbArc
 50
83.683
 51
173.683
  0
ARC
  5
EC
100
AcDbEntity
  8
Frei
  6
CONTINUOUS
 62
           7
100
AcDbCircle
 10
-14506.956835406414
 20
-85.968630028065
 30
0.0
 40
0.9
100
AcDbArc
 50
263.682999999999
 51
353.682999999999
  0
LINE
  5
ED
100
AcDbEntity
  8
Frei
  6
CONTINUOUS
 62
           7
100
AcDbLine
 10
-14234.55661536797
 20
-124.776239991389
 30
0.0
 11
-14231.077866132895
 21
-125.16134226282
 31
0.0
  0
LINE
  5
EE
100
AcDbEntity
  8
Frei
  6
CONTINUOUS
 62
           7
100
AcDbLine
 10
-14234.336556927154
 20
-122.788383285631
 30
0.0
 11
-14234.55661536797
 21
-124.776239991389
 31
0.0
  0
LINE
  5
EF
100
AcDbEntity
  8
Frei
  6
CONTINUOUS
 62
           7
100
AcDbLine
 10
-14229.038660186134
 20
-115.82905213088
 30
0.0
 11
-14229.973908559608
 21
-124.277443130349
 31
0.0
  0
LINE
  5
F0
100
AcDbEntity
  8
Frei
  6
CONTINUOUS
 62
           7
100
AcDbLine
 10
-14233.511337774087
 20
-115.333920639041
 30
0.0
 11
-14229.038660186134
 21
-115.82905213088
 31
0.0
  0
LINE
  5
F1
100
AcDbEntity
  8
Frei
  6
CONTINUOUS
 62
           7
100
AcDbLine
 10
-14233.566352384292
 20
-115.83088481548
 30
0.0
 11
-14233.511337774087
 21
-115.333920639041
 31
0.0
  0
LINE
  5
F2
100
AcDbEntity
  8
Frei
  6
CONTINUOUS
 62
           7
100
AcDbLine
 10
-14230.088658212273
 20
-116.663675727582
 30
0.0
 11
-14233.566352384292
 21
-115.83088481548
 31
0.0
  0
LINE
  5
F3
100
AcDbEntity
  8
Frei
  6
CONTINUOUS
 62
           7
100
AcDbLine
 10
-14229.934663482285
 20
-119.251243927693
 30
0.0
 11
-14229.7081351652
 21
-117.204942806563
 31
0.0
  0
LINE
  5
F4
100
AcDbEntity
  8
Frei
  6
CONTINUOUS
 62
           7
100
AcDbLine
 10
-14234.336556927154
 20
-122.788383285631
 30
0.0
 11
-14233.566352384292
 21
-115.83088481548
 31
0.0
  0
LINE
  5
F5
100
AcDbEntity
  8
Frei
  6
CONTINUOUS
 62
           7
100
AcDbLine
 10
-14230.760917709296
 20
-122.736405972341
 30
0.0
 11
-14234.336556927154
 21
-122.788383285631
 31
0.0
  0
LINE
  5
F6
100
AcDbEntity
  8
Frei
  6
CONTINUOUS
 62
           7
100
AcDbLine
 10
-14230.044692702693
 20
-120.245172280572
 30
0.0
 11
-14230.271221019777
 21
-122.291473401702
 31
0.0
  0
LINE
  5
F7
100
AcDbEntity
  8
Frei
  6
CONTINUOUS
 62
           2
100
AcDbLine
 10
-14231.566363750679
 20
-119.573666857474
 30
0.0
 11
-14228.806369504304
 21
-119.879201974147
 31
0.0
  0
LINE
  5
F8
100
AcDbEntity
  8
Frei
  6
CONTINUOUS
 62
           7
100
AcDbLine
 10
-14231.511349140475
 20
-119.076702681035
 30
0.0
 11
-14229.934663482285
 21
-119.251243927693
 31
0.0
  0
LINE
  5
F9
100
AcDbEntity
  8
Frei
  6
CONTINUOUS
 62
           7
100
AcDbLine
 10
-14231.566363750679
 20
-119.573666857474
 30
0.0
 11
-14231.511349140475
 21
-119.076702681035
 31
0.0
  0
LINE
  5
FA
100
AcDbEntity
  8
Frei
  6
CONTINUOUS
 62
           7
100
AcDbLine
 10
-14231.621378360884
 20
-120.070631033914
 30
0.0
 11
-14231.566363750679
 21
-119.573666857474
 31
0.0
  0
LINE
  5
FB
100
AcDbEntity
  8
Frei
  6
CONTINUOUS
 62
           7
100
AcDbLine
 10
-14230.044692702693
 20
-120.245172280572
 30
0.0
 11
-14231.621378360884
 21
-120.070631033914
 31
0.0
  0
LINE
  5
FC
100
AcDbEntity
  8
Frei
  6
CONTINUOUS
 62
           7
100
AcDbLine
 10
-14373.209620594556
 20
-109.427163744365
 30
0.0
 11
-14369.578656321068
 21
-76.627528099367
 31
0.0
  0
LINE
  5
FD
100
AcDbEntity
  8
Frei
  6
CONTINUOUS
 62
           7
100
AcDbLine
 10
-14387.124617534859
 20
-107.886754658642
 30
0.0
 11
-14373.209620594556
 21
-109.427163744365
 31
0.0
  0
LINE
  5
FE
100
AcDbEntity
  8
Frei
  6
CONTINUOUS
 62
           7
100
AcDbLine
 10
-14379.517939849855
 20
-75.527235895279
 30
0.0
 11
-14370.075620497506
 21
-76.572513489162
 31
0.0
  0
LINE
  5
FF
100
AcDbEntity
  8
Frei
  6
CONTINUOUS
 62
           7
100
AcDbLine
 10
-14379.737998290671
 20
-77.515092601036
 30
0.0
 11
-14379.517939849855
 21
-75.527235895279
 31
0.0
  0
LINE
  5
100
100
AcDbEntity
  8
Frei
  6
CONTINUOUS
 62
           7
100
AcDbLine
 10
-14380.508202833533
 20
-84.472591071187
 30
0.0
 11
-14380.563217443738
 21
-84.969555247627
 31
0.0
  0
LINE
  5
101
100
AcDbEntity
  8
Frei
  6
CONTINUOUS
 62
           7
100
AcDbLine
 10
-14385.532859208131
 20
-84.419409145583
 30
0.0
 11
-14384.597610834657
 21
-75.971018146114
 31
0.0
  0
LINE
  5
102
100
AcDbEntity
  8
Frei
  6
CONTINUOUS
 62
           7
100
AcDbLine
 10
-14380.563217443738
 20
-84.969555247627
 30
0.0
 11
-14385.532859208131
 21
-84.419409145583
 31
0.0
  0
LINE
  5
103
100
AcDbEntity
  8
Frei
  6
CONTINUOUS
 62
           7
100
AcDbLine
 10
-14383.49365326137
 20
-75.087119013644
 30
0.0
 11
-14379.517939849855
 21
-75.527235895279
 31
0.0
  0
LINE
  5
104
100
AcDbEntity
  8
Frei
  6
CONTINUOUS
 62
           7
100
AcDbLine
 10
-14383.985897005552
 20
-83.639800159086
 30
0.0
 11
-14380.508202833533
 21
-84.472591071187
 31
0.0
  0
LINE
  5
105
100
AcDbEntity
  8
Frei
  6
CONTINUOUS
 62
           7
100
AcDbLine
 10
-14384.13989173554
 20
-81.052231958974
 30
0.0
 11
-14384.366420052625
 21
-83.098533080105
 31
0.0
  0
LINE
  5
106
100
AcDbEntity
  8
Frei
  6
CONTINUOUS
 62
           7
100
AcDbLine
 10
-14379.737998290671
 20
-77.515092601036
 30
0.0
 11
-14380.508202833533
 21
-84.472591071187
 31
0.0
  0
LINE
  5
107
100
AcDbEntity
  8
Frei
  6
CONTINUOUS
 62
           7
100
AcDbLine
 10
-14383.313637508529
 20
-77.567069914326
 30
0.0
 11
-14379.737998290671
 21
-77.515092601036
 31
0.0
  0
LINE
  5
108
100
AcDbEntity
  8
Frei
  6
CONTINUOUS
 62
           7
100
AcDbLine
 10
-14384.029862515132
 20
-80.058303606095
 30
0.0
 11
-14383.803334198048
 21
-78.012002484966
 31
0.0
  0
LINE
  5
109
100
AcDbEntity
  8
Frei
  6
CONTINUOUS
 62
           7
100
AcDbLine
 10
-14382.563206077351
 20
-81.226773205632
 30
0.0
 11
-14384.13989173554
 21
-81.052231958974
 31
0.0
  0
LINE
  5
10A
100
AcDbEntity
  8
Frei
  6
CONTINUOUS
 62
           7
100
AcDbLine
 10
-14382.508191467148
 20
-80.729809029194
 30
0.0
 11
-14382.563206077351
 21
-81.226773205632
 31
0.0
  0
LINE
  5
10B
100
AcDbEntity
  8
Frei
  6
CONTINUOUS
 62
           7
100
AcDbLine
 10
-14382.453176856943
 20
-80.232844852753
 30
0.0
 11
-14382.508191467148
 21
-80.729809029194
 31
0.0
  0
LINE
  5
10C
100
AcDbEntity
  8
Frei
  6
CONTINUOUS
 62
           7
100
AcDbLine
 10
-14384.029862515132
 20
-80.058303606095
 30
0.0
 11
-14382.453176856943
 21
-80.232844852753
 31
0.0
  0
LINE
  5
10D
100
AcDbEntity
  8
Frei
  6
CONTINUOUS
 62
           7
100
AcDbLine
 10
-14347.730579847057
 20
-115.567887039493
 30
0.0
 11
-14347.785594457262
 21
-116.064851215932
 31
0.0
  0
LINE
  5
10E
100
AcDbEntity
  8
Frei
  6
CONTINUOUS
 62
           7
100
AcDbLine
 10
-14347.785594457262
 20
-116.064851215932
 30
0.0
 11
-14271.253111285598
 21
-124.537101187408
 31
0.0
  0
LINE
  5
10F
100
AcDbEntity
  8
Frei
  6
CONTINUOUS
 62
           7
100
AcDbLine
 10
-14271.253111285598
 20
-124.537101187408
 30
0.0
 11
-14266.081737926386
 21
-77.822468602108
 31
0.0
  0
LINE
  5
110
100
AcDbEntity
  8
Frei
  6
CONTINUOUS
 62
           7
100
AcDbLine
 10
-14266.081737926386
 20
-77.822468602108
 30
0.0
 11
-14342.614221098051
 21
-69.350218630633
 31
0.0
  0
LINE
  5
111
100
AcDbEntity
  8
Frei
  6
CONTINUOUS
 62
           7
100
AcDbLine
 10
-14370.075620497506
 20
-76.572513489162
 30
0.0
 11
-14369.578656321068
 21
-76.627528099367
 31
0.0
  0
LINE
  5
112
100
AcDbEntity
  8
Frei
  6
CONTINUOUS
 62
           7
100
AcDbLine
 10
-14343.608149450931
 20
-69.240189410224
 30
0.0
 11
-14368.953322449337
 21
-66.4344442898
 31
0.0
  0
LINE
  5
113
100
AcDbEntity
  8
Frei
  6
CONTINUOUS
 62
           7
100
AcDbLine
 10
-14373.62773163211
 20
-113.204091485304
 30
0.0
 11
-14373.209620594556
 21
-109.427163744365
 31
0.0
  0
LINE
  5
114
100
AcDbEntity
  8
Frei
  6
CONTINUOUS
 62
           7
100
AcDbLine
 10
-14370.075620497506
 20
-76.572513489162
 30
0.0
 11
-14368.953322449337
 21
-66.4344442898
 31
0.0
  0
LINE
  5
115
100
AcDbEntity
  8
Frei
  6
CONTINUOUS
 62
           7
100
AcDbLine
 10
-14347.730579847057
 20
-115.567887039493
 30
0.0
 11
-14348.724508199937
 21
-115.457857819084
 31
0.0
  0
LINE
  5
116
100
AcDbEntity
  8
Frei
  6
CONTINUOUS
 62
           7
100
AcDbLine
 10
-14342.669235708254
 20
-69.847182807071
 30
0.0
 11
-14347.730579847057
 21
-115.567887039493
 31
0.0
  0
LINE
  5
117
100
AcDbEntity
  8
Frei
  6
CONTINUOUS
 62
           7
100
AcDbLine
 10
-14342.669235708254
 20
-69.847182807071
 30
0.0
 11
-14343.663164061134
 21
-69.737153586662
 31
0.0
  0
LINE
  5
118
100
AcDbEntity
  8
Frei
  6
CONTINUOUS
 62
           7
100
AcDbLine
 10
-14342.614221098051
 20
-69.350218630633
 30
0.0
 11
-14342.669235708254
 21
-69.847182807071
 31
0.0
  0
LINE
  5
119
100
AcDbEntity
  8
Frei
  6
CONTINUOUS
 62
           7
100
AcDbLine
 10
-14348.724508199937
 20
-115.457857819084
 30
0.0
 11
-14343.608149450931
 21
-69.240189410224
 31
0.0
  0
LINE
  5
11A
100
AcDbEntity
  8
Frei
  6
CONTINUOUS
 62
           7
100
AcDbLine
 10
-14348.779522810142
 20
-115.954821995524
 30
0.0
 11
-14348.724508199937
 21
-115.457857819084
 31
0.0
  0
LINE
  5
11B
100
AcDbEntity
  8
Frei
  6
CONTINUOUS
 62
           7
100
AcDbLine
 10
-14373.62773163211
 20
-113.204091485304
 30
0.0
 11
-14348.779522810142
 21
-115.954821995524
 31
0.0
  0
LINE
  5
11C
100
AcDbEntity
  8
Frei
  6
CONTINUOUS
 62
           7
100
AcDbLine
 10
-14270.259182932719
 20
-124.647130407817
 30
0.0
 11
-14245.410974110751
 21
-127.397860918036
 31
0.0
  0
LINE
  5
11D
100
AcDbEntity
  8
Frei
  6
CONTINUOUS
 62
           7
100
AcDbLine
 10
-14270.204168322514
 20
-124.150166231377
 30
0.0
 11
-14270.259182932719
 21
-124.647130407817
 31
0.0
  0
LINE
  5
11E
100
AcDbEntity
  8
Frei
  6
CONTINUOUS
 62
           7
100
AcDbLine
 10
-14265.087809573508
 20
-77.932497822517
 30
0.0
 11
-14270.204168322514
 21
-124.150166231377
 31
0.0
  0
LINE
  5
11F
100
AcDbEntity
  8
Frei
  6
CONTINUOUS
 62
           7
100
AcDbLine
 10
-14265.142824183711
 20
-78.429461998955
 30
0.0
 11
-14266.136752536589
 21
-78.319432778547
 31
0.0
  0
LINE
  5
120
100
AcDbEntity
  8
Frei
  6
CONTINUOUS
 62
           7
100
AcDbLine
 10
-14270.204168322514
 20
-124.150166231377
 30
0.0
 11
-14271.198096675393
 21
-124.040137010968
 31
0.0
  0
LINE
  5
121
100
AcDbEntity
  8
Frei
  6
CONTINUOUS
 62
           7
100
AcDbLine
 10
-14239.7426365751
 20
-80.738242942941
 30
0.0
 11
-14240.864934623269
 21
-90.876312142303
 31
0.0
  0
LINE
  5
122
100
AcDbEntity
  8
Frei
  6
CONTINUOUS
 62
           7
100
AcDbLine
 10
-14239.7426365751
 20
-80.738242942941
 30
0.0
 11
-14265.087809573508
 21
-77.932497822517
 31
0.0
  0
LINE
  5
123
100
AcDbEntity
  8
Frei
  6
CONTINUOUS
 62
           7
100
AcDbLine
 10
-14241.361898799709
 20
-90.821297532098
 30
0.0
 11
-14240.864934623269
 21
-90.876312142303
 31
0.0
  0
LINE
  5
124
100
AcDbEntity
  8
Frei
  6
CONTINUOUS
 62
           7
100
AcDbLine
 10
-14241.361898799709
 20
-90.821297532098
 30
0.0
 11
-14245.410974110751
 21
-127.397860918036
 31
0.0
  0
LINE
  5
125
100
AcDbEntity
  8
Frei
  6
CONTINUOUS
 62
           7
100
AcDbLine
 10
-14416.511514662585
 20
-77.971703644071
 30
0.0
 11
-14418.499371368342
 21
-77.751645203253
 31
0.0
  0
LINE
  5
126
100
AcDbEntity
  8
Frei
  6
CONTINUOUS
 62
           7
100
AcDbLine
 10
-14417.608141497474
 20
-96.966371569175
 30
0.0
 11
-14415.627615530115
 21
-79.075661217358
 31
0.0
  0
LINE
  5
127
100
AcDbEntity
  8
Frei
  6
CONTINUOUS
 62
           7
100
AcDbLine
 10
-14420.699955776518
 20
-97.630212260828
 30
0.0
 11
-14418.712099070761
 21
-97.850270701645
 31
0.0
  0
LINE
  5
128
100
AcDbEntity
  8
Frei
  6
CONTINUOUS
 62
           7
100
AcDbLine
 10
-14421.033708806945
 20
-91.556612923147
 30
0.0
 11
-14421.583854908989
 21
-96.52625468754
 31
0.0
  0
LINE
  5
129
100
AcDbEntity
  8
Frei
  6
CONTINUOUS
 62
           7
100
AcDbLine
 10
-14418.499371368342
 20
-77.751645203253
 30
0.0
 11
-14419.60332894163
 21
-78.635544335723
 31
0.0
  0
LINE
  5
12A
100
AcDbEntity
  8
Frei
  6
CONTINUOUS
 62
           7
100
AcDbLine
 10
-14416.511514662585
 20
-77.971703644071
 30
0.0
 11
-14415.627615530115
 21
-79.075661217358
 31
0.0
  0
LINE
  5
12B
100
AcDbEntity
  8
Frei
  6
CONTINUOUS
 62
           7
100
AcDbLine
 10
-14417.608141497474
 20
-96.966371569175
 30
0.0
 11
-14418.712099070761
 21
-97.850270701645
 31
0.0
  0
LINE
  5
12C
100
AcDbEntity
  8
Frei
  6
CONTINUOUS
 62
           7
100
AcDbLine
 10
-14420.699955776518
 20
-97.630212260828
 30
0.0
 11
-14421.583854908989
 21
-96.52625468754
 31
0.0
  0
LINE
  5
12D
100
AcDbEntity
  8
Frei
  6
CONTINUOUS
 62
           7
100
AcDbLine
 10
-14420.699955776518
 20
-97.630212260828
 30
0.0
 11
-14418.499371368342
 21
-77.751645203253
 31
0.0
  0
LINE
  5
12E
100
AcDbEntity
  8
Frei
  6
CONTINUOUS
 62
           7
100
AcDbLine
 10
-14418.712099070761
 20
-97.850270701645
 30
0.0
 11
-14416.511514662585
 21
-77.971703644071
 31
0.0
  0
LINE
  5
12F
100
AcDbEntity
  8
Frei
  6
CONTINUOUS
 62
           7
100
AcDbLine
 10
-14418.433360650539
 20
-104.420834215766
 30
0.0
 11
-14417.608141497474
 21
-96.966371569175
 31
0.0
  0
LINE
  5
130
100
AcDbEntity
  8
Frei
  6
CONTINUOUS
 62
           7
100
AcDbLine
 10
-14388.564160823173
 20
-98.169362255272
 30
0.0
 11
-14389.609438417056
 21
-107.61168160762
 31
0.0
  0
LINE
  5
131
100
AcDbEntity
  8
Frei
  6
CONTINUOUS
 62
           7
100
AcDbLine
 10
-14421.257432616962
 20
-84.489085232587
 30
0.0
 11
-14420.153475043675
 21
-83.605186100117
 31
0.0
  0
LINE
  5
132
100
AcDbEntity
  8
Frei
  6
CONTINUOUS
 62
           7
100
AcDbLine
 10
-14419.60332894163
 20
-78.635544335723
 30
0.0
 11
-14420.153475043675
 21
-83.605186100117
 31
0.0
  0
LINE
  5
133
100
AcDbEntity
  8
Frei
  6
CONTINUOUS
 62
           7
100
AcDbLine
 10
-14421.312447227167
 20
-84.986049409026
 30
0.0
 11
-14421.257432616962
 21
-84.489085232587
 31
0.0
  0
LINE
  5
134
100
AcDbEntity
  8
Frei
  6
CONTINUOUS
 62
           7
100
AcDbLine
 10
-14421.033708806945
 20
-91.556612923147
 30
0.0
 11
-14421.917607939415
 21
-90.452655349859
 31
0.0
  0
LINE
  5
135
100
AcDbEntity
  8
Frei
  6
CONTINUOUS
 62
           7
100
AcDbLine
 10
-14420.923679586536
 20
-90.562684570268
 30
0.0
 11
-14421.033708806945
 21
-91.556612923147
 31
0.0
  0
LINE
  5
136
100
AcDbEntity
  8
Frei
  6
CONTINUOUS
 62
           2
100
AcDbLine
 10
-14420.263504264083
 20
-84.599114452996
 30
0.0
 11
-14421.257432616962
 21
-84.489085232587
 31
0.0
  0
LINE
  5
137
100
AcDbEntity
  8
Frei
  6
CONTINUOUS
 62
           7
100
AcDbLine
 10
-14420.153475043675
 20
-83.605186100117
 30
0.0
 11
-14420.263504264083
 21
-84.599114452996
 31
0.0
  0
LINE
  5
138
100
AcDbEntity
  8
Frei
  6
CONTINUOUS
 62
           2
100
AcDbLine
 10
-14420.923679586536
 20
-90.562684570268
 30
0.0
 11
-14421.917607939415
 21
-90.452655349859
 31
0.0
  0
LINE
  5
139
100
AcDbEntity
  8
Frei
  6
CONTINUOUS
 62
           7
100
AcDbLine
 10
-14420.263504264083
 20
-84.599114452996
 30
0.0
 11
-14420.923679586536
 21
-90.562684570268
 31
0.0
  0
LINE
  5
13A
100
AcDbEntity
  8
Frei
  6
CONTINUOUS
 62
           1
100
AcDbLine
 10
-14418.839204673091
 20
-85.259840723378
 30
0.0
 11
-14421.312447227167
 21
-84.986049409026
 31
0.0
  0
LINE
  5
13B
100
AcDbEntity
  8
Frei
  6
CONTINUOUS
 62
           7
100
AcDbLine
 10
-14421.36746183737
 20
-85.483013585465
 30
0.0
 11
-14421.312447227167
 21
-84.986049409026
 31
0.0
  0
LINE
  5
13C
100
AcDbEntity
  8
Frei
  6
CONTINUOUS
 62
           1
100
AcDbLine
 10
-14419.389350775135
 20
-90.229482487772
 30
0.0
 11
-14421.86259332921
 21
-89.95569117342
 31
0.0
  0
LINE
  5
13D
100
AcDbEntity
  8
Frei
  6
CONTINUOUS
 62
           7
100
AcDbLine
 10
-14421.917607939415
 20
-90.452655349859
 30
0.0
 11
-14421.86259332921
 21
-89.95569117342
 31
0.0
  0
LINE
  5
13E
100
AcDbEntity
  8
Frei
  6
CONTINUOUS
 62
           1
100
AcDbLine
 10
-14418.894219283295
 20
-85.756804899818
 30
0.0
 11
-14421.36746183737
 21
-85.483013585465
 31
0.0
  0
LINE
  5
13F
100
AcDbEntity
  8
Frei
  6
CONTINUOUS
 62
           7
100
AcDbLine
 10
-14421.807578719006
 20
-89.45872699698
 30
0.0
 11
-14421.36746183737
 21
-85.483013585465
 31
0.0
  0
LINE
  5
140
100
AcDbEntity
  8
Frei
  6
CONTINUOUS
 62
           1
100
AcDbLine
 10
-14419.334336164931
 20
-89.732518311333
 30
0.0
 11
-14421.807578719006
 21
-89.45872699698
 31
0.0
  0
LINE
  5
141
100
AcDbEntity
  8
Frei
  6
CONTINUOUS
 62
           7
100
AcDbLine
 10
-14421.86259332921
 20
-89.95569117342
 30
0.0
 11
-14421.807578719006
 21
-89.45872699698
 31
0.0
  0
LINE
  5
142
100
AcDbEntity
  8
Frei
  6
CONTINUOUS
 62
           7
100
AcDbLine
 10
-14413.428042176665
 20
-76.748849187947
 30
0.0
 11
-14386.418591025202
 21
-78.787759374137
 31
0.0
  0
LINE
  5
143
100
AcDbEntity
  8
Frei
  6
CONTINUOUS
 62
           7
100
AcDbLine
 10
-14415.566448071038
 20
-78.523116433121
 30
0.0
 11
-14415.627615530115
 21
-79.075661217358
 31
0.0
  0
LINE
  5
144
100
AcDbEntity
  8
Frei
  6
CONTINUOUS
 62
           7
100
AcDbLine
 10
-14389.609438417056
 20
-107.61168160762
 30
0.0
 11
-14418.433360650539
 21
-104.420834215766
 31
0.0
  0
LINE
  5
145
100
AcDbEntity
  8
Frei
  6
CONTINUOUS
 62
           7
100
AcDbLine
 10
-14418.543389870949
 20
-105.414762568645
 30
0.0
 11
-14418.433360650539
 21
-104.420834215766
 31
0.0
  0
LINE
  5
146
100
AcDbEntity
  8
Frei
  6
CONTINUOUS
 62
           7
100
AcDbLine
 10
-14418.046425694509
 20
-105.469777178849
 30
0.0
 11
-14418.543389870949
 21
-105.414762568645
 31
0.0
  0
LINE
  5
147
100
AcDbEntity
  8
Frei
  6
CONTINUOUS
 62
           7
100
AcDbLine
 10
-14389.609438417056
 20
-107.61168160762
 30
0.0
 11
-14389.719467637466
 21
-108.605609960499
 31
0.0
  0
LINE
  5
148
100
AcDbEntity
  8
Frei
  6
CONTINUOUS
 62
           7
100
AcDbLine
 10
-14429.913053265049
 20
-117.235538951981
 30
0.0
 11
-14419.476805559822
 21
-118.390845766273
 31
0.0
  0
LINE
  5
149
100
AcDbEntity
  8
Frei
  6
CONTINUOUS
 62
           7
100
AcDbLine
 10
-14433.164413320908
 20
-132.973348767427
 30
0.0
 11
-14433.219427931113
 21
-133.470312943866
 31
0.0
  0
LINE
  5
14A
100
AcDbEntity
  8
Frei
  6
CONTINUOUS
 62
           7
100
AcDbLine
 10
-14431.893579232406
 20
-135.126249303798
 30
0.0
 11
-14421.457331527179
 21
-136.28155611809
 31
0.0
  0
LINE
  5
14B
100
AcDbEntity
  8
Frei
  6
CONTINUOUS
 62
           7
100
AcDbLine
 10
-14421.072229255749
 20
-132.802806883014
 30
0.0
 11
-14418.046425694509
 21
-105.469777178849
 31
0.0
  0
LINE
  5
14C
100
AcDbEntity
  8
Frei
  6
CONTINUOUS
 62
           7
100
AcDbLine
 10
-14390.216431813904
 20
-108.550595350295
 30
0.0
 11
-14418.046425694509
 21
-105.469777178849
 31
0.0
  0
LINE
  5
14D
100
AcDbEntity
  8
Frei
  6
CONTINUOUS
 62
           7
100
AcDbLine
 10
-14419.746380557044
 20
-134.458743242946
 30
0.0
 11
-14413.81849086231
 21
-135.114968694098
 31
0.0
  0
LINE
  5
14E
100
AcDbEntity
  8
Frei
  6
CONTINUOUS
 62
           7
100
AcDbLine
 10
-14393.242235375144
 20
-135.88362505446
 30
0.0
 11
-14390.216431813904
 21
-108.550595350295
 31
0.0
  0
LINE
  5
14F
100
AcDbEntity
  8
Frei
  6
CONTINUOUS
 62
           7
100
AcDbLine
 10
-14389.719467637466
 20
-108.605609960499
 30
0.0
 11
-14390.216431813904
 21
-108.550595350295
 31
0.0
  0
LINE
  5
150
100
AcDbEntity
  8
Frei
  6
CONTINUOUS
 62
           7
100
AcDbLine
 10
-14413.81849086231
 20
-135.114968694098
 30
0.0
 11
-14421.457331527179
 21
-136.28155611809
 31
0.0
  0
LINE
  5
151
100
AcDbEntity
  8
Frei
  6
CONTINUOUS
 62
           7
100
AcDbLine
 10
-14394.898171735076
 20
-137.209473753165
 30
0.0
 11
-14413.81849086231
 21
-135.114968694098
 31
0.0
  0
LINE
  5
152
100
AcDbEntity
  8
Frei
  6
CONTINUOUS
 62
           7
100
AcDbLine
 10
-14436.593645999579
 20
-118.508205725081
 30
0.0
 11
-14431.624004235186
 21
-119.058351827125
 31
0.0
  0
LINE
  5
153
100
AcDbEntity
  8
Frei
  6
CONTINUOUS
 62
           7
100
AcDbLine
 10
-14431.568989624981
 20
-118.561387650685
 30
0.0
 11
-14431.624004235186
 21
-119.058351827125
 31
0.0
  0
LINE
  5
154
100
AcDbEntity
  8
Frei
  6
CONTINUOUS
 62
           7
100
AcDbLine
 10
-14438.134055085302
 20
-132.423202665383
 30
0.0
 11
-14433.164413320908
 21
-132.973348767427
 31
0.0
  0
LINE
  5
155
100
AcDbEntity
  8
Frei
  6
CONTINUOUS
 62
           7
100
AcDbLine
 10
-14433.0543841005
 20
-131.979420414548
 30
0.0
 11
-14433.164413320908
 21
-132.973348767427
 31
0.0
  0
LINE
  5
156
100
AcDbEntity
  8
Frei
  6
CONTINUOUS
 62
           2
100
AcDbLine
 10
-14431.734033455594
 20
-120.052280180004
 30
0.0
 11
-14436.703675219987
 21
-119.50213407796
 31
0.0
  0
LINE
  5
157
100
AcDbEntity
  8
Frei
  6
CONTINUOUS
 62
           7
100
AcDbLine
 10
-14431.624004235186
 20
-119.058351827125
 30
0.0
 11
-14431.734033455594
 21
-120.052280180004
 31
0.0
  0
LINE
  5
158
100
AcDbEntity
  8
Frei
  6
CONTINUOUS
 62
           2
100
AcDbLine
 10
-14433.0543841005
 20
-131.979420414548
 30
0.0
 11
-14438.024025864894
 21
-131.429274312505
 31
0.0
  0
LINE
  5
159
100
AcDbEntity
  8
Frei
  6
CONTINUOUS
 62
           7
100
AcDbLine
 10
-14431.734033455594
 20
-120.052280180004
 30
0.0
 11
-14433.0543841005
 21
-131.979420414548
 31
0.0
  0
LINE
  5
15A
100
AcDbEntity
  8
Frei
  6
CONTINUOUS
 62
           7
100
AcDbLine
 10
-14387.02375173745
 20
-84.25436531497
 30
0.0
 11
-14386.272353177934
 21
-84.337546157412
 31
0.0
  0
LINE
  5
15B
100
AcDbEntity
  8
Frei
  6
CONTINUOUS
 62
           7
100
AcDbLine
 10
-14386.418591025202
 20
-78.787759374137
 30
0.0
 11
-14387.02375173745
 21
-84.25436531497
 31
0.0
  0
LINE
  5
15C
100
AcDbEntity
  8
Frei
  6
CONTINUOUS
 62
           7
100
AcDbLine
 10
-14387.408854008881
 20
-87.733114550045
 30
0.0
 11
-14386.657455449365
 21
-87.816295392488
 31
0.0
  0
LINE
  5
15D
100
AcDbEntity
  8
Frei
  6
CONTINUOUS
 62
           7
100
AcDbLine
 10
-14387.02375173745
 20
-84.25436531497
 30
0.0
 11
-14387.408854008881
 21
-87.733114550045
 31
0.0
  0
LINE
  5
15E
100
AcDbEntity
  8
Frei
  6
CONTINUOUS
 62
           7
100
AcDbLine
 10
-14388.179058551743
 20
-94.690613020197
 30
0.0
 11
-14387.427659992227
 21
-94.773793862639
 31
0.0
  0
LINE
  5
15F
100
AcDbEntity
  8
Frei
  6
CONTINUOUS
 62
           7
100
AcDbLine
 10
-14387.408854008881
 20
-87.733114550045
 30
0.0
 11
-14388.179058551743
 21
-94.690613020197
 31
0.0
  0
LINE
  5
160
100
AcDbEntity
  8
Frei
  6
CONTINUOUS
 62
           7
100
AcDbLine
 10
-14388.564160823173
 20
-98.169362255272
 30
0.0
 11
-14387.812762263657
 21
-98.252543097714
 31
0.0
  0
LINE
  5
161
100
AcDbEntity
  8
Frei
  6
CONTINUOUS
 62
           7
100
AcDbLine
 10
-14388.179058551743
 20
-94.690613020197
 30
0.0
 11
-14388.564160823173
 21
-98.169362255272
 31
0.0
  0
LINE
  5
162
100
AcDbEntity
  8
Frei
  6
CONTINUOUS
 62
           7
100
AcDbLine
 10
-14386.303063750993
 20
-91.376907615734
 30
0.0
 11
-14385.725410343846
 21
-86.158783763121
 31
0.0
  0
LINE
  5
163
100
AcDbEntity
  8
Frei
  6
CONTINUOUS
 62
           7
100
AcDbLine
 10
-14436.491516521772
 20
-117.585638217277
 30
0.0
 11
-14436.347444142093
 21
-116.284187361796
 31
0.0
  0
LINE
  5
164
100
AcDbEntity
  8
Frei
  6
CONTINUOUS
 62
           7
100
AcDbLine
 10
-14442.598505705433
 20
-134.180255153814
 30
0.0
 11
-14438.380256942788
 21
-134.647221028668
 31
0.0
  0
LINE
  5
165
100
AcDbEntity
  8
Frei
  6
CONTINUOUS
 62
           7
100
AcDbLine
 10
-14441.461158286165
 20
-117.035492115233
 30
0.0
 11
-14436.491516521772
 21
-117.585638217277
 31
0.0
  0
LINE
  5
166
100
AcDbEntity
  8
Frei
  6
CONTINUOUS
 62
           7
100
AcDbLine
 10
-14436.711574962588
 20
-119.573494923035
 30
0.0
 11
-14436.491516521772
 21
-117.585638217277
 31
0.0
  0
LINE
  5
167
100
AcDbEntity
  8
Frei
  6
CONTINUOUS
 62
           7
100
AcDbLine
 10
-14436.711574962588
 20
-119.573494923035
 30
0.0
 11
-14441.681216726982
 21
-119.023348820991
 31
0.0
  0
LINE
  5
168
100
AcDbEntity
  8
Frei
  6
CONTINUOUS
 62
           7
100
AcDbLine
 10
-14441.461158286165
 20
-117.035492115233
 30
0.0
 11
-14441.681216726982
 21
-119.023348820991
 31
0.0
  0
LINE
  5
169
100
AcDbEntity
  8
Frei
  6
CONTINUOUS
 62
           7
100
AcDbLine
 10
-14436.855647342267
 20
-120.874945778514
 30
0.0
 11
-14436.711574962588
 21
-119.573494923035
 31
0.0
  0
LINE
  5
16A
100
AcDbEntity
  8
Frei
  6
CONTINUOUS
 62
           7
100
AcDbLine
 10
-14437.143792101622
 20
-123.477847489474
 30
0.0
 11
-14436.855647342267
 21
-120.874945778514
 31
0.0
  0
LINE
  5
16B
100
AcDbEntity
  8
Frei
  6
CONTINUOUS
 62
           7
100
AcDbLine
 10
-14437.143792101622
 20
-123.477847489474
 30
0.0
 11
-14442.113433866016
 21
-122.927701387431
 31
0.0
  0
LINE
  5
16C
100
AcDbEntity
  8
Frei
  6
CONTINUOUS
 62
           7
100
AcDbLine
 10
-14441.681216726982
 20
-119.023348820991
 30
0.0
 11
-14442.113433866016
 21
-122.927701387431
 31
0.0
  0
LINE
  5
16D
100
AcDbEntity
  8
Frei
  6
CONTINUOUS
 62
           7
100
AcDbLine
 10
-14437.583908983257
 20
-127.453560900989
 30
0.0
 11
-14437.143792101622
 21
-123.477847489474
 31
0.0
  0
LINE
  5
16E
100
AcDbEntity
  8
Frei
  6
CONTINUOUS
 62
           7
100
AcDbLine
 10
-14437.583908983257
 20
-127.453560900989
 30
0.0
 11
-14442.553550747651
 21
-126.903414798946
 31
0.0
  0
LINE
  5
16F
100
AcDbEntity
  8
Frei
  6
CONTINUOUS
 62
           7
100
AcDbLine
 10
-14442.113433866016
 20
-122.927701387431
 30
0.0
 11
-14442.553550747651
 21
-126.903414798946
 31
0.0
  0
LINE
  5
170
100
AcDbEntity
  8
Frei
  6
CONTINUOUS
 62
           7
100
AcDbLine
 10
-14437.872053742614
 20
-130.05646261195
 30
0.0
 11
-14437.583908983257
 21
-127.453560900989
 31
0.0
  0
LINE
  5
171
100
AcDbEntity
  8
Frei
  6
CONTINUOUS
 62
           7
100
AcDbLine
 10
-14438.016126122293
 20
-131.357913467431
 30
0.0
 11
-14437.872053742614
 21
-130.05646261195
 31
0.0
  0
LINE
  5
172
100
AcDbEntity
  8
Frei
  6
CONTINUOUS
 62
           7
100
AcDbLine
 10
-14438.016126122293
 20
-131.357913467431
 30
0.0
 11
-14442.985767886687
 21
-130.807767365387
 31
0.0
  0
LINE
  5
173
100
AcDbEntity
  8
Frei
  6
CONTINUOUS
 62
           7
100
AcDbLine
 10
-14442.553550747651
 20
-126.903414798946
 30
0.0
 11
-14442.985767886687
 21
-130.807767365387
 31
0.0
  0
LINE
  5
174
100
AcDbEntity
  8
Frei
  6
CONTINUOUS
 62
           7
100
AcDbLine
 10
-14438.236184563109
 20
-133.345770173188
 30
0.0
 11
-14438.016126122293
 21
-131.357913467431
 31
0.0
  0
LINE
  5
175
100
AcDbEntity
  8
Frei
  6
CONTINUOUS
 62
           7
100
AcDbLine
 10
-14438.236184563109
 20
-133.345770173188
 30
0.0
 11
-14443.205826327503
 21
-132.795624071144
 31
0.0
  0
LINE
  5
176
100
AcDbEntity
  8
Frei
  6
CONTINUOUS
 62
           7
100
AcDbLine
 10
-14442.985767886687
 20
-130.807767365387
 30
0.0
 11
-14443.205826327503
 21
-132.795624071144
 31
0.0
  0
LINE
  5
177
100
AcDbEntity
  8
Frei
  6
CONTINUOUS
 62
           7
100
AcDbLine
 10
-14438.380256942788
 20
-134.647221028668
 30
0.0
 11
-14438.236184563109
 21
-133.345770173188
 31
0.0
  0
LINE
  5
178
100
AcDbEntity
  8
Frei
  6
CONTINUOUS
 62
           7
100
AcDbLine
 10
-14441.461158286165
 20
-117.035492115233
 30
0.0
 11
-14440.565692904738
 21
-115.817221486943
 31
0.0
  0
LINE
  5
179
100
AcDbEntity
  8
Frei
  6
CONTINUOUS
 62
           7
100
AcDbLine
 10
-14436.347444142093
 20
-116.284187361796
 30
0.0
 11
-14440.565692904738
 21
-115.817221486943
 31
0.0
  0
LINE
  5
17A
100
AcDbEntity
  8
Frei
  6
CONTINUOUS
 62
           7
100
AcDbLine
 10
-14442.598505705433
 20
-134.180255153814
 30
0.0
 11
-14443.205826327503
 21
-132.795624071144
 31
0.0
  0
LINE
  5
17B
100
AcDbEntity
  8
Frei
  6
CONTINUOUS
 62
           7
100
AcDbLine
 10
-14441.073896104912
 20
-120.40797990366
 30
0.0
 11
-14441.681216726982
 21
-119.023348820991
 31
0.0
  0
LINE
  5
17C
100
AcDbEntity
  8
Frei
  6
CONTINUOUS
 62
           7
100
AcDbLine
 10
-14436.855647342267
 20
-120.874945778514
 30
0.0
 11
-14441.073896104912
 21
-120.40797990366
 31
0.0
  0
LINE
  5
17D
100
AcDbEntity
  8
Frei
  6
CONTINUOUS
 62
           7
100
AcDbLine
 10
-14442.113433866016
 20
-122.927701387431
 30
0.0
 11
-14441.073896104912
 21
-120.40797990366
 31
0.0
  0
LINE
  5
17E
100
AcDbEntity
  8
Frei
  6
CONTINUOUS
 62
           7
100
AcDbLine
 10
-14442.090302505259
 20
-129.589496737096
 30
0.0
 11
-14442.553550747651
 21
-126.903414798946
 31
0.0
  0
LINE
  5
17F
100
AcDbEntity
  8
Frei
  6
CONTINUOUS
 62
           7
100
AcDbLine
 10
-14437.872053742614
 20
-130.05646261195
 30
0.0
 11
-14442.090302505259
 21
-129.589496737096
 31
0.0
  0
LINE
  5
180
100
AcDbEntity
  8
Frei
  6
CONTINUOUS
 62
           7
100
AcDbLine
 10
-14442.985767886687
 20
-130.807767365387
 30
0.0
 11
-14442.090302505259
 21
-129.589496737096
 31
0.0
  0
LINE
  5
181
100
AcDbEntity
  8
Frei
  6
CONTINUOUS
 62
           3
100
AcDbLine
 10
-14397.595713505249
 20
-129.767480176295
 30
0.0
 11
-14415.486423857066
 21
-127.786954208937
 31
0.0
  0
LINE
  5
182
100
AcDbEntity
  8
Frei
  6
CONTINUOUS
 62
           3
100
AcDbLine
 10
-14398.258088049222
 20
-130.297819655777
 30
0.0
 11
-14397.595713505249
 21
-129.767480176295
 31
0.0
  0
LINE
  5
183
100
AcDbEntity
  8
Frei
  6
CONTINUOUS
 62
           3
100
AcDbLine
 10
-14397.72774856974
 20
-130.96019419975
 30
0.0
 11
-14398.258088049222
 21
-130.297819655777
 31
0.0
  0
LINE
  5
184
100
AcDbEntity
  8
Frei
  6
CONTINUOUS
 62
           3
100
AcDbLine
 10
-14415.618458921557
 20
-128.979668232392
 30
0.0
 11
-14397.72774856974
 21
-130.96019419975
 31
0.0
  0
LINE
  5
185
100
AcDbEntity
  8
Frei
  6
CONTINUOUS
 62
           3
100
AcDbLine
 10
-14414.956084377585
 20
-128.44932875291
 30
0.0
 11
-14415.618458921557
 21
-128.979668232392
 31
0.0
  0
LINE
  5
186
100
AcDbEntity
  8
Frei
  6
CONTINUOUS
 62
           3
100
AcDbLine
 10
-14415.486423857066
 20
-127.786954208937
 30
0.0
 11
-14414.956084377585
 21
-128.44932875291
 31
0.0
  0
LINE
  5
187
100
AcDbEntity
  8
Frei
  6
CONTINUOUS
 62
           3
100
AcDbLine
 10
-14398.258088049222
 20
-130.297819655777
 30
0.0
 11
-14414.956084377585
 21
-128.44932875291
 31
0.0
  0
LINE
  5
188
100
AcDbEntity
  8
Frei
  6
CONTINUOUS
 62
           3
100
AcDbLine
 10
-14415.398400480739
 20
-126.991811526634
 30
0.0
 11
-14414.736025936767
 21
-126.461472047152
 31
0.0
  0
LINE
  5
189
100
AcDbEntity
  8
Frei
  6
CONTINUOUS
 62
           3
100
AcDbLine
 10
-14397.507690128921
 20
-128.972337493992
 30
0.0
 11
-14415.398400480739
 21
-126.991811526634
 31
0.0
  0
LINE
  5
18A
100
AcDbEntity
  8
Frei
  6
CONTINUOUS
 62
           3
100
AcDbLine
 10
-14398.038029608404
 20
-128.30996295002
 30
0.0
 11
-14397.507690128921
 21
-128.972337493992
 31
0.0
  0
LINE
  5
18B
100
AcDbEntity
  8
Frei
  6
CONTINUOUS
 62
           3
100
AcDbLine
 10
-14397.375655064432
 20
-127.779623470538
 30
0.0
 11
-14398.038029608404
 21
-128.30996295002
 31
0.0
  0
LINE
  5
18C
100
AcDbEntity
  8
Frei
  6
CONTINUOUS
 62
           3
100
AcDbLine
 10
-14415.26636541625
 20
-125.79909750318
 30
0.0
 11
-14397.375655064432
 21
-127.779623470538
 31
0.0
  0
LINE
  5
18D
100
AcDbEntity
  8
Frei
  6
CONTINUOUS
 62
           3
100
AcDbLine
 10
-14414.736025936767
 20
-126.461472047152
 30
0.0
 11
-14415.26636541625
 21
-125.79909750318
 31
0.0
  0
LINE
  5
18E
100
AcDbEntity
  8
Frei
  6
CONTINUOUS
 62
           3
100
AcDbLine
 10
-14414.736025936767
 20
-126.461472047152
 30
0.0
 11
-14398.038029608404
 21
-128.30996295002
 31
0.0
  0
LINE
  5
18F
100
AcDbEntity
  8
Frei
  6
CONTINUOUS
 62
           3
100
AcDbLine
 10
-14415.178342039922
 20
-125.003954820877
 30
0.0
 11
-14414.515967495949
 21
-124.473615341395
 31
0.0
  0
LINE
  5
190
100
AcDbEntity
  8
Frei
  6
CONTINUOUS
 62
           3
100
AcDbLine
 10
-14397.287631688105
 20
-126.984480788235
 30
0.0
 11
-14415.178342039922
 21
-125.003954820877
 31
0.0
  0
LINE
  5
191
100
AcDbEntity
  8
Frei
  6
CONTINUOUS
 62
           3
100
AcDbLine
 10
-14397.817971167586
 20
-126.322106244262
 30
0.0
 11
-14397.287631688105
 21
-126.984480788235
 31
0.0
  0
LINE
  5
192
100
AcDbEntity
  8
Frei
  6
CONTINUOUS
 62
           3
100
AcDbLine
 10
-14397.155596623614
 20
-125.79176676478
 30
0.0
 11
-14397.817971167586
 21
-126.322106244262
 31
0.0
  0
LINE
  5
193
100
AcDbEntity
  8
Frei
  6
CONTINUOUS
 62
           3
100
AcDbLine
 10
-14415.046306975431
 20
-123.811240797422
 30
0.0
 11
-14397.155596623614
 21
-125.79176676478
 31
0.0
  0
LINE
  5
194
100
AcDbEntity
  8
Frei
  6
CONTINUOUS
 62
           3
100
AcDbLine
 10
-14414.515967495949
 20
-124.473615341395
 30
0.0
 11
-14415.046306975431
 21
-123.811240797422
 31
0.0
  0
LINE
  5
195
100
AcDbEntity
  8
Frei
  6
CONTINUOUS
 62
           3
100
AcDbLine
 10
-14414.958283599104
 20
-123.016098115119
 30
0.0
 11
-14414.295909055132
 21
-122.485758635637
 31
0.0
  0
LINE
  5
196
100
AcDbEntity
  8
Frei
  6
CONTINUOUS
 62
           3
100
AcDbLine
 10
-14408.902358366951
 20
-123.686497274392
 30
0.0
 11
-14414.958283599104
 21
-123.016098115119
 31
0.0
  0
LINE
  5
197
100
AcDbEntity
  8
Frei
  6
CONTINUOUS
 62
           3
100
AcDbLine
 10
-14397.597912726769
 20
-124.334249538505
 30
0.0
 11
-14397.067573247286
 21
-124.996624082477
 31
0.0
  0
LINE
  5
198
100
AcDbEntity
  8
Frei
  6
CONTINUOUS
 62
           3
100
AcDbLine
 10
-14396.935538182795
 20
-123.803910059023
 30
0.0
 11
-14397.597912726769
 21
-124.334249538505
 31
0.0
  0
LINE
  5
199
100
AcDbEntity
  8
Frei
  6
CONTINUOUS
 62
           3
100
AcDbLine
 10
-14402.991463414948
 20
-123.13351089975
 30
0.0
 11
-14396.935538182795
 21
-123.803910059023
 31
0.0
  0
LINE
  5
19A
100
AcDbEntity
  8
Frei
  6
CONTINUOUS
 62
           3
100
AcDbLine
 10
-14414.295909055132
 20
-122.485758635637
 30
0.0
 11
-14414.826248534613
 21
-121.823384091665
 31
0.0
  0
LINE
  5
19B
100
AcDbEntity
  8
Frei
  6
CONTINUOUS
 62
           3
100
AcDbLine
 10
-14414.738225158288
 20
-121.028241409362
 30
0.0
 11
-14414.075850614314
 21
-120.49790192988
 31
0.0
  0
LINE
  5
19C
100
AcDbEntity
  8
Frei
  6
CONTINUOUS
 62
           3
100
AcDbLine
 10
-14409.423985263595
 20
-121.616534993084
 30
0.0
 11
-14414.738225158288
 21
-121.028241409362
 31
0.0
  0
LINE
  5
19D
100
AcDbEntity
  8
Frei
  6
CONTINUOUS
 62
           3
100
AcDbLine
 10
-14397.377854285951
 20
-122.346392832747
 30
0.0
 11
-14396.84751480647
 21
-123.00876737672
 31
0.0
  0
LINE
  5
19E
100
AcDbEntity
  8
Frei
  6
CONTINUOUS
 62
           3
100
AcDbLine
 10
-14402.692094180644
 20
-121.758099249025
 30
0.0
 11
-14397.377854285951
 21
-122.346392832747
 31
0.0
  0
LINE
  5
19F
100
AcDbEntity
  8
Frei
  6
CONTINUOUS
 62
           3
100
AcDbLine
 10
-14408.239983822981
 20
-123.15615779491
 30
0.0
 11
-14414.295909055132
 21
-122.485758635637
 31
0.0
  0
LINE
  5
1A0
100
AcDbEntity
  8
Frei
  6
CONTINUOUS
 62
           3
100
AcDbLine
 10
-14397.817971167586
 20
-126.322106244262
 30
0.0
 11
-14414.515967495949
 21
-124.473615341395
 31
0.0
  0
LINE
  5
1A1
100
AcDbEntity
  8
Frei
  6
CONTINUOUS
 62
           3
100
AcDbLine
 10
-14408.239983822981
 20
-123.15615779491
 30
0.0
 11
-14408.77032330246
 21
-122.493783250938
 31
0.0
  0
LINE
  5
1A2
100
AcDbEntity
  8
Frei
  6
CONTINUOUS
 62
           3
100
AcDbLine
 10
-14414.826248534613
 20
-121.823384091665
 30
0.0
 11
-14408.77032330246
 21
-122.493783250938
 31
0.0
  0
LINE
  5
1A3
100
AcDbEntity
  8
Frei
  6
CONTINUOUS
 62
           3
100
AcDbLine
 10
-14408.902358366951
 20
-123.686497274392
 30
0.0
 11
-14408.239983822981
 21
-123.15615779491
 31
0.0
  0
LINE
  5
1A4
100
AcDbEntity
  8
Frei
  6
CONTINUOUS
 62
           3
100
AcDbLine
 10
-14408.761610719621
 20
-121.086195513602
 30
0.0
 11
-14409.423985263595
 21
-121.616534993084
 31
0.0
  0
LINE
  5
1A5
100
AcDbEntity
  8
Frei
  6
CONTINUOUS
 62
           3
100
AcDbLine
 10
-14414.075850614314
 20
-120.49790192988
 30
0.0
 11
-14408.761610719621
 21
-121.086195513602
 31
0.0
  0
LINE
  5
1A6
100
AcDbEntity
  8
Frei
  6
CONTINUOUS
 62
           3
100
AcDbLine
 10
-14402.161754701163
 20
-122.420473792998
 30
0.0
 11
-14402.692094180644
 21
-121.758099249025
 31
0.0
  0
LINE
  5
1A7
100
AcDbEntity
  8
Frei
  6
CONTINUOUS
 62
           3
100
AcDbLine
 10
-14396.84751480647
 20
-123.00876737672
 30
0.0
 11
-14402.161754701163
 21
-122.420473792998
 31
0.0
  0
LINE
  5
1A8
100
AcDbEntity
  8
Frei
  6
CONTINUOUS
 62
           3
100
AcDbLine
 10
-14403.653837958922
 20
-123.663850379232
 30
0.0
 11
-14402.991463414948
 21
-123.13351089975
 31
0.0
  0
LINE
  5
1A9
100
AcDbEntity
  8
Frei
  6
CONTINUOUS
 62
           3
100
AcDbLine
 10
-14397.597912726769
 20
-124.334249538505
 30
0.0
 11
-14403.653837958922
 21
-123.663850379232
 31
0.0
  0
LINE
  5
1AA
100
AcDbEntity
  8
Frei
  6
CONTINUOUS
 62
           3
100
AcDbLine
 10
-14403.123498479439
 20
-124.326224923204
 30
0.0
 11
-14403.653837958922
 21
-123.663850379232
 31
0.0
  0
LINE
  5
1AB
100
AcDbEntity
  8
Frei
  6
CONTINUOUS
 62
           3
100
AcDbLine
 10
-14397.067573247286
 20
-124.996624082477
 30
0.0
 11
-14403.123498479439
 21
-124.326224923204
 31
0.0
  0
LINE
  5
1AC
100
AcDbEntity
  8
Frei
  6
CONTINUOUS
 62
           3
100
AcDbLine
 10
-14414.826248534613
 20
-121.823384091665
 30
0.0
 11
-14414.958283599104
 21
-123.016098115119
 31
0.0
  0
LINE
  5
1AD
100
AcDbEntity
  8
Frei
  6
CONTINUOUS
 62
           3
100
AcDbLine
 10
-14415.178342039922
 20
-125.003954820877
 30
0.0
 11
-14415.046306975431
 21
-123.811240797422
 31
0.0
  0
LINE
  5
1AE
100
AcDbEntity
  8
Frei
  6
CONTINUOUS
 62
           3
100
AcDbLine
 10
-14415.398400480739
 20
-126.991811526634
 30
0.0
 11
-14415.26636541625
 21
-125.79909750318
 31
0.0
  0
LINE
  5
1AF
100
AcDbEntity
  8
Frei
  6
CONTINUOUS
 62
           3
100
AcDbLine
 10
-14415.618458921557
 20
-128.979668232392
 30
0.0
 11
-14415.486423857066
 21
-127.786954208937
 31
0.0
  0
LINE
  5
1B0
100
AcDbEntity
  8
Frei
  6
CONTINUOUS
 62
           3
100
AcDbLine
 10
-14414.672207626041
 20
-120.431884397635
 30
0.0
 11
-14414.738225158288
 21
-121.028241409362
 31
0.0
  0
LINE
  5
1B1
100
AcDbEntity
  8
Frei
  6
CONTINUOUS
 62
           3
100
AcDbLine
 10
-14396.84751480647
 20
-123.00876737672
 30
0.0
 11
-14396.781497274224
 21
-122.412410364992
 31
0.0
  0
LINE
  5
1B2
100
AcDbEntity
  8
Frei
  6
CONTINUOUS
 62
           3
100
AcDbLine
 10
-14397.067573247286
 20
-124.996624082477
 30
0.0
 11
-14396.935538182795
 21
-123.803910059023
 31
0.0
  0
LINE
  5
1B3
100
AcDbEntity
  8
Frei
  6
CONTINUOUS
 62
           3
100
AcDbLine
 10
-14397.287631688105
 20
-126.984480788235
 30
0.0
 11
-14397.155596623614
 21
-125.79176676478
 31
0.0
  0
LINE
  5
1B4
100
AcDbEntity
  8
Frei
  6
CONTINUOUS
 62
           3
100
AcDbLine
 10
-14397.507690128921
 20
-128.972337493992
 30
0.0
 11
-14397.375655064432
 21
-127.779623470538
 31
0.0
  0
LINE
  5
1B5
100
AcDbEntity
  8
Frei
  6
CONTINUOUS
 62
           3
100
AcDbLine
 10
-14397.72774856974
 20
-130.96019419975
 30
0.0
 11
-14397.595713505249
 21
-129.767480176295
 31
0.0
  0
LINE
  5
1B6
100
AcDbEntity
  8
Frei
  6
CONTINUOUS
 62
           3
100
AcDbLine
 10
-14395.967281043198
 20
-115.05734055369
 30
0.0
 11
-14395.835245978709
 21
-113.864626530235
 31
0.0
  0
LINE
  5
1B7
100
AcDbEntity
  8
Frei
  6
CONTINUOUS
 62
           3
100
AcDbLine
 10
-14396.187339484017
 20
-117.045197259447
 30
0.0
 11
-14396.055304419526
 21
-115.852483235993
 31
0.0
  0
LINE
  5
1B8
100
AcDbEntity
  8
Frei
  6
CONTINUOUS
 62
           3
100
AcDbLine
 10
-14396.407397924833
 20
-119.033053965205
 30
0.0
 11
-14396.275362860344
 21
-117.84033994175
 31
0.0
  0
LINE
  5
1B9
100
AcDbEntity
  8
Frei
  6
CONTINUOUS
 62
           3
100
AcDbLine
 10
-14396.627456365652
 20
-121.020910670962
 30
0.0
 11
-14396.495421301161
 21
-119.828196647508
 31
0.0
  0
LINE
  5
1BA
100
AcDbEntity
  8
Frei
  6
CONTINUOUS
 62
           3
100
AcDbLine
 10
-14396.781497274224
 20
-122.412410364992
 30
0.0
 11
-14396.715479741979
 21
-121.816053353265
 31
0.0
  0
LINE
  5
1BB
100
AcDbEntity
  8
Frei
  6
CONTINUOUS
 62
           3
100
AcDbLine
 10
-14414.606190093797
 20
-119.835527385907
 30
0.0
 11
-14414.672207626041
 21
-120.431884397635
 31
0.0
  0
LINE
  5
1BC
100
AcDbEntity
  8
Frei
  6
CONTINUOUS
 62
           3
100
AcDbLine
 10
-14413.857991395016
 20
-113.076814586332
 30
0.0
 11
-14413.725956330527
 21
-111.884100562878
 31
0.0
  0
LINE
  5
1BD
100
AcDbEntity
  8
Frei
  6
CONTINUOUS
 62
           3
100
AcDbLine
 10
-14414.078049835834
 20
-115.06467129209
 30
0.0
 11
-14413.946014771343
 21
-113.871957268635
 31
0.0
  0
LINE
  5
1BE
100
AcDbEntity
  8
Frei
  6
CONTINUOUS
 62
           3
100
AcDbLine
 10
-14414.298108276651
 20
-117.052527997847
 30
0.0
 11
-14414.166073212162
 21
-115.859813974392
 31
0.0
  0
LINE
  5
1BF
100
AcDbEntity
  8
Frei
  6
CONTINUOUS
 62
           3
100
AcDbLine
 10
-14414.386131652978
 20
-117.84767068015
 30
0.0
 11
-14414.518166717469
 21
-119.040384703604
 31
0.0
  0
LINE
  5
1C0
100
AcDbEntity
  8
Frei
  6
CONTINUOUS
 62
           3
100
AcDbLine
 10
-14402.551346533313
 20
-119.157797488235
 30
0.0
 11
-14396.495421301161
 21
-119.828196647508
 31
0.0
  0
LINE
  5
1C1
100
AcDbEntity
  8
Frei
  6
CONTINUOUS
 62
           3
100
AcDbLine
 10
-14403.213721077287
 20
-119.688136967717
 30
0.0
 11
-14402.551346533313
 21
-119.157797488235
 31
0.0
  0
LINE
  5
1C2
100
AcDbEntity
  8
Frei
  6
CONTINUOUS
 62
           3
100
AcDbLine
 10
-14403.213721077287
 20
-119.688136967717
 30
0.0
 11
-14397.157795845134
 21
-120.35853612699
 31
0.0
  0
LINE
  5
1C3
100
AcDbEntity
  8
Frei
  6
CONTINUOUS
 62
           3
100
AcDbLine
 10
-14402.683381597804
 20
-120.350511511689
 30
0.0
 11
-14403.213721077287
 21
-119.688136967717
 31
0.0
  0
LINE
  5
1C4
100
AcDbEntity
  8
Frei
  6
CONTINUOUS
 62
           3
100
AcDbLine
 10
-14402.029719636672
 20
-121.227759769543
 30
0.0
 11
-14396.715479741979
 21
-121.816053353265
 31
0.0
  0
LINE
  5
1C5
100
AcDbEntity
  8
Frei
  6
CONTINUOUS
 62
           3
100
AcDbLine
 10
-14402.692094180644
 20
-121.758099249025
 30
0.0
 11
-14402.029719636672
 21
-121.227759769543
 31
0.0
  0
LINE
  5
1C6
100
AcDbEntity
  8
Frei
  6
CONTINUOUS
 62
           3
100
AcDbLine
 10
-14409.291950199104
 20
-120.42382096963
 30
0.0
 11
-14408.761610719621
 21
-121.086195513602
 31
0.0
  0
LINE
  5
1C7
100
AcDbEntity
  8
Frei
  6
CONTINUOUS
 62
           3
100
AcDbLine
 10
-14407.799866941346
 20
-119.180444383395
 30
0.0
 11
-14408.330206420826
 21
-118.518069839423
 31
0.0
  0
LINE
  5
1C8
100
AcDbEntity
  8
Frei
  6
CONTINUOUS
 62
           3
100
AcDbLine
 10
-14408.462241485317
 20
-119.710783862877
 30
0.0
 11
-14414.518166717469
 21
-119.040384703604
 31
0.0
  0
LINE
  5
1C9
100
AcDbEntity
  8
Frei
  6
CONTINUOUS
 62
           3
100
AcDbLine
 10
-14408.462241485317
 20
-119.710783862877
 30
0.0
 11
-14407.799866941346
 21
-119.180444383395
 31
0.0
  0
LINE
  5
1CA
100
AcDbEntity
  8
Frei
  6
CONTINUOUS
 62
           3
100
AcDbLine
 10
-14413.635733732679
 20
-116.522188518365
 30
0.0
 11
-14396.937737404316
 21
-118.370679421232
 31
0.0
  0
LINE
  5
1CB
100
AcDbEntity
  8
Frei
  6
CONTINUOUS
 62
           3
100
AcDbLine
 10
-14413.855792173497
 20
-118.510045224122
 30
0.0
 11
-14407.799866941346
 21
-119.180444383395
 31
0.0
  0
LINE
  5
1CC
100
AcDbEntity
  8
Frei
  6
CONTINUOUS
 62
           3
100
AcDbLine
 10
-14396.715479741979
 20
-121.816053353265
 30
0.0
 11
-14397.377854285951
 21
-122.346392832747
 31
0.0
  0
LINE
  5
1CD
100
AcDbEntity
  8
Frei
  6
CONTINUOUS
 62
           3
100
AcDbLine
 10
-14414.606190093797
 20
-119.835527385907
 30
0.0
 11
-14409.291950199104
 21
-120.42382096963
 31
0.0
  0
LINE
  5
1CE
100
AcDbEntity
  8
Frei
  6
CONTINUOUS
 62
           3
100
AcDbLine
 10
-14414.075850614314
 20
-120.49790192988
 30
0.0
 11
-14414.606190093797
 21
-119.835527385907
 31
0.0
  0
LINE
  5
1CF
100
AcDbEntity
  8
Frei
  6
CONTINUOUS
 62
           3
100
AcDbLine
 10
-14414.518166717469
 20
-119.040384703604
 30
0.0
 11
-14413.855792173497
 21
-118.510045224122
 31
0.0
  0
LINE
  5
1D0
100
AcDbEntity
  8
Frei
  6
CONTINUOUS
 62
           3
100
AcDbLine
 10
-14396.627456365652
 20
-121.020910670962
 30
0.0
 11
-14402.683381597804
 21
-120.350511511689
 31
0.0
  0
LINE
  5
1D1
100
AcDbEntity
  8
Frei
  6
CONTINUOUS
 62
           3
100
AcDbLine
 10
-14397.157795845134
 20
-120.35853612699
 30
0.0
 11
-14396.627456365652
 21
-121.020910670962
 31
0.0
  0
LINE
  5
1D2
100
AcDbEntity
  8
Frei
  6
CONTINUOUS
 62
           3
100
AcDbLine
 10
-14396.495421301161
 20
-119.828196647508
 30
0.0
 11
-14397.157795845134
 21
-120.35853612699
 31
0.0
  0
LINE
  5
1D3
100
AcDbEntity
  8
Frei
  6
CONTINUOUS
 62
           3
100
AcDbLine
 10
-14414.386131652978
 20
-117.84767068015
 30
0.0
 11
-14408.330206420826
 21
-118.518069839423
 31
0.0
  0
LINE
  5
1D4
100
AcDbEntity
  8
Frei
  6
CONTINUOUS
 62
           3
100
AcDbLine
 10
-14413.855792173497
 20
-118.510045224122
 30
0.0
 11
-14414.386131652978
 21
-117.84767068015
 31
0.0
  0
LINE
  5
1D5
100
AcDbEntity
  8
Frei
  6
CONTINUOUS
 62
           3
100
AcDbLine
 10
-14414.298108276651
 20
-117.052527997847
 30
0.0
 11
-14413.635733732679
 21
-116.522188518365
 31
0.0
  0
LINE
  5
1D6
100
AcDbEntity
  8
Frei
  6
CONTINUOUS
 62
           3
100
AcDbLine
 10
-14396.407397924833
 20
-119.033053965205
 30
0.0
 11
-14414.298108276651
 21
-117.052527997847
 31
0.0
  0
LINE
  5
1D7
100
AcDbEntity
  8
Frei
  6
CONTINUOUS
 62
           3
100
AcDbLine
 10
-14396.937737404316
 20
-118.370679421232
 30
0.0
 11
-14396.407397924833
 21
-119.033053965205
 31
0.0
  0
LINE
  5
1D8
100
AcDbEntity
  8
Frei
  6
CONTINUOUS
 62
           3
100
AcDbLine
 10
-14396.275362860344
 20
-117.84033994175
 30
0.0
 11
-14396.937737404316
 21
-118.370679421232
 31
0.0
  0
LINE
  5
1D9
100
AcDbEntity
  8
Frei
  6
CONTINUOUS
 62
           3
100
AcDbLine
 10
-14414.166073212162
 20
-115.859813974392
 30
0.0
 11
-14396.275362860344
 21
-117.84033994175
 31
0.0
  0
LINE
  5
1DA
100
AcDbEntity
  8
Frei
  6
CONTINUOUS
 62
           3
100
AcDbLine
 10
-14413.635733732679
 20
-116.522188518365
 30
0.0
 11
-14414.166073212162
 21
-115.859813974392
 31
0.0
  0
LINE
  5
1DB
100
AcDbEntity
  8
Frei
  6
CONTINUOUS
 62
           3
100
AcDbLine
 10
-14396.717678963498
 20
-116.382822715475
 30
0.0
 11
-14413.415675291861
 21
-114.534331812607
 31
0.0
  0
LINE
  5
1DC
100
AcDbEntity
  8
Frei
  6
CONTINUOUS
 62
           3
100
AcDbLine
 10
-14414.078049835834
 20
-115.06467129209
 30
0.0
 11
-14413.415675291861
 21
-114.534331812607
 31
0.0
  0
LINE
  5
1DD
100
AcDbEntity
  8
Frei
  6
CONTINUOUS
 62
           3
100
AcDbLine
 10
-14396.187339484017
 20
-117.045197259447
 30
0.0
 11
-14414.078049835834
 21
-115.06467129209
 31
0.0
  0
LINE
  5
1DE
100
AcDbEntity
  8
Frei
  6
CONTINUOUS
 62
           3
100
AcDbLine
 10
-14396.717678963498
 20
-116.382822715475
 30
0.0
 11
-14396.187339484017
 21
-117.045197259447
 31
0.0
  0
LINE
  5
1DF
100
AcDbEntity
  8
Frei
  6
CONTINUOUS
 62
           3
100
AcDbLine
 10
-14396.055304419526
 20
-115.852483235993
 30
0.0
 11
-14396.717678963498
 21
-116.382822715475
 31
0.0
  0
LINE
  5
1E0
100
AcDbEntity
  8
Frei
  6
CONTINUOUS
 62
           3
100
AcDbLine
 10
-14413.946014771343
 20
-113.871957268635
 30
0.0
 11
-14396.055304419526
 21
-115.852483235993
 31
0.0
  0
LINE
  5
1E1
100
AcDbEntity
  8
Frei
  6
CONTINUOUS
 62
           3
100
AcDbLine
 10
-14413.415675291861
 20
-114.534331812607
 30
0.0
 11
-14413.946014771343
 21
-113.871957268635
 31
0.0
  0
LINE
  5
1E2
100
AcDbEntity
  8
Frei
  6
CONTINUOUS
 62
           3
100
AcDbLine
 10
-14413.195616851044
 20
-112.54647510685
 30
0.0
 11
-14396.497620522681
 21
-114.394966009718
 31
0.0
  0
LINE
  5
1E3
100
AcDbEntity
  8
Frei
  6
CONTINUOUS
 62
           3
100
AcDbLine
 10
-14413.195616851044
 20
-112.54647510685
 30
0.0
 11
-14413.857991395016
 21
-113.076814586332
 31
0.0
  0
LINE
  5
1E4
100
AcDbEntity
  8
Frei
  6
CONTINUOUS
 62
           3
100
AcDbLine
 10
-14413.725956330527
 20
-111.884100562878
 30
0.0
 11
-14413.195616851044
 21
-112.54647510685
 31
0.0
  0
LINE
  5
1E5
100
AcDbEntity
  8
Frei
  6
CONTINUOUS
 62
           3
100
AcDbLine
 10
-14395.835245978709
 20
-113.864626530235
 30
0.0
 11
-14413.725956330527
 21
-111.884100562878
 31
0.0
  0
LINE
  5
1E6
100
AcDbEntity
  8
Frei
  6
CONTINUOUS
 62
           3
100
AcDbLine
 10
-14396.497620522681
 20
-114.394966009718
 30
0.0
 11
-14395.835245978709
 21
-113.864626530235
 31
0.0
  0
LINE
  5
1E7
100
AcDbEntity
  8
Frei
  6
CONTINUOUS
 62
           3
100
AcDbLine
 10
-14395.967281043198
 20
-115.05734055369
 30
0.0
 11
-14396.497620522681
 21
-114.394966009718
 31
0.0
  0
LINE
  5
1E8
100
AcDbEntity
  8
Frei
  6
CONTINUOUS
 62
           3
100
AcDbLine
 10
-14413.857991395016
 20
-113.076814586332
 30
0.0
 11
-14395.967281043198
 21
-115.05734055369
 31
0.0
  0
LINE
  5
1E9
100
AcDbEntity
  8
Frei
  6
CONTINUOUS
 62
           3
100
AcDbLine
 10
-14224.017675995176
 20
-134.092395684407
 30
0.0
 11
-14206.12696564336
 21
-136.072921651765
 31
0.0
  0
LINE
  5
1EA
100
AcDbEntity
  8
Frei
  6
CONTINUOUS
 62
           3
100
AcDbLine
 10
-14223.355301451205
 20
-133.562056204925
 30
0.0
 11
-14224.017675995176
 21
-134.092395684407
 31
0.0
  0
LINE
  5
1EB
100
AcDbEntity
  8
Frei
  6
CONTINUOUS
 62
           3
100
AcDbLine
 10
-14223.885640930686
 20
-132.899681660953
 30
0.0
 11
-14223.355301451205
 21
-133.562056204925
 31
0.0
  0
LINE
  5
1EC
100
AcDbEntity
  8
Frei
  6
CONTINUOUS
 62
           3
100
AcDbLine
 10
-14205.99493057887
 20
-134.880207628311
 30
0.0
 11
-14223.885640930686
 21
-132.899681660953
 31
0.0
  0
LINE
  5
1ED
100
AcDbEntity
  8
Frei
  6
CONTINUOUS
 62
           3
100
AcDbLine
 10
-14206.657305122842
 20
-135.410547107793
 30
0.0
 11
-14205.99493057887
 21
-134.880207628311
 31
0.0
  0
LINE
  5
1EE
100
AcDbEntity
  8
Frei
  6
CONTINUOUS
 62
           3
100
AcDbLine
 10
-14206.12696564336
 20
-136.072921651765
 30
0.0
 11
-14206.657305122842
 21
-135.410547107793
 31
0.0
  0
LINE
  5
1EF
100
AcDbEntity
  8
Frei
  6
CONTINUOUS
 62
           3
100
AcDbLine
 10
-14223.355301451205
 20
-133.562056204925
 30
0.0
 11
-14206.657305122842
 21
-135.410547107793
 31
0.0
  0
LINE
  5
1F0
100
AcDbEntity
  8
Frei
  6
CONTINUOUS
 62
           3
100
AcDbLine
 10
-14206.214989019687
 20
-136.868064334068
 30
0.0
 11
-14206.877363563659
 21
-137.39840381355
 31
0.0
  0
LINE
  5
1F1
100
AcDbEntity
  8
Frei
  6
CONTINUOUS
 62
           3
100
AcDbLine
 10
-14224.105699371503
 20
-134.88753836671
 30
0.0
 11
-14206.214989019687
 21
-136.868064334068
 31
0.0
  0
LINE
  5
1F2
100
AcDbEntity
  8
Frei
  6
CONTINUOUS
 62
           3
100
AcDbLine
 10
-14223.575359892022
 20
-135.549912910683
 30
0.0
 11
-14224.105699371503
 21
-134.88753836671
 31
0.0
  0
LINE
  5
1F3
100
AcDbEntity
  8
Frei
  6
CONTINUOUS
 62
           3
100
AcDbLine
 10
-14224.237734435994
 20
-136.080252390165
 30
0.0
 11
-14223.575359892022
 21
-135.549912910683
 31
0.0
  0
LINE
  5
1F4
100
AcDbEntity
  8
Frei
  6
CONTINUOUS
 62
           3
100
AcDbLine
 10
-14206.347024084178
 20
-138.060778357523
 30
0.0
 11
-14224.237734435994
 21
-136.080252390165
 31
0.0
  0
LINE
  5
1F5
100
AcDbEntity
  8
Frei
  6
CONTINUOUS
 62
           3
100
AcDbLine
 10
-14206.877363563659
 20
-137.39840381355
 30
0.0
 11
-14206.347024084178
 21
-138.060778357523
 31
0.0
  0
LINE
  5
1F6
100
AcDbEntity
  8
Frei
  6
CONTINUOUS
 62
           3
100
AcDbLine
 10
-14206.877363563659
 20
-137.39840381355
 30
0.0
 11
-14223.575359892022
 21
-135.549912910683
 31
0.0
  0
LINE
  5
1F7
100
AcDbEntity
  8
Frei
  6
CONTINUOUS
 62
           3
100
AcDbLine
 10
-14206.435047460505
 20
-138.855921039826
 30
0.0
 11
-14207.097422004477
 21
-139.386260519308
 31
0.0
  0
LINE
  5
1F8
100
AcDbEntity
  8
Frei
  6
CONTINUOUS
 62
           3
100
AcDbLine
 10
-14224.325757812321
 20
-136.875395072468
 30
0.0
 11
-14206.435047460505
 21
-138.855921039826
 31
0.0
  0
LINE
  5
1F9
100
AcDbEntity
  8
Frei
  6
CONTINUOUS
 62
           3
100
AcDbLine
 10
-14223.79541833284
 20
-137.53776961644
 30
0.0
 11
-14224.325757812321
 21
-136.875395072468
 31
0.0
  0
LINE
  5
1FA
100
AcDbEntity
  8
Frei
  6
CONTINUOUS
 62
           3
100
AcDbLine
 10
-14224.45779287681
 20
-138.068109095922
 30
0.0
 11
-14223.79541833284
 21
-137.53776961644
 31
0.0
  0
LINE
  5
1FB
100
AcDbEntity
  8
Frei
  6
CONTINUOUS
 62
           3
100
AcDbLine
 10
-14206.567082524994
 20
-140.04863506328
 30
0.0
 11
-14224.45779287681
 21
-138.068109095922
 31
0.0
  0
LINE
  5
1FC
100
AcDbEntity
  8
Frei
  6
CONTINUOUS
 62
           3
100
AcDbLine
 10
-14207.097422004477
 20
-139.386260519308
 30
0.0
 11
-14206.567082524994
 21
-140.04863506328
 31
0.0
  0
LINE
  5
1FD
100
AcDbEntity
  8
Frei
  6
CONTINUOUS
 62
           3
100
AcDbLine
 10
-14206.655105901322
 20
-140.843777745583
 30
0.0
 11
-14207.317480445296
 21
-141.374117225065
 31
0.0
  0
LINE
  5
1FE
100
AcDbEntity
  8
Frei
  6
CONTINUOUS
 62
           3
100
AcDbLine
 10
-14212.711031133475
 20
-140.17337858631
 30
0.0
 11
-14206.655105901322
 21
-140.843777745583
 31
0.0
  0
LINE
  5
1FF
100
AcDbEntity
  8
Frei
  6
CONTINUOUS
 62
           3
100
AcDbLine
 10
-14224.015476773659
 20
-139.525626322198
 30
0.0
 11
-14224.545816253138
 21
-138.863251778226
 31
0.0
  0
LINE
  5
200
100
AcDbEntity
  8
Frei
  6
CONTINUOUS
 62
           3
100
AcDbLine
 10
-14224.677851317629
 20
-140.05596580168
 30
0.0
 11
-14224.015476773659
 21
-139.525626322198
 31
0.0
  0
LINE
  5
201
100
AcDbEntity
  8
Frei
  6
CONTINUOUS
 62
           3
100
AcDbLine
 10
-14218.621926085478
 20
-140.726364960953
 30
0.0
 11
-14224.677851317629
 21
-140.05596580168
 31
0.0
  0
LINE
  5
202
100
AcDbEntity
  8
Frei
  6
CONTINUOUS
 62
           3
100
AcDbLine
 10
-14207.317480445296
 20
-141.374117225065
 30
0.0
 11
-14206.787140965813
 21
-142.036491769038
 31
0.0
  0
LINE
  5
203
100
AcDbEntity
  8
Frei
  6
CONTINUOUS
 62
           3
100
AcDbLine
 10
-14206.87516434214
 20
-142.831634451341
 30
0.0
 11
-14207.537538886112
 21
-143.361973930823
 31
0.0
  0
LINE
  5
204
100
AcDbEntity
  8
Frei
  6
CONTINUOUS
 62
           3
100
AcDbLine
 10
-14212.189404236833
 20
-142.243340867618
 30
0.0
 11
-14206.87516434214
 21
-142.831634451341
 31
0.0
  0
LINE
  5
205
100
AcDbEntity
  8
Frei
  6
CONTINUOUS
 62
           3
100
AcDbLine
 10
-14224.235535214475
 20
-141.513483027955
 30
0.0
 11
-14224.765874693956
 21
-140.851108483983
 31
0.0
  0
LINE
  5
206
100
AcDbEntity
  8
Frei
  6
CONTINUOUS
 62
           3
100
AcDbLine
 10
-14213.373405677446
 20
-140.703718065792
 30
0.0
 11
-14207.317480445296
 21
-141.374117225065
 31
0.0
  0
LINE
  5
207
100
AcDbEntity
  8
Frei
  6
CONTINUOUS
 62
           3
100
AcDbLine
 10
-14223.79541833284
 20
-137.53776961644
 30
0.0
 11
-14207.097422004477
 21
-139.386260519308
 31
0.0
  0
LINE
  5
208
100
AcDbEntity
  8
Frei
  6
CONTINUOUS
 62
           3
100
AcDbLine
 10
-14213.373405677446
 20
-140.703718065792
 30
0.0
 11
-14212.843066197966
 21
-141.366092609765
 31
0.0
  0
LINE
  5
209
100
AcDbEntity
  8
Frei
  6
CONTINUOUS
 62
           3
100
AcDbLine
 10
-14206.787140965813
 20
-142.036491769038
 30
0.0
 11
-14212.843066197966
 21
-141.366092609765
 31
0.0
  0
LINE
  5
20A
100
AcDbEntity
  8
Frei
  6
CONTINUOUS
 62
           3
100
AcDbLine
 10
-14212.711031133475
 20
-140.17337858631
 30
0.0
 11
-14213.373405677446
 21
-140.703718065792
 31
0.0
  0
LINE
  5
20B
100
AcDbEntity
  8
Frei
  6
CONTINUOUS
 62
           3
100
AcDbLine
 10
-14212.851778780805
 20
-142.7736803471
 30
0.0
 11
-14212.189404236833
 21
-142.243340867618
 31
0.0
  0
LINE
  5
20C
100
AcDbEntity
  8
Frei
  6
CONTINUOUS
 62
           3
100
AcDbLine
 10
-14219.451634799265
 20
-141.439402067705
 30
0.0
 11
-14218.921295319782
 21
-142.101776611677
 31
0.0
  0
LINE
  5
20D
100
AcDbEntity
  8
Frei
  6
CONTINUOUS
 62
           3
100
AcDbLine
 10
-14224.765874693956
 20
-140.851108483983
 30
0.0
 11
-14219.451634799265
 21
-141.439402067705
 31
0.0
  0
LINE
  5
20E
100
AcDbEntity
  8
Frei
  6
CONTINUOUS
 62
           3
100
AcDbLine
 10
-14217.959551541506
 20
-140.196025481471
 30
0.0
 11
-14218.621926085478
 21
-140.726364960953
 31
0.0
  0
LINE
  5
20F
100
AcDbEntity
  8
Frei
  6
CONTINUOUS
 62
           3
100
AcDbLine
 10
-14224.015476773659
 20
-139.525626322198
 30
0.0
 11
-14217.959551541506
 21
-140.196025481471
 31
0.0
  0
LINE
  5
210
100
AcDbEntity
  8
Frei
  6
CONTINUOUS
 62
           3
100
AcDbLine
 10
-14218.489891020987
 20
-139.533650937498
 30
0.0
 11
-14217.959551541506
 21
-140.196025481471
 31
0.0
  0
LINE
  5
211
100
AcDbEntity
  8
Frei
  6
CONTINUOUS
 62
           3
100
AcDbLine
 10
-14224.545816253138
 20
-138.863251778226
 30
0.0
 11
-14218.489891020987
 21
-139.533650937498
 31
0.0
  0
LINE
  5
212
100
AcDbEntity
  8
Frei
  6
CONTINUOUS
 62
           3
100
AcDbLine
 10
-14206.787140965813
 20
-142.036491769038
 30
0.0
 11
-14206.655105901322
 21
-140.843777745583
 31
0.0
  0
LINE
  5
213
100
AcDbEntity
  8
Frei
  6
CONTINUOUS
 62
           3
100
AcDbLine
 10
-14206.435047460505
 20
-138.855921039826
 30
0.0
 11
-14206.567082524994
 21
-140.04863506328
 31
0.0
  0
LINE
  5
214
100
AcDbEntity
  8
Frei
  6
CONTINUOUS
 62
           3
100
AcDbLine
 10
-14206.214989019687
 20
-136.868064334068
 30
0.0
 11
-14206.347024084178
 21
-138.060778357523
 31
0.0
  0
LINE
  5
215
100
AcDbEntity
  8
Frei
  6
CONTINUOUS
 62
           3
100
AcDbLine
 10
-14205.99493057887
 20
-134.880207628311
 30
0.0
 11
-14206.12696564336
 21
-136.072921651765
 31
0.0
  0
LINE
  5
216
100
AcDbEntity
  8
Frei
  6
CONTINUOUS
 62
           3
100
AcDbLine
 10
-14206.941181874385
 20
-143.427991463068
 30
0.0
 11
-14206.87516434214
 21
-142.831634451341
 31
0.0
  0
LINE
  5
217
100
AcDbEntity
  8
Frei
  6
CONTINUOUS
 62
           3
100
AcDbLine
 10
-14224.765874693956
 20
-140.851108483983
 30
0.0
 11
-14224.831892226201
 21
-141.44746549571
 31
0.0
  0
LINE
  5
218
100
AcDbEntity
  8
Frei
  6
CONTINUOUS
 62
           3
100
AcDbLine
 10
-14224.545816253138
 20
-138.863251778226
 30
0.0
 11
-14224.677851317629
 21
-140.05596580168
 31
0.0
  0
LINE
  5
219
100
AcDbEntity
  8
Frei
  6
CONTINUOUS
 62
           3
100
AcDbLine
 10
-14224.325757812321
 20
-136.875395072468
 30
0.0
 11
-14224.45779287681
 21
-138.068109095922
 31
0.0
  0
LINE
  5
21A
100
AcDbEntity
  8
Frei
  6
CONTINUOUS
 62
           3
100
AcDbLine
 10
-14224.105699371503
 20
-134.88753836671
 30
0.0
 11
-14224.237734435994
 21
-136.080252390165
 31
0.0
  0
LINE
  5
21B
100
AcDbEntity
  8
Frei
  6
CONTINUOUS
 62
           3
100
AcDbLine
 10
-14223.885640930686
 20
-132.899681660953
 30
0.0
 11
-14224.017675995176
 21
-134.092395684407
 31
0.0
  0
LINE
  5
21C
100
AcDbEntity
  8
Frei
  6
CONTINUOUS
 62
           3
100
AcDbLine
 10
-14225.646108457226
 20
-148.802535307013
 30
0.0
 11
-14225.778143521717
 21
-149.995249330467
 31
0.0
  0
LINE
  5
21D
100
AcDbEntity
  8
Frei
  6
CONTINUOUS
 62
           3
100
AcDbLine
 10
-14225.426050016409
 20
-146.814678601255
 30
0.0
 11
-14225.558085080898
 21
-148.00739262471
 31
0.0
  0
LINE
  5
21E
100
AcDbEntity
  8
Frei
  6
CONTINUOUS
 62
           3
100
AcDbLine
 10
-14225.205991575591
 20
-144.826821895498
 30
0.0
 11
-14225.338026640082
 21
-146.019535918952
 31
0.0
  0
LINE
  5
21F
100
AcDbEntity
  8
Frei
  6
CONTINUOUS
 62
           3
100
AcDbLine
 10
-14224.985933134772
 20
-142.83896518974
 30
0.0
 11
-14225.117968199263
 21
-144.031679213195
 31
0.0
  0
LINE
  5
220
100
AcDbEntity
  8
Frei
  6
CONTINUOUS
 62
           3
100
AcDbLine
 10
-14224.831892226201
 20
-141.44746549571
 30
0.0
 11
-14224.897909758447
 21
-142.043822507437
 31
0.0
  0
LINE
  5
221
100
AcDbEntity
  8
Frei
  6
CONTINUOUS
 62
           3
100
AcDbLine
 10
-14207.007199406631
 20
-144.024348474795
 30
0.0
 11
-14206.941181874385
 21
-143.427991463068
 31
0.0
  0
LINE
  5
222
100
AcDbEntity
  8
Frei
  6
CONTINUOUS
 62
           3
100
AcDbLine
 10
-14207.75539810541
 20
-150.783061274371
 30
0.0
 11
-14207.887433169901
 21
-151.975775297825
 31
0.0
  0
LINE
  5
223
100
AcDbEntity
  8
Frei
  6
CONTINUOUS
 62
           3
100
AcDbLine
 10
-14207.535339664593
 20
-148.795204568613
 30
0.0
 11
-14207.667374729082
 21
-149.987918592068
 31
0.0
  0
LINE
  5
224
100
AcDbEntity
  8
Frei
  6
CONTINUOUS
 62
           3
100
AcDbLine
 10
-14207.315281223775
 20
-146.807347862856
 30
0.0
 11
-14207.447316288266
 21
-148.00006188631
 31
0.0
  0
LINE
  5
225
100
AcDbEntity
  8
Frei
  6
CONTINUOUS
 62
           3
100
AcDbLine
 10
-14207.227257847448
 20
-146.012205180553
 30
0.0
 11
-14207.095222782957
 21
-144.819491157098
 31
0.0
  0
LINE
  5
226
100
AcDbEntity
  8
Frei
  6
CONTINUOUS
 62
           3
100
AcDbLine
 10
-14219.062042967113
 20
-144.702078372468
 30
0.0
 11
-14225.117968199263
 21
-144.031679213195
 31
0.0
  0
LINE
  5
227
100
AcDbEntity
  8
Frei
  6
CONTINUOUS
 62
           3
100
AcDbLine
 10
-14218.399668423141
 20
-144.171738892986
 30
0.0
 11
-14219.062042967113
 21
-144.702078372468
 31
0.0
  0
LINE
  5
228
100
AcDbEntity
  8
Frei
  6
CONTINUOUS
 62
           3
100
AcDbLine
 10
-14218.399668423141
 20
-144.171738892986
 30
0.0
 11
-14224.455593655293
 21
-143.501339733713
 31
0.0
  0
LINE
  5
229
100
AcDbEntity
  8
Frei
  6
CONTINUOUS
 62
           3
100
AcDbLine
 10
-14218.930007902622
 20
-143.509364349013
 30
0.0
 11
-14218.399668423141
 21
-144.171738892986
 31
0.0
  0
LINE
  5
22A
100
AcDbEntity
  8
Frei
  6
CONTINUOUS
 62
           3
100
AcDbLine
 10
-14219.583669863756
 20
-142.63211609116
 30
0.0
 11
-14224.897909758447
 21
-142.043822507437
 31
0.0
  0
LINE
  5
22B
100
AcDbEntity
  8
Frei
  6
CONTINUOUS
 62
           3
100
AcDbLine
 10
-14218.921295319782
 20
-142.101776611677
 30
0.0
 11
-14219.583669863756
 21
-142.63211609116
 31
0.0
  0
LINE
  5
22C
100
AcDbEntity
  8
Frei
  6
CONTINUOUS
 62
           3
100
AcDbLine
 10
-14212.851778780805
 20
-142.7736803471
 30
0.0
 11
-14207.537538886112
 21
-143.361973930823
 31
0.0
  0
LINE
  5
22D
100
AcDbEntity
  8
Frei
  6
CONTINUOUS
 62
           3
100
AcDbLine
 10
-14212.321439301324
 20
-143.436054891073
 30
0.0
 11
-14212.851778780805
 21
-142.7736803471
 31
0.0
  0
LINE
  5
22E
100
AcDbEntity
  8
Frei
  6
CONTINUOUS
 62
           3
100
AcDbLine
 10
-14213.813522559081
 20
-144.679431477307
 30
0.0
 11
-14213.2831830796
 21
-145.34180602128
 31
0.0
  0
LINE
  5
22F
100
AcDbEntity
  8
Frei
  6
CONTINUOUS
 62
           3
100
AcDbLine
 10
-14213.151148015109
 20
-144.149091997825
 30
0.0
 11
-14207.095222782957
 21
-144.819491157098
 31
0.0
  0
LINE
  5
230
100
AcDbEntity
  8
Frei
  6
CONTINUOUS
 62
           3
100
AcDbLine
 10
-14213.151148015109
 20
-144.149091997825
 30
0.0
 11
-14213.813522559081
 21
-144.679431477307
 31
0.0
  0
LINE
  5
231
100
AcDbEntity
  8
Frei
  6
CONTINUOUS
 62
           3
100
AcDbLine
 10
-14207.977655767747
 20
-147.337687342338
 30
0.0
 11
-14224.67565209611
 21
-145.48919643947
 31
0.0
  0
LINE
  5
232
100
AcDbEntity
  8
Frei
  6
CONTINUOUS
 62
           3
100
AcDbLine
 10
-14207.75759732693
 20
-145.34983063658
 30
0.0
 11
-14213.813522559081
 21
-144.679431477307
 31
0.0
  0
LINE
  5
233
100
AcDbEntity
  8
Frei
  6
CONTINUOUS
 62
           3
100
AcDbLine
 10
-14224.235535214475
 20
-141.513483027955
 30
0.0
 11
-14218.921295319782
 21
-142.101776611677
 31
0.0
  0
LINE
  5
234
100
AcDbEntity
  8
Frei
  6
CONTINUOUS
 62
           3
100
AcDbLine
 10
-14224.897909758447
 20
-142.043822507437
 30
0.0
 11
-14224.235535214475
 21
-141.513483027955
 31
0.0
  0
LINE
  5
235
100
AcDbEntity
  8
Frei
  6
CONTINUOUS
 62
           3
100
AcDbLine
 10
-14207.007199406631
 20
-144.024348474795
 30
0.0
 11
-14212.321439301324
 21
-143.436054891073
 31
0.0
  0
LINE
  5
236
100
AcDbEntity
  8
Frei
  6
CONTINUOUS
 62
           3
100
AcDbLine
 10
-14207.537538886112
 20
-143.361973930823
 30
0.0
 11
-14207.007199406631
 21
-144.024348474795
 31
0.0
  0
LINE
  5
237
100
AcDbEntity
  8
Frei
  6
CONTINUOUS
 62
           3
100
AcDbLine
 10
-14207.095222782957
 20
-144.819491157098
 30
0.0
 11
-14207.75759732693
 21
-145.34983063658
 31
0.0
  0
LINE
  5
238
100
AcDbEntity
  8
Frei
  6
CONTINUOUS
 62
           3
100
AcDbLine
 10
-14224.985933134772
 20
-142.83896518974
 30
0.0
 11
-14218.930007902622
 21
-143.509364349013
 31
0.0
  0
LINE
  5
239
100
AcDbEntity
  8
Frei
  6
CONTINUOUS
 62
           3
100
AcDbLine
 10
-14224.455593655293
 20
-143.501339733713
 30
0.0
 11
-14224.985933134772
 21
-142.83896518974
 31
0.0
  0
LINE
  5
23A
100
AcDbEntity
  8
Frei
  6
CONTINUOUS
 62
           3
100
AcDbLine
 10
-14225.117968199263
 20
-144.031679213195
 30
0.0
 11
-14224.455593655293
 21
-143.501339733713
 31
0.0
  0
LINE
  5
23B
100
AcDbEntity
  8
Frei
  6
CONTINUOUS
 62
           3
100
AcDbLine
 10
-14207.227257847448
 20
-146.012205180553
 30
0.0
 11
-14213.2831830796
 21
-145.34180602128
 31
0.0
  0
LINE
  5
23C
100
AcDbEntity
  8
Frei
  6
CONTINUOUS
 62
           3
100
AcDbLine
 10
-14207.75759732693
 20
-145.34983063658
 30
0.0
 11
-14207.227257847448
 21
-146.012205180553
 31
0.0
  0
LINE
  5
23D
100
AcDbEntity
  8
Frei
  6
CONTINUOUS
 62
           3
100
AcDbLine
 10
-14207.315281223775
 20
-146.807347862856
 30
0.0
 11
-14207.977655767747
 21
-147.337687342338
 31
0.0
  0
LINE
  5
23E
100
AcDbEntity
  8
Frei
  6
CONTINUOUS
 62
           3
100
AcDbLine
 10
-14225.205991575591
 20
-144.826821895498
 30
0.0
 11
-14207.315281223775
 21
-146.807347862856
 31
0.0
  0
LINE
  5
23F
100
AcDbEntity
  8
Frei
  6
CONTINUOUS
 62
           3
100
AcDbLine
 10
-14224.67565209611
 20
-145.48919643947
 30
0.0
 11
-14225.205991575591
 21
-144.826821895498
 31
0.0
  0
LINE
  5
240
100
AcDbEntity
  8
Frei
  6
CONTINUOUS
 62
           3
100
AcDbLine
 10
-14225.338026640082
 20
-146.019535918952
 30
0.0
 11
-14224.67565209611
 21
-145.48919643947
 31
0.0
  0
LINE
  5
241
100
AcDbEntity
  8
Frei
  6
CONTINUOUS
 62
           3
100
AcDbLine
 10
-14207.447316288266
 20
-148.00006188631
 30
0.0
 11
-14225.338026640082
 21
-146.019535918952
 31
0.0
  0
LINE
  5
242
100
AcDbEntity
  8
Frei
  6
CONTINUOUS
 62
           3
100
AcDbLine
 10
-14207.977655767747
 20
-147.337687342338
 30
0.0
 11
-14207.447316288266
 21
-148.00006188631
 31
0.0
  0
LINE
  5
243
100
AcDbEntity
  8
Frei
  6
CONTINUOUS
 62
           3
100
AcDbLine
 10
-14224.895710536928
 20
-147.477053145228
 30
0.0
 11
-14208.197714208565
 21
-149.325544048095
 31
0.0
  0
LINE
  5
244
100
AcDbEntity
  8
Frei
  6
CONTINUOUS
 62
           3
100
AcDbLine
 10
-14207.535339664593
 20
-148.795204568613
 30
0.0
 11
-14208.197714208565
 21
-149.325544048095
 31
0.0
  0
LINE
  5
245
100
AcDbEntity
  8
Frei
  6
CONTINUOUS
 62
           3
100
AcDbLine
 10
-14225.426050016409
 20
-146.814678601255
 30
0.0
 11
-14207.535339664593
 21
-148.795204568613
 31
0.0
  0
LINE
  5
246
100
AcDbEntity
  8
Frei
  6
CONTINUOUS
 62
           3
100
AcDbLine
 10
-14224.895710536928
 20
-147.477053145228
 30
0.0
 11
-14225.426050016409
 21
-146.814678601255
 31
0.0
  0
LINE
  5
247
100
AcDbEntity
  8
Frei
  6
CONTINUOUS
 62
           3
100
AcDbLine
 10
-14225.558085080898
 20
-148.00739262471
 30
0.0
 11
-14224.895710536928
 21
-147.477053145228
 31
0.0
  0
LINE
  5
248
100
AcDbEntity
  8
Frei
  6
CONTINUOUS
 62
           3
100
AcDbLine
 10
-14207.667374729082
 20
-149.987918592068
 30
0.0
 11
-14225.558085080898
 21
-148.00739262471
 31
0.0
  0
LINE
  5
249
100
AcDbEntity
  8
Frei
  6
CONTINUOUS
 62
           3
100
AcDbLine
 10
-14208.197714208565
 20
-149.325544048095
 30
0.0
 11
-14207.667374729082
 21
-149.987918592068
 31
0.0
  0
LINE
  5
24A
100
AcDbEntity
  8
Frei
  6
CONTINUOUS
 62
           3
100
AcDbLine
 10
-14208.417772649384
 20
-151.313400753853
 30
0.0
 11
-14225.115768977746
 21
-149.464909850985
 31
0.0
  0
LINE
  5
24B
100
AcDbEntity
  8
Frei
  6
CONTINUOUS
 62
           3
100
AcDbLine
 10
-14208.417772649384
 20
-151.313400753853
 30
0.0
 11
-14207.75539810541
 21
-150.783061274371
 31
0.0
  0
LINE
  5
24C
100
AcDbEntity
  8
Frei
  6
CONTINUOUS
 62
           3
100
AcDbLine
 10
-14207.887433169901
 20
-151.975775297825
 30
0.0
 11
-14208.417772649384
 21
-151.313400753853
 31
0.0
  0
LINE
  5
24D
100
AcDbEntity
  8
Frei
  6
CONTINUOUS
 62
           3
100
AcDbLine
 10
-14225.778143521717
 20
-149.995249330467
 30
0.0
 11
-14207.887433169901
 21
-151.975775297825
 31
0.0
  0
LINE
  5
24E
100
AcDbEntity
  8
Frei
  6
CONTINUOUS
 62
           3
100
AcDbLine
 10
-14225.115768977746
 20
-149.464909850985
 30
0.0
 11
-14225.778143521717
 21
-149.995249330467
 31
0.0
  0
LINE
  5
24F
100
AcDbEntity
  8
Frei
  6
CONTINUOUS
 62
           3
100
AcDbLine
 10
-14225.646108457226
 20
-148.802535307013
 30
0.0
 11
-14225.115768977746
 21
-149.464909850985
 31
0.0
  0
LINE
  5
250
100
AcDbEntity
  8
Frei
  6
CONTINUOUS
 62
           3
100
AcDbLine
 10
-14207.75539810541
 20
-150.783061274371
 30
0.0
 11
-14225.646108457226
 21
-148.802535307013
 31
0.0
  0
LINE
  5
251
100
AcDbEntity
  8
Frei
  6
CONTINUOUS
 62
           7
100
AcDbLine
 10
-14182.189931701647
 20
-158.360821250223
 30
0.0
 11
-14181.582611079577
 21
-159.745452332894
 31
0.0
  0
LINE
  5
252
100
AcDbEntity
  8
Frei
  6
CONTINUOUS
 62
           7
100
AcDbLine
 10
-14182.189931701647
 20
-158.360821250223
 30
0.0
 11
-14186.408180464292
 21
-157.89385537537
 31
0.0
  0
LINE
  5
253
100
AcDbEntity
  8
Frei
  6
CONTINUOUS
 62
           7
100
AcDbLine
 10
-14181.150393940541
 20
-155.841099766453
 30
0.0
 11
-14182.189931701647
 21
-158.360821250223
 31
0.0
  0
LINE
  5
254
100
AcDbEntity
  8
Frei
  6
CONTINUOUS
 62
           7
100
AcDbLine
 10
-14181.173525301299
 20
-149.179304416787
 30
0.0
 11
-14180.710277058906
 21
-151.865386354938
 31
0.0
  0
LINE
  5
255
100
AcDbEntity
  8
Frei
  6
CONTINUOUS
 62
           7
100
AcDbLine
 10
-14181.173525301299
 20
-149.179304416787
 30
0.0
 11
-14185.391774063944
 21
-148.712338541934
 31
0.0
  0
LINE
  5
256
100
AcDbEntity
  8
Frei
  6
CONTINUOUS
 62
           7
100
AcDbLine
 10
-14180.278059919872
 20
-147.961033788498
 30
0.0
 11
-14181.173525301299
 21
-149.179304416787
 31
0.0
  0
LINE
  5
257
100
AcDbEntity
  8
Frei
  6
CONTINUOUS
 62
           7
100
AcDbLine
 10
-14181.802669520393
 20
-161.733309038651
 30
0.0
 11
-14182.698134901821
 21
-162.951579666941
 31
0.0
  0
LINE
  5
258
100
AcDbEntity
  8
Frei
  6
CONTINUOUS
 62
           7
100
AcDbLine
 10
-14180.665322101126
 20
-144.58854600007
 30
0.0
 11
-14184.883570863771
 21
-144.121580125216
 31
0.0
  0
LINE
  5
259
100
AcDbEntity
  8
Frei
  6
CONTINUOUS
 62
           7
100
AcDbLine
 10
-14180.665322101126
 20
-144.58854600007
 30
0.0
 11
-14180.058001479056
 21
-145.97317708274
 31
0.0
  0
LINE
  5
25A
100
AcDbEntity
  8
Frei
  6
CONTINUOUS
 62
           7
100
AcDbLine
 10
-14186.772311284787
 20
-161.183162936608
 30
0.0
 11
-14186.916383664466
 21
-162.484613792088
 31
0.0
  0
LINE
  5
25B
100
AcDbEntity
  8
Frei
  6
CONTINUOUS
 62
           7
100
AcDbLine
 10
-14181.802669520393
 20
-161.733309038651
 30
0.0
 11
-14181.582611079577
 21
-159.745452332894
 31
0.0
  0
LINE
  5
25C
100
AcDbEntity
  8
Frei
  6
CONTINUOUS
 62
           7
100
AcDbLine
 10
-14181.802669520393
 20
-161.733309038651
 30
0.0
 11
-14186.772311284787
 21
-161.183162936608
 31
0.0
  0
LINE
  5
25D
100
AcDbEntity
  8
Frei
  6
CONTINUOUS
 62
           7
100
AcDbLine
 10
-14186.552252843971
 20
-159.19530623085
 30
0.0
 11
-14186.772311284787
 21
-161.183162936608
 31
0.0
  0
LINE
  5
25E
100
AcDbEntity
  8
Frei
  6
CONTINUOUS
 62
           7
100
AcDbLine
 10
-14181.582611079577
 20
-159.745452332894
 30
0.0
 11
-14181.150393940541
 21
-155.841099766453
 31
0.0
  0
LINE
  5
25F
100
AcDbEntity
  8
Frei
  6
CONTINUOUS
 62
           7
100
AcDbLine
 10
-14181.582611079577
 20
-159.745452332894
 30
0.0
 11
-14186.552252843971
 21
-159.19530623085
 31
0.0
  0
LINE
  5
260
100
AcDbEntity
  8
Frei
  6
CONTINUOUS
 62
           7
100
AcDbLine
 10
-14186.408180464292
 20
-157.89385537537
 30
0.0
 11
-14186.552252843971
 21
-159.19530623085
 31
0.0
  0
LINE
  5
261
100
AcDbEntity
  8
Frei
  6
CONTINUOUS
 62
           7
100
AcDbLine
 10
-14186.120035704935
 20
-155.290953664409
 30
0.0
 11
-14186.408180464292
 21
-157.89385537537
 31
0.0
  0
LINE
  5
262
100
AcDbEntity
  8
Frei
  6
CONTINUOUS
 62
           7
100
AcDbLine
 10
-14181.150393940541
 20
-155.841099766453
 30
0.0
 11
-14180.710277058906
 21
-151.865386354938
 31
0.0
  0
LINE
  5
263
100
AcDbEntity
  8
Frei
  6
CONTINUOUS
 62
           7
100
AcDbLine
 10
-14181.150393940541
 20
-155.841099766453
 30
0.0
 11
-14186.120035704935
 21
-155.290953664409
 31
0.0
  0
LINE
  5
264
100
AcDbEntity
  8
Frei
  6
CONTINUOUS
 62
           7
100
AcDbLine
 10
-14185.6799188233
 20
-151.315240252894
 30
0.0
 11
-14186.120035704935
 21
-155.290953664409
 31
0.0
  0
LINE
  5
265
100
AcDbEntity
  8
Frei
  6
CONTINUOUS
 62
           7
100
AcDbLine
 10
-14180.710277058906
 20
-151.865386354938
 30
0.0
 11
-14180.278059919872
 21
-147.961033788498
 31
0.0
  0
LINE
  5
266
100
AcDbEntity
  8
Frei
  6
CONTINUOUS
 62
           7
100
AcDbLine
 10
-14180.710277058906
 20
-151.865386354938
 30
0.0
 11
-14185.6799188233
 21
-151.315240252894
 31
0.0
  0
LINE
  5
267
100
AcDbEntity
  8
Frei
  6
CONTINUOUS
 62
           7
100
AcDbLine
 10
-14185.391774063944
 20
-148.712338541934
 30
0.0
 11
-14185.6799188233
 21
-151.315240252894
 31
0.0
  0
LINE
  5
268
100
AcDbEntity
  8
Frei
  6
CONTINUOUS
 62
           7
100
AcDbLine
 10
-14185.247701684266
 20
-147.410887686454
 30
0.0
 11
-14185.391774063944
 21
-148.712338541934
 31
0.0
  0
LINE
  5
269
100
AcDbEntity
  8
Frei
  6
CONTINUOUS
 62
           7
100
AcDbLine
 10
-14180.278059919872
 20
-147.961033788498
 30
0.0
 11
-14180.058001479056
 21
-145.97317708274
 31
0.0
  0
LINE
  5
26A
100
AcDbEntity
  8
Frei
  6
CONTINUOUS
 62
           7
100
AcDbLine
 10
-14180.278059919872
 20
-147.961033788498
 30
0.0
 11
-14185.247701684266
 21
-147.410887686454
 31
0.0
  0
LINE
  5
26B
100
AcDbEntity
  8
Frei
  6
CONTINUOUS
 62
           7
100
AcDbLine
 10
-14185.027643243449
 20
-145.423030980696
 30
0.0
 11
-14185.247701684266
 21
-147.410887686454
 31
0.0
  0
LINE
  5
26C
100
AcDbEntity
  8
Frei
  6
CONTINUOUS
 62
           7
100
AcDbLine
 10
-14185.027643243449
 20
-145.423030980696
 30
0.0
 11
-14180.058001479056
 21
-145.97317708274
 31
0.0
  0
LINE
  5
26D
100
AcDbEntity
  8
Frei
  6
CONTINUOUS
 62
           7
100
AcDbLine
 10
-14186.916383664466
 20
-162.484613792088
 30
0.0
 11
-14182.698134901821
 21
-162.951579666941
 31
0.0
  0
LINE
  5
26E
100
AcDbEntity
  8
Frei
  6
CONTINUOUS
 62
           7
100
AcDbLine
 10
-14184.883570863771
 20
-144.121580125216
 30
0.0
 11
-14185.027643243449
 21
-145.423030980696
 31
0.0
  0
LINE
  5
26F
100
AcDbEntity
  8
Frei
  6
CONTINUOUS
 62
           7
100
AcDbLine
 10
-14228.268455643272
 20
-108.871553660729
 30
0.0
 11
-14228.846109050419
 21
-114.089677513342
 31
0.0
  0
LINE
  5
270
100
AcDbEntity
  8
Frei
  6
CONTINUOUS
 62
           7
100
AcDbLine
 10
-14227.547767656815
 20
-115.994095961493
 30
0.0
 11
-14227.162665385385
 21
-112.515346726418
 31
0.0
  0
LINE
  5
271
100
AcDbEntity
  8
Frei
  6
CONTINUOUS
 62
           7
100
AcDbLine
 10
-14228.299166216328
 20
-115.910915119051
 30
0.0
 11
-14227.547767656815
 21
-115.994095961493
 31
0.0
  0
LINE
  5
272
100
AcDbEntity
  8
Frei
  6
CONTINUOUS
 62
           7
100
AcDbLine
 10
-14227.162665385385
 20
-112.515346726418
 30
0.0
 11
-14226.392460842524
 21
-105.557848256267
 31
0.0
  0
LINE
  5
273
100
AcDbEntity
  8
Frei
  6
CONTINUOUS
 62
           7
100
AcDbLine
 10
-14227.914063944898
 20
-112.432165883976
 30
0.0
 11
-14227.162665385385
 21
-112.515346726418
 31
0.0
  0
LINE
  5
274
100
AcDbEntity
  8
Frei
  6
CONTINUOUS
 62
           7
100
AcDbLine
 10
-14226.392460842524
 20
-105.557848256267
 30
0.0
 11
-14226.007358571092
 21
-102.079099021191
 31
0.0
  0
LINE
  5
275
100
AcDbEntity
  8
Frei
  6
CONTINUOUS
 62
           7
100
AcDbLine
 10
-14227.143859402036
 20
-105.474667413825
 30
0.0
 11
-14226.392460842524
 21
-105.557848256267
 31
0.0
  0
LINE
  5
276
100
AcDbEntity
  8
Frei
  6
CONTINUOUS
 62
           7
100
AcDbLine
 10
-14226.007358571092
 20
-102.079099021191
 30
0.0
 11
-14225.402197858844
 21
-96.612493080358
 31
0.0
  0
LINE
  5
277
100
AcDbEntity
  8
Frei
  6
CONTINUOUS
 62
           7
100
AcDbLine
 10
-14226.758757130605
 20
-101.995918178749
 30
0.0
 11
-14226.007358571092
 21
-102.079099021191
 31
0.0
  0
LINE
  5
278
100
AcDbEntity
  8
Frei
  6
CONTINUOUS
 62
           7
100
AcDbLine
 10
-14191.529794350965
 20
-158.71652097388
 30
0.0
 11
-14190.209443706059
 21
-146.789380739335
 31
0.0
  0
LINE
  5
279
100
AcDbEntity
  8
Frei
  6
CONTINUOUS
 62
           2
100
AcDbLine
 10
-14186.560152586571
 20
-159.266667075924
 30
0.0
 11
-14191.529794350965
 21
-158.71652097388
 31
0.0
  0
LINE
  5
27A
100
AcDbEntity
  8
Frei
  6
CONTINUOUS
 62
           7
100
AcDbLine
 10
-14190.209443706059
 20
-146.789380739335
 30
0.0
 11
-14190.09941448565
 21
-145.795452386456
 31
0.0
  0
LINE
  5
27B
100
AcDbEntity
  8
Frei
  6
CONTINUOUS
 62
           2
100
AcDbLine
 10
-14185.239801941665
 20
-147.339526841379
 30
0.0
 11
-14190.209443706059
 21
-146.789380739335
 31
0.0
  0
LINE
  5
27C
100
AcDbEntity
  8
Frei
  6
CONTINUOUS
 62
           7
100
AcDbLine
 10
-14191.639823571373
 20
-159.710449326759
 30
0.0
 11
-14191.529794350965
 21
-158.71652097388
 31
0.0
  0
LINE
  5
27D
100
AcDbEntity
  8
Frei
  6
CONTINUOUS
 62
           7
100
AcDbLine
 10
-14191.639823571373
 20
-159.710449326759
 30
0.0
 11
-14186.67018180698
 21
-160.260595428803
 31
0.0
  0
LINE
  5
27E
100
AcDbEntity
  8
Frei
  6
CONTINUOUS
 62
           7
100
AcDbLine
 10
-14190.09941448565
 20
-145.795452386456
 30
0.0
 11
-14190.044399875445
 21
-145.298488210017
 31
0.0
  0
LINE
  5
27F
100
AcDbEntity
  8
Frei
  6
CONTINUOUS
 62
           7
100
AcDbLine
 10
-14190.09941448565
 20
-145.795452386456
 30
0.0
 11
-14185.129772721257
 21
-146.3455984885
 31
0.0
  0
LINE
  5
280
100
AcDbEntity
  8
Frei
  6
CONTINUOUS
 62
           7
100
AcDbLine
 10
-14210.985746029972
 20
-157.568829400088
 30
0.0
 11
-14229.906065157205
 21
-155.474324341021
 31
0.0
  0
LINE
  5
281
100
AcDbEntity
  8
Frei
  6
CONTINUOUS
 62
           7
100
AcDbLine
 10
-14203.787022246734
 20
-160.377955387611
 30
0.0
 11
-14210.985746029972
 21
-157.568829400088
 31
0.0
  0
LINE
  5
282
100
AcDbEntity
  8
Frei
  6
CONTINUOUS
 62
           7
100
AcDbLine
 10
-14228.206110294668
 20
-126.485358276925
 30
0.0
 11
-14228.703074471108
 21
-126.43034366672
 31
0.0
  0
LINE
  5
283
100
AcDbEntity
  8
Frei
  6
CONTINUOUS
 62
           7
100
AcDbLine
 10
-14228.206110294668
 20
-126.485358276925
 30
0.0
 11
-14231.231913855909
 21
-153.81838798109
 31
0.0
  0
LINE
  5
284
100
AcDbEntity
  8
Frei
  6
CONTINUOUS
 62
           7
100
AcDbLine
 10
-14210.985746029972
 20
-157.568829400088
 30
0.0
 11
-14205.057856335236
 21
-158.22505485124
 31
0.0
  0
LINE
  5
285
100
AcDbEntity
  8
Frei
  6
CONTINUOUS
 62
           7
100
AcDbLine
 10
-14200.376116414063
 20
-129.56617644837
 30
0.0
 11
-14228.206110294668
 21
-126.485358276925
 31
0.0
  0
LINE
  5
286
100
AcDbEntity
  8
Frei
  6
CONTINUOUS
 62
           7
100
AcDbLine
 10
-14200.376116414063
 20
-129.56617644837
 30
0.0
 11
-14203.401919975304
 21
-156.899206152536
 31
0.0
  0
LINE
  5
287
100
AcDbEntity
  8
Frei
  6
CONTINUOUS
 62
           7
100
AcDbLine
 10
-14203.787022246734
 20
-160.377955387611
 30
0.0
 11
-14193.350774541508
 21
-161.533262201903
 31
0.0
  0
LINE
  5
288
100
AcDbEntity
  8
Frei
  6
CONTINUOUS
 62
           7
100
AcDbLine
 10
-14191.694838181578
 20
-160.207413503198
 30
0.0
 11
-14191.639823571373
 21
-159.710449326759
 31
0.0
  0
LINE
  5
289
100
AcDbEntity
  8
Frei
  6
CONTINUOUS
 62
           7
100
AcDbLine
 10
-14201.806496279376
 20
-142.487245035794
 30
0.0
 11
-14191.370248574151
 21
-143.642551850086
 31
0.0
  0
LINE
  5
28A
100
AcDbEntity
  8
Frei
  6
CONTINUOUS
 62
           7
100
AcDbLine
 10
-14228.703074471108
 20
-126.43034366672
 30
0.0
 11
-14228.593045250698
 21
-125.436415313841
 31
0.0
  0
LINE
  5
28B
100
AcDbEntity
  8
Frei
  6
CONTINUOUS
 62
           7
100
AcDbLine
 10
-14199.879152237625
 20
-129.621191058575
 30
0.0
 11
-14200.376116414063
 21
-129.56617644837
 31
0.0
  0
LINE
  5
28C
100
AcDbEntity
  8
Frei
  6
CONTINUOUS
 62
           7
100
AcDbLine
 10
-14199.769123017215
 20
-128.627262705696
 30
0.0
 11
-14199.879152237625
 21
-129.621191058575
 31
0.0
  0
LINE
  5
28D
100
AcDbEntity
  8
Frei
  6
CONTINUOUS
 62
           7
100
AcDbLine
 10
-14199.769123017215
 20
-128.627262705696
 30
0.0
 11
-14228.593045250698
 21
-125.436415313841
 31
0.0
  0
LINE
  5
28E
100
AcDbEntity
  8
Frei
  6
CONTINUOUS
 62
           7
100
AcDbLine
 10
-14196.963377896791
 20
-103.282089707288
 30
0.0
 11
-14196.902210437715
 21
-102.729544923051
 31
0.0
  0
LINE
  5
28F
100
AcDbEntity
  8
Frei
  6
CONTINUOUS
 62
           7
100
AcDbLine
 10
-14225.402197858844
 20
-96.612493080358
 30
0.0
 11
-14198.600767557762
 21
-100.530520653901
 31
0.0
  0
LINE
  5
290
100
AcDbEntity
  8
Frei
  6
CONTINUOUS
 62
           7
100
AcDbLine
 10
-14193.204057556895
 20
-114.765447690998
 30
0.0
 11
-14193.259072167099
 21
-115.262411867437
 31
0.0
  0
LINE
  5
291
100
AcDbEntity
  8
Frei
  6
CONTINUOUS
 62
           1
100
AcDbLine
 10
-14193.204057556895
 20
-114.765447690998
 30
0.0
 11
-14195.67730011097
 21
-114.491656376646
 31
0.0
  0
LINE
  5
292
100
AcDbEntity
  8
Frei
  6
CONTINUOUS
 62
           7
100
AcDbLine
 10
-14192.763940675259
 20
-110.789734279483
 30
0.0
 11
-14193.204057556895
 21
-114.765447690998
 31
0.0
  0
LINE
  5
293
100
AcDbEntity
  8
Frei
  6
CONTINUOUS
 62
           1
100
AcDbLine
 10
-14192.763940675259
 20
-110.789734279483
 30
0.0
 11
-14195.237183229334
 21
-110.515942965131
 31
0.0
  0
LINE
  5
294
100
AcDbEntity
  8
Frei
  6
CONTINUOUS
 62
           7
100
AcDbLine
 10
-14193.259072167099
 20
-115.262411867437
 30
0.0
 11
-14193.314086777304
 21
-115.759376043877
 31
0.0
  0
LINE
  5
295
100
AcDbEntity
  8
Frei
  6
CONTINUOUS
 62
           1
100
AcDbLine
 10
-14193.259072167099
 20
-115.262411867437
 30
0.0
 11
-14195.732314721174
 21
-114.988620553085
 31
0.0
  0
LINE
  5
296
100
AcDbEntity
  8
Frei
  6
CONTINUOUS
 62
           7
100
AcDbLine
 10
-14192.708926065055
 20
-110.292770103044
 30
0.0
 11
-14192.763940675259
 21
-110.789734279483
 31
0.0
  0
LINE
  5
297
100
AcDbEntity
  8
Frei
  6
CONTINUOUS
 62
           1
100
AcDbLine
 10
-14192.708926065055
 20
-110.292770103044
 30
0.0
 11
-14195.182168619131
 21
-110.018978788691
 31
0.0
  0
LINE
  5
298
100
AcDbEntity
  8
Frei
  6
CONTINUOUS
 62
           7
100
AcDbLine
 10
-14194.308015130182
 20
-115.649346823468
 30
0.0
 11
-14193.647839807729
 21
-109.685776706196
 31
0.0
  0
LINE
  5
299
100
AcDbEntity
  8
Frei
  6
CONTINUOUS
 62
           2
100
AcDbLine
 10
-14193.314086777304
 20
-115.759376043877
 30
0.0
 11
-14194.308015130182
 21
-115.649346823468
 31
0.0
  0
LINE
  5
29A
100
AcDbEntity
  8
Frei
  6
CONTINUOUS
 62
           7
100
AcDbLine
 10
-14193.647839807729
 20
-109.685776706196
 30
0.0
 11
-14193.537810587321
 21
-108.691848353317
 31
0.0
  0
LINE
  5
29B
100
AcDbEntity
  8
Frei
  6
CONTINUOUS
 62
           2
100
AcDbLine
 10
-14192.65391145485
 20
-109.795805926604
 30
0.0
 11
-14193.647839807729
 21
-109.685776706196
 31
0.0
  0
LINE
  5
29C
100
AcDbEntity
  8
Frei
  6
CONTINUOUS
 62
           7
100
AcDbLine
 10
-14194.41804435059
 20
-116.643275176347
 30
0.0
 11
-14194.308015130182
 21
-115.649346823468
 31
0.0
  0
LINE
  5
29D
100
AcDbEntity
  8
Frei
  6
CONTINUOUS
 62
           7
100
AcDbLine
 10
-14193.314086777304
 20
-115.759376043877
 30
0.0
 11
-14194.41804435059
 21
-116.643275176347
 31
0.0
  0
LINE
  5
29E
100
AcDbEntity
  8
Frei
  6
CONTINUOUS
 62
           7
100
AcDbLine
 10
-14192.65391145485
 20
-109.795805926604
 30
0.0
 11
-14192.708926065055
 21
-110.292770103044
 31
0.0
  0
LINE
  5
29F
100
AcDbEntity
  8
Frei
  6
CONTINUOUS
 62
           7
100
AcDbLine
 10
-14193.537810587321
 20
-108.691848353317
 30
0.0
 11
-14192.987664485276
 21
-103.722206588923
 31
0.0
  0
LINE
  5
2A0
100
AcDbEntity
  8
Frei
  6
CONTINUOUS
 62
           7
100
AcDbLine
 10
-14193.537810587321
 20
-108.691848353317
 30
0.0
 11
-14192.65391145485
 21
-109.795805926604
 31
0.0
  0
LINE
  5
2A1
100
AcDbEntity
  8
Frei
  6
CONTINUOUS
 62
           7
100
AcDbLine
 10
-14228.593045250698
 20
-125.436415313841
 30
0.0
 11
-14227.547767656815
 21
-115.994095961493
 31
0.0
  0
LINE
  5
2A2
100
AcDbEntity
  8
Frei
  6
CONTINUOUS
 62
           7
100
AcDbLine
 10
-14198.94390386415
 20
-121.172800059105
 30
0.0
 11
-14199.769123017215
 21
-128.627262705696
 31
0.0
  0
LINE
  5
2A3
100
AcDbEntity
  8
Frei
  6
CONTINUOUS
 62
           7
100
AcDbLine
 10
-14195.859420323504
 20
-102.398190574818
 30
0.0
 11
-14198.06000473168
 21
-122.276757632393
 31
0.0
  0
LINE
  5
2A4
100
AcDbEntity
  8
Frei
  6
CONTINUOUS
 62
           7
100
AcDbLine
 10
-14193.871563617746
 20
-102.618249015636
 30
0.0
 11
-14196.072148025922
 21
-122.49681607321
 31
0.0
  0
LINE
  5
2A5
100
AcDbEntity
  8
Frei
  6
CONTINUOUS
 62
           7
100
AcDbLine
 10
-14194.968190452635
 20
-121.61291694074
 30
0.0
 11
-14196.072148025922
 21
-122.49681607321
 31
0.0
  0
LINE
  5
2A6
100
AcDbEntity
  8
Frei
  6
CONTINUOUS
 62
           7
100
AcDbLine
 10
-14198.06000473168
 20
-122.276757632393
 30
0.0
 11
-14198.94390386415
 21
-121.172800059105
 31
0.0
  0
LINE
  5
2A7
100
AcDbEntity
  8
Frei
  6
CONTINUOUS
 62
           7
100
AcDbLine
 10
-14196.963377896791
 20
-103.282089707288
 30
0.0
 11
-14195.859420323504
 21
-102.398190574818
 31
0.0
  0
LINE
  5
2A8
100
AcDbEntity
  8
Frei
  6
CONTINUOUS
 62
           7
100
AcDbLine
 10
-14192.987664485276
 20
-103.722206588923
 30
0.0
 11
-14193.871563617746
 21
-102.618249015636
 31
0.0
  0
LINE
  5
2A9
100
AcDbEntity
  8
Frei
  6
CONTINUOUS
 62
           7
100
AcDbLine
 10
-14194.968190452635
 20
-121.61291694074
 30
0.0
 11
-14194.41804435059
 21
-116.643275176347
 31
0.0
  0
LINE
  5
2AA
100
AcDbEntity
  8
Frei
  6
CONTINUOUS
 62
           7
100
AcDbLine
 10
-14198.06000473168
 20
-122.276757632393
 30
0.0
 11
-14196.072148025922
 21
-122.49681607321
 31
0.0
  0
LINE
  5
2AB
100
AcDbEntity
  8
Frei
  6
CONTINUOUS
 62
           7
100
AcDbLine
 10
-14196.963377896791
 20
-103.282089707288
 30
0.0
 11
-14198.94390386415
 21
-121.172800059105
 31
0.0
  0
LINE
  5
2AC
100
AcDbEntity
  8
Frei
  6
CONTINUOUS
 62
           7
100
AcDbLine
 10
-14193.871563617746
 20
-102.618249015636
 30
0.0
 11
-14195.859420323504
 21
-102.398190574818
 31
0.0
  0
LINE
  5
2AD
100
AcDbEntity
  8
Frei
  6
CONTINUOUS
 62
           7
100
AcDbLine
 10
-14244.992863073197
 20
-123.620933177097
 30
0.0
 11
-14234.55661536797
 21
-124.776239991389
 31
0.0
  0
LINE
  5
2AE
100
AcDbEntity
  8
Frei
  6
CONTINUOUS
 62
           7
100
AcDbLine
 10
-14227.446901859406
 20
-92.361706617821
 30
0.0
 11
-14241.361898799709
 21
-90.821297532098
 31
0.0
  0
LINE
  5
2AF
100
AcDbEntity
  8
Frei
  6
CONTINUOUS
 62
           7
100
AcDbLine
 10
-14226.563002726936
 20
-93.465664191109
 30
0.0
 11
-14229.038660186134
 21
-115.82905213088
 31
0.0
  0
LINE
  5
2B0
100
AcDbEntity
  8
Frei
  6
CONTINUOUS
 62
           7
100
AcDbLine
 10
-14388.008516667329
 20
-106.782797085355
 30
0.0
 11
-14385.532859208131
 21
-84.419409145583
 31
0.0
  0
LINE
  5
2B1
100
AcDbEntity
  8
Frei
  6
CONTINUOUS
 62
           7
100
AcDbLine
 10
-14386.880717158139
 20
-96.595031468348
 30
0.0
 11
-14386.303063750993
 21
-91.376907615734
 31
0.0
  0
LINE
  5
2B2
100
AcDbEntity
  8
Frei
  6
CONTINUOUS
 62
           7
100
AcDbLine
 10
-14227.690802236126
 20
-103.653429808116
 30
0.0
 11
-14228.268455643272
 21
-108.871553660729
 31
0.0
  0
ARC
  5
2B3
100
AcDbEntity
  8
Frei
  6
CONTINUOUS
 62
           7
100
AcDbCircle
 10
-14394.855227858061
 20
-90.430171418117
 30
0.0
 40
8.604407030244
100
AcDbArc
 50
329.681014671726
 51
353.682999999999
  0
ARC
  5
2B4
100
AcDbEntity
  8
Frei
  6
CONTINUOUS
 62
           7
100
AcDbCircle
 10
-14388.140761609289
 20
-85.891401093153
 30
0.0
 40
2.430106011614
100
AcDbArc
 50
307.617521857266
 51
353.682999999999
  0
ARC
  5
2B5
100
AcDbEntity
  8
Frei
  6
CONTINUOUS
 62
           7
100
AcDbCircle
 10
-14389.296068423582
 20
-96.327648798379
 30
0.0
 40
2.430106011614
100
AcDbArc
 50
307.617521857266
 51
353.682999999999
  0
ARC
  5
2B6
100
AcDbEntity
  8
Frei
  6
CONTINUOUS
 62
           7
100
AcDbCircle
 10
-14388.140761609289
 20
-85.891401093153
 30
0.0
 40
2.430106011614
100
AcDbArc
 50
353.682999999999
 51
39.748478142733
  0
ARC
  5
2B7
100
AcDbEntity
  8
Frei
  6
CONTINUOUS
 62
           7
100
AcDbCircle
 10
-14389.296068423582
 20
-96.327648798379
 30
0.0
 40
2.430106011614
100
AcDbArc
 50
353.682999999999
 51
39.748478142733
  0
ARC
  5
2B8
100
AcDbEntity
  8
Frei
  6
CONTINUOUS
 62
           7
100
AcDbCircle
 10
-14226.430757784974
 20
-114.357060183311
 30
0.0
 40
2.430106011614
100
AcDbArc
 50
127.617521857263
 51
173.683
  0
ARC
  5
2B9
100
AcDbEntity
  8
Frei
  6
CONTINUOUS
 62
           7
100
AcDbCircle
 10
-14225.275450970681
 20
-103.920812478084
 30
0.0
 40
2.430106011614
100
AcDbArc
 50
127.617521857263
 51
173.683
  0
ARC
  5
2BA
100
AcDbEntity
  8
Frei
  6
CONTINUOUS
 62
           7
100
AcDbCircle
 10
-14226.430757784974
 20
-114.357060183311
 30
0.0
 40
2.430106011614
100
AcDbArc
 50
173.683
 51
219.748478142737
  0
ARC
  5
2BB
100
AcDbEntity
  8
Frei
  6
CONTINUOUS
 62
           7
100
AcDbCircle
 10
-14225.275450970681
 20
-103.920812478084
 30
0.0
 40
2.430106011614
100
AcDbArc
 50
173.683
 51
219.748478142737
  0
ARC
  5
2BC
100
AcDbEntity
  8
Frei
  6
CONTINUOUS
 62
           7
100
AcDbCircle
 10
-14219.716291536204
 20
-109.818289858347
 30
0.0
 40
8.604407030244
100
AcDbArc
 50
149.681014671724
 51
173.683
  0
ARC
  5
2BD
100
AcDbEntity
  8
Frei
  6
CONTINUOUS
 62
           7
100
AcDbCircle
 10
-14363.950853350159
 20
-101.661665578204
 30
0.0
 40
4.481959213903
100
AcDbArc
 50
182.061955885586
 51
345.304044114414
  0
ARC
  5
2BE
100
AcDbEntity
  8
Frei
  6
CONTINUOUS
 62
           7
100
AcDbCircle
 10
-14394.855227858061
 20
-90.430171418117
 30
0.0
 40
8.604407030244
100
AcDbArc
 50
353.682999999999
 51
17.684985328274
  0
ARC
  5
2BF
100
AcDbEntity
  8
Frei
  6
CONTINUOUS
 62
           7
100
AcDbCircle
 10
-14219.716291536204
 20
-109.818289858347
 30
0.0
 40
8.604407030244
100
AcDbArc
 50
173.683
 51
197.684985328276
  0
POLYLINE
  5
2C0
100
AcDbEntity
  8
Frei
  6
CONTINUOUS
 62
           7
100
AcDb2dPolyline
 66
           1
 10
0.0
 20
0.0
 30
0.0
  0
VERTEX
  5
2C1
100
AcDbEntity
  8
Frei
  6
CONTINUOUS
 62
           7
100
AcDbVertex
100
AcDb2dVertex
 10
-14368.108700765935
 20
-101.503547885002
 30
0.0
 42
0.046286845788
  0
VERTEX
  5
2C2
100
AcDbEntity
  8
Frei
  6
CONTINUOUS
 62
           7
100
AcDbVertex
100
AcDb2dVertex
 10
-14368.120545336007
 20
-102.183553421188
 30
0.0
  0
VERTEX
  5
2C3
100
AcDbEntity
  8
Frei
  6
CONTINUOUS
 62
           7
100
AcDbVertex
100
AcDb2dVertex
 10
-14368.079110586044
 20
-102.522779834214
 30
0.0
  0
VERTEX
  5
2C4
100
AcDbEntity
  8
Frei
  6
CONTINUOUS
 62
           7
100
AcDbVertex
100
AcDb2dVertex
 10
-14368.006699973103
 20
-102.856771539324
 30
0.0
 42
0.045273723548
  0
VERTEX
  5
2C5
100
AcDbEntity
  8
Frei
  6
CONTINUOUS
 62
           7
100
AcDbVertex
100
AcDb2dVertex
 10
-14367.770623810964
 20
-103.502746847553
 30
0.0
  0
VERTEX
  5
2C6
100
AcDbEntity
  8
Frei
  6
CONTINUOUS
 62
           7
100
AcDbVertex
100
AcDb2dVertex
 10
-14367.608385618661
 20
-103.810107924115
 30
0.0
  0
VERTEX
  5
2C7
100
AcDbEntity
  8
Frei
  6
CONTINUOUS
 62
           7
100
AcDbVertex
100
AcDb2dVertex
 10
-14367.419489904316
 20
-104.101851713015
 30
0.0
 42
0.04348253534
  0
VERTEX
  5
2C8
100
AcDbEntity
  8
Frei
  6
CONTINUOUS
 62
           7
100
AcDbVertex
100
AcDb2dVertex
 10
-14366.963967279236
 20
-104.635882637534
 30
0.0
  0
VERTEX
  5
2C9
100
AcDbEntity
  8
Frei
  6
CONTINUOUS
 62
           7
100
AcDbVertex
100
AcDb2dVertex
 10
-14366.700588228285
 20
-104.873891199524
 30
0.0
  0
VERTEX
  5
2CA
100
AcDbEntity
  8
Frei
  6
CONTINUOUS
 62
           7
100
AcDbVertex
100
AcDb2dVertex
 10
-14366.417896760178
 20
-105.088613361701
 30
0.0
 42
0.041825507476
  0
VERTEX
  5
2CB
100
AcDbEntity
  8
Frei
  6
CONTINUOUS
 62
           7
100
AcDbVertex
100
AcDb2dVertex
 10
-14365.797870423536
 20
-105.446287891556
 30
0.0
  0
VERTEX
  5
2CC
100
AcDbEntity
  8
Frei
  6
CONTINUOUS
 62
           7
100
AcDbVertex
100
AcDb2dVertex
 10
-14365.465503384203
 20
-105.586117081961
 30
0.0
  0
VERTEX
  5
2CD
100
AcDbEntity
  8
Frei
  6
CONTINUOUS
 62
           7
100
AcDbVertex
100
AcDb2dVertex
 10
-14365.122727455806
 20
-105.698038467501
 30
0.0
 42
0.040993490696
  0
VERTEX
  5
2CE
100
AcDbEntity
  8
Frei
  6
CONTINUOUS
 62
           7
100
AcDbVertex
100
AcDb2dVertex
 10
-14364.412981734418
 20
-105.836215775678
 30
0.0
  0
VERTEX
  5
2CF
100
AcDbEntity
  8
Frei
  6
CONTINUOUS
 62
           7
100
AcDbVertex
100
AcDb2dVertex
 10
-14364.052008568191
 20
-105.861254059043
 30
0.0
  0
VERTEX
  5
2D0
100
AcDbEntity
  8
Frei
  6
CONTINUOUS
 62
           7
100
AcDbVertex
100
AcDb2dVertex
 10
-14363.690198523973
 20
-105.856621368498
 30
0.0
 42
0.041278481646
  0
VERTEX
  5
2D1
100
AcDbEntity
  8
Frei
  6
CONTINUOUS
 62
           7
100
AcDbVertex
100
AcDb2dVertex
 10
-14362.976339226569
 20
-105.75863523235
 30
0.0
  0
VERTEX
  5
2D2
100
AcDbEntity
  8
Frei
  6
CONTINUOUS
 62
           7
100
AcDbVertex
100
AcDb2dVertex
 10
-14362.630245583217
 20
-105.666243707627
 30
0.0
  0
VERTEX
  5
2D3
100
AcDbEntity
  8
Frei
  6
CONTINUOUS
 62
           7
100
AcDbVertex
100
AcDb2dVertex
 10
-14362.29309409573
 20
-105.545234626398
 30
0.0
 42
0.042584509173
  0
VERTEX
  5
2D4
100
AcDbEntity
  8
Frei
  6
CONTINUOUS
 62
           7
100
AcDbVertex
100
AcDb2dVertex
 10
-14361.661223189021
 20
-105.222903620066
 30
0.0
  0
VERTEX
  5
2D5
100
AcDbEntity
  8
Frei
  6
CONTINUOUS
 62
           7
100
AcDbVertex
100
AcDb2dVertex
 10
-14361.371394504153
 20
-105.024390657536
 30
0.0
  0
VERTEX
  5
2D6
100
AcDbEntity
  8
Frei
  6
CONTINUOUS
 62
           7
100
AcDbVertex
100
AcDb2dVertex
 10
-14361.099925584193
 20
-104.801436077876
 30
0.0
 42
0.044417198743
  0
VERTEX
  5
2D7
100
AcDbEntity
  8
Frei
  6
CONTINUOUS
 62
           7
100
AcDbVertex
100
AcDb2dVertex
 10
-14360.626256024945
 20
-104.293638077824
 30
0.0
  0
VERTEX
  5
2D8
100
AcDbEntity
  8
Frei
  6
CONTINUOUS
 62
           7
100
AcDbVertex
100
AcDb2dVertex
 10
-14360.427307749102
 20
-104.012713654013
 30
0.0
  0
VERTEX
  5
2D9
100
AcDbEntity
  8
Frei
  6
CONTINUOUS
 62
           7
100
AcDbVertex
100
AcDb2dVertex
 10
-14360.254606721144
 20
-103.714938805182
 30
0.0
 42
0.045929593742
  0
VERTEX
  5
2DA
100
AcDbEntity
  8
Frei
  6
CONTINUOUS
 62
           7
100
AcDbVertex
100
AcDb2dVertex
 10
-14359.996270048821
 20
-103.082921744515
 30
0.0
  0
VERTEX
  5
2DB
100
AcDbEntity
  8
Frei
  6
CONTINUOUS
 62
           7
100
AcDbVertex
100
AcDb2dVertex
 10
-14359.912238491068
 20
-102.753035841082
 30
0.0
  0
VERTEX
  5
2DC
100
AcDbEntity
  8
Frei
  6
CONTINUOUS
 62
           7
100
AcDbVertex
100
AcDb2dVertex
 10
-14359.859095437043
 20
-102.416790414395
 30
0.0
 42
0.046286845788
  0
VERTEX
  5
2DD
100
AcDbEntity
  8
Frei
  6
CONTINUOUS
 62
           7
100
AcDbVertex
100
AcDb2dVertex
 10
-14359.847250866971
 20
-101.736784878209
 30
0.0
  0
VERTEX
  5
2DE
100
AcDbEntity
  8
Frei
  6
CONTINUOUS
 62
           7
100
AcDbVertex
100
AcDb2dVertex
 10
-14359.888685616936
 20
-101.397558465184
 30
0.0
  0
VERTEX
  5
2DF
100
AcDbEntity
  8
Frei
  6
CONTINUOUS
 62
           7
100
AcDbVertex
100
AcDb2dVertex
 10
-14359.961096229878
 20
-101.063566760074
 30
0.0
 42
0.045273723548
  0
VERTEX
  5
2E0
100
AcDbEntity
  8
Frei
  6
CONTINUOUS
 62
           7
100
AcDbVertex
100
AcDb2dVertex
 10
-14360.197172392016
 20
-100.417591451844
 30
0.0
  0
VERTEX
  5
2E1
100
AcDbEntity
  8
Frei
  6
CONTINUOUS
 62
           7
100
AcDbVertex
100
AcDb2dVertex
 10
-14360.359410584319
 20
-100.110230375283
 30
0.0
  0
VERTEX
  5
2E2
100
AcDbEntity
  8
Frei
  6
CONTINUOUS
 62
           7
100
AcDbVertex
100
AcDb2dVertex
 10
-14360.54830629866
 20
-99.818486586383
 30
0.0
 42
0.04348253534
  0
VERTEX
  5
2E3
100
AcDbEntity
  8
Frei
  6
CONTINUOUS
 62
           7
100
AcDbVertex
100
AcDb2dVertex
 10
-14361.003828923744
 20
-99.284455661865
 30
0.0
  0
VERTEX
  5
2E4
100
AcDbEntity
  8
Frei
  6
CONTINUOUS
 62
           7
100
AcDbVertex
100
AcDb2dVertex
 10
-14361.267207974694
 20
-99.046447099874
 30
0.0
  0
VERTEX
  5
2E5
100
AcDbEntity
  8
Frei
  6
CONTINUOUS
 62
           7
100
AcDbVertex
100
AcDb2dVertex
 10
-14361.5498994428
 20
-98.831724937696
 30
0.0
 42
0.041825507476
  0
VERTEX
  5
2E6
100
AcDbEntity
  8
Frei
  6
CONTINUOUS
 62
           7
100
AcDbVertex
100
AcDb2dVertex
 10
-14362.169925779443
 20
-98.474050407841
 30
0.0
  0
VERTEX
  5
2E7
100
AcDbEntity
  8
Frei
  6
CONTINUOUS
 62
           7
100
AcDbVertex
100
AcDb2dVertex
 10
-14362.502292818775
 20
-98.334221217436
 30
0.0
  0
VERTEX
  5
2E8
100
AcDbEntity
  8
Frei
  6
CONTINUOUS
 62
           7
100
AcDbVertex
100
AcDb2dVertex
 10
-14362.845068747174
 20
-98.222299831897
 30
0.0
 42
0.040993490696
  0
VERTEX
  5
2E9
100
AcDbEntity
  8
Frei
  6
CONTINUOUS
 62
           7
100
AcDbVertex
100
AcDb2dVertex
 10
-14363.55481446856
 20
-98.084122523721
 30
0.0
  0
VERTEX
  5
2EA
100
AcDbEntity
  8
Frei
  6
CONTINUOUS
 62
           7
100
AcDbVertex
100
AcDb2dVertex
 10
-14363.915787634785
 20
-98.059084240355
 30
0.0
  0
VERTEX
  5
2EB
100
AcDbEntity
  8
Frei
  6
CONTINUOUS
 62
           7
100
AcDbVertex
100
AcDb2dVertex
 10
-14364.277597679007
 20
-98.0637169309
 30
0.0
 42
0.041278481646
  0
VERTEX
  5
2EC
100
AcDbEntity
  8
Frei
  6
CONTINUOUS
 62
           7
100
AcDbVertex
100
AcDb2dVertex
 10
-14364.99145697641
 20
-98.161703067047
 30
0.0
  0
VERTEX
  5
2ED
100
AcDbEntity
  8
Frei
  6
CONTINUOUS
 62
           7
100
AcDbVertex
100
AcDb2dVertex
 10
-14365.337550619761
 20
-98.25409459177
 30
0.0
  0
VERTEX
  5
2EE
100
AcDbEntity
  8
Frei
  6
CONTINUOUS
 62
           7
100
AcDbVertex
100
AcDb2dVertex
 10
-14365.674702107248
 20
-98.375103673
 30
0.0
 42
0.042584509172
  0
VERTEX
  5
2EF
100
AcDbEntity
  8
Frei
  6
CONTINUOUS
 62
           7
100
AcDbVertex
100
AcDb2dVertex
 10
-14366.306573013959
 20
-98.697434679332
 30
0.0
  0
VERTEX
  5
2F0
100
AcDbEntity
  8
Frei
  6
CONTINUOUS
 62
           7
100
AcDbVertex
100
AcDb2dVertex
 10
-14366.596401698827
 20
-98.895947641862
 30
0.0
  0
VERTEX
  5
2F1
100
AcDbEntity
  8
Frei
  6
CONTINUOUS
 62
           7
100
AcDbVertex
100
AcDb2dVertex
 10
-14366.867870618784
 20
-99.118902221522
 30
0.0
 42
0.044417198743
  0
VERTEX
  5
2F2
100
AcDbEntity
  8
Frei
  6
CONTINUOUS
 62
           7
100
AcDbVertex
100
AcDb2dVertex
 10
-14367.341540178035
 20
-99.626700221574
 30
0.0
  0
VERTEX
  5
2F3
100
AcDbEntity
  8
Frei
  6
CONTINUOUS
 62
           7
100
AcDbVertex
100
AcDb2dVertex
 10
-14367.540488453878
 20
-99.907624645385
 30
0.0
  0
VERTEX
  5
2F4
100
AcDbEntity
  8
Frei
  6
CONTINUOUS
 62
           7
100
AcDbVertex
100
AcDb2dVertex
 10
-14367.713189481836
 20
-100.205399494216
 30
0.0
 42
0.045929593742
  0
VERTEX
  5
2F5
100
AcDbEntity
  8
Frei
  6
CONTINUOUS
 62
           7
100
AcDbVertex
100
AcDb2dVertex
 10
-14367.971526154157
 20
-100.837416554882
 30
0.0
  0
VERTEX
  5
2F6
100
AcDbEntity
  8
Frei
  6
CONTINUOUS
 62
           7
100
AcDbVertex
100
AcDb2dVertex
 10
-14368.055557711912
 20
-101.167302458316
 30
0.0
  0
VERTEX
  5
2F7
100
AcDbEntity
  8
Frei
  6
CONTINUOUS
 62
           7
100
AcDbVertex
100
AcDb2dVertex
 10
-14368.108700765935
 20
-101.503547885002
 30
0.0
  0
SEQEND
  5
2F8
100
AcDbEntity
  8
Frei
  6
CONTINUOUS
 62
           7
  0
POLYLINE
  5
2F9
100
AcDbEntity
  8
Frei
  6
CONTINUOUS
 62
           7
100
AcDb2dPolyline
 66
           1
 10
0.0
 20
0.0
 30
0.0
  0
VERTEX
  5
2FA
100
AcDbEntity
  8
Frei
  6
CONTINUOUS
 62
           7
100
AcDbVertex
100
AcDb2dVertex
 10
-14363.54563556737
 20
-98.001206639131
 30
0.0
 42
0.046286845788
  0
VERTEX
  5
2FB
100
AcDbEntity
  8
Frei
  6
CONTINUOUS
 62
           7
100
AcDbVertex
100
AcDb2dVertex
 10
-14364.321594159328
 20
-97.987690725767
 30
0.0
  0
VERTEX
  5
2FC
100
AcDbEntity
  8
Frei
  6
CONTINUOUS
 62
           7
100
AcDbVertex
100
AcDb2dVertex
 10
-14364.708687551658
 20
-98.034972179414
 30
0.0
  0
VERTEX
  5
2FD
100
AcDbEntity
  8
Frei
  6
CONTINUOUS
 62
           7
100
AcDbVertex
100
AcDb2dVertex
 10
-14365.08980758588
 20
-98.117600385027
 30
0.0
 42
0.045273723548
  0
VERTEX
  5
2FE
100
AcDbEntity
  8
Frei
  6
CONTINUOUS
 62
           7
100
AcDbVertex
100
AcDb2dVertex
 10
-14365.826934070799
 20
-98.386988377653
 30
0.0
  0
VERTEX
  5
2FF
100
AcDbEntity
  8
Frei
  6
CONTINUOUS
 62
           7
100
AcDbVertex
100
AcDb2dVertex
 10
-14366.17766572738
 20
-98.572119398741
 30
0.0
  0
VERTEX
  5
300
100
AcDbEntity
  8
Frei
  6
CONTINUOUS
 62
           7
100
AcDbVertex
100
AcDb2dVertex
 10
-14366.510576398839
 20
-98.787669485806
 30
0.0
 42
0.04348253534
  0
VERTEX
  5
301
100
AcDbEntity
  8
Frei
  6
CONTINUOUS
 62
           7
100
AcDbVertex
100
AcDb2dVertex
 10
-14367.119962443807
 20
-99.307469216769
 30
0.0
  0
VERTEX
  5
302
100
AcDbEntity
  8
Frei
  6
CONTINUOUS
 62
           7
100
AcDbVertex
100
AcDb2dVertex
 10
-14367.39155551005
 20
-99.60801270745
 30
0.0
  0
VERTEX
  5
303
100
AcDbEntity
  8
Frei
  6
CONTINUOUS
 62
           7
100
AcDbVertex
100
AcDb2dVertex
 10
-14367.636576319086
 20
-99.930593718748
 30
0.0
 42
0.041825507476
  0
VERTEX
  5
304
100
AcDbEntity
  8
Frei
  6
CONTINUOUS
 62
           7
100
AcDbVertex
100
AcDb2dVertex
 10
-14368.044720973498
 20
-100.638109669066
 30
0.0
  0
VERTEX
  5
305
100
AcDbEntity
  8
Frei
  6
CONTINUOUS
 62
           7
100
AcDbVertex
100
AcDb2dVertex
 10
-14368.204280941658
 20
-101.017375786957
 30
0.0
  0
VERTEX
  5
306
100
AcDbEntity
  8
Frei
  6
CONTINUOUS
 62
           7
100
AcDbVertex
100
AcDb2dVertex
 10
-14368.331995138251
 20
-101.408519553593
 30
0.0
 42
0.040993490695
  0
VERTEX
  5
307
100
AcDbEntity
  8
Frei
  6
CONTINUOUS
 62
           7
100
AcDbVertex
100
AcDb2dVertex
 10
-14368.489670133215
 20
-102.218414857836
 30
0.0
  0
VERTEX
  5
308
100
AcDbEntity
  8
Frei
  6
CONTINUOUS
 62
           7
100
AcDbVertex
100
AcDb2dVertex
 10
-14368.518241475756
 20
-102.630323606947
 30
0.0
  0
VERTEX
  5
309
100
AcDbEntity
  8
Frei
  6
CONTINUOUS
 62
           7
100
AcDbVertex
100
AcDb2dVertex
 10
-14368.512955083454
 20
-103.043187322799
 30
0.0
 42
0.041278481646
  0
VERTEX
  5
30A
100
AcDbEntity
  8
Frei
  6
CONTINUOUS
 62
           7
100
AcDbVertex
100
AcDb2dVertex
 10
-14368.401142487541
 20
-103.857776654491
 30
0.0
  0
VERTEX
  5
30B
100
AcDbEntity
  8
Frei
  6
CONTINUOUS
 62
           7
100
AcDbVertex
100
AcDb2dVertex
 10
-14368.295713937892
 20
-104.252706286516
 30
0.0
  0
VERTEX
  5
30C
100
AcDbEntity
  8
Frei
  6
CONTINUOUS
 62
           7
100
AcDbVertex
100
AcDb2dVertex
 10
-14368.15762971462
 20
-104.637431968272
 30
0.0
 42
0.042584509173
  0
VERTEX
  5
30D
100
AcDbEntity
  8
Frei
  6
CONTINUOUS
 62
           7
100
AcDbVertex
100
AcDb2dVertex
 10
-14367.789815777076
 20
-105.358463831954
 30
0.0
  0
VERTEX
  5
30E
100
AcDbEntity
  8
Frei
  6
CONTINUOUS
 62
           7
100
AcDbVertex
100
AcDb2dVertex
 10
-14367.563291387649
 20
-105.689189166161
 30
0.0
  0
VERTEX
  5
30F
100
AcDbEntity
  8
Frei
  6
CONTINUOUS
 62
           7
100
AcDbVertex
100
AcDb2dVertex
 10
-14367.308876515275
 20
-105.99896405722
 30
0.0
 42
0.044417198743
  0
VERTEX
  5
310
100
AcDbEntity
  8
Frei
  6
CONTINUOUS
 62
           7
100
AcDbVertex
100
AcDb2dVertex
 10
-14366.729425025322
 20
-106.539471368836
 30
0.0
  0
VERTEX
  5
311
100
AcDbEntity
  8
Frei
  6
CONTINUOUS
 62
           7
100
AcDbVertex
100
AcDb2dVertex
 10
-14366.408860399377
 20
-106.766492497022
 30
0.0
  0
VERTEX
  5
312
100
AcDbEntity
  8
Frei
  6
CONTINUOUS
 62
           7
100
AcDbVertex
100
AcDb2dVertex
 10
-14366.069067647519
 20
-106.963562725648
 30
0.0
 42
0.045929593742
  0
VERTEX
  5
313
100
AcDbEntity
  8
Frei
  6
CONTINUOUS
 62
           7
100
AcDbVertex
100
AcDb2dVertex
 10
-14365.347869006639
 20
-107.258352326377
 30
0.0
  0
VERTEX
  5
314
100
AcDbEntity
  8
Frei
  6
CONTINUOUS
 62
           7
100
AcDbVertex
100
AcDb2dVertex
 10
-14364.97143412852
 20
-107.354241265165
 30
0.0
  0
VERTEX
  5
315
100
AcDbEntity
  8
Frei
  6
CONTINUOUS
 62
           7
100
AcDbVertex
100
AcDb2dVertex
 10
-14364.587742358439
 20
-107.414883138178
 30
0.0
 42
0.046286845788
  0
VERTEX
  5
316
100
AcDbEntity
  8
Frei
  6
CONTINUOUS
 62
           7
100
AcDbVertex
100
AcDb2dVertex
 10
-14363.811783766481
 20
-107.428399051543
 30
0.0
  0
VERTEX
  5
317
100
AcDbEntity
  8
Frei
  6
CONTINUOUS
 62
           7
100
AcDbVertex
100
AcDb2dVertex
 10
-14363.42469037415
 20
-107.381117597895
 30
0.0
  0
VERTEX
  5
318
100
AcDbEntity
  8
Frei
  6
CONTINUOUS
 62
           7
100
AcDbVertex
100
AcDb2dVertex
 10
-14363.043570339927
 20
-107.298489392282
 30
0.0
 42
0.045273723548
  0
VERTEX
  5
319
100
AcDbEntity
  8
Frei
  6
CONTINUOUS
 62
           7
100
AcDbVertex
100
AcDb2dVertex
 10
-14362.30644385501
 20
-107.029101399655
 30
0.0
  0
VERTEX
  5
31A
100
AcDbEntity
  8
Frei
  6
CONTINUOUS
 62
           7
100
AcDbVertex
100
AcDb2dVertex
 10
-14361.955712198427
 20
-106.843970378568
 30
0.0
  0
VERTEX
  5
31B
100
AcDbEntity
  8
Frei
  6
CONTINUOUS
 62
           7
100
AcDbVertex
100
AcDb2dVertex
 10
-14361.62280152697
 20
-106.628420291502
 30
0.0
 42
0.04348253534
  0
VERTEX
  5
31C
100
AcDbEntity
  8
Frei
  6
CONTINUOUS
 62
           7
100
AcDbVertex
100
AcDb2dVertex
 10
-14361.013415482003
 20
-106.10862056054
 30
0.0
  0
VERTEX
  5
31D
100
AcDbEntity
  8
Frei
  6
CONTINUOUS
 62
           7
100
AcDbVertex
100
AcDb2dVertex
 10
-14360.741822415759
 20
-105.808077069859
 30
0.0
  0
VERTEX
  5
31E
100
AcDbEntity
  8
Frei
  6
CONTINUOUS
 62
           7
100
AcDbVertex
100
AcDb2dVertex
 10
-14360.496801606723
 20
-105.485496058562
 30
0.0
 42
0.041825507476
  0
VERTEX
  5
31F
100
AcDbEntity
  8
Frei
  6
CONTINUOUS
 62
           7
100
AcDbVertex
100
AcDb2dVertex
 10
-14360.08865695231
 20
-104.777980108243
 30
0.0
  0
VERTEX
  5
320
100
AcDbEntity
  8
Frei
  6
CONTINUOUS
 62
           7
100
AcDbVertex
100
AcDb2dVertex
 10
-14359.929096984151
 20
-104.398713990351
 30
0.0
  0
VERTEX
  5
321
100
AcDbEntity
  8
Frei
  6
CONTINUOUS
 62
           7
100
AcDbVertex
100
AcDb2dVertex
 10
-14359.801382787557
 20
-104.007570223715
 30
0.0
 42
0.040993490695
  0
VERTEX
  5
322
100
AcDbEntity
  8
Frei
  6
CONTINUOUS
 62
           7
100
AcDbVertex
100
AcDb2dVertex
 10
-14359.643707792593
 20
-103.197674919474
 30
0.0
  0
VERTEX
  5
323
100
AcDbEntity
  8
Frei
  6
CONTINUOUS
 62
           7
100
AcDbVertex
100
AcDb2dVertex
 10
-14359.615136450051
 20
-102.785766170361
 30
0.0
  0
VERTEX
  5
324
100
AcDbEntity
  8
Frei
  6
CONTINUOUS
 62
           7
100
AcDbVertex
100
AcDb2dVertex
 10
-14359.620422842354
 20
-102.372902454509
 30
0.0
 42
0.041278481646
  0
VERTEX
  5
325
100
AcDbEntity
  8
Frei
  6
CONTINUOUS
 62
           7
100
AcDbVertex
100
AcDb2dVertex
 10
-14359.732235438267
 20
-101.558313122817
 30
0.0
  0
VERTEX
  5
326
100
AcDbEntity
  8
Frei
  6
CONTINUOUS
 62
           7
100
AcDbVertex
100
AcDb2dVertex
 10
-14359.837663987915
 20
-101.163383490793
 30
0.0
  0
VERTEX
  5
327
100
AcDbEntity
  8
Frei
  6
CONTINUOUS
 62
           7
100
AcDbVertex
100
AcDb2dVertex
 10
-14359.975748211189
 20
-100.778657809038
 30
0.0
 42
0.042584509173
  0
VERTEX
  5
328
100
AcDbEntity
  8
Frei
  6
CONTINUOUS
 62
           7
100
AcDbVertex
100
AcDb2dVertex
 10
-14360.343562148733
 20
-100.057625945355
 30
0.0
  0
VERTEX
  5
329
100
AcDbEntity
  8
Frei
  6
CONTINUOUS
 62
           7
100
AcDbVertex
100
AcDb2dVertex
 10
-14360.570086538159
 20
-99.726900611147
 30
0.0
  0
VERTEX
  5
32A
100
AcDbEntity
  8
Frei
  6
CONTINUOUS
 62
           7
100
AcDbVertex
100
AcDb2dVertex
 10
-14360.824501410534
 20
-99.417125720088
 30
0.0
 42
0.044417198743
  0
VERTEX
  5
32B
100
AcDbEntity
  8
Frei
  6
CONTINUOUS
 62
           7
100
AcDbVertex
100
AcDb2dVertex
 10
-14361.403952900488
 20
-98.876618408472
 30
0.0
  0
VERTEX
  5
32C
100
AcDbEntity
  8
Frei
  6
CONTINUOUS
 62
           7
100
AcDbVertex
100
AcDb2dVertex
 10
-14361.724517526432
 20
-98.649597280287
 30
0.0
  0
VERTEX
  5
32D
100
AcDbEntity
  8
Frei
  6
CONTINUOUS
 62
           7
100
AcDbVertex
100
AcDb2dVertex
 10
-14362.064310278289
 20
-98.452527051661
 30
0.0
 42
0.045929593741
  0
VERTEX
  5
32E
100
AcDbEntity
  8
Frei
  6
CONTINUOUS
 62
           7
100
AcDbVertex
100
AcDb2dVertex
 10
-14362.785508919171
 20
-98.157737450932
 30
0.0
  0
VERTEX
  5
32F
100
AcDbEntity
  8
Frei
  6
CONTINUOUS
 62
           7
100
AcDbVertex
100
AcDb2dVertex
 10
-14363.161943797289
 20
-98.061848512144
 30
0.0
  0
VERTEX
  5
330
100
AcDbEntity
  8
Frei
  6
CONTINUOUS
 62
           7
100
AcDbVertex
100
AcDb2dVertex
 10
-14363.54563556737
 20
-98.001206639131
 30
0.0
  0
SEQEND
  5
331
100
AcDbEntity
  8
Frei
  6
CONTINUOUS
 62
           7
  0
ARC
  5
332
100
AcDbEntity
  8
Frei
  6
CONTINUOUS
 62
           7
100
AcDbCircle
 10
-14230.768185196217
 20
-122.236458791497
 30
0.0
 40
0.5
100
AcDbArc
 50
270.832821982568
 51
353.682999999999
  0
ARC
  5
333
100
AcDbEntity
  8
Frei
  6
CONTINUOUS
 62
           7
100
AcDbCircle
 10
-14230.20509934164
 20
-117.149928196359
 30
0.0
 40
0.5
100
AcDbArc
 50
353.682999999999
 51
76.533178017423
  0
ARC
  5
334
100
AcDbEntity
  8
Frei
  6
CONTINUOUS
 62
           7
100
AcDbCircle
 10
-14383.306370021608
 20
-78.06701709517
 30
0.0
 40
0.5
100
AcDbArc
 50
90.832821982565
 51
173.683
  0
ARC
  5
335
100
AcDbEntity
  8
Frei
  6
CONTINUOUS
 62
           7
100
AcDbCircle
 10
-14383.869455876185
 20
-83.153547690309
 30
0.0
 40
0.5
100
AcDbArc
 50
173.683
 51
256.533178017419
  0
ARC
  5
336
100
AcDbEntity
  8
Frei
  6
CONTINUOUS
 62
           7
100
AcDbCircle
 10
-14413.57859136528
 20
-78.743174873939
 30
0.0
 40
2.0
100
AcDbArc
 50
85.683
 51
173.683
  0
ARC
  5
337
100
AcDbEntity
  8
Frei
  6
CONTINUOUS
 62
           7
100
AcDbCircle
 10
-14431.728535401795
 20
-133.63535677448
 30
0.0
 40
1.5
100
AcDbArc
 50
173.683
 51
263.683
  0
ARC
  5
338
100
AcDbEntity
  8
Frei
  6
CONTINUOUS
 62
           7
100
AcDbCircle
 10
-14430.078097095662
 20
-118.726431481299
 30
0.0
 40
1.5
100
AcDbArc
 50
83.683
 51
173.683
  0
ARC
  5
339
100
AcDbEntity
  8
Frei
  6
CONTINUOUS
 62
           7
100
AcDbCircle
 10
-14419.581336726431
 20
-132.967850713628
 30
0.0
 40
1.5
100
AcDbArc
 50
173.683
 51
263.683
  0
ARC
  5
33A
100
AcDbEntity
  8
Frei
  6
CONTINUOUS
 62
           7
100
AcDbCircle
 10
-14394.733127904463
 20
-135.718581223847
 30
0.0
 40
1.5
100
AcDbArc
 50
263.683
 51
353.682999999999
  0
ARC
  5
33B
100
AcDbEntity
  8
Frei
  6
CONTINUOUS
 62
           7
100
AcDbCircle
 10
-14229.741021326592
 20
-153.983431811703
 30
0.0
 40
1.5
100
AcDbArc
 50
173.683
 51
263.683
  0
ARC
  5
33C
100
AcDbEntity
  8
Frei
  6
CONTINUOUS
 62
           7
100
AcDbCircle
 10
-14204.892812504622
 20
-156.734162321922
 30
0.0
 40
1.5
100
AcDbArc
 50
263.683
 51
353.682999999999
  0
ARC
  5
33D
100
AcDbEntity
  8
Frei
  6
CONTINUOUS
 62
           7
100
AcDbCircle
 10
-14191.535292404764
 20
-145.133444379404
 30
0.0
 40
1.5
100
AcDbArc
 50
353.682999999999
 51
83.683
  0
ARC
  5
33E
100
AcDbEntity
  8
Frei
  6
CONTINUOUS
 62
           7
100
AcDbCircle
 10
-14193.185730710897
 20
-160.042369672585
 30
0.0
 40
1.5
100
AcDbArc
 50
263.683
 51
353.682999999999
  0
ARC
  5
33F
100
AcDbEntity
  8
Frei
  6
CONTINUOUS
 62
           7
100
AcDbCircle
 10
-14198.890067143471
 20
-102.509486482234
 30
0.0
 40
2.0
100
AcDbArc
 50
353.682999999999
 51
81.683
  0
ARC
  5
340
100
AcDbEntity
  8
Frei
  6
CONTINUOUS
 62
           7
100
AcDbCircle
 10
-14227.556931079815
 20
-93.3556349707
 30
0.0
 40
1.0
100
AcDbArc
 50
353.682999999999
 51
83.683
  0
ARC
  5
341
100
AcDbEntity
  8
Frei
  6
CONTINUOUS
 62
           7
100
AcDbCircle
 10
-14230.967836912487
 20
-124.167413909941
 30
0.0
 40
1.0
100
AcDbArc
 50
263.682999999999
 51
353.682999999999
  0
ARC
  5
342
100
AcDbEntity
  8
Frei
  6
CONTINUOUS
 62
           7
100
AcDbCircle
 10
-14387.014588314451
 20
-106.892826305763
 30
0.0
 40
1.0
100
AcDbArc
 50
173.683
 51
263.683
  0
ARC
  5
343
100
AcDbEntity
  8
Frei
  6
CONTINUOUS
 62
           7
100
AcDbCircle
 10
-14383.603682481778
 20
-76.081047366523
 30
0.0
 40
1.0
100
AcDbArc
 50
83.683
 51
173.683
  0
LINE
  5
344
100
AcDbEntity
  8
Frei
  6
CONTINUOUS
 62
           7
100
AcDbLine
 10
-14644.136475677285
 20
-69.731833865437
 30
0.0
 11
-14644.136475677285
 21
-139.731833865437
 31
0.0
  0
LINE
  5
345
100
AcDbEntity
  8
Frei
  6
CONTINUOUS
 62
           7
100
AcDbLine
 10
-14126.247589677285
 20
-139.731833865438
 30
0.0
 11
-14126.247589677285
 21
-69.731833865438
 31
0.0
  0
LINE
  5
346
100
AcDbEntity
  8
Frei
  6
CONTINUOUS
 62
          15
100
AcDbLine
 10
-14564.269411097592
 20
-69.731833865437
 30
0.0
 11
-14644.136475677285
 21
-69.731833865437
 31
0.0
  0
LINE
  5
347
100
AcDbEntity
  8
Frei
  6
GESTRICHELT
 62
          15
100
AcDbLine
 10
-14480.115341302297
 20
-69.731833865437
 30
0.0
 11
-14564.269411097592
 21
-69.731833865437
 31
0.0
  0
LINE
  5
348
100
AcDbEntity
  8
Frei
  6
CONTINUOUS
 62
          15
100
AcDbLine
 10
-14466.477490743577
 20
-69.731833865437
 30
0.0
 11
-14480.115341302297
 21
-69.731833865437
 31
0.0
  0
LINE
  5
349
100
AcDbEntity
  8
Frei
  6
GESTRICHELT
 62
          15
100
AcDbLine
 10
-14311.899969260117
 20
-69.731833865437
 30
0.0
 11
-14466.477490743577
 21
-69.731833865437
 31
0.0
  0
LINE
  5
34A
100
AcDbEntity
  8
Frei
  6
CONTINUOUS
 62
          15
100
AcDbLine
 10
-14126.247589677285
 20
-69.731833865438
 30
0.0
 11
-14311.899969260117
 21
-69.731833865437
 31
0.0
  0
LINE
  5
34B
100
AcDbEntity
  8
Frei
  6
CONTINUOUS
 62
          15
100
AcDbLine
 10
-14229.672513157557
 20
-139.731833865437
 30
0.0
 11
-14644.136475677285
 21
-139.731833865437
 31
0.0
  0
LINE
  5
34C
100
AcDbEntity
  8
Frei
  6
GESTRICHELT
 62
          15
100
AcDbLine
 10
-14201.501468515453
 20
-139.731833865438
 30
0.0
 11
-14229.672513157557
 21
-139.731833865437
 31
0.0
  0
LINE
  5
34D
100
AcDbEntity
  8
Frei
  6
CONTINUOUS
 62
          15
100
AcDbLine
 10
-14126.247589677285
 20
-139.731833865438
 30
0.0
 11
-14201.501468515453
 21
-139.731833865438
 31
0.0
  0
TEXT
  5
34E
100
AcDbEntity
  8
FREI
  6
CONTINUOUS
 62
          15
100
AcDbText
 10
-14692.058934637513
 20
-155.229957668638
 30
0.0
 40
3.527777671814
  1
100-700
 41
0.899999979725
  7
GOTHICG
100
AcDbText
  0
ENDSEC
  0
SECTION
  2
OBJECTS
  0
DICTIONARY
  5
19
100
AcDbDictionary
  3
ACAD_GROUP
350
1A
  3
ACAD_MLINESTYLE
350
1B
  0
DICTIONARY
  5
1A
102
{ACAD_REACTORS
330
19
102
}
100
AcDbDictionary
  0
DICTIONARY
  5
1B
102
{ACAD_REACTORS
330
19
102
}
100
AcDbDictionary
  3
STANDARD
350
1C
  0
MLINESTYLE
  5
1C
102
{ACAD_REACTORS
330
1B
102
}
100
AcDbMlineStyle
  2
STANDARD
 70
           0
  3

 62
           0
 51
90.0
 52
90.0
 71
           2
 49
0.5
 62
         256
  6
BYLAYER
 49
-0.5
 62
         256
  6
BYLAYER
  0
ENDSEC
  0
EOF
