  0
SECTION
  2
HEADER
  9
$ACADVER
  1
AC1012
  9
$DWGCODEPAGE
  3
dos850
  9
$INSBASE
 10
0.0
 20
0.0
 30
0.0
  9
$EXTMIN
 10
-14747.908559764139
 20
-547.256492127598
 30
0.0
  9
$EXTMAX
 10
-14137.094048921936
 20
-349.682808578855
 30
0.0
  9
$LIMMIN
 10
-14747.908559764139
 20
-547.256492127598
  9
$LIMMAX
 10
-14137.094048921936
 20
-349.682808578855
  9
$ORTHOMODE
 70
           0
  9
$REGENMODE
 70
           1
  9
$FILLMODE
 70
           1
  9
$QTEXTMODE
 70
           0
  9
$MIRRTEXT
 70
           1
  9
$DRAGMODE
 70
           2
  9
$LTSCALE
 40
5.0
  9
$OSMODE
 70
           0
  9
$ATTMODE
 70
           1
  9
$TEXTSIZE
 40
0.2
  9
$TRACEWID
 40
0.05
  9
$TEXTSTYLE
  7
TXT
  9
$CLAYER
  8
0
  9
$CELTYPE
  6
CONTINUOUS
  9
$CECOLOR
 62
         256
  9
$CELTSCALE
 40
1.0
  9
$DELOBJ
 70
           1
  9
$DISPSILH
 70
           0
  9
$DIMSCALE
 40
1.0
  9
$DIMASZ
 40
3.5
  9
$DIMEXO
 40
0.0625
  9
$DIMDLI
 40
0.38
  9
$DIMRND
 40
0.0
  9
$DIMDLE
 40
0.0
  9
$DIMEXE
 40
0.18
  9
$DIMTP
 40
0.0
  9
$DIMTM
 40
0.0
  9
$DIMTXT
 40
3.5
  9
$DIMCEN
 40
0.09
  9
$DIMTSZ
 40
0.0
  9
$DIMTOL
 70
           0
  9
$DIMLIM
 70
           0
  9
$DIMTIH
 70
           1
  9
$DIMTOH
 70
           1
  9
$DIMSE1
 70
           0
  9
$DIMSE2
 70
           0
  9
$DIMTAD
 70
           0
  9
$DIMZIN
 70
           0
  9
$DIMBLK
  1

  9
$DIMASO
 70
           1
  9
$DIMSHO
 70
           1
  9
$DIMPOST
  1

  9
$DIMAPOST
  1

  9
$DIMALT
 70
           0
  9
$DIMALTD
 70
           2
  9
$DIMALTF
 40
25.4
  9
$DIMLFAC
 40
1.0
  9
$DIMTOFL
 70
           0
  9
$DIMTVP
 40
0.0
  9
$DIMTIX
 70
           0
  9
$DIMSOXD
 70
           0
  9
$DIMSAH
 70
           0
  9
$DIMBLK1
  1

  9
$DIMBLK2
  1

  9
$DIMSTYLE
  2
STANDARD
  9
$DIMCLRD
 70
           0
  9
$DIMCLRE
 70
           0
  9
$DIMCLRT
 70
           0
  9
$DIMTFAC
 40
1.0
  9
$DIMGAP
 40
0.09
  9
$DIMJUST
 70
           0
  9
$DIMSD1
 70
           0
  9
$DIMSD2
 70
           0
  9
$DIMTOLJ
 70
           1
  9
$DIMTZIN
 70
           0
  9
$DIMALTZ
 70
           0
  9
$DIMALTTZ
 70
           0
  9
$DIMFIT
 70
           3
  9
$DIMUPT
 70
           0
  9
$DIMUNIT
 70
           2
  9
$DIMDEC
 70
           4
  9
$DIMTDEC
 70
           4
  9
$DIMALTU
 70
           2
  9
$DIMALTTD
 70
           2
  9
$DIMTXSTY
  7
TXT
  9
$DIMAUNIT
 70
           0
  9
$LUNITS
 70
           2
  9
$LUPREC
 70
           3
  9
$SKETCHINC
 40
0.1
  9
$FILLETRAD
 40
0.0
  9
$AUNITS
 70
           0
  9
$AUPREC
 70
           3
  9
$MENU
  1
acad
  9
$ELEVATION
 40
0.0
  9
$PELEVATION
 40
0.0
  9
$THICKNESS
 40
0.0
  9
$LIMCHECK
 70
           0
  9
$BLIPMODE
 70
           1
  9
$CHAMFERA
 40
0.0
  9
$CHAMFERB
 40
0.0
  9
$CHAMFERC
 40
0.0
  9
$CHAMFERD
 40
0.0
  9
$SKPOLY
 70
           0
  9
$TDCREATE
 40
0.000000000
  9
$TDUPDATE
 40
0.000000000
  9
$TDINDWG
 40
0.0000000000
  9
$TDUSRTIMER
 40
0.0000000000
  9
$USRTIMER
 70
           1
  9
$ANGBASE
 50
0.0
  9
$ANGDIR
 70
           0
  9
$PDMODE
 70
           2
  9
$PDSIZE
 40
0.5
  9
$PLINEWID
 40
0.0
  9
$COORDS
 70
           0
  9
$SPLFRAME
 70
           0
  9
$SPLINETYPE
 70
           6
  9
$SPLINESEGS
 70
           8
  9
$ATTDIA
 70
           0
  9
$ATTREQ
 70
           1
  9
$HANDLING
 70
           1
  9
$HANDSEED
  5
3AC
  9
$SURFTAB1
 70
           6
  9
$SURFTAB2
 70
           6
  9
$SURFTYPE
 70
           6
  9
$SURFU
 70
           6
  9
$SURFV
 70
           6
  9
$UCSNAME
  2

  9
$UCSORG
 10
0.0
 20
0.0
 30
0.0
  9
$UCSXDIR
 10
1.0
 20
0.0
 30
0.0
  9
$UCSYDIR
 10
0.0
 20
1.0
 30
0.0
  9
$PUCSNAME
  2

  9
$PUCSORG
 10
0.0
 20
0.0
 30
0.0
  9
$PUCSXDIR
 10
1.0
 20
0.0
 30
0.0
  9
$PUCSYDIR
 10
0.0
 20
1.0
 30
0.0
  9
$USERI1
 70
           0
  9
$USERI2
 70
           0
  9
$USERI3
 70
           0
  9
$USERI4
 70
           0
  9
$USERI5
 70
           0
  9
$USERR1
 40
0.0
  9
$USERR2
 40
0.0
  9
$USERR3
 40
0.0
  9
$USERR4
 40
0.0
  9
$USERR5
 40
0.0
  9
$WORLDVIEW
 70
           1
  9
$SHADEDGE
 70
           3
  9
$SHADEDIF
 70
          70
  9
$TILEMODE
 70
           1
  9
$MAXACTVP
 70
          16
  9
$PINSBASE
 10
0.0
 20
0.0
 30
0.0
  9
$PLIMCHECK
 70
           0
  9
$PEXTMIN
 10
1.000000000000E+20
 20
1.000000000000E+20
 30
1.000000000000E+20
  9
$PEXTMAX
 10
-1.000000000000E+20
 20
-1.000000000000E+20
 30
-1.000000000000E+20
  9
$PLIMMIN
 10
0.0
 20
0.0
  9
$PLIMMAX
 10
12.0
 20
9.0
  9
$UNITMODE
 70
           0
  9
$VISRETAIN
 70
           0
  9
$PLINEGEN
 70
           1
  9
$PSLTSCALE
 70
           0
  9
$TREEDEPTH
 70
        3020
  9
$PICKSTYLE
 70
           1
  9
$CMLSTYLE
  2
STANDARD
  9
$CMLJUST
 70
           0
  9
$CMLSCALE
 40
1.0
  9
$SAVEIMAGES
 70
           0
  0
ENDSEC
  0
SECTION
  2
CLASSES
  0
CLASS
  1
LWPOLYLINE
  2
AcDbPolyline
  3
"AutoCAD"
 90
        0
280
           0
281
           1
  0
CLASS
  1
IMAGE
  2
AcDbRasterImage
  3
ISM
 90
      127
280
           0
281
           1
  0
CLASS
  1
OLE2FRAME
  2
AcDbOle2Frame
  3
""
 90
        0
280
           0
281
           1
  0
CLASS
  1
HATCH
  2
AcDbHatch
  3
"ACAD_SEDONA"
 90
        0
280
           0
281
           1
  0
CLASS
  1
DICTIONARYVAR
  2
AcDbDictionaryVar
  3
"AutoCAD"
 90
        0
280
           0
281
           0
  0
CLASS
  1
RASTERVARIABLES
  2
AcDbRasterVariables
  3
ISM
 90
        0
280
           0
281
           0
  0
CLASS
  1
IMAGEDEF
  2
AcDbRasterImageDef
  3
ISM
 90
        0
280
           0
281
           0
  0
CLASS
  1
IMAGEDEF_REACTOR
  2
AcDbRasterImageDefReactor
  3
ISM
 90
        1
280
           0
281
           0
  0
CLASS
  1
IDBUFFER
  2
AcDbIdBuffer
  3
"Acad"
 90
        0
280
           0
281
           0
  0
CLASS
  1
SPATIAL_FILTER
  2
AcDbSpatialFilter
  3
"Acad"
 90
        0
280
           0
281
           0
  0
CLASS
  1
XRECORD
  2
AcDbXrecord
  3
"<Built In>"
 90
        0
280
           0
281
           0
  0
ENDSEC
  0
SECTION
  2
TABLES
  0
TABLE
  2
VPORT
  5
7
100
AcDbSymbolTable
 70
           1
  0
VPORT
  5
15
100
AcDbSymbolTableRecord
100
AcDbViewportTableRecord
  2
*ACTIVE
 70
           0
 10
0.0
 20
0.0
 11
1.0
 21
1.0
 12
6.591288
 22
4.579184
 13
0.0
 23
0.0
 14
1.0
 24
1.0
 15
0.0
 25
0.0
 16
0.0
 26
0.0
 36
1.0
 17
0.0
 27
0.0
 37
0.0
 40
9.158369
 41
0.688564
 42
50.0
 43
0.0
 44
0.0
 50
0.0
 51
0.0
 71
           0
 72
         100
 73
           1
 74
           1
 75
           0
 76
           0
 77
           0
 78
           0
  0
ENDTAB
  0
TABLE
  2
LTYPE
  5
4
100
AcDbSymbolTable
 70
           5
  0
LTYPE
  5
11
100
AcDbSymbolTableRecord
100
AcDbLinetypeTableRecord
  2
BYBLOCK
 70
           0
  3

 72
          65
 73
           0
 40
0.0
  0
LTYPE
  5
12
100
AcDbSymbolTableRecord
100
AcDbLinetypeTableRecord
  2
BYLAYER
 70
           0
  3

 72
          65
 73
           0
 40
0.0
  0
LTYPE
  5
13
100
AcDbSymbolTableRecord
100
AcDbLinetypeTableRecord
  2
CONTINUOUS
 70
           0
  3
Solid line
 72
          65
 73
           0
 40
0.0
  0
LTYPE
  5
1D
100
AcDbSymbolTableRecord
100
AcDbLinetypeTableRecord
  2
GESTRICHELT
 70
           0
  3

 72
          65
 73
           2
 40
0.75
 49
0.5
 74
           0
 49
-0.25
 74
           0
  0
LTYPE
  5
1E
100
AcDbSymbolTableRecord
100
AcDbLinetypeTableRecord
  2
STRICHPUNKT
 70
           0
  3

 72
          65
 73
           4
 40
1.0
 49
0.5
 74
           0
 49
-0.25
 74
           0
 49
0.0
 74
           0
 49
-0.25
 74
           0
  0
ENDTAB
  0
TABLE
  2
LAYER
  5
2
100
AcDbSymbolTable
 70
           3
  0
LAYER
  5
14
100
AcDbSymbolTableRecord
100
AcDbLayerTableRecord
  2
0
 70
           0
 62
           7
  6
CONTINUOUS
  0
LAYER
  5
20
100
AcDbSymbolTableRecord
100
AcDbLayerTableRecord
  2
FREI
 70
           0
 62
           7
  6
CONTINUOUS
  0
LAYER
  5
21
100
AcDbSymbolTableRecord
100
AcDbLayerTableRecord
  2
Frei
 70
           0
 62
           7
  6
CONTINUOUS
  0
ENDTAB
  0
TABLE
  2
STYLE
  5
3
100
AcDbSymbolTable
 70
           2
  0
STYLE
  5
17
100
AcDbSymbolTableRecord
100
AcDbTextStyleTableRecord
  2
TXT
 70
           0
 40
3.5
 41
1.0
 50
0.0
 71
           0
 42
3.5
  3
TXT
  4

  0
STYLE
  5
1F
100
AcDbSymbolTableRecord
100
AcDbTextStyleTableRecord
  2
GOTHICG
 70
           0
 40
3.5
 41
1.0
 50
0.0
 71
           0
 42
3.5
  3
GOTHICG
  4

  0
ENDTAB
  0
TABLE
  2
VIEW
  5
5
100
AcDbSymbolTable
 70
           0
  0
ENDTAB
  0
TABLE
  2
UCS
  5
6
100
AcDbSymbolTable
 70
           0
  0
ENDTAB
  0
TABLE
  2
APPID
  5
8
100
AcDbSymbolTable
 70
           2
  0
APPID
  5
16
100
AcDbSymbolTableRecord
100
AcDbRegAppTableRecord
  2
ACAD
 70
           0
  0
APPID
  5
22
100
AcDbSymbolTableRecord
100
AcDbRegAppTableRecord
  2
MegaCADPntStyle
 70
           0
  0
ENDTAB
  0
TABLE
  2
DIMSTYLE
  5
9
100
AcDbSymbolTable
 70
           1
  0
DIMSTYLE
105
18
100
AcDbSymbolTableRecord
100
AcDbDimStyleTableRecord
  2
STANDARD
 70
           0
  3

  4

  5

  6

  7

 40
1.0
 41
0.18
 42
0.0625
 43
0.38
 44
0.18
 45
0.0
 46
0.0
 47
0.0
 48
0.0
140
0.18
141
0.09
142
0.0
143
25.4
144
1.0
145
0.0
146
1.0
147
0.09
 71
           0
 72
           0
 73
           1
 74
           1
 75
           0
 76
           0
 77
           0
 78
           0
170
           0
171
           2
172
           0
173
           0
174
           0
175
           0
176
           0
177
           0
178
           0
270
           2
271
           4
272
           4
273
           2
274
           2
340
17
275
           0
280
           0
281
           0
282
           0
283
           1
284
           0
285
           0
286
           0
287
           0
288
           0
  0
ENDTAB
  0
TABLE
  2
BLOCK_RECORD
  5
1
100
AcDbSymbolTable
 70
           3
  0
BLOCK_RECORD
  5
A
100
AcDbSymbolTableRecord
100
AcDbBlockTableRecord
  2
*MODEL_SPACE
  0
BLOCK_RECORD
  5
B
100
AcDbSymbolTableRecord
100
AcDbBlockTableRecord
  2
*PAPER_SPACE
  0
BLOCK_RECORD
  5
23
100
AcDbSymbolTableRecord
100
AcDbBlockTableRecord
  2
ELIPPSE
  0
BLOCK_RECORD
  5
24
100
AcDbSymbolTableRecord
100
AcDbBlockTableRecord
  2
MAK1
  0
BLOCK_RECORD
  5
25
100
AcDbSymbolTableRecord
100
AcDbBlockTableRecord
  2
MAK2
  0
ENDTAB
  0
ENDSEC
  0
SECTION
  2
BLOCKS
  0
BLOCK
  5
D
100
AcDbEntity
  8
0
100
AcDbBlockBegin
  2
*MODEL_SPACE
 70
           0
 10
0.0
 20
0.0
 30
0.0
  3
*MODEL_SPACE
  1

  0
ENDBLK
  5
E
100
AcDbEntity
  8
0
100
AcDbBlockEnd
  0
BLOCK
  5
F
100
AcDbEntity
 67
           1
  8
0
100
AcDbBlockBegin
  2
*PAPER_SPACE
 70
           0
 10
0.0
 20
0.0
 30
0.0
  3
*PAPER_SPACE
  1

  0
ENDBLK
  5
10
100
AcDbEntity
 67
           1
  8
0
100
AcDbBlockEnd
  0
BLOCK
  5
350
100
AcDbEntity
  8
0
100
AcDbBlockBegin
  2
ELIPPSE
 70
          64
 10
0.0
 20
0.0
 30
0.0
  3
ELIPPSE
  1

  0
CIRCLE
  5
351
100
AcDbEntity
  8
0
  6
BYBLOCK
 62
           0
100
AcDbCircle
 10
0.0
 20
0.0
 30
0.0
 40
1.0
  0
ENDBLK
  5
352
100
AcDbEntity
  8
0
  6
BYBLOCK
 62
           0
100
AcDbBlockEnd
  0
BLOCK
  5
353
100
AcDbEntity
  8
0
100
AcDbBlockBegin
  2
MAK1
 70
          64
 10
0.0
 20
0.0
 30
0.0
  3
MAK1
  1

  0
LINE
  5
354
100
AcDbEntity
  8
Frei
  6
CONTINUOUS
 62
           2
100
AcDbLine
 10
191.903508353413
 20
615.10691689356
 30
0.0
 11
192.293358480831
 21
615.496767020978
 31
0.0
  0
LINE
  5
355
100
AcDbEntity
  8
Frei
  6
CONTINUOUS
 62
           2
100
AcDbLine
 10
191.903508353415
 20
614.04625672178
 30
0.0
 11
193.354018652613
 21
615.496767020978
 31
0.0
  0
LINE
  5
356
100
AcDbEntity
  8
Frei
  6
CONTINUOUS
 62
           2
100
AcDbLine
 10
191.903508353413
 20
612.98559655
 30
0.0
 11
193.903508353416
 21
614.98559655
 31
0.0
  0
LINE
  5
357
100
AcDbEntity
  8
Frei
  6
CONTINUOUS
 62
           2
100
AcDbLine
 10
191.903508353415
 20
611.92493637822
 30
0.0
 11
193.903508353415
 21
613.92493637822
 31
0.0
  0
LINE
  5
358
100
AcDbEntity
  8
Frei
  6
CONTINUOUS
 62
           2
100
AcDbLine
 10
191.903508353415
 20
610.86427620644
 30
0.0
 11
193.903508353416
 21
612.86427620644
 31
0.0
  0
LINE
  5
359
100
AcDbEntity
  8
Frei
  6
CONTINUOUS
 62
           2
100
AcDbLine
 10
191.903508353415
 20
609.803616034661
 30
0.0
 11
193.903508353416
 21
611.803616034661
 31
0.0
  0
LINE
  5
35A
100
AcDbEntity
  8
Frei
  6
CONTINUOUS
 62
           2
100
AcDbLine
 10
191.903508353415
 20
608.742955862881
 30
0.0
 11
193.903508353415
 21
610.742955862881
 31
0.0
  0
LINE
  5
35B
100
AcDbEntity
  8
Frei
  6
CONTINUOUS
 62
           2
100
AcDbLine
 10
191.903508353415
 20
607.682295691101
 30
0.0
 11
193.903508353415
 21
609.682295691101
 31
0.0
  0
LINE
  5
35C
100
AcDbEntity
  8
Frei
  6
CONTINUOUS
 62
           2
100
AcDbLine
 10
191.903508353413
 20
606.621635519321
 30
0.0
 11
193.903508353413
 21
608.621635519321
 31
0.0
  0
LINE
  5
35D
100
AcDbEntity
  8
Frei
  6
CONTINUOUS
 62
           2
100
AcDbLine
 10
191.903508353413
 20
605.560975347541
 30
0.0
 11
193.903508353415
 21
607.560975347541
 31
0.0
  0
LINE
  5
35E
100
AcDbEntity
  8
Frei
  6
CONTINUOUS
 62
           2
100
AcDbLine
 10
191.903508353415
 20
604.500315175762
 30
0.0
 11
193.903508353415
 21
606.500315175762
 31
0.0
  0
LINE
  5
35F
100
AcDbEntity
  8
Frei
  6
CONTINUOUS
 62
           2
100
AcDbLine
 10
191.903508353413
 20
603.439655003982
 30
0.0
 11
193.903508353415
 21
605.439655003982
 31
0.0
  0
LINE
  5
360
100
AcDbEntity
  8
Frei
  6
CONTINUOUS
 62
           2
100
AcDbLine
 10
191.903508353415
 20
602.378994832202
 30
0.0
 11
193.903508353415
 21
604.378994832202
 31
0.0
  0
LINE
  5
361
100
AcDbEntity
  8
Frei
  6
CONTINUOUS
 62
           2
100
AcDbLine
 10
191.903508353413
 20
601.318334660422
 30
0.0
 11
193.903508353416
 21
603.318334660422
 31
0.0
  0
LINE
  5
362
100
AcDbEntity
  8
Frei
  6
CONTINUOUS
 62
           2
100
AcDbLine
 10
191.903508353415
 20
600.257674488643
 30
0.0
 11
193.903508353415
 21
602.257674488643
 31
0.0
  0
LINE
  5
363
100
AcDbEntity
  8
Frei
  6
CONTINUOUS
 62
           2
100
AcDbLine
 10
191.903508353415
 20
599.197014316863
 30
0.0
 11
193.903508353415
 21
601.197014316863
 31
0.0
  0
LINE
  5
364
100
AcDbEntity
  8
Frei
  6
CONTINUOUS
 62
           2
100
AcDbLine
 10
191.903508353415
 20
598.136354145083
 30
0.0
 11
193.903508353415
 21
600.136354145083
 31
0.0
  0
LINE
  5
365
100
AcDbEntity
  8
Frei
  6
CONTINUOUS
 62
           2
100
AcDbLine
 10
191.903508353413
 20
597.075693973303
 30
0.0
 11
193.903508353415
 21
599.075693973303
 31
0.0
  0
LINE
  5
366
100
AcDbEntity
  8
Frei
  6
CONTINUOUS
 62
           2
100
AcDbLine
 10
191.903508353415
 20
596.015033801524
 30
0.0
 11
193.903508353415
 21
598.015033801523
 31
0.0
  0
LINE
  5
367
100
AcDbEntity
  8
Frei
  6
CONTINUOUS
 62
           2
100
AcDbLine
 10
192.445901744646
 20
595.496767020978
 30
0.0
 11
193.903508353416
 21
596.954373629744
 31
0.0
  0
LINE
  5
368
100
AcDbEntity
  8
Frei
  6
CONTINUOUS
 62
           2
100
AcDbLine
 10
193.506561916429
 20
595.496767020978
 30
0.0
 11
193.903508353415
 21
595.893713457964
 31
0.0
  0
LINE
  5
369
100
AcDbEntity
  8
Frei
  6
CONTINUOUS
 62
           2
100
AcDbLine
 10
192.573740611433
 20
595.496767020978
 30
0.0
 11
191.903508353415
 21
596.166999278996
 31
0.0
  0
LINE
  5
36A
100
AcDbEntity
  8
Frei
  6
CONTINUOUS
 62
           2
100
AcDbLine
 10
193.63440078321
 20
595.496767020978
 30
0.0
 11
191.903508353415
 21
597.227659450776
 31
0.0
  0
LINE
  5
36B
100
AcDbEntity
  8
Frei
  6
CONTINUOUS
 62
           2
100
AcDbLine
 10
193.903508353416
 20
596.288319622556
 30
0.0
 11
191.903508353413
 21
598.288319622556
 31
0.0
  0
LINE
  5
36C
100
AcDbEntity
  8
Frei
  6
CONTINUOUS
 62
           2
100
AcDbLine
 10
193.903508353415
 20
597.348979794335
 30
0.0
 11
191.903508353415
 21
599.348979794335
 31
0.0
  0
LINE
  5
36D
100
AcDbEntity
  8
Frei
  6
CONTINUOUS
 62
           2
100
AcDbLine
 10
193.903508353415
 20
598.409639966115
 30
0.0
 11
191.903508353413
 21
600.409639966115
 31
0.0
  0
LINE
  5
36E
100
AcDbEntity
  8
Frei
  6
CONTINUOUS
 62
           2
100
AcDbLine
 10
193.903508353415
 20
599.470300137895
 30
0.0
 11
191.903508353413
 21
601.470300137895
 31
0.0
  0
LINE
  5
36F
100
AcDbEntity
  8
Frei
  6
CONTINUOUS
 62
           2
100
AcDbLine
 10
193.903508353415
 20
600.530960309675
 30
0.0
 11
191.903508353413
 21
602.530960309675
 31
0.0
  0
LINE
  5
370
100
AcDbEntity
  8
Frei
  6
CONTINUOUS
 62
           2
100
AcDbLine
 10
193.903508353413
 20
601.591620481455
 30
0.0
 11
191.903508353413
 21
603.591620481455
 31
0.0
  0
LINE
  5
371
100
AcDbEntity
  8
Frei
  6
CONTINUOUS
 62
           2
100
AcDbLine
 10
193.903508353415
 20
602.652280653235
 30
0.0
 11
191.903508353415
 21
604.652280653234
 31
0.0
  0
LINE
  5
372
100
AcDbEntity
  8
Frei
  6
CONTINUOUS
 62
           2
100
AcDbLine
 10
193.903508353415
 20
603.712940825014
 30
0.0
 11
191.903508353415
 21
605.712940825014
 31
0.0
  0
LINE
  5
373
100
AcDbEntity
  8
Frei
  6
CONTINUOUS
 62
           2
100
AcDbLine
 10
193.903508353416
 20
604.773600996794
 30
0.0
 11
191.903508353415
 21
606.773600996794
 31
0.0
  0
LINE
  5
374
100
AcDbEntity
  8
Frei
  6
CONTINUOUS
 62
           2
100
AcDbLine
 10
193.903508353416
 20
605.834261168574
 30
0.0
 11
191.903508353415
 21
607.834261168574
 31
0.0
  0
LINE
  5
375
100
AcDbEntity
  8
Frei
  6
CONTINUOUS
 62
           2
100
AcDbLine
 10
193.903508353415
 20
606.894921340354
 30
0.0
 11
191.903508353415
 21
608.894921340354
 31
0.0
  0
LINE
  5
376
100
AcDbEntity
  8
Frei
  6
CONTINUOUS
 62
           2
100
AcDbLine
 10
193.903508353416
 20
607.955581512133
 30
0.0
 11
191.903508353413
 21
609.955581512133
 31
0.0
  0
LINE
  5
377
100
AcDbEntity
  8
Frei
  6
CONTINUOUS
 62
           2
100
AcDbLine
 10
193.903508353415
 20
609.016241683913
 30
0.0
 11
191.903508353415
 21
611.016241683913
 31
0.0
  0
LINE
  5
378
100
AcDbEntity
  8
Frei
  6
CONTINUOUS
 62
           2
100
AcDbLine
 10
193.903508353415
 20
610.076901855693
 30
0.0
 11
191.903508353413
 21
612.076901855693
 31
0.0
  0
LINE
  5
379
100
AcDbEntity
  8
Frei
  6
CONTINUOUS
 62
           2
100
AcDbLine
 10
193.903508353415
 20
611.137562027473
 30
0.0
 11
191.903508353413
 21
613.137562027473
 31
0.0
  0
LINE
  5
37A
100
AcDbEntity
  8
Frei
  6
CONTINUOUS
 62
           2
100
AcDbLine
 10
193.903508353415
 20
612.198222199253
 30
0.0
 11
191.903508353415
 21
614.198222199252
 31
0.0
  0
LINE
  5
37B
100
AcDbEntity
  8
Frei
  6
CONTINUOUS
 62
           2
100
AcDbLine
 10
193.903508353415
 20
613.258882371032
 30
0.0
 11
191.903508353415
 21
615.258882371032
 31
0.0
  0
LINE
  5
37C
100
AcDbEntity
  8
Frei
  6
CONTINUOUS
 62
           2
100
AcDbLine
 10
193.903508353416
 20
614.319542542812
 30
0.0
 11
192.726283875247
 21
615.496767020978
 31
0.0
  0
LINE
  5
37D
100
AcDbEntity
  8
Frei
  6
CONTINUOUS
 62
           2
100
AcDbLine
 10
193.903508353415
 20
615.380202714592
 30
0.0
 11
193.786944047028
 21
615.496767020978
 31
0.0
  0
ENDBLK
  5
37E
100
AcDbEntity
  8
0
  6
BYBLOCK
 62
           0
100
AcDbBlockEnd
  0
BLOCK
  5
37F
100
AcDbEntity
  8
0
100
AcDbBlockBegin
  2
MAK2
 70
          64
 10
0.0
 20
0.0
 30
0.0
  3
MAK2
  1

  0
LINE
  5
380
100
AcDbEntity
  8
Frei
  6
CONTINUOUS
 62
           2
100
AcDbLine
 10
-32.096491646587
 20
614.906213139101
 30
0.0
 11
-31.50593776471
 21
615.496767020978
 31
0.0
  0
LINE
  5
381
100
AcDbEntity
  8
Frei
  6
CONTINUOUS
 62
           2
100
AcDbLine
 10
-32.096491646587
 20
613.845552967322
 30
0.0
 11
-30.445277592929
 21
615.496767020978
 31
0.0
  0
LINE
  5
382
100
AcDbEntity
  8
Frei
  6
CONTINUOUS
 62
           2
100
AcDbLine
 10
-32.096491646585
 20
612.784892795542
 30
0.0
 11
-30.096491646585
 21
614.784892795542
 31
0.0
  0
LINE
  5
383
100
AcDbEntity
  8
Frei
  6
CONTINUOUS
 62
           2
100
AcDbLine
 10
-32.096491646587
 20
611.724232623762
 30
0.0
 11
-30.096491646587
 21
613.724232623762
 31
0.0
  0
LINE
  5
384
100
AcDbEntity
  8
Frei
  6
CONTINUOUS
 62
           2
100
AcDbLine
 10
-32.096491646585
 20
610.663572451982
 30
0.0
 11
-30.096491646589
 21
612.663572451982
 31
0.0
  0
LINE
  5
385
100
AcDbEntity
  8
Frei
  6
CONTINUOUS
 62
           2
100
AcDbLine
 10
-32.096491646587
 20
609.602912280202
 30
0.0
 11
-30.096491646587
 21
611.602912280203
 31
0.0
  0
LINE
  5
386
100
AcDbEntity
  8
Frei
  6
CONTINUOUS
 62
           2
100
AcDbLine
 10
-32.096491646587
 20
608.542252108423
 30
0.0
 11
-30.096491646589
 21
610.542252108423
 31
0.0
  0
LINE
  5
387
100
AcDbEntity
  8
Frei
  6
CONTINUOUS
 62
           2
100
AcDbLine
 10
-32.096491646587
 20
607.481591936643
 30
0.0
 11
-30.096491646587
 21
609.481591936643
 31
0.0
  0
LINE
  5
388
100
AcDbEntity
  8
Frei
  6
CONTINUOUS
 62
           2
100
AcDbLine
 10
-32.096491646587
 20
606.420931764863
 30
0.0
 11
-30.096491646587
 21
608.420931764863
 31
0.0
  0
LINE
  5
389
100
AcDbEntity
  8
Frei
  6
CONTINUOUS
 62
           2
100
AcDbLine
 10
-32.096491646587
 20
605.360271593083
 30
0.0
 11
-30.096491646587
 21
607.360271593084
 31
0.0
  0
LINE
  5
38A
100
AcDbEntity
  8
Frei
  6
CONTINUOUS
 62
           2
100
AcDbLine
 10
-32.096491646585
 20
604.299611421304
 30
0.0
 11
-30.096491646587
 21
606.299611421304
 31
0.0
  0
LINE
  5
38B
100
AcDbEntity
  8
Frei
  6
CONTINUOUS
 62
           2
100
AcDbLine
 10
-32.096491646587
 20
603.238951249524
 30
0.0
 11
-30.096491646585
 21
605.238951249524
 31
0.0
  0
LINE
  5
38C
100
AcDbEntity
  8
Frei
  6
CONTINUOUS
 62
           2
100
AcDbLine
 10
-32.096491646585
 20
602.178291077744
 30
0.0
 11
-30.096491646587
 21
604.178291077744
 31
0.0
  0
LINE
  5
38D
100
AcDbEntity
  8
Frei
  6
CONTINUOUS
 62
           2
100
AcDbLine
 10
-32.096491646585
 20
601.117630905965
 30
0.0
 11
-30.096491646587
 21
603.117630905964
 31
0.0
  0
LINE
  5
38E
100
AcDbEntity
  8
Frei
  6
CONTINUOUS
 62
           2
100
AcDbLine
 10
-32.096491646585
 20
600.056970734185
 30
0.0
 11
-30.096491646587
 21
602.056970734184
 31
0.0
  0
LINE
  5
38F
100
AcDbEntity
  8
Frei
  6
CONTINUOUS
 62
           2
100
AcDbLine
 10
-32.096491646587
 20
598.996310562405
 30
0.0
 11
-30.096491646587
 21
600.996310562405
 31
0.0
  0
LINE
  5
390
100
AcDbEntity
  8
Frei
  6
CONTINUOUS
 62
           2
100
AcDbLine
 10
-32.096491646587
 20
597.935650390625
 30
0.0
 11
-30.096491646587
 21
599.935650390625
 31
0.0
  0
LINE
  5
391
100
AcDbEntity
  8
Frei
  6
CONTINUOUS
 62
           2
100
AcDbLine
 10
-32.096491646587
 20
596.874990218846
 30
0.0
 11
-30.096491646587
 21
598.874990218845
 31
0.0
  0
LINE
  5
392
100
AcDbEntity
  8
Frei
  6
CONTINUOUS
 62
           2
100
AcDbLine
 10
-32.096491646587
 20
595.814330047065
 30
0.0
 11
-30.096491646587
 21
597.814330047065
 31
0.0
  0
LINE
  5
393
100
AcDbEntity
  8
Frei
  6
CONTINUOUS
 62
           2
100
AcDbLine
 10
-31.353394500897
 20
595.496767020978
 30
0.0
 11
-30.096491646587
 21
596.753669875286
 31
0.0
  0
LINE
  5
394
100
AcDbEntity
  8
Frei
  6
CONTINUOUS
 62
           2
100
AcDbLine
 10
-30.292734329114
 20
595.496767020978
 30
0.0
 11
-30.096491646587
 21
595.693009703506
 31
0.0
  0
LINE
  5
395
100
AcDbEntity
  8
Frei
  6
CONTINUOUS
 62
           2
100
AcDbLine
 10
-31.22555563411
 20
595.496767020978
 30
0.0
 11
-32.096491646587
 21
596.367703033455
 31
0.0
  0
LINE
  5
396
100
AcDbEntity
  8
Frei
  6
CONTINUOUS
 62
           2
100
AcDbLine
 10
-30.164895462331
 20
595.496767020978
 30
0.0
 11
-32.096491646587
 21
597.428363205234
 31
0.0
  0
LINE
  5
397
100
AcDbEntity
  8
Frei
  6
CONTINUOUS
 62
           2
100
AcDbLine
 10
-30.096491646587
 20
596.489023377014
 30
0.0
 11
-32.096491646589
 21
598.489023377014
 31
0.0
  0
LINE
  5
398
100
AcDbEntity
  8
Frei
  6
CONTINUOUS
 62
           2
100
AcDbLine
 10
-30.096491646589
 20
597.549683548794
 30
0.0
 11
-32.096491646585
 21
599.549683548794
 31
0.0
  0
LINE
  5
399
100
AcDbEntity
  8
Frei
  6
CONTINUOUS
 62
           2
100
AcDbLine
 10
-30.096491646587
 20
598.610343720573
 30
0.0
 11
-32.096491646585
 21
600.610343720574
 31
0.0
  0
LINE
  5
39A
100
AcDbEntity
  8
Frei
  6
CONTINUOUS
 62
           2
100
AcDbLine
 10
-30.096491646587
 20
599.671003892353
 30
0.0
 11
-32.096491646587
 21
601.671003892353
 31
0.0
  0
LINE
  5
39B
100
AcDbEntity
  8
Frei
  6
CONTINUOUS
 62
           2
100
AcDbLine
 10
-30.096491646587
 20
600.731664064133
 30
0.0
 11
-32.096491646585
 21
602.731664064133
 31
0.0
  0
LINE
  5
39C
100
AcDbEntity
  8
Frei
  6
CONTINUOUS
 62
           2
100
AcDbLine
 10
-30.096491646587
 20
601.792324235913
 30
0.0
 11
-32.096491646587
 21
603.792324235913
 31
0.0
  0
LINE
  5
39D
100
AcDbEntity
  8
Frei
  6
CONTINUOUS
 62
           2
100
AcDbLine
 10
-30.096491646587
 20
602.852984407692
 30
0.0
 11
-32.096491646585
 21
604.852984407693
 31
0.0
  0
LINE
  5
39E
100
AcDbEntity
  8
Frei
  6
CONTINUOUS
 62
           2
100
AcDbLine
 10
-30.096491646587
 20
603.913644579472
 30
0.0
 11
-32.096491646587
 21
605.913644579472
 31
0.0
  0
LINE
  5
39F
100
AcDbEntity
  8
Frei
  6
CONTINUOUS
 62
           2
100
AcDbLine
 10
-30.096491646587
 20
604.974304751252
 30
0.0
 11
-32.096491646587
 21
606.974304751252
 31
0.0
  0
LINE
  5
3A0
100
AcDbEntity
  8
Frei
  6
CONTINUOUS
 62
           2
100
AcDbLine
 10
-30.096491646587
 20
606.034964923032
 30
0.0
 11
-32.096491646585
 21
608.034964923032
 31
0.0
  0
LINE
  5
3A1
100
AcDbEntity
  8
Frei
  6
CONTINUOUS
 62
           2
100
AcDbLine
 10
-30.096491646589
 20
607.095625094812
 30
0.0
 11
-32.096491646585
 21
609.095625094812
 31
0.0
  0
LINE
  5
3A2
100
AcDbEntity
  8
Frei
  6
CONTINUOUS
 62
           2
100
AcDbLine
 10
-30.096491646585
 20
608.156285266591
 30
0.0
 11
-32.096491646587
 21
610.156285266591
 31
0.0
  0
LINE
  5
3A3
100
AcDbEntity
  8
Frei
  6
CONTINUOUS
 62
           2
100
AcDbLine
 10
-30.096491646587
 20
609.216945438371
 30
0.0
 11
-32.096491646585
 21
611.216945438371
 31
0.0
  0
LINE
  5
3A4
100
AcDbEntity
  8
Frei
  6
CONTINUOUS
 62
           2
100
AcDbLine
 10
-30.096491646587
 20
610.277605610151
 30
0.0
 11
-32.096491646587
 21
612.277605610151
 31
0.0
  0
LINE
  5
3A5
100
AcDbEntity
  8
Frei
  6
CONTINUOUS
 62
           2
100
AcDbLine
 10
-30.096491646587
 20
611.338265781931
 30
0.0
 11
-32.096491646587
 21
613.338265781931
 31
0.0
  0
LINE
  5
3A6
100
AcDbEntity
  8
Frei
  6
CONTINUOUS
 62
           2
100
AcDbLine
 10
-30.096491646587
 20
612.39892595371
 30
0.0
 11
-32.096491646587
 21
614.39892595371
 31
0.0
  0
LINE
  5
3A7
100
AcDbEntity
  8
Frei
  6
CONTINUOUS
 62
           2
100
AcDbLine
 10
-30.096491646589
 20
613.45958612549
 30
0.0
 11
-32.096491646587
 21
615.45958612549
 31
0.0
  0
LINE
  5
3A8
100
AcDbEntity
  8
Frei
  6
CONTINUOUS
 62
           2
100
AcDbLine
 10
-30.096491646587
 20
614.52024629727
 30
0.0
 11
-31.073012370296
 21
615.496767020978
 31
0.0
  0
ENDBLK
  5
3A9
100
AcDbEntity
  8
0
  6
BYBLOCK
 62
           0
100
AcDbBlockEnd
  0
ENDSEC
  0
SECTION
  2
ENTITIES
  0
INSERT
  5
26
100
AcDbEntity
  8
FREI
  6
CONTINUOUS
 62
           7
100
AcDbBlockReference
  2
MAK1
 10
-14465.167571555288
 20
-1010.993598399816
 30
0.0
 50
353.682999999999
  0
INSERT
  5
27
100
AcDbEntity
  8
FREI
  6
CONTINUOUS
 62
           7
100
AcDbBlockReference
  2
MAK2
 10
-14465.167571555288
 20
-1010.993598399816
 30
0.0
 50
353.682999999999
  0
LINE
  5
28
100
AcDbEntity
  8
FREI
  6
STRICHPUNKT
 62
          15
100
AcDbLine
 10
-14619.982933921934
 20
-389.682808578855
 30
0.0
 11
-14547.482933921934
 21
-515.256492127598
 31
0.0
  0
LINE
  5
29
100
AcDbEntity
  8
FREI
  6
STRICHPUNKT
 62
          15
100
AcDbLine
 10
-14619.982933921934
 20
-349.682808578855
 30
0.0
 11
-14619.982933921934
 21
-389.682808578855
 31
0.0
  0
LINE
  5
2A
100
AcDbEntity
  8
FREI
  6
STRICHPUNKT
 62
          15
100
AcDbLine
 10
-14619.982933921934
 20
-389.682808578855
 30
0.0
 11
-14692.482933921934
 21
-515.256492127598
 31
0.0
  0
LINE
  5
2B
100
AcDbEntity
  8
FREI
  6
CONTINUOUS
 62
          15
100
AcDbLine
 10
-14654.982933921934
 20
-389.682808578855
 30
0.0
 11
-14693.883768378206
 21
-389.682808578855
 31
0.0
  0
LINE
  5
2C
100
AcDbEntity
  8
FREI
  6
GESTRICHELT
 62
          15
100
AcDbLine
 10
-14546.082099465662
 20
-389.682808578855
 30
0.0
 11
-14654.982933921934
 21
-389.682808578855
 31
0.0
  0
LINE
  5
2D
100
AcDbEntity
  8
FREI
  6
CONTINUOUS
 62
          15
100
AcDbLine
 10
-14619.982933921934
 20
-457.682808578854
 30
0.0
 11
-14619.982933921934
 21
-517.682808578855
 31
0.0
  0
LINE
  5
2E
100
AcDbEntity
  8
FREI
  6
GESTRICHELT
 62
          15
100
AcDbLine
 10
-14619.982933921934
 20
-439.930774903059
 30
0.0
 11
-14619.982933921934
 21
-457.682808578854
 31
0.0
  0
LINE
  5
2F
100
AcDbEntity
  8
FREI
  6
GESTRICHELT
 62
          15
100
AcDbLine
 10
-14619.982933921934
 20
-389.682808578855
 30
0.0
 11
-14619.982933921934
 21
-425.43484225465
 31
0.0
  0
CIRCLE
  5
30
100
AcDbEntity
  8
FREI
  6
CONTINUOUS
 62
          15
100
AcDbCircle
 10
-14619.982933921934
 20
-432.682808578855
 30
0.0
 40
7.247966324205
  0
LINE
  5
31
100
AcDbEntity
  8
FREI
  6
CONTINUOUS
 62
          15
100
AcDbLine
 10
-14693.883768378206
 20
-389.682808578855
 30
0.0
 11
-14747.908559764139
 21
-483.256492127598
 31
0.0
  0
LINE
  5
32
100
AcDbEntity
  8
FREI
  6
CONTINUOUS
 62
          15
100
AcDbLine
 10
-14619.982933921934
 20
-517.682808578855
 30
0.0
 11
-14637.057308079731
 21
-547.256492127598
 31
0.0
  0
LINE
  5
33
100
AcDbEntity
  8
FREI
  6
CONTINUOUS
 62
          15
100
AcDbLine
 10
-14619.982933921934
 20
-517.682808578855
 30
0.0
 11
-14602.908559764139
 21
-547.256492127598
 31
0.0
  0
LINE
  5
34
100
AcDbEntity
  8
FREI
  6
CONTINUOUS
 62
          15
100
AcDbLine
 10
-14506.822281160768
 20
-457.682808578854
 30
0.0
 11
-14492.057308079731
 21
-483.256492127598
 31
0.0
  0
LINE
  5
35
100
AcDbEntity
  8
FREI
  6
GESTRICHELT
 62
          15
100
AcDbLine
 10
-14546.082099465662
 20
-389.682808578855
 30
0.0
 11
-14506.822281160768
 21
-457.682808578854
 31
0.0
  0
LINE
  5
36
100
AcDbEntity
  8
FREI
  6
CONTINUOUS
 62
          15
100
AcDbLine
 10
-14694.461118647396
 20
-389.682808578855
 30
0.0
 11
-14683.982933921934
 21
-349.682808578855
 31
0.0
  0
LINE
  5
37
100
AcDbEntity
  8
FREI
  6
CONTINUOUS
 62
          15
100
AcDbLine
 10
-14683.982933921934
 20
-349.682808578855
 30
0.0
 11
-14555.982933921934
 21
-349.682808578855
 31
0.0
  0
LINE
  5
38
100
AcDbEntity
  8
FREI
  6
GESTRICHELT
 62
          15
100
AcDbLine
 10
-14549.950834129151
 20
-374.052874837107
 30
0.0
 11
-14546.082099465662
 21
-389.682808578855
 31
0.0
  0
LINE
  5
39
100
AcDbEntity
  8
FREI
  6
CONTINUOUS
 62
          15
100
AcDbLine
 10
-14555.982933921934
 20
-349.682808578855
 30
0.0
 11
-14549.950834129151
 21
-374.052874837107
 31
0.0
  0
LINE
  5
3A
100
AcDbEntity
  8
FREI
  6
CONTINUOUS
 62
          15
100
AcDbLine
 10
-14492.057308079731
 20
-483.256492127598
 30
0.0
 11
-14602.908559764139
 21
-547.256492127598
 31
0.0
  0
LINE
  5
3B
100
AcDbEntity
  8
FREI
  6
CONTINUOUS
 62
          15
100
AcDbLine
 10
-14637.057308079731
 20
-547.256492127598
 30
0.0
 11
-14747.908559764139
 21
-483.256492127598
 31
0.0
  0
ARC
  5
3C
100
AcDbEntity
  8
FREI
  6
CONTINUOUS
 62
          15
100
AcDbCircle
 10
-14619.982933921934
 20
-432.682808578855
 30
0.0
 40
17.25
100
AcDbArc
 50
119.192990506928
 51
300.807009493073
  0
LINE
  5
3D
100
AcDbEntity
  8
FREI
  6
CONTINUOUS
 62
          15
100
AcDbLine
 10
-14556.002189748291
 20
-376.94188195508
 30
0.0
 11
-14628.396670813983
 21
-417.62387330735
 31
0.0
  0
LINE
  5
3E
100
AcDbEntity
  8
FREI
  6
GESTRICHELT
 62
          15
100
AcDbLine
 10
-14555.27066714518
 20
-376.530803710223
 30
0.0
 11
-14556.002189748291
 21
-376.94188195508
 31
0.0
  0
LINE
  5
3F
100
AcDbEntity
  8
FREI
  6
CONTINUOUS
 62
          15
100
AcDbLine
 10
-14553.430733225214
 20
-375.49685506222
 30
0.0
 11
-14555.27066714518
 21
-376.530803710223
 31
0.0
  0
LINE
  5
40
100
AcDbEntity
  8
FREI
  6
CONTINUOUS
 62
          15
100
AcDbLine
 10
-14607.105215077738
 20
-445.087904512353
 30
0.0
 11
-14611.14838186889
 21
-447.498786103881
 31
0.0
  0
ARC
  5
41
100
AcDbEntity
  8
FREI
  6
CONTINUOUS
 62
          15
100
AcDbCircle
 10
-14545.504749196472
 20
-389.682808578855
 30
0.0
 40
16.25
100
AcDbArc
 50
41.271052753469
 51
119.192990506929
  0
ARC
  5
42
100
AcDbEntity
  8
FREI
  6
GESTRICHELT
 62
          15
100
AcDbCircle
 10
-14545.504749196472
 20
-389.682808578855
 30
0.0
 40
16.25
100
AcDbArc
 50
306.069996507533
 51
41.271052753469
  0
ARC
  5
43
100
AcDbEntity
  8
FREI
  6
CONTINUOUS
 62
          15
100
AcDbCircle
 10
-14545.504749196472
 20
-389.682808578855
 30
0.0
 40
16.25
100
AcDbArc
 50
221.296003492467
 51
306.069996507533
  0
ARC
  5
44
100
AcDbEntity
  8
FREI
  6
GESTRICHELT
 62
          15
100
AcDbCircle
 10
-14545.504749196472
 20
-389.682808578855
 30
0.0
 40
16.25
100
AcDbArc
 50
217.634979203191
 51
221.296003492467
  0
LINE
  5
45
100
AcDbEntity
  8
FREI
  6
CONTINUOUS
 62
          15
100
AcDbLine
 10
-14566.07736886816
 20
-399.345122528508
 30
0.0
 11
-14604.047416437254
 21
-442.25214069547
 31
0.0
  0
ARC
  5
46
100
AcDbEntity
  8
FREI
  6
CONTINUOUS
 62
          15
100
AcDbCircle
 10
-14612.226694528785
 20
-436.498932034065
 30
0.0
 40
10.000000000014
100
AcDbArc
 50
300.807009493082
 51
324.877894256036
  0
ARC
  5
47
100
AcDbEntity
  8
FREI
  6
CONTINUOUS
 62
          15
100
AcDbCircle
 10
-14562.332985461882
 20
-402.658669405618
 30
0.0
 40
5.0
100
AcDbArc
 50
46.128156733688
 51
138.493166028592
  0
ARC
  5
48
100
AcDbEntity
  8
FREI
  6
GESTRICHELT
 62
          15
100
AcDbCircle
 10
-14562.332985461882
 20
-402.658669405618
 30
0.0
 40
5.0
100
AcDbArc
 50
37.634979203188
 51
46.128156733688
  0
LINE
  5
49
100
AcDbEntity
  8
Frei
  6
GESTRICHELT
 62
           7
100
AcDbLine
 10
-14174.58708634486
 20
-430.745936691228
 30
0.0
 11
-14172.661574987706
 21
-413.35219051585
 31
0.0
  0
LINE
  5
4A
100
AcDbEntity
  8
Frei
  6
GESTRICHELT
 62
           7
100
AcDbLine
 10
-14172.661574987706
 20
-413.35219051585
 30
0.0
 11
-14176.637288399221
 21
-412.912073634215
 31
0.0
  0
LINE
  5
4B
100
AcDbEntity
  8
Frei
  6
CONTINUOUS
 62
           7
100
AcDbLine
 10
-14176.637288399221
 20
-412.912073634215
 30
0.0
 11
-14175.592010805338
 21
-403.469754281867
 31
0.0
  0
LINE
  5
4C
100
AcDbEntity
  8
Frei
  6
CONTINUOUS
 62
           7
100
AcDbLine
 10
-14175.592010805338
 20
-403.469754281867
 30
0.0
 11
-14205.012290050548
 21
-400.212889357767
 31
0.0
  0
LINE
  5
4D
100
AcDbEntity
  8
Frei
  6
CONTINUOUS
 62
           7
100
AcDbLine
 10
-14205.012290050548
 20
-400.212889357767
 30
0.0
 11
-14205.067304660754
 21
-400.709853534207
 31
0.0
  0
LINE
  5
4E
100
AcDbEntity
  8
Frei
  6
CONTINUOUS
 62
           7
100
AcDbLine
 10
-14205.067304660754
 20
-400.709853534207
 30
0.0
 11
-14424.662846687204
 21
-376.40069037223
 31
0.0
  0
LINE
  5
4F
100
AcDbEntity
  8
Frei
  6
CONTINUOUS
 62
           7
100
AcDbLine
 10
-14424.662846687204
 20
-376.40069037223
 30
0.0
 11
-14424.607832076999
 21
-375.90372619579
 31
0.0
  0
LINE
  5
50
100
AcDbEntity
  8
Frei
  6
CONTINUOUS
 62
           7
100
AcDbLine
 10
-14424.607832076999
 20
-375.90372619579
 30
0.0
 11
-14454.02811132221
 21
-372.646861271691
 31
0.0
  0
LINE
  5
51
100
AcDbEntity
  8
Frei
  6
CONTINUOUS
 62
           7
100
AcDbLine
 10
-14454.02811132221
 20
-372.646861271691
 30
0.0
 11
-14455.073388916095
 21
-382.089180624039
 31
0.0
  0
LINE
  5
52
100
AcDbEntity
  8
Frei
  6
CONTINUOUS
 62
           7
100
AcDbLine
 10
-14455.073388916095
 20
-382.089180624039
 30
0.0
 11
-14465.509636621322
 21
-380.933873809747
 31
0.0
  0
LINE
  5
53
100
AcDbEntity
  8
Frei
  6
CONTINUOUS
 62
           7
100
AcDbLine
 10
-14465.509636621322
 20
-380.933873809747
 30
0.0
 11
-14465.564651231525
 21
-381.430837986186
 31
0.0
  0
LINE
  5
54
100
AcDbEntity
  8
Frei
  6
CONTINUOUS
 62
           7
100
AcDbLine
 10
-14465.564651231525
 20
-381.430837986186
 30
0.0
 11
-14476.497863113191
 21
-380.220516561689
 31
0.0
  0
LINE
  5
55
100
AcDbEntity
  8
Frei
  6
CONTINUOUS
 62
           7
100
AcDbLine
 10
-14476.497863113191
 20
-380.220516561689
 30
0.0
 11
-14480.238856607089
 21
-414.014080559566
 31
0.0
  0
LINE
  5
56
100
AcDbEntity
  8
Frei
  6
CONTINUOUS
 62
           7
100
AcDbLine
 10
-14480.238856607089
 20
-414.014080559566
 30
0.0
 11
-14469.305644725424
 21
-415.224401984063
 31
0.0
  0
LINE
  5
57
100
AcDbEntity
  8
Frei
  6
CONTINUOUS
 62
           7
100
AcDbLine
 10
-14469.305644725424
 20
-415.224401984063
 30
0.0
 11
-14469.360659335629
 21
-415.721366160502
 31
0.0
  0
LINE
  5
58
100
AcDbEntity
  8
Frei
  6
CONTINUOUS
 62
           7
100
AcDbLine
 10
-14469.360659335629
 20
-415.721366160502
 30
0.0
 11
-14458.924411630402
 21
-416.876672974794
 31
0.0
  0
LINE
  5
59
100
AcDbEntity
  8
Frei
  6
CONTINUOUS
 62
           7
100
AcDbLine
 10
-14458.924411630402
 20
-416.876672974794
 30
0.0
 11
-14459.969689224285
 21
-426.318992327142
 31
0.0
  0
LINE
  5
5A
100
AcDbEntity
  8
Frei
  6
CONTINUOUS
 62
           7
100
AcDbLine
 10
-14459.969689224285
 20
-426.318992327142
 30
0.0
 11
-14430.549409979074
 21
-429.575857251242
 31
0.0
  0
LINE
  5
5B
100
AcDbEntity
  8
Frei
  6
CONTINUOUS
 62
           7
100
AcDbLine
 10
-14430.549409979074
 20
-429.575857251242
 30
0.0
 11
-14430.494395368869
 21
-429.078893074803
 31
0.0
  0
LINE
  5
5C
100
AcDbEntity
  8
Frei
  6
CONTINUOUS
 62
           7
100
AcDbLine
 10
-14211.861450095084
 20
-453.281497053912
 30
0.0
 11
-14210.898853342418
 21
-453.388056236779
 31
0.0
  0
LINE
  5
5D
100
AcDbEntity
  8
Frei
  6
GESTRICHELT
 62
           7
100
AcDbLine
 10
-14239.691448992762
 20
-450.200724203251
 30
0.0
 11
-14211.861450095084
 21
-453.281497053912
 31
0.0
  0
LINE
  5
5E
100
AcDbEntity
  8
Frei
  6
CONTINUOUS
 62
           7
100
AcDbLine
 10
-14401.701799718527
 20
-432.266225108331
 30
0.0
 11
-14239.691448992762
 21
-450.200724203251
 31
0.0
  0
LINE
  5
5F
100
AcDbEntity
  8
Frei
  6
GESTRICHELT
 62
           7
100
AcDbLine
 10
-14429.531798616204
 20
-429.18545225767
 30
0.0
 11
-14401.701799718527
 21
-432.266225108331
 31
0.0
  0
LINE
  5
60
100
AcDbEntity
  8
Frei
  6
CONTINUOUS
 62
           7
100
AcDbLine
 10
-14430.494395368869
 20
-429.078893074803
 30
0.0
 11
-14429.531798616204
 21
-429.18545225767
 31
0.0
  0
LINE
  5
61
100
AcDbEntity
  8
Frei
  6
CONTINUOUS
 62
           7
100
AcDbLine
 10
-14210.898853342418
 20
-453.388056236779
 30
0.0
 11
-14210.953867952623
 21
-453.885020413219
 31
0.0
  0
LINE
  5
62
100
AcDbEntity
  8
Frei
  6
CONTINUOUS
 62
           7
100
AcDbLine
 10
-14210.953867952623
 20
-453.885020413219
 30
0.0
 11
-14181.533588707412
 21
-457.141885337319
 31
0.0
  0
LINE
  5
63
100
AcDbEntity
  8
Frei
  6
CONTINUOUS
 62
           7
100
AcDbLine
 10
-14181.533588707412
 20
-457.141885337319
 30
0.0
 11
-14180.488311113528
 21
-447.699565984971
 31
0.0
  0
LINE
  5
64
100
AcDbEntity
  8
Frei
  6
GESTRICHELT
 62
           7
100
AcDbLine
 10
-14180.488311113528
 20
-447.699565984971
 30
0.0
 11
-14176.512597702012
 21
-448.139682866606
 31
0.0
  0
LINE
  5
65
100
AcDbEntity
  8
Frei
  6
GESTRICHELT
 62
           7
100
AcDbLine
 10
-14176.512597702012
 20
-448.139682866606
 30
0.0
 11
-14174.58708634486
 21
-430.745936691228
 31
0.0
  0
LINE
  5
66
100
AcDbEntity
  8
Frei
  6
CONTINUOUS
 62
           7
100
AcDbLine
 10
-14176.637288399221
 20
-412.912073634215
 30
0.0
 11
-14180.488311113528
 21
-447.699565984971
 31
0.0
  0
LINE
  5
67
100
AcDbEntity
  8
Frei
  6
CONTINUOUS
 62
           7
100
AcDbLine
 10
-14209.377001424682
 20
-439.640691997523
 30
0.0
 11
-14210.898853342418
 21
-453.388056236779
 31
0.0
  0
LINE
  5
68
100
AcDbEntity
  8
Frei
  6
GESTRICHELT
 62
           7
100
AcDbLine
 10
-14207.293383176846
 20
-420.818716840318
 30
0.0
 11
-14209.377001424682
 21
-439.640691997523
 31
0.0
  0
LINE
  5
69
100
AcDbEntity
  8
Frei
  6
CONTINUOUS
 62
           7
100
AcDbLine
 10
-14205.067304660754
 20
-400.709853534207
 30
0.0
 11
-14207.293383176846
 21
-420.818716840318
 31
0.0
  0
LINE
  5
6A
100
AcDbEntity
  8
Frei
  6
CONTINUOUS
 62
           7
100
AcDbLine
 10
-14428.972503863393
 20
-415.331171227113
 30
0.0
 11
-14430.494395368869
 21
-429.078893074803
 31
0.0
  0
LINE
  5
6B
100
AcDbEntity
  8
Frei
  6
GESTRICHELT
 62
           7
100
AcDbLine
 10
-14426.888885615557
 20
-396.509196069909
 30
0.0
 11
-14428.972503863393
 21
-415.331171227113
 31
0.0
  0
LINE
  5
6C
100
AcDbEntity
  8
Frei
  6
CONTINUOUS
 62
           7
100
AcDbLine
 10
-14424.662846687204
 20
-376.40069037223
 30
0.0
 11
-14426.888885615557
 21
-396.509196069909
 31
0.0
  0
LINE
  5
6D
100
AcDbEntity
  8
Frei
  6
CONTINUOUS
 62
           7
100
AcDbLine
 10
-14455.073388916095
 20
-382.089180624039
 30
0.0
 11
-14458.924411630402
 21
-416.876672974794
 31
0.0
  0
LINE
  5
6E
100
AcDbEntity
  8
Frei
  6
CONTINUOUS
 62
           7
100
AcDbLine
 10
-14465.509636621322
 20
-380.933873809747
 30
0.0
 11
-14469.360659335629
 21
-415.721366160502
 31
0.0
  0
LINE
  5
6F
100
AcDbEntity
  8
Frei
  6
GESTRICHELT
 62
           7
100
AcDbLine
 10
-14491.180929422217
 20
-389.662277261671
 30
0.0
 11
-14509.24871174526
 21
-387.66214918628
 31
0.0
  0
LINE
  5
70
100
AcDbEntity
  8
Frei
  6
CONTINUOUS
 62
           7
100
AcDbLine
 10
-14486.156575537156
 20
-390.218480069881
 30
0.0
 11
-14491.180929422217
 21
-389.662277261671
 31
0.0
  0
LINE
  5
71
100
AcDbEntity
  8
Frei
  6
GESTRICHELT
 62
           7
100
AcDbLine
 10
-14492.501280067123
 20
-401.589417496215
 30
0.0
 11
-14510.569062390166
 21
-399.589289420825
 31
0.0
  0
LINE
  5
72
100
AcDbEntity
  8
Frei
  6
CONTINUOUS
 62
           7
100
AcDbLine
 10
-14487.476926182062
 20
-402.145620304426
 30
0.0
 11
-14492.501280067123
 21
-401.589417496215
 31
0.0
  0
LINE
  5
73
100
AcDbEntity
  8
Frei
  6
GESTRICHELT
 62
           7
100
AcDbLine
 10
-14510.095225312163
 20
-388.339913101774
 30
0.0
 11
-14509.24871174526
 21
-387.66214918628
 31
0.0
  0
LINE
  5
74
100
AcDbEntity
  8
Frei
  6
GESTRICHELT
 62
           7
100
AcDbLine
 10
-14511.246837345234
 20
-398.742784692911
 30
0.0
 11
-14510.569062390166
 21
-399.589289420825
 31
0.0
  0
LINE
  5
75
100
AcDbEntity
  8
Frei
  6
GESTRICHELT
 62
           7
100
AcDbLine
 10
-14510.095225312163
 20
-388.339913101774
 30
0.0
 11
-14511.246837345234
 21
-398.742784692911
 31
0.0
  0
LINE
  5
76
100
AcDbEntity
  8
Frei
  6
CONTINUOUS
 62
           7
100
AcDbLine
 10
-14491.265298728134
 20
-390.424411583374
 30
0.0
 11
-14486.240944843074
 21
-390.980614391585
 31
0.0
  0
LINE
  5
77
100
AcDbEntity
  8
Frei
  6
GESTRICHELT
 62
           7
100
AcDbLine
 10
-14510.095225312163
 20
-388.339913101774
 30
0.0
 11
-14491.265298728134
 21
-390.424411583374
 31
0.0
  0
LINE
  5
78
100
AcDbEntity
  8
Frei
  6
CONTINUOUS
 62
           7
100
AcDbLine
 10
-14492.416910761205
 20
-400.827283174511
 30
0.0
 11
-14487.392556876144
 21
-401.383485982722
 31
0.0
  0
LINE
  5
79
100
AcDbEntity
  8
Frei
  6
GESTRICHELT
 62
           7
100
AcDbLine
 10
-14511.246837345234
 20
-398.742784692911
 30
0.0
 11
-14492.416910761205
 21
-400.827283174511
 31
0.0
  0
LINE
  5
7A
100
AcDbEntity
  8
Frei
  6
GESTRICHELT
 62
           7
100
AcDbLine
 10
-14509.24871174526
 20
-387.66214918628
 30
0.0
 11
-14510.569062390166
 21
-399.589289420825
 31
0.0
  0
LINE
  5
7B
100
AcDbEntity
  8
Frei
  6
CONTINUOUS
 62
           7
100
AcDbLine
 10
-14477.48812609687
 20
-389.165871737598
 30
0.0
 11
-14485.936517096339
 21
-388.230623364123
 31
0.0
  0
LINE
  5
7C
100
AcDbEntity
  8
Frei
  6
CONTINUOUS
 62
           7
100
AcDbLine
 10
-14485.936517096339
 20
-388.230623364123
 30
0.0
 11
-14487.696984622879
 21
-404.133477010183
 31
0.0
  0
LINE
  5
7D
100
AcDbEntity
  8
Frei
  6
CONTINUOUS
 62
           7
100
AcDbLine
 10
-14487.696984622879
 20
-404.133477010183
 30
0.0
 11
-14479.24859362341
 21
-405.068725383658
 31
0.0
  0
LINE
  5
7E
100
AcDbEntity
  8
Frei
  6
CONTINUOUS
 62
           7
100
AcDbLine
 10
-14486.303608684681
 20
-391.546676467116
 30
0.0
 11
-14481.002660782424
 21
-392.133498609199
 31
0.0
  0
LINE
  5
7F
100
AcDbEntity
  8
Frei
  6
CONTINUOUS
 62
           7
100
AcDbLine
 10
-14487.329893034537
 20
-400.81742390719
 30
0.0
 11
-14482.028945132281
 21
-401.404246049273
 31
0.0
  0
LINE
  5
80
100
AcDbEntity
  8
Frei
  6
CONTINUOUS
 62
           7
100
AcDbLine
 10
-14481.002660782424
 20
-392.133498609199
 30
0.0
 11
-14482.028945132281
 21
-401.404246049273
 31
0.0
  0
LINE
  5
81
100
AcDbEntity
  8
Frei
  6
CONTINUOUS
 62
           7
100
AcDbLine
 10
-14486.303608684681
 20
-391.546676467116
 30
0.0
 11
-14482.028945132281
 21
-401.404246049273
 31
0.0
  0
LINE
  5
82
100
AcDbEntity
  8
Frei
  6
CONTINUOUS
 62
           7
100
AcDbLine
 10
-14481.002660782424
 20
-392.133498609199
 30
0.0
 11
-14487.329893034537
 21
-400.81742390719
 31
0.0
  0
CIRCLE
  5
83
100
AcDbEntity
  8
Frei
  6
CONTINUOUS
 62
           7
100
AcDbCircle
 10
-14443.744078655398
 20
-406.986906002412
 30
0.0
 40
5.7225
  0
ARC
  5
84
100
AcDbEntity
  8
Frei
  6
CONTINUOUS
 62
           7
100
AcDbCircle
 10
-14443.744078655398
 20
-406.986906002412
 30
0.0
 40
6.5785
100
AcDbArc
 50
103.683
 51
13.683
  0
CIRCLE
  5
85
100
AcDbEntity
  8
Frei
  6
CONTINUOUS
 62
           7
100
AcDbCircle
 10
-14191.817621374224
 20
-422.801840606598
 30
0.0
 40
5.7225
  0
ARC
  5
86
100
AcDbEntity
  8
Frei
  6
CONTINUOUS
 62
           7
100
AcDbCircle
 10
-14191.817621374224
 20
-422.801840606598
 30
0.0
 40
6.57849
100
AcDbArc
 50
103.682999999994
 51
13.683
  0
LINE
  5
87
100
AcDbEntity
  8
Frei
  6
CONTINUOUS
 62
           7
100
AcDbLine
 10
-14434.362470097096
 20
-390.855311730338
 30
0.0
 11
-14442.107400349711
 21
-397.056444180512
 31
0.0
  0
LINE
  5
88
100
AcDbEntity
  8
Frei
  6
CONTINUOUS
 62
           7
100
AcDbLine
 10
-14435.143660150374
 20
-389.879634027067
 30
0.0
 11
-14442.888580500361
 21
-396.080677023689
 31
0.0
  0
CIRCLE
  5
89
100
AcDbEntity
  8
Frei
  6
CONTINUOUS
 62
           7
100
AcDbCircle
 10
-14438.625527499313
 20
-393.468014255581
 30
0.0
 40
5.0
  0
LINE
  5
8A
100
AcDbEntity
  8
Frei
  6
CONTINUOUS
 62
           7
100
AcDbLine
 10
-14192.672821350758
 20
-433.708102594086
 30
0.0
 11
-14200.418139272084
 21
-439.90910157902
 31
0.0
  0
LINE
  5
8B
100
AcDbEntity
  8
Frei
  6
CONTINUOUS
 62
           7
100
AcDbLine
 10
-14193.454200287075
 20
-432.732313431419
 30
0.0
 11
-14201.199528111034
 21
-438.933401869905
 31
0.0
  0
CIRCLE
  5
8C
100
AcDbEntity
  8
Frei
  6
CONTINUOUS
 62
           7
100
AcDbCircle
 10
-14196.936172530312
 20
-436.320732353428
 30
0.0
 40
5.0
  0
LINE
  5
8D
100
AcDbEntity
  8
Frei
  6
CONTINUOUS
 62
           7
100
AcDbLine
 10
-14491.021596983004
 20
-384.67955515541
 30
0.0
 11
-14493.611893542007
 21
-384.392805803519
 31
0.0
  0
LINE
  5
8E
100
AcDbEntity
  8
Frei
  6
CONTINUOUS
 62
           7
100
AcDbLine
 10
-14496.202170222447
 20
-384.106058652211
 30
0.0
 11
-14493.611893542007
 21
-384.392805803519
 31
0.0
  0
LINE
  5
8F
100
AcDbEntity
  8
Frei
  6
CONTINUOUS
 62
           7
100
AcDbLine
 10
-14498.616211318216
 20
-405.912846714371
 30
0.0
 11
-14496.025934637777
 21
-406.199593865678
 31
0.0
  0
LINE
  5
90
100
AcDbEntity
  8
Frei
  6
CONTINUOUS
 62
           7
100
AcDbLine
 10
-14493.435638078774
 20
-406.48634321757
 30
0.0
 11
-14496.025934637777
 21
-406.199593865678
 31
0.0
  0
LINE
  5
91
100
AcDbEntity
  8
Frei
  6
CONTINUOUS
 62
           7
100
AcDbLine
 10
-14491.625108357239
 20
-390.131262110234
 30
0.0
 11
-14494.215404916242
 21
-389.844512758342
 31
0.0
  0
LINE
  5
92
100
AcDbEntity
  8
Frei
  6
CONTINUOUS
 62
           7
100
AcDbLine
 10
-14496.805681596681
 20
-389.557765607035
 30
0.0
 11
-14494.215404916242
 21
-389.844512758342
 31
0.0
  0
LINE
  5
93
100
AcDbEntity
  8
Frei
  6
CONTINUOUS
 62
           7
100
AcDbLine
 10
-14498.012699943982
 20
-400.461139759547
 30
0.0
 11
-14495.422423263542
 21
-400.747886910855
 31
0.0
  0
LINE
  5
94
100
AcDbEntity
  8
Frei
  6
CONTINUOUS
 62
           7
100
AcDbLine
 10
-14492.832126704539
 20
-401.034636262747
 30
0.0
 11
-14495.422423263542
 21
-400.747886910855
 31
0.0
  0
ARC
  5
95
100
AcDbEntity
  8
Frei
  6
CONTINUOUS
 62
           7
100
AcDbCircle
 10
-14530.383260841259
 20
-391.35917828162
 30
0.0
 40
38.7776
100
AcDbArc
 50
354.542436999999
 51
1.81461
  0
ARC
  5
96
100
AcDbEntity
  8
Frei
  6
CONTINUOUS
 62
           7
100
AcDbCircle
 10
-14459.254567338527
 20
-399.233221387577
 30
0.0
 40
38.7776
100
AcDbArc
 50
165.551
 51
172.824
  0
ARC
  5
97
100
AcDbEntity
  8
Frei
  6
CONTINUOUS
 62
           7
100
AcDbCircle
 10
-14459.254567338527
 20
-399.233221387577
 30
0.0
 40
38.7776
100
AcDbArc
 50
174.541999999999
 51
181.814999999999
  0
ARC
  5
98
100
AcDbEntity
  8
Frei
  6
CONTINUOUS
 62
           7
100
AcDbCircle
 10
-14530.383260841259
 20
-391.35917828162
 30
0.0
 40
38.7776
100
AcDbArc
 50
345.551389999999
 51
352.823562999999
  0
LINE
  5
99
100
AcDbEntity
  8
Frei
  6
CONTINUOUS
 62
           7
100
AcDbLine
 10
-14491.78144065647
 20
-395.047257176517
 30
0.0
 11
-14491.84110474467
 21
-395.625847378943
 31
0.0
  0
LINE
  5
9A
100
AcDbEntity
  8
Frei
  6
CONTINUOUS
 62
           7
100
AcDbLine
 10
-14497.728352534548
 20
-394.388925943799
 30
0.0
 11
-14497.796723435118
 21
-394.966552290254
 31
0.0
  0
LINE
  5
9B
100
AcDbEntity
  8
Frei
  6
CONTINUOUS
 62
           7
100
AcDbLine
 10
-14497.856347766181
 20
-395.545146893849
 30
0.0
 11
-14497.796723435118
 21
-394.966552290254
 31
0.0
  0
LINE
  5
9C
100
AcDbEntity
  8
Frei
  6
CONTINUOUS
 62
           7
100
AcDbLine
 10
-14491.909435888103
 20
-396.203478126567
 30
0.0
 11
-14491.84110474467
 21
-395.625847378943
 31
0.0
  0
ARC
  5
9D
100
AcDbEntity
  8
Frei
  6
CONTINUOUS
 62
           7
100
AcDbCircle
 10
-14501.00880842659
 20
-386.333230599968
 30
0.0
 40
10.1345
100
AcDbArc
 50
337.964499999999
 51
353.682999999999
  0
ARC
  5
9E
100
AcDbEntity
  8
Frei
  6
CONTINUOUS
 62
           7
100
AcDbCircle
 10
-14486.818483393257
 20
-387.904118880036
 30
0.0
 40
10.1232
100
AcDbArc
 50
173.683
 51
189.401999999999
  0
ARC
  5
9F
100
AcDbEntity
  8
Frei
  6
CONTINUOUS
 62
           7
100
AcDbCircle
 10
-14488.629009813914
 20
-404.259170169521
 30
0.0
 40
10.1345
100
AcDbArc
 50
157.964
 51
173.683
  0
ARC
  5
A0
100
AcDbEntity
  8
Frei
  6
CONTINUOUS
 62
           7
100
AcDbCircle
 10
-14502.819334847247
 20
-402.688281889453
 30
0.0
 40
10.1232
100
AcDbArc
 50
353.682999999999
 51
9.4015
  0
ARC
  5
A1
100
AcDbEntity
  8
Frei
  6
CONTINUOUS
 62
           7
100
AcDbCircle
 10
-14501.00880842659
 20
-386.333230599968
 30
0.0
 40
10.1232
100
AcDbArc
 50
353.682999999999
 51
9.4015
  0
ARC
  5
A2
100
AcDbEntity
  8
Frei
  6
CONTINUOUS
 62
           7
100
AcDbCircle
 10
-14486.818483393257
 20
-387.904118880036
 30
0.0
 40
10.1345
100
AcDbArc
 50
157.964
 51
173.683
  0
ARC
  5
A3
100
AcDbEntity
  8
Frei
  6
CONTINUOUS
 62
           7
100
AcDbCircle
 10
-14488.629009813914
 20
-404.259170169521
 30
0.0
 40
10.1232
100
AcDbArc
 50
173.683
 51
189.401999999999
  0
ARC
  5
A4
100
AcDbEntity
  8
Frei
  6
CONTINUOUS
 62
           7
100
AcDbCircle
 10
-14502.819334847247
 20
-402.688281889453
 30
0.0
 40
10.1345
100
AcDbArc
 50
337.964499999999
 51
353.682999999999
  0
LINE
  5
A5
100
AcDbEntity
  8
Frei
  6
CONTINUOUS
 62
           7
100
AcDbLine
 10
-14490.935841534341
 20
-387.4483217342
 30
0.0
 11
-14491.84110474467
 21
-395.625847378943
 31
0.0
  0
LINE
  5
A6
100
AcDbEntity
  8
Frei
  6
CONTINUOUS
 62
           7
100
AcDbLine
 10
-14496.89146022479
 20
-386.789026645511
 30
0.0
 11
-14497.796723435118
 21
-394.966552290254
 31
0.0
  0
LINE
  5
A7
100
AcDbEntity
  8
Frei
  6
CONTINUOUS
 62
           7
100
AcDbLine
 10
-14498.701986645447
 20
-403.144077934996
 30
0.0
 11
-14497.796723435118
 21
-394.966552290254
 31
0.0
  0
LINE
  5
A8
100
AcDbEntity
  8
Frei
  6
CONTINUOUS
 62
           7
100
AcDbLine
 10
-14492.746367954998
 20
-403.803373023686
 30
0.0
 11
-14491.84110474467
 21
-395.625847378943
 31
0.0
  0
LINE
  5
A9
100
AcDbEntity
  8
Frei
  6
CONTINUOUS
 62
           7
100
AcDbLine
 10
-14171.869238148498
 20
-442.675636266377
 30
0.0
 11
-14172.707629188795
 21
-442.597610177811
 31
0.0
  0
LINE
  5
AA
100
AcDbEntity
  8
Frei
  6
CONTINUOUS
 62
           7
100
AcDbLine
 10
-14170.999962649521
 20
-441.967101844743
 30
0.0
 11
-14171.790976091468
 21
-449.112573607051
 31
0.0
  0
LINE
  5
AB
100
AcDbEntity
  8
Frei
  6
CONTINUOUS
 62
           7
100
AcDbLine
 10
-14168.632577028044
 20
-420.5817672705
 30
0.0
 11
-14168.648744830723
 21
-420.727816087598
 31
0.0
  0
LINE
  5
AC
100
AcDbEntity
  8
Frei
  6
CONTINUOUS
 62
           7
100
AcDbLine
 10
-14170.160989831047
 20
-419.593020553166
 30
0.0
 11
-14169.325832587139
 21
-419.700258535691
 31
0.0
  0
LINE
  5
AD
100
AcDbEntity
  8
Frei
  6
CONTINUOUS
 62
           7
100
AcDbLine
 10
-14168.473063290239
 20
-421.322068556113
 30
0.0
 11
-14170.682390777944
 21
-441.279614584929
 31
0.0
  0
LINE
  5
AE
100
AcDbEntity
  8
Frei
  6
CONTINUOUS
 62
           7
100
AcDbLine
 10
-14157.983580722015
 20
-442.241502154383
 30
0.0
 11
-14170.114519347866
 21
-441.112518606012
 31
0.0
  0
LINE
  5
AF
100
AcDbEntity
  8
Frei
  6
CONTINUOUS
 62
           7
100
AcDbLine
 10
-14155.871341443444
 20
-423.160984277076
 30
0.0
 11
-14167.955489271628
 21
-421.609324822407
 31
0.0
  0
LINE
  5
B0
100
AcDbEntity
  8
Frei
  6
CONTINUOUS
 62
           7
100
AcDbLine
 10
-14170.983794846841
 20
-441.821053027645
 30
0.0
 11
-14170.999962649521
 21
-441.967101844743
 31
0.0
  0
LINE
  5
B1
100
AcDbEntity
  8
Frei
  6
CONTINUOUS
 62
           7
100
AcDbLine
 10
-14170.75482937985
 20
-410.669552937589
 30
0.0
 11
-14169.879832130155
 21
-410.797466385214
 31
0.0
  0
LINE
  5
B2
100
AcDbEntity
  8
Frei
  6
CONTINUOUS
 62
           7
100
AcDbLine
 10
-14167.841563586097
 20
-413.436295508193
 30
0.0
 11
-14168.632577028044
 21
-420.5817672705
 31
0.0
  0
LINE
  5
B3
100
AcDbEntity
  8
Frei
  6
CONTINUOUS
 62
           7
100
AcDbLine
 10
-14174.357063164714
 20
-451.241694301261
 30
0.0
 11
-14175.238851756138
 21
-451.17512916704
 31
0.0
  0
LINE
  5
B4
100
AcDbEntity
  8
Frei
  6
CONTINUOUS
 62
           7
100
AcDbLine
 10
-14171.733535346726
 20
-405.476412483212
 30
0.0
 11
-14175.749165145686
 21
-404.889378578651
 31
0.0
  0
LINE
  5
B5
100
AcDbEntity
  8
Frei
  6
CONTINUOUS
 62
           7
100
AcDbLine
 10
-14177.3297162008
 20
-456.028464002235
 30
0.0
 11
-14181.376513542546
 21
-455.722976257398
 31
0.0
  0
LINE
  5
B6
100
AcDbEntity
  8
Frei
  6
CONTINUOUS
 62
           7
100
AcDbLine
 10
-14174.446180186749
 20
-444.014679021078
 30
0.0
 11
-14175.238851756138
 21
-451.17512916704
 31
0.0
  0
LINE
  5
B7
100
AcDbEntity
  8
Frei
  6
CONTINUOUS
 62
           7
100
AcDbLine
 10
-14170.75482937985
 20
-410.669552937589
 30
0.0
 11
-14171.547500949238
 21
-417.830003083548
 31
0.0
  0
LINE
  5
B8
100
AcDbEntity
  8
Frei
  6
CONTINUOUS
 62
           7
100
AcDbLine
 10
-14170.374689650685
 20
-407.235631898532
 30
0.0
 11
-14170.75482937985
 21
-410.669552937589
 31
0.0
  0
LINE
  5
B9
100
AcDbEntity
  8
Frei
  6
CONTINUOUS
 62
           7
100
AcDbLine
 10
-14175.238851756138
 20
-451.17512916704
 30
0.0
 11
-14175.618991485302
 21
-454.609050206095
 31
0.0
  0
ARC
  5
BA
100
AcDbEntity
  8
Frei
  6
CONTINUOUS
 62
           7
100
AcDbCircle
 10
-14157.093986921935
 20
-432.682808578854
 30
0.0
 40
9.6
100
AcDbArc
 50
264.682999999997
 51
82.683000000002
  0
ARC
  5
BB
100
AcDbEntity
  8
Frei
  6
CONTINUOUS
 62
           7
100
AcDbCircle
 10
-14157.093986921935
 20
-432.682808578855
 30
0.0
 40
4.799999999999
100
AcDbArc
 50
173.682999999991
 51
353.683000000007
  0
ARC
  5
BC
100
AcDbEntity
  8
Frei
  6
CONTINUOUS
 62
           7
100
AcDbCircle
 10
-14157.093986921931
 20
-432.682808578851
 30
0.0
 40
4.799999999995
100
AcDbArc
 50
353.682999999957
 51
63.886117282784
  0
ARC
  5
BD
100
AcDbEntity
  8
Frei
  6
CONTINUOUS
 62
           7
100
AcDbCircle
 10
-14157.093986921933
 20
-432.682808578854
 30
0.0
 40
4.8
100
AcDbArc
 50
63.886117282778
 51
173.683
  0
ARC
  5
BE
100
AcDbEntity
  8
Frei
  6
CONTINUOUS
 62
           7
100
AcDbCircle
 10
-14170.188652164539
 20
-441.909076403967
 30
0.0
 40
0.799999999995
100
AcDbArc
 50
84.682999999852
 51
128.110004000953
  0
ARC
  5
BF
100
AcDbEntity
  8
Frei
  6
CONTINUOUS
 62
           7
100
AcDbCircle
 10
-14170.18865216455
 20
-441.909076403965
 30
0.0
 40
0.799999999986
100
AcDbArc
 50
128.110004000438
 51
173.683000000423
  0
ARC
  5
C0
100
AcDbEntity
  8
Frei
  6
CONTINUOUS
 62
           7
100
AcDbCircle
 10
-14171.795105331825
 20
-441.879078468416
 30
0.0
 40
0.8
100
AcDbArc
 50
264.682999999975
 51
353.682999999991
  0
ARC
  5
C1
100
AcDbEntity
  8
Frei
  6
CONTINUOUS
 62
           7
100
AcDbCircle
 10
-14172.855894822143
 20
-444.190725773732
 30
0.0
 40
1.599999999999
100
AcDbArc
 50
84.682999999911
 51
173.682999999991
  0
ARC
  5
C2
100
AcDbEntity
  8
Frei
  6
CONTINUOUS
 62
           7
100
AcDbCircle
 10
-14167.853602148432
 20
-420.81583946393
 30
0.0
 40
0.799999999987
100
AcDbArc
 50
173.682999999556
 51
219.255995999584
  0
ARC
  5
C3
100
AcDbEntity
  8
Frei
  6
CONTINUOUS
 62
           7
100
AcDbCircle
 10
-14167.853602148421
 20
-420.815839463931
 30
0.0
 40
0.799999999995
100
AcDbArc
 50
219.2559959991
 51
262.683000000148
  0
ARC
  5
C4
100
AcDbEntity
  8
Frei
  6
CONTINUOUS
 62
           7
100
AcDbCircle
 10
-14169.957215584633
 20
-418.006049836202
 30
0.0
 40
1.600000000001
100
AcDbArc
 50
173.683000000032
 51
262.683000000024
  0
ARC
  5
C5
100
AcDbEntity
  8
Frei
  6
CONTINUOUS
 62
           7
100
AcDbCircle
 10
-14169.427719710347
 20
-420.493743894173
 30
0.0
 40
0.8
100
AcDbArc
 50
353.682999999999
 51
82.683000000024
  0
ARC
  5
C6
100
AcDbEntity
  8
Frei
  6
CONTINUOUS
 62
           7
100
AcDbCircle
 10
-14177.209276849906
 20
-454.433003453443
 30
0.0
 40
1.599999999999
100
AcDbArc
 50
265.682999999913
 51
353.683000000036
  0
ARC
  5
C7
100
AcDbEntity
  8
Frei
  6
CONTINUOUS
 62
           7
100
AcDbCircle
 10
-14174.176404138379
 20
-448.84850347807
 30
0.0
 40
2.4
100
AcDbArc
 50
265.68300000002
 51
353.682999999997
  0
ARC
  5
C8
100
AcDbEntity
  8
Frei
  6
CONTINUOUS
 62
           7
100
AcDbCircle
 10
-14170.226991633008
 20
-413.172225379213
 30
0.0
 40
2.400000000001
100
AcDbArc
 50
353.683000000013
 51
81.682999999936
  0
ARC
  5
C9
100
AcDbEntity
  8
Frei
  6
CONTINUOUS
 62
           7
100
AcDbCircle
 10
-14171.964975015289
 20
-407.059585145877
 30
0.0
 40
1.599999999999
100
AcDbArc
 50
353.682999999963
 51
81.683000000086
  0
LINE
  5
CA
100
AcDbEntity
  8
Frei
  6
CONTINUOUS
 62
           7
100
AcDbLine
 10
-14498.456898757571
 20
-400.930122407526
 30
0.0
 11
-14498.390881225325
 21
-400.333765395799
 31
0.0
  0
LINE
  5
CB
100
AcDbEntity
  8
Frei
  6
CONTINUOUS
 62
           7
100
AcDbLine
 10
-14498.390881225325
 20
-400.333765395799
 30
0.0
 11
-14497.202565644911
 21
-389.599339184708
 31
0.0
  0
LINE
  5
CC
100
AcDbEntity
  8
Frei
  6
CONTINUOUS
 62
           7
100
AcDbLine
 10
-14497.202565644911
 20
-389.599339184708
 30
0.0
 11
-14497.136548112665
 21
-389.002982172981
 31
0.0
  0
LINE
  5
CD
100
AcDbEntity
  8
Frei
  6
CONTINUOUS
 62
           7
100
AcDbLine
 10
-14497.136548112665
 20
-389.002982172981
 30
0.0
 11
-14496.773451685316
 21
-385.723018608481
 31
0.0
  0
LINE
  5
CE
100
AcDbEntity
  8
Frei
  6
CONTINUOUS
 62
           7
100
AcDbLine
 10
-14522.971354549114
 20
-404.252991234988
 30
0.0
 11
-14521.675101063111
 21
-404.396488258797
 31
0.0
  0
LINE
  5
CF
100
AcDbEntity
  8
Frei
  6
CONTINUOUS
 62
           7
100
AcDbLine
 10
-14519.0343997733
 20
-380.542207789707
 30
0.0
 11
-14520.330653259303
 21
-380.398710765898
 31
0.0
  0
LINE
  5
D0
100
AcDbEntity
  8
Frei
  6
CONTINUOUS
 62
           7
100
AcDbLine
 10
-14521.675101063111
 20
-404.396488258797
 30
0.0
 11
-14517.902319949433
 21
-404.814140259073
 31
0.0
  0
LINE
  5
D1
100
AcDbEntity
  8
Frei
  6
CONTINUOUS
 62
           7
100
AcDbLine
 10
-14515.261618659622
 20
-380.959859789983
 30
0.0
 11
-14519.0343997733
 21
-380.542207789707
 31
0.0
  0
LINE
  5
D2
100
AcDbEntity
  8
Frei
  6
CONTINUOUS
 62
           7
100
AcDbLine
 10
-14555.650790209036
 20
-376.488723570087
 30
0.0
 11
-14520.330653259303
 21
-380.398710765898
 31
0.0
  0
LINE
  5
D3
100
AcDbEntity
  8
Frei
  6
CONTINUOUS
 62
           7
100
AcDbLine
 10
-14558.291491498847
 20
-400.343004039176
 30
0.0
 11
-14522.971354549114
 21
-404.252991234988
 31
0.0
  0
LINE
  5
D4
100
AcDbEntity
  8
Frei
  6
CONTINUOUS
 62
           7
100
AcDbLine
 10
-14514.565135738767
 20
-382.847957123533
 30
0.0
 11
-14516.809731835105
 21
-403.124095522259
 31
0.0
  0
LINE
  5
D5
100
AcDbEntity
  8
Frei
  6
CONTINUOUS
 62
           7
100
AcDbLine
 10
-14497.56896090454
 20
-384.729456792523
 30
0.0
 11
-14500.272823268107
 21
-384.430135551616
 31
0.0
  0
LINE
  5
D6
100
AcDbEntity
  8
Frei
  6
CONTINUOUS
 62
           7
100
AcDbLine
 10
-14498.81999518492
 20
-404.210085972026
 30
0.0
 11
-14498.456898757571
 21
-400.930122407526
 31
0.0
  0
LINE
  5
D7
100
AcDbEntity
  8
Frei
  6
CONTINUOUS
 62
           7
100
AcDbLine
 10
-14515.915196317512
 20
-403.223121820627
 30
0.0
 11
-14514.085832537252
 21
-403.425634879041
 31
0.0
  0
LINE
  5
D8
100
AcDbEntity
  8
Frei
  6
CONTINUOUS
 62
           7
100
AcDbLine
 10
-14511.709201376423
 20
-381.956782456861
 30
0.0
 11
-14511.841236440914
 21
-383.149496480315
 31
0.0
  0
LINE
  5
D9
100
AcDbEntity
  8
Frei
  6
CONTINUOUS
 62
           7
100
AcDbLine
 10
-14511.841236440914
 20
-383.149496480315
 30
0.0
 11
-14513.670600221174
 21
-382.946983421901
 31
0.0
  0
LINE
  5
DA
100
AcDbEntity
  8
Frei
  6
CONTINUOUS
 62
           7
100
AcDbLine
 10
-14511.841236440914
 20
-383.149496480315
 30
0.0
 11
-14514.085832537252
 21
-403.425634879041
 31
0.0
  0
LINE
  5
DB
100
AcDbEntity
  8
Frei
  6
CONTINUOUS
 62
           7
100
AcDbLine
 10
-14514.085832537252
 20
-403.425634879041
 30
0.0
 11
-14514.217867601743
 21
-404.618348902496
 31
0.0
  0
LINE
  5
DC
100
AcDbEntity
  8
Frei
  6
CONTINUOUS
 62
           7
100
AcDbLine
 10
-14502.649454428936
 20
-405.898987973797
 30
0.0
 11
-14502.517419364445
 21
-404.706273950342
 31
0.0
  0
LINE
  5
DD
100
AcDbEntity
  8
Frei
  6
CONTINUOUS
 62
           7
100
AcDbLine
 10
-14502.517419364445
 20
-404.706273950342
 30
0.0
 11
-14499.813557000878
 21
-405.005595191249
 31
0.0
  0
LINE
  5
DE
100
AcDbEntity
  8
Frei
  6
CONTINUOUS
 62
           7
100
AcDbLine
 10
-14502.517419364445
 20
-404.706273950342
 30
0.0
 11
-14500.272823268107
 21
-384.430135551616
 31
0.0
  0
LINE
  5
DF
100
AcDbEntity
  8
Frei
  6
CONTINUOUS
 62
           7
100
AcDbLine
 10
-14500.272823268107
 20
-384.430135551616
 30
0.0
 11
-14500.140788203616
 21
-383.237421528162
 31
0.0
  0
LINE
  5
E0
100
AcDbEntity
  8
Frei
  6
CONTINUOUS
 62
           7
100
AcDbLine
 10
-14511.709201376423
 20
-381.956782456861
 30
0.0
 11
-14500.140788203616
 21
-383.237421528162
 31
0.0
  0
LINE
  5
E1
100
AcDbEntity
  8
Frei
  6
CONTINUOUS
 62
           7
100
AcDbLine
 10
-14514.217867601743
 20
-404.618348902496
 30
0.0
 11
-14502.649454428936
 21
-405.898987973797
 31
0.0
  0
ARC
  5
E2
100
AcDbEntity
  8
Frei
  6
CONTINUOUS
 62
           7
100
AcDbCircle
 10
-14537.32138497575
 20
-390.591118504065
 30
0.0
 40
20.866107311614
100
AcDbArc
 50
318.576694434247
 51
28.789305565753
  0
ARC
  5
E3
100
AcDbEntity
  8
Frei
  6
CONTINUOUS
 62
           7
100
AcDbCircle
 10
-14527.490973412141
 20
-391.679358433542
 30
0.0
 40
29.660254037844
100
AcDbArc
 50
149.81807458395
 51
197.54792541605
  0
ARC
  5
E4
100
AcDbEntity
  8
Frei
  6
CONTINUOUS
 62
           7
100
AcDbCircle
 10
-14538.034262384979
 20
-390.512202005349
 30
0.0
 40
22.516660498395
100
AcDbArc
 50
141.478772496028
 51
205.887227503973
  0
CIRCLE
  5
E5
100
AcDbEntity
  8
Frei
  6
CONTINUOUS
 62
           7
100
AcDbCircle
 10
-14545.505284373297
 20
-389.685149710633
 30
0.0
 40
6.0
  0
CIRCLE
  5
E6
100
AcDbEntity
  8
Frei
  6
CONTINUOUS
 62
           7
100
AcDbCircle
 10
-14545.505284373297
 20
-389.685149710633
 30
0.0
 40
5.1
  0
ARC
  5
E7
100
AcDbEntity
  8
Frei
  6
CONTINUOUS
 62
           7
100
AcDbCircle
 10
-14515.360644957989
 20
-381.854395307574
 30
0.0
 40
0.9
100
AcDbArc
 50
353.682999999999
 51
83.683
  0
ARC
  5
E8
100
AcDbEntity
  8
Frei
  6
CONTINUOUS
 62
           7
100
AcDbCircle
 10
-14513.571573922805
 20
-382.05244790431
 30
0.0
 40
0.9
100
AcDbArc
 50
173.683
 51
263.682999999999
  0
ARC
  5
E9
100
AcDbEntity
  8
Frei
  6
CONTINUOUS
 62
           7
100
AcDbCircle
 10
-14497.667987202907
 20
-385.623992310114
 30
0.0
 40
0.9
100
AcDbArc
 50
353.682999999999
 51
83.683
  0
ARC
  5
EA
100
AcDbEntity
  8
Frei
  6
CONTINUOUS
 62
           7
100
AcDbCircle
 10
-14499.714530702511
 20
-404.111059673658
 30
0.0
 40
0.9
100
AcDbArc
 50
263.682999999999
 51
353.682999999999
  0
ARC
  5
EB
100
AcDbEntity
  8
Frei
  6
CONTINUOUS
 62
           7
100
AcDbCircle
 10
-14516.01422261588
 20
-404.117657338218
 30
0.0
 40
0.9
100
AcDbArc
 50
83.683
 51
173.683
  0
ARC
  5
EC
100
AcDbEntity
  8
Frei
  6
CONTINUOUS
 62
           7
100
AcDbCircle
 10
-14517.803293651064
 20
-403.919604741482
 30
0.0
 40
0.9
100
AcDbArc
 50
263.682999999999
 51
353.682999999999
  0
LINE
  5
ED
100
AcDbEntity
  8
Frei
  6
CONTINUOUS
 62
           7
100
AcDbLine
 10
-14245.403799190957
 20
-442.726953386873
 30
0.0
 11
-14241.925049955882
 21
-443.112055658303
 31
0.0
  0
LINE
  5
EE
100
AcDbEntity
  8
Frei
  6
CONTINUOUS
 62
           7
100
AcDbLine
 10
-14245.183740750141
 20
-440.739096681115
 30
0.0
 11
-14245.403799190957
 21
-442.726953386873
 31
0.0
  0
LINE
  5
EF
100
AcDbEntity
  8
Frei
  6
CONTINUOUS
 62
           7
100
AcDbLine
 10
-14239.885844009121
 20
-433.779765526364
 30
0.0
 11
-14240.821092382595
 21
-442.228156525833
 31
0.0
  0
LINE
  5
F0
100
AcDbEntity
  8
Frei
  6
CONTINUOUS
 62
           7
100
AcDbLine
 10
-14244.358521597074
 20
-433.284634034525
 30
0.0
 11
-14239.885844009121
 21
-433.779765526364
 31
0.0
  0
LINE
  5
F1
100
AcDbEntity
  8
Frei
  6
CONTINUOUS
 62
           7
100
AcDbLine
 10
-14244.413536207279
 20
-433.781598210964
 30
0.0
 11
-14244.358521597074
 21
-433.284634034525
 31
0.0
  0
LINE
  5
F2
100
AcDbEntity
  8
Frei
  6
CONTINUOUS
 62
           7
100
AcDbLine
 10
-14240.93584203526
 20
-434.614389123066
 30
0.0
 11
-14244.413536207279
 21
-433.781598210964
 31
0.0
  0
LINE
  5
F3
100
AcDbEntity
  8
Frei
  6
CONTINUOUS
 62
           7
100
AcDbLine
 10
-14240.781847305272
 20
-437.201957323177
 30
0.0
 11
-14240.555318988187
 21
-435.155656202047
 31
0.0
  0
LINE
  5
F4
100
AcDbEntity
  8
Frei
  6
CONTINUOUS
 62
           7
100
AcDbLine
 10
-14245.183740750141
 20
-440.739096681115
 30
0.0
 11
-14244.413536207279
 21
-433.781598210964
 31
0.0
  0
LINE
  5
F5
100
AcDbEntity
  8
Frei
  6
CONTINUOUS
 62
           7
100
AcDbLine
 10
-14241.608101532283
 20
-440.687119367825
 30
0.0
 11
-14245.183740750141
 21
-440.739096681115
 31
0.0
  0
LINE
  5
F6
100
AcDbEntity
  8
Frei
  6
CONTINUOUS
 62
           7
100
AcDbLine
 10
-14240.89187652568
 20
-438.195885676056
 30
0.0
 11
-14241.118404842764
 21
-440.242186797186
 31
0.0
  0
LINE
  5
F7
100
AcDbEntity
  8
Frei
  6
CONTINUOUS
 62
           2
100
AcDbLine
 10
-14242.413547573666
 20
-437.524380252958
 30
0.0
 11
-14239.653553327291
 21
-437.829915369631
 31
0.0
  0
LINE
  5
F8
100
AcDbEntity
  8
Frei
  6
CONTINUOUS
 62
           7
100
AcDbLine
 10
-14242.358532963462
 20
-437.027416076519
 30
0.0
 11
-14240.781847305272
 21
-437.201957323177
 31
0.0
  0
LINE
  5
F9
100
AcDbEntity
  8
Frei
  6
CONTINUOUS
 62
           7
100
AcDbLine
 10
-14242.413547573666
 20
-437.524380252958
 30
0.0
 11
-14242.358532963462
 21
-437.027416076519
 31
0.0
  0
LINE
  5
FA
100
AcDbEntity
  8
Frei
  6
CONTINUOUS
 62
           7
100
AcDbLine
 10
-14242.468562183871
 20
-438.021344429398
 30
0.0
 11
-14242.413547573666
 21
-437.524380252958
 31
0.0
  0
LINE
  5
FB
100
AcDbEntity
  8
Frei
  6
CONTINUOUS
 62
           7
100
AcDbLine
 10
-14240.89187652568
 20
-438.195885676056
 30
0.0
 11
-14242.468562183871
 21
-438.021344429398
 31
0.0
  0
LINE
  5
FC
100
AcDbEntity
  8
Frei
  6
CONTINUOUS
 62
           7
100
AcDbLine
 10
-14384.056804417543
 20
-427.377877139849
 30
0.0
 11
-14380.425840144055
 21
-394.578241494851
 31
0.0
  0
LINE
  5
FD
100
AcDbEntity
  8
Frei
  6
CONTINUOUS
 62
           7
100
AcDbLine
 10
-14397.971801357846
 20
-425.837468054126
 30
0.0
 11
-14384.056804417543
 21
-427.377877139849
 31
0.0
  0
LINE
  5
FE
100
AcDbEntity
  8
Frei
  6
CONTINUOUS
 62
           7
100
AcDbLine
 10
-14390.365123672842
 20
-393.477949290763
 30
0.0
 11
-14380.922804320493
 21
-394.523226884646
 31
0.0
  0
LINE
  5
FF
100
AcDbEntity
  8
Frei
  6
CONTINUOUS
 62
           7
100
AcDbLine
 10
-14390.585182113658
 20
-395.46580599652
 30
0.0
 11
-14390.365123672842
 21
-393.477949290763
 31
0.0
  0
LINE
  5
100
100
AcDbEntity
  8
Frei
  6
CONTINUOUS
 62
           7
100
AcDbLine
 10
-14391.35538665652
 20
-402.423304466671
 30
0.0
 11
-14391.410401266725
 21
-402.920268643111
 31
0.0
  0
LINE
  5
101
100
AcDbEntity
  8
Frei
  6
CONTINUOUS
 62
           7
100
AcDbLine
 10
-14396.380043031118
 20
-402.370122541067
 30
0.0
 11
-14395.444794657644
 21
-393.921731541598
 31
0.0
  0
LINE
  5
102
100
AcDbEntity
  8
Frei
  6
CONTINUOUS
 62
           7
100
AcDbLine
 10
-14391.410401266725
 20
-402.920268643111
 30
0.0
 11
-14396.380043031118
 21
-402.370122541067
 31
0.0
  0
LINE
  5
103
100
AcDbEntity
  8
Frei
  6
CONTINUOUS
 62
           7
100
AcDbLine
 10
-14394.340837084357
 20
-393.037832409128
 30
0.0
 11
-14390.365123672842
 21
-393.477949290763
 31
0.0
  0
LINE
  5
104
100
AcDbEntity
  8
Frei
  6
CONTINUOUS
 62
           7
100
AcDbLine
 10
-14394.833080828539
 20
-401.59051355457
 30
0.0
 11
-14391.35538665652
 21
-402.423304466671
 31
0.0
  0
LINE
  5
105
100
AcDbEntity
  8
Frei
  6
CONTINUOUS
 62
           7
100
AcDbLine
 10
-14394.987075558527
 20
-399.002945354458
 30
0.0
 11
-14395.213603875613
 21
-401.049246475589
 31
0.0
  0
LINE
  5
106
100
AcDbEntity
  8
Frei
  6
CONTINUOUS
 62
           7
100
AcDbLine
 10
-14390.585182113658
 20
-395.46580599652
 30
0.0
 11
-14391.35538665652
 21
-402.423304466671
 31
0.0
  0
LINE
  5
107
100
AcDbEntity
  8
Frei
  6
CONTINUOUS
 62
           7
100
AcDbLine
 10
-14394.160821331516
 20
-395.51778330981
 30
0.0
 11
-14390.585182113658
 21
-395.46580599652
 31
0.0
  0
LINE
  5
108
100
AcDbEntity
  8
Frei
  6
CONTINUOUS
 62
           7
100
AcDbLine
 10
-14394.877046338119
 20
-398.009017001579
 30
0.0
 11
-14394.650518021035
 21
-395.96271588045
 31
0.0
  0
LINE
  5
109
100
AcDbEntity
  8
Frei
  6
CONTINUOUS
 62
           2
100
AcDbLine
 10
-14393.355375290135
 20
-398.680522424678
 30
0.0
 11
-14396.115369536508
 21
-398.374987308005
 31
0.0
  0
LINE
  5
10A
100
AcDbEntity
  8
Frei
  6
CONTINUOUS
 62
           7
100
AcDbLine
 10
-14393.410389900338
 20
-399.177486601116
 30
0.0
 11
-14394.987075558527
 21
-399.002945354458
 31
0.0
  0
LINE
  5
10B
100
AcDbEntity
  8
Frei
  6
CONTINUOUS
 62
           7
100
AcDbLine
 10
-14393.355375290135
 20
-398.680522424678
 30
0.0
 11
-14393.410389900338
 21
-399.177486601116
 31
0.0
  0
LINE
  5
10C
100
AcDbEntity
  8
Frei
  6
CONTINUOUS
 62
           7
100
AcDbLine
 10
-14393.30036067993
 20
-398.183558248237
 30
0.0
 11
-14393.355375290135
 21
-398.680522424678
 31
0.0
  0
LINE
  5
10D
100
AcDbEntity
  8
Frei
  6
CONTINUOUS
 62
           7
100
AcDbLine
 10
-14394.877046338119
 20
-398.009017001579
 30
0.0
 11
-14393.30036067993
 21
-398.183558248237
 31
0.0
  0
LINE
  5
10E
100
AcDbEntity
  8
Frei
  6
CONTINUOUS
 62
           7
100
AcDbLine
 10
-14358.577763670044
 20
-433.518600434977
 30
0.0
 11
-14358.632778280249
 21
-434.015564611416
 31
0.0
  0
LINE
  5
10F
100
AcDbEntity
  8
Frei
  6
CONTINUOUS
 62
           7
100
AcDbLine
 10
-14358.632778280249
 20
-434.015564611416
 30
0.0
 11
-14282.100295108585
 21
-442.487814582892
 31
0.0
  0
LINE
  5
110
100
AcDbEntity
  8
Frei
  6
CONTINUOUS
 62
           7
100
AcDbLine
 10
-14282.100295108585
 20
-442.487814582892
 30
0.0
 11
-14276.928921749373
 21
-395.773181997592
 31
0.0
  0
LINE
  5
111
100
AcDbEntity
  8
Frei
  6
CONTINUOUS
 62
           7
100
AcDbLine
 10
-14276.928921749373
 20
-395.773181997592
 30
0.0
 11
-14353.461404921038
 21
-387.300932026117
 31
0.0
  0
LINE
  5
112
100
AcDbEntity
  8
Frei
  6
CONTINUOUS
 62
           7
100
AcDbLine
 10
-14380.922804320493
 20
-394.523226884646
 30
0.0
 11
-14380.425840144055
 21
-394.578241494851
 31
0.0
  0
LINE
  5
113
100
AcDbEntity
  8
Frei
  6
CONTINUOUS
 62
           7
100
AcDbLine
 10
-14354.455333273918
 20
-387.190902805708
 30
0.0
 11
-14379.800506272324
 21
-384.385157685284
 31
0.0
  0
LINE
  5
114
100
AcDbEntity
  8
Frei
  6
CONTINUOUS
 62
           7
100
AcDbLine
 10
-14384.474915455097
 20
-431.154804880788
 30
0.0
 11
-14384.056804417543
 21
-427.377877139849
 31
0.0
  0
LINE
  5
115
100
AcDbEntity
  8
Frei
  6
CONTINUOUS
 62
           7
100
AcDbLine
 10
-14380.922804320493
 20
-394.523226884646
 30
0.0
 11
-14379.800506272324
 21
-384.385157685284
 31
0.0
  0
LINE
  5
116
100
AcDbEntity
  8
Frei
  6
CONTINUOUS
 62
           7
100
AcDbLine
 10
-14358.577763670044
 20
-433.518600434977
 30
0.0
 11
-14359.571692022924
 21
-433.408571214568
 31
0.0
  0
LINE
  5
117
100
AcDbEntity
  8
Frei
  6
CONTINUOUS
 62
           7
100
AcDbLine
 10
-14353.516419531241
 20
-387.797896202555
 30
0.0
 11
-14358.577763670044
 21
-433.518600434977
 31
0.0
  0
LINE
  5
118
100
AcDbEntity
  8
Frei
  6
CONTINUOUS
 62
           7
100
AcDbLine
 10
-14353.516419531241
 20
-387.797896202555
 30
0.0
 11
-14354.510347884121
 21
-387.687866982146
 31
0.0
  0
LINE
  5
119
100
AcDbEntity
  8
Frei
  6
CONTINUOUS
 62
           7
100
AcDbLine
 10
-14353.461404921038
 20
-387.300932026117
 30
0.0
 11
-14353.516419531241
 21
-387.797896202555
 31
0.0
  0
LINE
  5
11A
100
AcDbEntity
  8
Frei
  6
CONTINUOUS
 62
           7
100
AcDbLine
 10
-14359.571692022924
 20
-433.408571214568
 30
0.0
 11
-14354.455333273918
 21
-387.190902805708
 31
0.0
  0
LINE
  5
11B
100
AcDbEntity
  8
Frei
  6
CONTINUOUS
 62
           7
100
AcDbLine
 10
-14359.626706633129
 20
-433.905535391008
 30
0.0
 11
-14359.571692022924
 21
-433.408571214568
 31
0.0
  0
LINE
  5
11C
100
AcDbEntity
  8
Frei
  6
CONTINUOUS
 62
           7
100
AcDbLine
 10
-14384.474915455097
 20
-431.154804880788
 30
0.0
 11
-14359.626706633129
 21
-433.905535391008
 31
0.0
  0
LINE
  5
11D
100
AcDbEntity
  8
Frei
  6
CONTINUOUS
 62
           7
100
AcDbLine
 10
-14281.106366755706
 20
-442.597843803301
 30
0.0
 11
-14256.258157933738
 21
-445.34857431352
 31
0.0
  0
LINE
  5
11E
100
AcDbEntity
  8
Frei
  6
CONTINUOUS
 62
           7
100
AcDbLine
 10
-14281.051352145501
 20
-442.100879626861
 30
0.0
 11
-14281.106366755706
 21
-442.597843803301
 31
0.0
  0
LINE
  5
11F
100
AcDbEntity
  8
Frei
  6
CONTINUOUS
 62
           7
100
AcDbLine
 10
-14275.934993396495
 20
-395.883211218001
 30
0.0
 11
-14281.051352145501
 21
-442.100879626861
 31
0.0
  0
LINE
  5
120
100
AcDbEntity
  8
Frei
  6
CONTINUOUS
 62
           7
100
AcDbLine
 10
-14275.990008006698
 20
-396.380175394439
 30
0.0
 11
-14276.983936359577
 21
-396.270146174031
 31
0.0
  0
LINE
  5
121
100
AcDbEntity
  8
Frei
  6
CONTINUOUS
 62
           7
100
AcDbLine
 10
-14281.051352145501
 20
-442.100879626861
 30
0.0
 11
-14282.04528049838
 21
-441.990850406452
 31
0.0
  0
LINE
  5
122
100
AcDbEntity
  8
Frei
  6
CONTINUOUS
 62
           7
100
AcDbLine
 10
-14250.589820398087
 20
-398.688956338425
 30
0.0
 11
-14251.712118446256
 21
-408.827025537787
 31
0.0
  0
LINE
  5
123
100
AcDbEntity
  8
Frei
  6
CONTINUOUS
 62
           7
100
AcDbLine
 10
-14250.589820398087
 20
-398.688956338425
 30
0.0
 11
-14275.934993396495
 21
-395.883211218001
 31
0.0
  0
LINE
  5
124
100
AcDbEntity
  8
Frei
  6
CONTINUOUS
 62
           7
100
AcDbLine
 10
-14252.209082622696
 20
-408.772010927582
 30
0.0
 11
-14251.712118446256
 21
-408.827025537787
 31
0.0
  0
LINE
  5
125
100
AcDbEntity
  8
Frei
  6
CONTINUOUS
 62
           7
100
AcDbLine
 10
-14252.209082622696
 20
-408.772010927582
 30
0.0
 11
-14256.258157933738
 21
-445.34857431352
 31
0.0
  0
LINE
  5
126
100
AcDbEntity
  8
Frei
  6
CONTINUOUS
 62
           7
100
AcDbLine
 10
-14427.358698485572
 20
-395.922417039555
 30
0.0
 11
-14429.346555191329
 21
-395.702358598737
 31
0.0
  0
LINE
  5
127
100
AcDbEntity
  8
Frei
  6
CONTINUOUS
 62
           7
100
AcDbLine
 10
-14428.455325320461
 20
-414.917084964659
 30
0.0
 11
-14426.474799353102
 21
-397.026374612842
 31
0.0
  0
LINE
  5
128
100
AcDbEntity
  8
Frei
  6
CONTINUOUS
 62
           7
100
AcDbLine
 10
-14431.547139599505
 20
-415.580925656312
 30
0.0
 11
-14429.559282893748
 21
-415.800984097129
 31
0.0
  0
LINE
  5
129
100
AcDbEntity
  8
Frei
  6
CONTINUOUS
 62
           7
100
AcDbLine
 10
-14431.880892629932
 20
-409.50732631863
 30
0.0
 11
-14432.431038731977
 21
-414.476968083024
 31
0.0
  0
LINE
  5
12A
100
AcDbEntity
  8
Frei
  6
CONTINUOUS
 62
           7
100
AcDbLine
 10
-14429.346555191329
 20
-395.702358598737
 30
0.0
 11
-14430.450512764617
 21
-396.586257731207
 31
0.0
  0
LINE
  5
12B
100
AcDbEntity
  8
Frei
  6
CONTINUOUS
 62
           7
100
AcDbLine
 10
-14427.358698485572
 20
-395.922417039555
 30
0.0
 11
-14426.474799353102
 21
-397.026374612842
 31
0.0
  0
LINE
  5
12C
100
AcDbEntity
  8
Frei
  6
CONTINUOUS
 62
           7
100
AcDbLine
 10
-14428.455325320461
 20
-414.917084964659
 30
0.0
 11
-14429.559282893748
 21
-415.800984097129
 31
0.0
  0
LINE
  5
12D
100
AcDbEntity
  8
Frei
  6
CONTINUOUS
 62
           7
100
AcDbLine
 10
-14431.547139599505
 20
-415.580925656312
 30
0.0
 11
-14432.431038731977
 21
-414.476968083024
 31
0.0
  0
LINE
  5
12E
100
AcDbEntity
  8
Frei
  6
CONTINUOUS
 62
           7
100
AcDbLine
 10
-14431.547139599505
 20
-415.580925656312
 30
0.0
 11
-14429.346555191329
 21
-395.702358598737
 31
0.0
  0
LINE
  5
12F
100
AcDbEntity
  8
Frei
  6
CONTINUOUS
 62
           7
100
AcDbLine
 10
-14429.559282893748
 20
-415.800984097129
 30
0.0
 11
-14427.358698485572
 21
-395.922417039555
 31
0.0
  0
LINE
  5
130
100
AcDbEntity
  8
Frei
  6
CONTINUOUS
 62
           7
100
AcDbLine
 10
-14429.280544473526
 20
-422.37154761125
 30
0.0
 11
-14428.455325320461
 21
-414.917084964659
 31
0.0
  0
LINE
  5
131
100
AcDbEntity
  8
Frei
  6
CONTINUOUS
 62
           7
100
AcDbLine
 10
-14399.41134464616
 20
-416.120075650756
 30
0.0
 11
-14400.456622240043
 21
-425.562395003104
 31
0.0
  0
LINE
  5
132
100
AcDbEntity
  8
Frei
  6
CONTINUOUS
 62
           7
100
AcDbLine
 10
-14432.104616439949
 20
-402.439798628071
 30
0.0
 11
-14431.000658866662
 21
-401.555899495601
 31
0.0
  0
LINE
  5
133
100
AcDbEntity
  8
Frei
  6
CONTINUOUS
 62
           7
100
AcDbLine
 10
-14430.450512764617
 20
-396.586257731207
 30
0.0
 11
-14431.000658866662
 21
-401.555899495601
 31
0.0
  0
LINE
  5
134
100
AcDbEntity
  8
Frei
  6
CONTINUOUS
 62
           7
100
AcDbLine
 10
-14432.159631050154
 20
-402.93676280451
 30
0.0
 11
-14432.104616439949
 21
-402.439798628071
 31
0.0
  0
LINE
  5
135
100
AcDbEntity
  8
Frei
  6
CONTINUOUS
 62
           7
100
AcDbLine
 10
-14431.880892629932
 20
-409.50732631863
 30
0.0
 11
-14432.764791762402
 21
-408.403368745343
 31
0.0
  0
LINE
  5
136
100
AcDbEntity
  8
Frei
  6
CONTINUOUS
 62
           7
100
AcDbLine
 10
-14431.770863409523
 20
-408.513397965752
 30
0.0
 11
-14431.880892629932
 21
-409.50732631863
 31
0.0
  0
LINE
  5
137
100
AcDbEntity
  8
Frei
  6
CONTINUOUS
 62
           2
100
AcDbLine
 10
-14431.11068808707
 20
-402.549827848479
 30
0.0
 11
-14432.104616439949
 21
-402.439798628071
 31
0.0
  0
LINE
  5
138
100
AcDbEntity
  8
Frei
  6
CONTINUOUS
 62
           7
100
AcDbLine
 10
-14431.000658866662
 20
-401.555899495601
 30
0.0
 11
-14431.11068808707
 21
-402.549827848479
 31
0.0
  0
LINE
  5
139
100
AcDbEntity
  8
Frei
  6
CONTINUOUS
 62
           2
100
AcDbLine
 10
-14431.770863409523
 20
-408.513397965752
 30
0.0
 11
-14432.764791762402
 21
-408.403368745343
 31
0.0
  0
LINE
  5
13A
100
AcDbEntity
  8
Frei
  6
CONTINUOUS
 62
           7
100
AcDbLine
 10
-14431.11068808707
 20
-402.549827848479
 30
0.0
 11
-14431.770863409523
 21
-408.513397965752
 31
0.0
  0
LINE
  5
13B
100
AcDbEntity
  8
Frei
  6
CONTINUOUS
 62
           1
100
AcDbLine
 10
-14429.686388496079
 20
-403.210554118862
 30
0.0
 11
-14432.159631050154
 21
-402.93676280451
 31
0.0
  0
LINE
  5
13C
100
AcDbEntity
  8
Frei
  6
CONTINUOUS
 62
           7
100
AcDbLine
 10
-14432.214645660357
 20
-403.433726980949
 30
0.0
 11
-14432.159631050154
 21
-402.93676280451
 31
0.0
  0
LINE
  5
13D
100
AcDbEntity
  8
Frei
  6
CONTINUOUS
 62
           1
100
AcDbLine
 10
-14430.236534598122
 20
-408.180195883256
 30
0.0
 11
-14432.709777152197
 21
-407.906404568904
 31
0.0
  0
LINE
  5
13E
100
AcDbEntity
  8
Frei
  6
CONTINUOUS
 62
           7
100
AcDbLine
 10
-14432.764791762402
 20
-408.403368745343
 30
0.0
 11
-14432.709777152197
 21
-407.906404568904
 31
0.0
  0
LINE
  5
13F
100
AcDbEntity
  8
Frei
  6
CONTINUOUS
 62
           1
100
AcDbLine
 10
-14429.741403106282
 20
-403.707518295302
 30
0.0
 11
-14432.214645660357
 21
-403.433726980949
 31
0.0
  0
LINE
  5
140
100
AcDbEntity
  8
Frei
  6
CONTINUOUS
 62
           7
100
AcDbLine
 10
-14432.654762541993
 20
-407.409440392464
 30
0.0
 11
-14432.214645660357
 21
-403.433726980949
 31
0.0
  0
LINE
  5
141
100
AcDbEntity
  8
Frei
  6
CONTINUOUS
 62
           1
100
AcDbLine
 10
-14430.181519987918
 20
-407.683231706817
 30
0.0
 11
-14432.654762541993
 21
-407.409440392464
 31
0.0
  0
LINE
  5
142
100
AcDbEntity
  8
Frei
  6
CONTINUOUS
 62
           7
100
AcDbLine
 10
-14432.709777152197
 20
-407.906404568904
 30
0.0
 11
-14432.654762541993
 21
-407.409440392464
 31
0.0
  0
LINE
  5
143
100
AcDbEntity
  8
Frei
  6
CONTINUOUS
 62
           7
100
AcDbLine
 10
-14424.275225999652
 20
-394.699562583431
 30
0.0
 11
-14397.265774848189
 21
-396.738472769621
 31
0.0
  0
LINE
  5
144
100
AcDbEntity
  8
Frei
  6
CONTINUOUS
 62
           7
100
AcDbLine
 10
-14426.413631894025
 20
-396.473829828605
 30
0.0
 11
-14426.474799353102
 21
-397.026374612842
 31
0.0
  0
LINE
  5
145
100
AcDbEntity
  8
Frei
  6
CONTINUOUS
 62
           7
100
AcDbLine
 10
-14400.456622240043
 20
-425.562395003104
 30
0.0
 11
-14429.280544473526
 21
-422.37154761125
 31
0.0
  0
LINE
  5
146
100
AcDbEntity
  8
Frei
  6
CONTINUOUS
 62
           7
100
AcDbLine
 10
-14429.390573693936
 20
-423.365475964129
 30
0.0
 11
-14429.280544473526
 21
-422.37154761125
 31
0.0
  0
LINE
  5
147
100
AcDbEntity
  8
Frei
  6
CONTINUOUS
 62
           7
100
AcDbLine
 10
-14428.893609517496
 20
-423.420490574333
 30
0.0
 11
-14429.390573693936
 21
-423.365475964129
 31
0.0
  0
LINE
  5
148
100
AcDbEntity
  8
Frei
  6
CONTINUOUS
 62
           7
100
AcDbLine
 10
-14400.456622240043
 20
-425.562395003104
 30
0.0
 11
-14400.566651460453
 21
-426.556323355983
 31
0.0
  0
LINE
  5
149
100
AcDbEntity
  8
Frei
  6
CONTINUOUS
 62
           7
100
AcDbLine
 10
-14440.760237088036
 20
-435.186252347464
 30
0.0
 11
-14430.323989382809
 21
-436.341559161757
 31
0.0
  0
LINE
  5
14A
100
AcDbEntity
  8
Frei
  6
CONTINUOUS
 62
           7
100
AcDbLine
 10
-14444.011597143895
 20
-450.924062162911
 30
0.0
 11
-14444.0666117541
 21
-451.42102633935
 31
0.0
  0
LINE
  5
14B
100
AcDbEntity
  8
Frei
  6
CONTINUOUS
 62
           7
100
AcDbLine
 10
-14442.740763055393
 20
-453.076962699282
 30
0.0
 11
-14432.304515350166
 21
-454.232269513574
 31
0.0
  0
LINE
  5
14C
100
AcDbEntity
  8
Frei
  6
CONTINUOUS
 62
           7
100
AcDbLine
 10
-14431.919413078736
 20
-450.753520278498
 30
0.0
 11
-14428.893609517496
 21
-423.420490574333
 31
0.0
  0
LINE
  5
14D
100
AcDbEntity
  8
Frei
  6
CONTINUOUS
 62
           7
100
AcDbLine
 10
-14401.063615636891
 20
-426.501308745778
 30
0.0
 11
-14428.893609517496
 21
-423.420490574333
 31
0.0
  0
LINE
  5
14E
100
AcDbEntity
  8
Frei
  6
CONTINUOUS
 62
           7
100
AcDbLine
 10
-14430.593564380031
 20
-452.409456638429
 30
0.0
 11
-14424.665674685297
 21
-453.065682089582
 31
0.0
  0
LINE
  5
14F
100
AcDbEntity
  8
Frei
  6
CONTINUOUS
 62
           7
100
AcDbLine
 10
-14404.089419198132
 20
-453.834338449944
 30
0.0
 11
-14401.063615636891
 21
-426.501308745778
 31
0.0
  0
LINE
  5
150
100
AcDbEntity
  8
Frei
  6
CONTINUOUS
 62
           7
100
AcDbLine
 10
-14400.566651460453
 20
-426.556323355983
 30
0.0
 11
-14401.063615636891
 21
-426.501308745778
 31
0.0
  0
LINE
  5
151
100
AcDbEntity
  8
Frei
  6
CONTINUOUS
 62
           7
100
AcDbLine
 10
-14424.665674685297
 20
-453.065682089582
 30
0.0
 11
-14432.304515350166
 21
-454.232269513574
 31
0.0
  0
LINE
  5
152
100
AcDbEntity
  8
Frei
  6
CONTINUOUS
 62
           7
100
AcDbLine
 10
-14405.745355558063
 20
-455.160187148649
 30
0.0
 11
-14424.665674685297
 21
-453.065682089582
 31
0.0
  0
LINE
  5
153
100
AcDbEntity
  8
Frei
  6
CONTINUOUS
 62
           7
100
AcDbLine
 10
-14447.440829822566
 20
-436.458919120565
 30
0.0
 11
-14442.471188058173
 21
-437.009065222609
 31
0.0
  0
LINE
  5
154
100
AcDbEntity
  8
Frei
  6
CONTINUOUS
 62
           7
100
AcDbLine
 10
-14442.416173447968
 20
-436.512101046169
 30
0.0
 11
-14442.471188058173
 21
-437.009065222609
 31
0.0
  0
LINE
  5
155
100
AcDbEntity
  8
Frei
  6
CONTINUOUS
 62
           7
100
AcDbLine
 10
-14448.981238908289
 20
-450.373916060867
 30
0.0
 11
-14444.011597143895
 21
-450.924062162911
 31
0.0
  0
LINE
  5
156
100
AcDbEntity
  8
Frei
  6
CONTINUOUS
 62
           7
100
AcDbLine
 10
-14443.901567923487
 20
-449.930133810032
 30
0.0
 11
-14444.011597143895
 21
-450.924062162911
 31
0.0
  0
LINE
  5
157
100
AcDbEntity
  8
Frei
  6
CONTINUOUS
 62
           2
100
AcDbLine
 10
-14442.581217278581
 20
-438.002993575488
 30
0.0
 11
-14447.550859042974
 21
-437.452847473444
 31
0.0
  0
LINE
  5
158
100
AcDbEntity
  8
Frei
  6
CONTINUOUS
 62
           7
100
AcDbLine
 10
-14442.471188058173
 20
-437.009065222609
 30
0.0
 11
-14442.581217278581
 21
-438.002993575488
 31
0.0
  0
LINE
  5
159
100
AcDbEntity
  8
Frei
  6
CONTINUOUS
 62
           2
100
AcDbLine
 10
-14443.901567923487
 20
-449.930133810032
 30
0.0
 11
-14448.871209687881
 21
-449.379987707988
 31
0.0
  0
LINE
  5
15A
100
AcDbEntity
  8
Frei
  6
CONTINUOUS
 62
           7
100
AcDbLine
 10
-14442.581217278581
 20
-438.002993575488
 30
0.0
 11
-14443.901567923487
 21
-449.930133810032
 31
0.0
  0
LINE
  5
15B
100
AcDbEntity
  8
Frei
  6
CONTINUOUS
 62
           7
100
AcDbLine
 10
-14397.870935560437
 20
-402.205078710454
 30
0.0
 11
-14397.119537000921
 21
-402.288259552896
 31
0.0
  0
LINE
  5
15C
100
AcDbEntity
  8
Frei
  6
CONTINUOUS
 62
           7
100
AcDbLine
 10
-14397.265774848189
 20
-396.738472769621
 30
0.0
 11
-14397.870935560437
 21
-402.205078710454
 31
0.0
  0
LINE
  5
15D
100
AcDbEntity
  8
Frei
  6
CONTINUOUS
 62
           7
100
AcDbLine
 10
-14398.256037831869
 20
-405.683827945529
 30
0.0
 11
-14397.504639272353
 21
-405.767008787972
 31
0.0
  0
LINE
  5
15E
100
AcDbEntity
  8
Frei
  6
CONTINUOUS
 62
           7
100
AcDbLine
 10
-14397.870935560437
 20
-402.205078710454
 30
0.0
 11
-14398.256037831869
 21
-405.683827945529
 31
0.0
  0
LINE
  5
15F
100
AcDbEntity
  8
Frei
  6
CONTINUOUS
 62
           7
100
AcDbLine
 10
-14399.02624237473
 20
-412.641326415681
 30
0.0
 11
-14398.274843815214
 21
-412.724507258123
 31
0.0
  0
LINE
  5
160
100
AcDbEntity
  8
Frei
  6
CONTINUOUS
 62
           7
100
AcDbLine
 10
-14398.256037831869
 20
-405.683827945529
 30
0.0
 11
-14399.02624237473
 21
-412.641326415681
 31
0.0
  0
LINE
  5
161
100
AcDbEntity
  8
Frei
  6
CONTINUOUS
 62
           7
100
AcDbLine
 10
-14399.41134464616
 20
-416.120075650756
 30
0.0
 11
-14398.659946086644
 21
-416.203256493198
 31
0.0
  0
LINE
  5
162
100
AcDbEntity
  8
Frei
  6
CONTINUOUS
 62
           7
100
AcDbLine
 10
-14399.02624237473
 20
-412.641326415681
 30
0.0
 11
-14399.41134464616
 21
-416.120075650756
 31
0.0
  0
LINE
  5
163
100
AcDbEntity
  8
Frei
  6
CONTINUOUS
 62
           7
100
AcDbLine
 10
-14397.15024757398
 20
-409.327621011218
 30
0.0
 11
-14396.572594166833
 21
-404.109497158605
 31
0.0
  0
LINE
  5
164
100
AcDbEntity
  8
Frei
  6
CONTINUOUS
 62
           7
100
AcDbLine
 10
-14447.338700344759
 20
-435.536351612761
 30
0.0
 11
-14447.19462796508
 21
-434.23490075728
 31
0.0
  0
LINE
  5
165
100
AcDbEntity
  8
Frei
  6
CONTINUOUS
 62
           7
100
AcDbLine
 10
-14453.44568952842
 20
-452.130968549298
 30
0.0
 11
-14449.227440765775
 21
-452.597934424152
 31
0.0
  0
LINE
  5
166
100
AcDbEntity
  8
Frei
  6
CONTINUOUS
 62
           7
100
AcDbLine
 10
-14452.308342109152
 20
-434.986205510717
 30
0.0
 11
-14447.338700344759
 21
-435.536351612761
 31
0.0
  0
LINE
  5
167
100
AcDbEntity
  8
Frei
  6
CONTINUOUS
 62
           7
100
AcDbLine
 10
-14447.558758785575
 20
-437.524208318519
 30
0.0
 11
-14447.338700344759
 21
-435.536351612761
 31
0.0
  0
LINE
  5
168
100
AcDbEntity
  8
Frei
  6
CONTINUOUS
 62
           7
100
AcDbLine
 10
-14447.558758785575
 20
-437.524208318519
 30
0.0
 11
-14452.528400549969
 21
-436.974062216475
 31
0.0
  0
LINE
  5
169
100
AcDbEntity
  8
Frei
  6
CONTINUOUS
 62
           7
100
AcDbLine
 10
-14452.308342109152
 20
-434.986205510717
 30
0.0
 11
-14452.528400549969
 21
-436.974062216475
 31
0.0
  0
LINE
  5
16A
100
AcDbEntity
  8
Frei
  6
CONTINUOUS
 62
           7
100
AcDbLine
 10
-14447.702831165254
 20
-438.825659173998
 30
0.0
 11
-14447.558758785575
 21
-437.524208318519
 31
0.0
  0
LINE
  5
16B
100
AcDbEntity
  8
Frei
  6
CONTINUOUS
 62
           7
100
AcDbLine
 10
-14447.990975924609
 20
-441.428560884958
 30
0.0
 11
-14447.702831165254
 21
-438.825659173998
 31
0.0
  0
LINE
  5
16C
100
AcDbEntity
  8
Frei
  6
CONTINUOUS
 62
           7
100
AcDbLine
 10
-14447.990975924609
 20
-441.428560884958
 30
0.0
 11
-14452.960617689003
 21
-440.878414782915
 31
0.0
  0
LINE
  5
16D
100
AcDbEntity
  8
Frei
  6
CONTINUOUS
 62
           7
100
AcDbLine
 10
-14452.528400549969
 20
-436.974062216475
 30
0.0
 11
-14452.960617689003
 21
-440.878414782915
 31
0.0
  0
LINE
  5
16E
100
AcDbEntity
  8
Frei
  6
CONTINUOUS
 62
           7
100
AcDbLine
 10
-14448.431092806244
 20
-445.404274296473
 30
0.0
 11
-14447.990975924609
 21
-441.428560884958
 31
0.0
  0
LINE
  5
16F
100
AcDbEntity
  8
Frei
  6
CONTINUOUS
 62
           7
100
AcDbLine
 10
-14448.431092806244
 20
-445.404274296473
 30
0.0
 11
-14453.400734570638
 21
-444.85412819443
 31
0.0
  0
LINE
  5
170
100
AcDbEntity
  8
Frei
  6
CONTINUOUS
 62
           7
100
AcDbLine
 10
-14452.960617689003
 20
-440.878414782915
 30
0.0
 11
-14453.400734570638
 21
-444.85412819443
 31
0.0
  0
LINE
  5
171
100
AcDbEntity
  8
Frei
  6
CONTINUOUS
 62
           7
100
AcDbLine
 10
-14448.719237565601
 20
-448.007176007434
 30
0.0
 11
-14448.431092806244
 21
-445.404274296473
 31
0.0
  0
LINE
  5
172
100
AcDbEntity
  8
Frei
  6
CONTINUOUS
 62
           7
100
AcDbLine
 10
-14448.86330994528
 20
-449.308626862915
 30
0.0
 11
-14448.719237565601
 21
-448.007176007434
 31
0.0
  0
LINE
  5
173
100
AcDbEntity
  8
Frei
  6
CONTINUOUS
 62
           7
100
AcDbLine
 10
-14448.86330994528
 20
-449.308626862915
 30
0.0
 11
-14453.832951709674
 21
-448.758480760871
 31
0.0
  0
LINE
  5
174
100
AcDbEntity
  8
Frei
  6
CONTINUOUS
 62
           7
100
AcDbLine
 10
-14453.400734570638
 20
-444.85412819443
 30
0.0
 11
-14453.832951709674
 21
-448.758480760871
 31
0.0
  0
LINE
  5
175
100
AcDbEntity
  8
Frei
  6
CONTINUOUS
 62
           7
100
AcDbLine
 10
-14449.083368386096
 20
-451.296483568672
 30
0.0
 11
-14448.86330994528
 21
-449.308626862915
 31
0.0
  0
LINE
  5
176
100
AcDbEntity
  8
Frei
  6
CONTINUOUS
 62
           7
100
AcDbLine
 10
-14449.083368386096
 20
-451.296483568672
 30
0.0
 11
-14454.05301015049
 21
-450.746337466628
 31
0.0
  0
LINE
  5
177
100
AcDbEntity
  8
Frei
  6
CONTINUOUS
 62
           7
100
AcDbLine
 10
-14453.832951709674
 20
-448.758480760871
 30
0.0
 11
-14454.05301015049
 21
-450.746337466628
 31
0.0
  0
LINE
  5
178
100
AcDbEntity
  8
Frei
  6
CONTINUOUS
 62
           7
100
AcDbLine
 10
-14449.227440765775
 20
-452.597934424152
 30
0.0
 11
-14449.083368386096
 21
-451.296483568672
 31
0.0
  0
LINE
  5
179
100
AcDbEntity
  8
Frei
  6
CONTINUOUS
 62
           7
100
AcDbLine
 10
-14452.308342109152
 20
-434.986205510717
 30
0.0
 11
-14451.412876727725
 21
-433.767934882427
 31
0.0
  0
LINE
  5
17A
100
AcDbEntity
  8
Frei
  6
CONTINUOUS
 62
           7
100
AcDbLine
 10
-14447.19462796508
 20
-434.23490075728
 30
0.0
 11
-14451.412876727725
 21
-433.767934882427
 31
0.0
  0
LINE
  5
17B
100
AcDbEntity
  8
Frei
  6
CONTINUOUS
 62
           7
100
AcDbLine
 10
-14453.44568952842
 20
-452.130968549298
 30
0.0
 11
-14454.05301015049
 21
-450.746337466628
 31
0.0
  0
LINE
  5
17C
100
AcDbEntity
  8
Frei
  6
CONTINUOUS
 62
           7
100
AcDbLine
 10
-14451.921079927899
 20
-438.358693299144
 30
0.0
 11
-14452.528400549969
 21
-436.974062216475
 31
0.0
  0
LINE
  5
17D
100
AcDbEntity
  8
Frei
  6
CONTINUOUS
 62
           7
100
AcDbLine
 10
-14447.702831165254
 20
-438.825659173998
 30
0.0
 11
-14451.921079927899
 21
-438.358693299144
 31
0.0
  0
LINE
  5
17E
100
AcDbEntity
  8
Frei
  6
CONTINUOUS
 62
           7
100
AcDbLine
 10
-14452.960617689003
 20
-440.878414782915
 30
0.0
 11
-14451.921079927899
 21
-438.358693299144
 31
0.0
  0
LINE
  5
17F
100
AcDbEntity
  8
Frei
  6
CONTINUOUS
 62
           7
100
AcDbLine
 10
-14452.937486328246
 20
-447.54021013258
 30
0.0
 11
-14453.400734570638
 21
-444.85412819443
 31
0.0
  0
LINE
  5
180
100
AcDbEntity
  8
Frei
  6
CONTINUOUS
 62
           7
100
AcDbLine
 10
-14448.719237565601
 20
-448.007176007434
 30
0.0
 11
-14452.937486328246
 21
-447.54021013258
 31
0.0
  0
LINE
  5
181
100
AcDbEntity
  8
Frei
  6
CONTINUOUS
 62
           7
100
AcDbLine
 10
-14453.832951709674
 20
-448.758480760871
 30
0.0
 11
-14452.937486328246
 21
-447.54021013258
 31
0.0
  0
LINE
  5
182
100
AcDbEntity
  8
Frei
  6
CONTINUOUS
 62
           3
100
AcDbLine
 10
-14408.442897328236
 20
-447.718193571779
 30
0.0
 11
-14426.333607680053
 21
-445.737667604421
 31
0.0
  0
LINE
  5
183
100
AcDbEntity
  8
Frei
  6
CONTINUOUS
 62
           3
100
AcDbLine
 10
-14409.105271872209
 20
-448.248533051261
 30
0.0
 11
-14408.442897328236
 21
-447.718193571779
 31
0.0
  0
LINE
  5
184
100
AcDbEntity
  8
Frei
  6
CONTINUOUS
 62
           3
100
AcDbLine
 10
-14408.574932392727
 20
-448.910907595234
 30
0.0
 11
-14409.105271872209
 21
-448.248533051261
 31
0.0
  0
LINE
  5
185
100
AcDbEntity
  8
Frei
  6
CONTINUOUS
 62
           3
100
AcDbLine
 10
-14426.465642744544
 20
-446.930381627876
 30
0.0
 11
-14408.574932392727
 21
-448.910907595234
 31
0.0
  0
LINE
  5
186
100
AcDbEntity
  8
Frei
  6
CONTINUOUS
 62
           3
100
AcDbLine
 10
-14425.803268200572
 20
-446.400042148394
 30
0.0
 11
-14426.465642744544
 21
-446.930381627876
 31
0.0
  0
LINE
  5
187
100
AcDbEntity
  8
Frei
  6
CONTINUOUS
 62
           3
100
AcDbLine
 10
-14426.333607680053
 20
-445.737667604421
 30
0.0
 11
-14425.803268200572
 21
-446.400042148394
 31
0.0
  0
LINE
  5
188
100
AcDbEntity
  8
Frei
  6
CONTINUOUS
 62
           3
100
AcDbLine
 10
-14409.105271872209
 20
-448.248533051261
 30
0.0
 11
-14425.803268200572
 21
-446.400042148394
 31
0.0
  0
LINE
  5
189
100
AcDbEntity
  8
Frei
  6
CONTINUOUS
 62
           3
100
AcDbLine
 10
-14426.245584303726
 20
-444.942524922118
 30
0.0
 11
-14425.583209759754
 21
-444.412185442636
 31
0.0
  0
LINE
  5
18A
100
AcDbEntity
  8
Frei
  6
CONTINUOUS
 62
           3
100
AcDbLine
 10
-14408.354873951908
 20
-446.923050889476
 30
0.0
 11
-14426.245584303726
 21
-444.942524922118
 31
0.0
  0
LINE
  5
18B
100
AcDbEntity
  8
Frei
  6
CONTINUOUS
 62
           3
100
AcDbLine
 10
-14408.885213431391
 20
-446.260676345504
 30
0.0
 11
-14408.354873951908
 21
-446.923050889476
 31
0.0
  0
LINE
  5
18C
100
AcDbEntity
  8
Frei
  6
CONTINUOUS
 62
           3
100
AcDbLine
 10
-14408.222838887419
 20
-445.730336866022
 30
0.0
 11
-14408.885213431391
 21
-446.260676345504
 31
0.0
  0
LINE
  5
18D
100
AcDbEntity
  8
Frei
  6
CONTINUOUS
 62
           3
100
AcDbLine
 10
-14426.113549239237
 20
-443.749810898664
 30
0.0
 11
-14408.222838887419
 21
-445.730336866022
 31
0.0
  0
LINE
  5
18E
100
AcDbEntity
  8
Frei
  6
CONTINUOUS
 62
           3
100
AcDbLine
 10
-14425.583209759754
 20
-444.412185442636
 30
0.0
 11
-14426.113549239237
 21
-443.749810898664
 31
0.0
  0
LINE
  5
18F
100
AcDbEntity
  8
Frei
  6
CONTINUOUS
 62
           3
100
AcDbLine
 10
-14425.583209759754
 20
-444.412185442636
 30
0.0
 11
-14408.885213431391
 21
-446.260676345504
 31
0.0
  0
LINE
  5
190
100
AcDbEntity
  8
Frei
  6
CONTINUOUS
 62
           3
100
AcDbLine
 10
-14426.025525862909
 20
-442.954668216361
 30
0.0
 11
-14425.363151318936
 21
-442.424328736879
 31
0.0
  0
LINE
  5
191
100
AcDbEntity
  8
Frei
  6
CONTINUOUS
 62
           3
100
AcDbLine
 10
-14408.134815511092
 20
-444.935194183719
 30
0.0
 11
-14426.025525862909
 21
-442.954668216361
 31
0.0
  0
LINE
  5
192
100
AcDbEntity
  8
Frei
  6
CONTINUOUS
 62
           3
100
AcDbLine
 10
-14408.665154990573
 20
-444.272819639746
 30
0.0
 11
-14408.134815511092
 21
-444.935194183719
 31
0.0
  0
LINE
  5
193
100
AcDbEntity
  8
Frei
  6
CONTINUOUS
 62
           3
100
AcDbLine
 10
-14408.002780446601
 20
-443.742480160264
 30
0.0
 11
-14408.665154990573
 21
-444.272819639746
 31
0.0
  0
LINE
  5
194
100
AcDbEntity
  8
Frei
  6
CONTINUOUS
 62
           3
100
AcDbLine
 10
-14425.893490798418
 20
-441.761954192906
 30
0.0
 11
-14408.002780446601
 21
-443.742480160264
 31
0.0
  0
LINE
  5
195
100
AcDbEntity
  8
Frei
  6
CONTINUOUS
 62
           3
100
AcDbLine
 10
-14425.363151318936
 20
-442.424328736879
 30
0.0
 11
-14425.893490798418
 21
-441.761954192906
 31
0.0
  0
LINE
  5
196
100
AcDbEntity
  8
Frei
  6
CONTINUOUS
 62
           3
100
AcDbLine
 10
-14425.805467422091
 20
-440.966811510603
 30
0.0
 11
-14425.143092878119
 21
-440.436472031121
 31
0.0
  0
LINE
  5
197
100
AcDbEntity
  8
Frei
  6
CONTINUOUS
 62
           3
100
AcDbLine
 10
-14419.749542189938
 20
-441.637210669876
 30
0.0
 11
-14425.805467422091
 21
-440.966811510603
 31
0.0
  0
LINE
  5
198
100
AcDbEntity
  8
Frei
  6
CONTINUOUS
 62
           3
100
AcDbLine
 10
-14408.445096549756
 20
-442.284962933989
 30
0.0
 11
-14407.914757070273
 21
-442.947337477961
 31
0.0
  0
LINE
  5
199
100
AcDbEntity
  8
Frei
  6
CONTINUOUS
 62
           3
100
AcDbLine
 10
-14407.782722005782
 20
-441.754623454507
 30
0.0
 11
-14408.445096549756
 21
-442.284962933989
 31
0.0
  0
LINE
  5
19A
100
AcDbEntity
  8
Frei
  6
CONTINUOUS
 62
           3
100
AcDbLine
 10
-14413.838647237935
 20
-441.084224295234
 30
0.0
 11
-14407.782722005782
 21
-441.754623454507
 31
0.0
  0
LINE
  5
19B
100
AcDbEntity
  8
Frei
  6
CONTINUOUS
 62
           3
100
AcDbLine
 10
-14425.143092878119
 20
-440.436472031121
 30
0.0
 11
-14425.6734323576
 21
-439.774097487149
 31
0.0
  0
LINE
  5
19C
100
AcDbEntity
  8
Frei
  6
CONTINUOUS
 62
           3
100
AcDbLine
 10
-14425.585408981275
 20
-438.978954804846
 30
0.0
 11
-14424.923034437301
 21
-438.448615325364
 31
0.0
  0
LINE
  5
19D
100
AcDbEntity
  8
Frei
  6
CONTINUOUS
 62
           3
100
AcDbLine
 10
-14420.271169086582
 20
-439.567248388568
 30
0.0
 11
-14425.585408981275
 21
-438.978954804846
 31
0.0
  0
LINE
  5
19E
100
AcDbEntity
  8
Frei
  6
CONTINUOUS
 62
           3
100
AcDbLine
 10
-14408.225038108938
 20
-440.297106228231
 30
0.0
 11
-14407.694698629457
 21
-440.959480772204
 31
0.0
  0
LINE
  5
19F
100
AcDbEntity
  8
Frei
  6
CONTINUOUS
 62
           3
100
AcDbLine
 10
-14413.539278003631
 20
-439.708812644509
 30
0.0
 11
-14408.225038108938
 21
-440.297106228231
 31
0.0
  0
LINE
  5
1A0
100
AcDbEntity
  8
Frei
  6
CONTINUOUS
 62
           3
100
AcDbLine
 10
-14419.087167645968
 20
-441.106871190394
 30
0.0
 11
-14425.143092878119
 21
-440.436472031121
 31
0.0
  0
LINE
  5
1A1
100
AcDbEntity
  8
Frei
  6
CONTINUOUS
 62
           3
100
AcDbLine
 10
-14408.665154990573
 20
-444.272819639746
 30
0.0
 11
-14425.363151318936
 21
-442.424328736879
 31
0.0
  0
LINE
  5
1A2
100
AcDbEntity
  8
Frei
  6
CONTINUOUS
 62
           3
100
AcDbLine
 10
-14419.087167645968
 20
-441.106871190394
 30
0.0
 11
-14419.617507125447
 21
-440.444496646422
 31
0.0
  0
LINE
  5
1A3
100
AcDbEntity
  8
Frei
  6
CONTINUOUS
 62
           3
100
AcDbLine
 10
-14425.6734323576
 20
-439.774097487149
 30
0.0
 11
-14419.617507125447
 21
-440.444496646422
 31
0.0
  0
LINE
  5
1A4
100
AcDbEntity
  8
Frei
  6
CONTINUOUS
 62
           3
100
AcDbLine
 10
-14419.749542189938
 20
-441.637210669876
 30
0.0
 11
-14419.087167645968
 21
-441.106871190394
 31
0.0
  0
LINE
  5
1A5
100
AcDbEntity
  8
Frei
  6
CONTINUOUS
 62
           3
100
AcDbLine
 10
-14419.608794542608
 20
-439.036908909086
 30
0.0
 11
-14420.271169086582
 21
-439.567248388568
 31
0.0
  0
LINE
  5
1A6
100
AcDbEntity
  8
Frei
  6
CONTINUOUS
 62
           3
100
AcDbLine
 10
-14424.923034437301
 20
-438.448615325364
 30
0.0
 11
-14419.608794542608
 21
-439.036908909086
 31
0.0
  0
LINE
  5
1A7
100
AcDbEntity
  8
Frei
  6
CONTINUOUS
 62
           3
100
AcDbLine
 10
-14413.00893852415
 20
-440.371187188482
 30
0.0
 11
-14413.539278003631
 21
-439.708812644509
 31
0.0
  0
LINE
  5
1A8
100
AcDbEntity
  8
Frei
  6
CONTINUOUS
 62
           3
100
AcDbLine
 10
-14407.694698629457
 20
-440.959480772204
 30
0.0
 11
-14413.00893852415
 21
-440.371187188482
 31
0.0
  0
LINE
  5
1A9
100
AcDbEntity
  8
Frei
  6
CONTINUOUS
 62
           3
100
AcDbLine
 10
-14414.501021781909
 20
-441.614563774716
 30
0.0
 11
-14413.838647237935
 21
-441.084224295234
 31
0.0
  0
LINE
  5
1AA
100
AcDbEntity
  8
Frei
  6
CONTINUOUS
 62
           3
100
AcDbLine
 10
-14408.445096549756
 20
-442.284962933989
 30
0.0
 11
-14414.501021781909
 21
-441.614563774716
 31
0.0
  0
LINE
  5
1AB
100
AcDbEntity
  8
Frei
  6
CONTINUOUS
 62
           3
100
AcDbLine
 10
-14413.970682302426
 20
-442.276938318688
 30
0.0
 11
-14414.501021781909
 21
-441.614563774716
 31
0.0
  0
LINE
  5
1AC
100
AcDbEntity
  8
Frei
  6
CONTINUOUS
 62
           3
100
AcDbLine
 10
-14407.914757070273
 20
-442.947337477961
 30
0.0
 11
-14413.970682302426
 21
-442.276938318688
 31
0.0
  0
LINE
  5
1AD
100
AcDbEntity
  8
Frei
  6
CONTINUOUS
 62
           3
100
AcDbLine
 10
-14425.6734323576
 20
-439.774097487149
 30
0.0
 11
-14425.805467422091
 21
-440.966811510603
 31
0.0
  0
LINE
  5
1AE
100
AcDbEntity
  8
Frei
  6
CONTINUOUS
 62
           3
100
AcDbLine
 10
-14426.025525862909
 20
-442.954668216361
 30
0.0
 11
-14425.893490798418
 21
-441.761954192906
 31
0.0
  0
LINE
  5
1AF
100
AcDbEntity
  8
Frei
  6
CONTINUOUS
 62
           3
100
AcDbLine
 10
-14426.245584303726
 20
-444.942524922118
 30
0.0
 11
-14426.113549239237
 21
-443.749810898664
 31
0.0
  0
LINE
  5
1B0
100
AcDbEntity
  8
Frei
  6
CONTINUOUS
 62
           3
100
AcDbLine
 10
-14426.465642744544
 20
-446.930381627876
 30
0.0
 11
-14426.333607680053
 21
-445.737667604421
 31
0.0
  0
LINE
  5
1B1
100
AcDbEntity
  8
Frei
  6
CONTINUOUS
 62
           3
100
AcDbLine
 10
-14425.519391449028
 20
-438.382597793119
 30
0.0
 11
-14425.585408981275
 21
-438.978954804846
 31
0.0
  0
LINE
  5
1B2
100
AcDbEntity
  8
Frei
  6
CONTINUOUS
 62
           3
100
AcDbLine
 10
-14407.694698629457
 20
-440.959480772204
 30
0.0
 11
-14407.628681097211
 21
-440.363123760476
 31
0.0
  0
LINE
  5
1B3
100
AcDbEntity
  8
Frei
  6
CONTINUOUS
 62
           3
100
AcDbLine
 10
-14407.914757070273
 20
-442.947337477961
 30
0.0
 11
-14407.782722005782
 21
-441.754623454507
 31
0.0
  0
LINE
  5
1B4
100
AcDbEntity
  8
Frei
  6
CONTINUOUS
 62
           3
100
AcDbLine
 10
-14408.134815511092
 20
-444.935194183719
 30
0.0
 11
-14408.002780446601
 21
-443.742480160264
 31
0.0
  0
LINE
  5
1B5
100
AcDbEntity
  8
Frei
  6
CONTINUOUS
 62
           3
100
AcDbLine
 10
-14408.354873951908
 20
-446.923050889476
 30
0.0
 11
-14408.222838887419
 21
-445.730336866022
 31
0.0
  0
LINE
  5
1B6
100
AcDbEntity
  8
Frei
  6
CONTINUOUS
 62
           3
100
AcDbLine
 10
-14408.574932392727
 20
-448.910907595234
 30
0.0
 11
-14408.442897328236
 21
-447.718193571779
 31
0.0
  0
LINE
  5
1B7
100
AcDbEntity
  8
Frei
  6
CONTINUOUS
 62
           3
100
AcDbLine
 10
-14406.814464866186
 20
-433.008053949174
 30
0.0
 11
-14406.682429801696
 21
-431.815339925719
 31
0.0
  0
LINE
  5
1B8
100
AcDbEntity
  8
Frei
  6
CONTINUOUS
 62
           3
100
AcDbLine
 10
-14407.034523307004
 20
-434.995910654931
 30
0.0
 11
-14406.902488242513
 21
-433.803196631477
 31
0.0
  0
LINE
  5
1B9
100
AcDbEntity
  8
Frei
  6
CONTINUOUS
 62
           3
100
AcDbLine
 10
-14407.25458174782
 20
-436.983767360689
 30
0.0
 11
-14407.122546683331
 21
-435.791053337234
 31
0.0
  0
LINE
  5
1BA
100
AcDbEntity
  8
Frei
  6
CONTINUOUS
 62
           3
100
AcDbLine
 10
-14407.474640188639
 20
-438.971624066446
 30
0.0
 11
-14407.342605124148
 21
-437.778910042992
 31
0.0
  0
LINE
  5
1BB
100
AcDbEntity
  8
Frei
  6
CONTINUOUS
 62
           3
100
AcDbLine
 10
-14407.628681097211
 20
-440.363123760476
 30
0.0
 11
-14407.562663564966
 21
-439.766766748749
 31
0.0
  0
LINE
  5
1BC
100
AcDbEntity
  8
Frei
  6
CONTINUOUS
 62
           3
100
AcDbLine
 10
-14425.453373916784
 20
-437.786240781391
 30
0.0
 11
-14425.519391449028
 21
-438.382597793119
 31
0.0
  0
LINE
  5
1BD
100
AcDbEntity
  8
Frei
  6
CONTINUOUS
 62
           3
100
AcDbLine
 10
-14424.705175218003
 20
-431.027527981816
 30
0.0
 11
-14424.573140153514
 21
-429.834813958362
 31
0.0
  0
LINE
  5
1BE
100
AcDbEntity
  8
Frei
  6
CONTINUOUS
 62
           3
100
AcDbLine
 10
-14424.925233658822
 20
-433.015384687573
 30
0.0
 11
-14424.793198594331
 21
-431.822670664119
 31
0.0
  0
LINE
  5
1BF
100
AcDbEntity
  8
Frei
  6
CONTINUOUS
 62
           3
100
AcDbLine
 10
-14425.145292099638
 20
-435.003241393331
 30
0.0
 11
-14425.013257035149
 21
-433.810527369876
 31
0.0
  0
LINE
  5
1C0
100
AcDbEntity
  8
Frei
  6
CONTINUOUS
 62
           3
100
AcDbLine
 10
-14425.233315475965
 20
-435.798384075634
 30
0.0
 11
-14425.365350540456
 21
-436.991098099088
 31
0.0
  0
LINE
  5
1C1
100
AcDbEntity
  8
Frei
  6
CONTINUOUS
 62
           3
100
AcDbLine
 10
-14413.3985303563
 20
-437.108510883719
 30
0.0
 11
-14407.342605124148
 21
-437.778910042992
 31
0.0
  0
LINE
  5
1C2
100
AcDbEntity
  8
Frei
  6
CONTINUOUS
 62
           3
100
AcDbLine
 10
-14414.060904900274
 20
-437.638850363201
 30
0.0
 11
-14413.3985303563
 21
-437.108510883719
 31
0.0
  0
LINE
  5
1C3
100
AcDbEntity
  8
Frei
  6
CONTINUOUS
 62
           3
100
AcDbLine
 10
-14414.060904900274
 20
-437.638850363201
 30
0.0
 11
-14408.004979668121
 21
-438.309249522474
 31
0.0
  0
LINE
  5
1C4
100
AcDbEntity
  8
Frei
  6
CONTINUOUS
 62
           3
100
AcDbLine
 10
-14413.530565420791
 20
-438.301224907173
 30
0.0
 11
-14414.060904900274
 21
-437.638850363201
 31
0.0
  0
LINE
  5
1C5
100
AcDbEntity
  8
Frei
  6
CONTINUOUS
 62
           3
100
AcDbLine
 10
-14412.876903459659
 20
-439.178473165027
 30
0.0
 11
-14407.562663564966
 21
-439.766766748749
 31
0.0
  0
LINE
  5
1C6
100
AcDbEntity
  8
Frei
  6
CONTINUOUS
 62
           3
100
AcDbLine
 10
-14413.539278003631
 20
-439.708812644509
 30
0.0
 11
-14412.876903459659
 21
-439.178473165027
 31
0.0
  0
LINE
  5
1C7
100
AcDbEntity
  8
Frei
  6
CONTINUOUS
 62
           3
100
AcDbLine
 10
-14420.139134022091
 20
-438.374534365114
 30
0.0
 11
-14419.608794542608
 21
-439.036908909086
 31
0.0
  0
LINE
  5
1C8
100
AcDbEntity
  8
Frei
  6
CONTINUOUS
 62
           3
100
AcDbLine
 10
-14418.647050764333
 20
-437.131157778879
 30
0.0
 11
-14419.177390243813
 21
-436.468783234907
 31
0.0
  0
LINE
  5
1C9
100
AcDbEntity
  8
Frei
  6
CONTINUOUS
 62
           3
100
AcDbLine
 10
-14419.309425308304
 20
-437.661497258361
 30
0.0
 11
-14425.365350540456
 21
-436.991098099088
 31
0.0
  0
LINE
  5
1CA
100
AcDbEntity
  8
Frei
  6
CONTINUOUS
 62
           3
100
AcDbLine
 10
-14419.309425308304
 20
-437.661497258361
 30
0.0
 11
-14418.647050764333
 21
-437.131157778879
 31
0.0
  0
LINE
  5
1CB
100
AcDbEntity
  8
Frei
  6
CONTINUOUS
 62
           3
100
AcDbLine
 10
-14424.482917555666
 20
-434.472901913849
 30
0.0
 11
-14407.784921227303
 21
-436.321392816716
 31
0.0
  0
LINE
  5
1CC
100
AcDbEntity
  8
Frei
  6
CONTINUOUS
 62
           3
100
AcDbLine
 10
-14424.702975996484
 20
-436.460758619606
 30
0.0
 11
-14418.647050764333
 21
-437.131157778879
 31
0.0
  0
LINE
  5
1CD
100
AcDbEntity
  8
Frei
  6
CONTINUOUS
 62
           3
100
AcDbLine
 10
-14407.562663564966
 20
-439.766766748749
 30
0.0
 11
-14408.225038108938
 21
-440.297106228231
 31
0.0
  0
LINE
  5
1CE
100
AcDbEntity
  8
Frei
  6
CONTINUOUS
 62
           3
100
AcDbLine
 10
-14425.453373916784
 20
-437.786240781391
 30
0.0
 11
-14420.139134022091
 21
-438.374534365114
 31
0.0
  0
LINE
  5
1CF
100
AcDbEntity
  8
Frei
  6
CONTINUOUS
 62
           3
100
AcDbLine
 10
-14424.923034437301
 20
-438.448615325364
 30
0.0
 11
-14425.453373916784
 21
-437.786240781391
 31
0.0
  0
LINE
  5
1D0
100
AcDbEntity
  8
Frei
  6
CONTINUOUS
 62
           3
100
AcDbLine
 10
-14425.365350540456
 20
-436.991098099088
 30
0.0
 11
-14424.702975996484
 21
-436.460758619606
 31
0.0
  0
LINE
  5
1D1
100
AcDbEntity
  8
Frei
  6
CONTINUOUS
 62
           3
100
AcDbLine
 10
-14407.474640188639
 20
-438.971624066446
 30
0.0
 11
-14413.530565420791
 21
-438.301224907173
 31
0.0
  0
LINE
  5
1D2
100
AcDbEntity
  8
Frei
  6
CONTINUOUS
 62
           3
100
AcDbLine
 10
-14408.004979668121
 20
-438.309249522474
 30
0.0
 11
-14407.474640188639
 21
-438.971624066446
 31
0.0
  0
LINE
  5
1D3
100
AcDbEntity
  8
Frei
  6
CONTINUOUS
 62
           3
100
AcDbLine
 10
-14407.342605124148
 20
-437.778910042992
 30
0.0
 11
-14408.004979668121
 21
-438.309249522474
 31
0.0
  0
LINE
  5
1D4
100
AcDbEntity
  8
Frei
  6
CONTINUOUS
 62
           3
100
AcDbLine
 10
-14425.233315475965
 20
-435.798384075634
 30
0.0
 11
-14419.177390243813
 21
-436.468783234907
 31
0.0
  0
LINE
  5
1D5
100
AcDbEntity
  8
Frei
  6
CONTINUOUS
 62
           3
100
AcDbLine
 10
-14424.702975996484
 20
-436.460758619606
 30
0.0
 11
-14425.233315475965
 21
-435.798384075634
 31
0.0
  0
LINE
  5
1D6
100
AcDbEntity
  8
Frei
  6
CONTINUOUS
 62
           3
100
AcDbLine
 10
-14425.145292099638
 20
-435.003241393331
 30
0.0
 11
-14424.482917555666
 21
-434.472901913849
 31
0.0
  0
LINE
  5
1D7
100
AcDbEntity
  8
Frei
  6
CONTINUOUS
 62
           3
100
AcDbLine
 10
-14407.25458174782
 20
-436.983767360689
 30
0.0
 11
-14425.145292099638
 21
-435.003241393331
 31
0.0
  0
LINE
  5
1D8
100
AcDbEntity
  8
Frei
  6
CONTINUOUS
 62
           3
100
AcDbLine
 10
-14407.784921227303
 20
-436.321392816716
 30
0.0
 11
-14407.25458174782
 21
-436.983767360689
 31
0.0
  0
LINE
  5
1D9
100
AcDbEntity
  8
Frei
  6
CONTINUOUS
 62
           3
100
AcDbLine
 10
-14407.122546683331
 20
-435.791053337234
 30
0.0
 11
-14407.784921227303
 21
-436.321392816716
 31
0.0
  0
LINE
  5
1DA
100
AcDbEntity
  8
Frei
  6
CONTINUOUS
 62
           3
100
AcDbLine
 10
-14425.013257035149
 20
-433.810527369876
 30
0.0
 11
-14407.122546683331
 21
-435.791053337234
 31
0.0
  0
LINE
  5
1DB
100
AcDbEntity
  8
Frei
  6
CONTINUOUS
 62
           3
100
AcDbLine
 10
-14424.482917555666
 20
-434.472901913849
 30
0.0
 11
-14425.013257035149
 21
-433.810527369876
 31
0.0
  0
LINE
  5
1DC
100
AcDbEntity
  8
Frei
  6
CONTINUOUS
 62
           3
100
AcDbLine
 10
-14407.564862786485
 20
-434.333536110959
 30
0.0
 11
-14424.262859114848
 21
-432.485045208091
 31
0.0
  0
LINE
  5
1DD
100
AcDbEntity
  8
Frei
  6
CONTINUOUS
 62
           3
100
AcDbLine
 10
-14424.925233658822
 20
-433.015384687573
 30
0.0
 11
-14424.262859114848
 21
-432.485045208091
 31
0.0
  0
LINE
  5
1DE
100
AcDbEntity
  8
Frei
  6
CONTINUOUS
 62
           3
100
AcDbLine
 10
-14407.034523307004
 20
-434.995910654931
 30
0.0
 11
-14424.925233658822
 21
-433.015384687573
 31
0.0
  0
LINE
  5
1DF
100
AcDbEntity
  8
Frei
  6
CONTINUOUS
 62
           3
100
AcDbLine
 10
-14407.564862786485
 20
-434.333536110959
 30
0.0
 11
-14407.034523307004
 21
-434.995910654931
 31
0.0
  0
LINE
  5
1E0
100
AcDbEntity
  8
Frei
  6
CONTINUOUS
 62
           3
100
AcDbLine
 10
-14406.902488242513
 20
-433.803196631477
 30
0.0
 11
-14407.564862786485
 21
-434.333536110959
 31
0.0
  0
LINE
  5
1E1
100
AcDbEntity
  8
Frei
  6
CONTINUOUS
 62
           3
100
AcDbLine
 10
-14424.793198594331
 20
-431.822670664119
 30
0.0
 11
-14406.902488242513
 21
-433.803196631477
 31
0.0
  0
LINE
  5
1E2
100
AcDbEntity
  8
Frei
  6
CONTINUOUS
 62
           3
100
AcDbLine
 10
-14424.262859114848
 20
-432.485045208091
 30
0.0
 11
-14424.793198594331
 21
-431.822670664119
 31
0.0
  0
LINE
  5
1E3
100
AcDbEntity
  8
Frei
  6
CONTINUOUS
 62
           3
100
AcDbLine
 10
-14424.042800674031
 20
-430.497188502334
 30
0.0
 11
-14407.344804345668
 21
-432.345679405202
 31
0.0
  0
LINE
  5
1E4
100
AcDbEntity
  8
Frei
  6
CONTINUOUS
 62
           3
100
AcDbLine
 10
-14424.042800674031
 20
-430.497188502334
 30
0.0
 11
-14424.705175218003
 21
-431.027527981816
 31
0.0
  0
LINE
  5
1E5
100
AcDbEntity
  8
Frei
  6
CONTINUOUS
 62
           3
100
AcDbLine
 10
-14424.573140153514
 20
-429.834813958362
 30
0.0
 11
-14424.042800674031
 21
-430.497188502334
 31
0.0
  0
LINE
  5
1E6
100
AcDbEntity
  8
Frei
  6
CONTINUOUS
 62
           3
100
AcDbLine
 10
-14406.682429801696
 20
-431.815339925719
 30
0.0
 11
-14424.573140153514
 21
-429.834813958362
 31
0.0
  0
LINE
  5
1E7
100
AcDbEntity
  8
Frei
  6
CONTINUOUS
 62
           3
100
AcDbLine
 10
-14407.344804345668
 20
-432.345679405202
 30
0.0
 11
-14406.682429801696
 21
-431.815339925719
 31
0.0
  0
LINE
  5
1E8
100
AcDbEntity
  8
Frei
  6
CONTINUOUS
 62
           3
100
AcDbLine
 10
-14406.814464866186
 20
-433.008053949174
 30
0.0
 11
-14407.344804345668
 21
-432.345679405202
 31
0.0
  0
LINE
  5
1E9
100
AcDbEntity
  8
Frei
  6
CONTINUOUS
 62
           3
100
AcDbLine
 10
-14424.705175218003
 20
-431.027527981816
 30
0.0
 11
-14406.814464866186
 21
-433.008053949174
 31
0.0
  0
LINE
  5
1EA
100
AcDbEntity
  8
Frei
  6
CONTINUOUS
 62
           3
100
AcDbLine
 10
-14234.864859818163
 20
-452.043109079891
 30
0.0
 11
-14216.974149466347
 21
-454.023635047249
 31
0.0
  0
LINE
  5
1EB
100
AcDbEntity
  8
Frei
  6
CONTINUOUS
 62
           3
100
AcDbLine
 10
-14234.202485274192
 20
-451.512769600409
 30
0.0
 11
-14234.864859818163
 21
-452.043109079891
 31
0.0
  0
LINE
  5
1EC
100
AcDbEntity
  8
Frei
  6
CONTINUOUS
 62
           3
100
AcDbLine
 10
-14234.732824753673
 20
-450.850395056437
 30
0.0
 11
-14234.202485274192
 21
-451.512769600409
 31
0.0
  0
LINE
  5
1ED
100
AcDbEntity
  8
Frei
  6
CONTINUOUS
 62
           3
100
AcDbLine
 10
-14216.842114401858
 20
-452.830921023795
 30
0.0
 11
-14234.732824753673
 21
-450.850395056437
 31
0.0
  0
LINE
  5
1EE
100
AcDbEntity
  8
Frei
  6
CONTINUOUS
 62
           3
100
AcDbLine
 10
-14217.50448894583
 20
-453.361260503277
 30
0.0
 11
-14216.842114401858
 21
-452.830921023795
 31
0.0
  0
LINE
  5
1EF
100
AcDbEntity
  8
Frei
  6
CONTINUOUS
 62
           3
100
AcDbLine
 10
-14216.974149466347
 20
-454.023635047249
 30
0.0
 11
-14217.50448894583
 21
-453.361260503277
 31
0.0
  0
LINE
  5
1F0
100
AcDbEntity
  8
Frei
  6
CONTINUOUS
 62
           3
100
AcDbLine
 10
-14234.202485274192
 20
-451.512769600409
 30
0.0
 11
-14217.50448894583
 21
-453.361260503277
 31
0.0
  0
LINE
  5
1F1
100
AcDbEntity
  8
Frei
  6
CONTINUOUS
 62
           3
100
AcDbLine
 10
-14217.062172842674
 20
-454.818777729552
 30
0.0
 11
-14217.724547386646
 21
-455.349117209034
 31
0.0
  0
LINE
  5
1F2
100
AcDbEntity
  8
Frei
  6
CONTINUOUS
 62
           3
100
AcDbLine
 10
-14234.95288319449
 20
-452.838251762194
 30
0.0
 11
-14217.062172842674
 21
-454.818777729552
 31
0.0
  0
LINE
  5
1F3
100
AcDbEntity
  8
Frei
  6
CONTINUOUS
 62
           3
100
AcDbLine
 10
-14234.422543715009
 20
-453.500626306167
 30
0.0
 11
-14234.95288319449
 21
-452.838251762194
 31
0.0
  0
LINE
  5
1F4
100
AcDbEntity
  8
Frei
  6
CONTINUOUS
 62
           3
100
AcDbLine
 10
-14235.084918258981
 20
-454.030965785649
 30
0.0
 11
-14234.422543715009
 21
-453.500626306167
 31
0.0
  0
LINE
  5
1F5
100
AcDbEntity
  8
Frei
  6
CONTINUOUS
 62
           3
100
AcDbLine
 10
-14217.194207907165
 20
-456.011491753007
 30
0.0
 11
-14235.084918258981
 21
-454.030965785649
 31
0.0
  0
LINE
  5
1F6
100
AcDbEntity
  8
Frei
  6
CONTINUOUS
 62
           3
100
AcDbLine
 10
-14217.724547386646
 20
-455.349117209034
 30
0.0
 11
-14217.194207907165
 21
-456.011491753007
 31
0.0
  0
LINE
  5
1F7
100
AcDbEntity
  8
Frei
  6
CONTINUOUS
 62
           3
100
AcDbLine
 10
-14217.724547386646
 20
-455.349117209034
 30
0.0
 11
-14234.422543715009
 21
-453.500626306167
 31
0.0
  0
LINE
  5
1F8
100
AcDbEntity
  8
Frei
  6
CONTINUOUS
 62
           3
100
AcDbLine
 10
-14217.282231283492
 20
-456.80663443531
 30
0.0
 11
-14217.944605827464
 21
-457.336973914792
 31
0.0
  0
LINE
  5
1F9
100
AcDbEntity
  8
Frei
  6
CONTINUOUS
 62
           3
100
AcDbLine
 10
-14235.172941635308
 20
-454.826108467952
 30
0.0
 11
-14217.282231283492
 21
-456.80663443531
 31
0.0
  0
LINE
  5
1FA
100
AcDbEntity
  8
Frei
  6
CONTINUOUS
 62
           3
100
AcDbLine
 10
-14234.642602155827
 20
-455.488483011924
 30
0.0
 11
-14235.172941635308
 21
-454.826108467952
 31
0.0
  0
LINE
  5
1FB
100
AcDbEntity
  8
Frei
  6
CONTINUOUS
 62
           3
100
AcDbLine
 10
-14235.304976699797
 20
-456.018822491406
 30
0.0
 11
-14234.642602155827
 21
-455.488483011924
 31
0.0
  0
LINE
  5
1FC
100
AcDbEntity
  8
Frei
  6
CONTINUOUS
 62
           3
100
AcDbLine
 10
-14217.414266347982
 20
-457.999348458764
 30
0.0
 11
-14235.304976699797
 21
-456.018822491406
 31
0.0
  0
LINE
  5
1FD
100
AcDbEntity
  8
Frei
  6
CONTINUOUS
 62
           3
100
AcDbLine
 10
-14217.944605827464
 20
-457.336973914792
 30
0.0
 11
-14217.414266347982
 21
-457.999348458764
 31
0.0
  0
LINE
  5
1FE
100
AcDbEntity
  8
Frei
  6
CONTINUOUS
 62
           3
100
AcDbLine
 10
-14217.502289724309
 20
-458.794491141067
 30
0.0
 11
-14218.164664268283
 21
-459.324830620549
 31
0.0
  0
LINE
  5
1FF
100
AcDbEntity
  8
Frei
  6
CONTINUOUS
 62
           3
100
AcDbLine
 10
-14223.558214956462
 20
-458.124091981794
 30
0.0
 11
-14217.502289724309
 21
-458.794491141067
 31
0.0
  0
LINE
  5
200
100
AcDbEntity
  8
Frei
  6
CONTINUOUS
 62
           3
100
AcDbLine
 10
-14234.862660596646
 20
-457.476339717682
 30
0.0
 11
-14235.393000076125
 21
-456.813965173709
 31
0.0
  0
LINE
  5
201
100
AcDbEntity
  8
Frei
  6
CONTINUOUS
 62
           3
100
AcDbLine
 10
-14235.525035140616
 20
-458.006679197164
 30
0.0
 11
-14234.862660596646
 21
-457.476339717682
 31
0.0
  0
LINE
  5
202
100
AcDbEntity
  8
Frei
  6
CONTINUOUS
 62
           3
100
AcDbLine
 10
-14229.469109908465
 20
-458.677078356437
 30
0.0
 11
-14235.525035140616
 21
-458.006679197164
 31
0.0
  0
LINE
  5
203
100
AcDbEntity
  8
Frei
  6
CONTINUOUS
 62
           3
100
AcDbLine
 10
-14218.164664268283
 20
-459.324830620549
 30
0.0
 11
-14217.6343247888
 21
-459.987205164522
 31
0.0
  0
LINE
  5
204
100
AcDbEntity
  8
Frei
  6
CONTINUOUS
 62
           3
100
AcDbLine
 10
-14217.722348165127
 20
-460.782347846825
 30
0.0
 11
-14218.384722709099
 21
-461.312687326307
 31
0.0
  0
LINE
  5
205
100
AcDbEntity
  8
Frei
  6
CONTINUOUS
 62
           3
100
AcDbLine
 10
-14223.03658805982
 20
-460.194054263102
 30
0.0
 11
-14217.722348165127
 21
-460.782347846825
 31
0.0
  0
LINE
  5
206
100
AcDbEntity
  8
Frei
  6
CONTINUOUS
 62
           3
100
AcDbLine
 10
-14235.082719037462
 20
-459.464196423439
 30
0.0
 11
-14235.613058516943
 21
-458.801821879467
 31
0.0
  0
LINE
  5
207
100
AcDbEntity
  8
Frei
  6
CONTINUOUS
 62
           3
100
AcDbLine
 10
-14224.220589500434
 20
-458.654431461276
 30
0.0
 11
-14218.164664268283
 21
-459.324830620549
 31
0.0
  0
LINE
  5
208
100
AcDbEntity
  8
Frei
  6
CONTINUOUS
 62
           3
100
AcDbLine
 10
-14234.642602155827
 20
-455.488483011924
 30
0.0
 11
-14217.944605827464
 21
-457.336973914792
 31
0.0
  0
LINE
  5
209
100
AcDbEntity
  8
Frei
  6
CONTINUOUS
 62
           3
100
AcDbLine
 10
-14224.220589500434
 20
-458.654431461276
 30
0.0
 11
-14223.690250020953
 21
-459.316806005249
 31
0.0
  0
LINE
  5
20A
100
AcDbEntity
  8
Frei
  6
CONTINUOUS
 62
           3
100
AcDbLine
 10
-14217.6343247888
 20
-459.987205164522
 30
0.0
 11
-14223.690250020953
 21
-459.316806005249
 31
0.0
  0
LINE
  5
20B
100
AcDbEntity
  8
Frei
  6
CONTINUOUS
 62
           3
100
AcDbLine
 10
-14223.558214956462
 20
-458.124091981794
 30
0.0
 11
-14224.220589500434
 21
-458.654431461276
 31
0.0
  0
LINE
  5
20C
100
AcDbEntity
  8
Frei
  6
CONTINUOUS
 62
           3
100
AcDbLine
 10
-14223.698962603792
 20
-460.724393742584
 30
0.0
 11
-14223.03658805982
 21
-460.194054263102
 31
0.0
  0
LINE
  5
20D
100
AcDbEntity
  8
Frei
  6
CONTINUOUS
 62
           3
100
AcDbLine
 10
-14230.298818622252
 20
-459.390115463189
 30
0.0
 11
-14229.768479142769
 21
-460.052490007161
 31
0.0
  0
LINE
  5
20E
100
AcDbEntity
  8
Frei
  6
CONTINUOUS
 62
           3
100
AcDbLine
 10
-14235.613058516943
 20
-458.801821879467
 30
0.0
 11
-14230.298818622252
 21
-459.390115463189
 31
0.0
  0
LINE
  5
20F
100
AcDbEntity
  8
Frei
  6
CONTINUOUS
 62
           3
100
AcDbLine
 10
-14228.806735364493
 20
-458.146738876955
 30
0.0
 11
-14229.469109908465
 21
-458.677078356437
 31
0.0
  0
LINE
  5
210
100
AcDbEntity
  8
Frei
  6
CONTINUOUS
 62
           3
100
AcDbLine
 10
-14234.862660596646
 20
-457.476339717682
 30
0.0
 11
-14228.806735364493
 21
-458.146738876955
 31
0.0
  0
LINE
  5
211
100
AcDbEntity
  8
Frei
  6
CONTINUOUS
 62
           3
100
AcDbLine
 10
-14229.337074843974
 20
-457.484364332982
 30
0.0
 11
-14228.806735364493
 21
-458.146738876955
 31
0.0
  0
LINE
  5
212
100
AcDbEntity
  8
Frei
  6
CONTINUOUS
 62
           3
100
AcDbLine
 10
-14235.393000076125
 20
-456.813965173709
 30
0.0
 11
-14229.337074843974
 21
-457.484364332982
 31
0.0
  0
LINE
  5
213
100
AcDbEntity
  8
Frei
  6
CONTINUOUS
 62
           3
100
AcDbLine
 10
-14217.6343247888
 20
-459.987205164522
 30
0.0
 11
-14217.502289724309
 21
-458.794491141067
 31
0.0
  0
LINE
  5
214
100
AcDbEntity
  8
Frei
  6
CONTINUOUS
 62
           3
100
AcDbLine
 10
-14217.282231283492
 20
-456.80663443531
 30
0.0
 11
-14217.414266347982
 21
-457.999348458764
 31
0.0
  0
LINE
  5
215
100
AcDbEntity
  8
Frei
  6
CONTINUOUS
 62
           3
100
AcDbLine
 10
-14217.062172842674
 20
-454.818777729552
 30
0.0
 11
-14217.194207907165
 21
-456.011491753007
 31
0.0
  0
LINE
  5
216
100
AcDbEntity
  8
Frei
  6
CONTINUOUS
 62
           3
100
AcDbLine
 10
-14216.842114401858
 20
-452.830921023795
 30
0.0
 11
-14216.974149466347
 21
-454.023635047249
 31
0.0
  0
LINE
  5
217
100
AcDbEntity
  8
Frei
  6
CONTINUOUS
 62
           3
100
AcDbLine
 10
-14217.788365697372
 20
-461.378704858552
 30
0.0
 11
-14217.722348165127
 21
-460.782347846825
 31
0.0
  0
LINE
  5
218
100
AcDbEntity
  8
Frei
  6
CONTINUOUS
 62
           3
100
AcDbLine
 10
-14235.613058516943
 20
-458.801821879467
 30
0.0
 11
-14235.679076049188
 21
-459.398178891194
 31
0.0
  0
LINE
  5
219
100
AcDbEntity
  8
Frei
  6
CONTINUOUS
 62
           3
100
AcDbLine
 10
-14235.393000076125
 20
-456.813965173709
 30
0.0
 11
-14235.525035140616
 21
-458.006679197164
 31
0.0
  0
LINE
  5
21A
100
AcDbEntity
  8
Frei
  6
CONTINUOUS
 62
           3
100
AcDbLine
 10
-14235.172941635308
 20
-454.826108467952
 30
0.0
 11
-14235.304976699797
 21
-456.018822491406
 31
0.0
  0
LINE
  5
21B
100
AcDbEntity
  8
Frei
  6
CONTINUOUS
 62
           3
100
AcDbLine
 10
-14234.95288319449
 20
-452.838251762194
 30
0.0
 11
-14235.084918258981
 21
-454.030965785649
 31
0.0
  0
LINE
  5
21C
100
AcDbEntity
  8
Frei
  6
CONTINUOUS
 62
           3
100
AcDbLine
 10
-14234.732824753673
 20
-450.850395056437
 30
0.0
 11
-14234.864859818163
 21
-452.043109079891
 31
0.0
  0
LINE
  5
21D
100
AcDbEntity
  8
Frei
  6
CONTINUOUS
 62
           3
100
AcDbLine
 10
-14236.493292280213
 20
-466.753248702497
 30
0.0
 11
-14236.625327344704
 21
-467.945962725951
 31
0.0
  0
LINE
  5
21E
100
AcDbEntity
  8
Frei
  6
CONTINUOUS
 62
           3
100
AcDbLine
 10
-14236.273233839396
 20
-464.765391996739
 30
0.0
 11
-14236.405268903885
 21
-465.958106020194
 31
0.0
  0
LINE
  5
21F
100
AcDbEntity
  8
Frei
  6
CONTINUOUS
 62
           3
100
AcDbLine
 10
-14236.053175398578
 20
-462.777535290982
 30
0.0
 11
-14236.185210463069
 21
-463.970249314436
 31
0.0
  0
LINE
  5
220
100
AcDbEntity
  8
Frei
  6
CONTINUOUS
 62
           3
100
AcDbLine
 10
-14235.83311695776
 20
-460.789678585224
 30
0.0
 11
-14235.965152022251
 21
-461.982392608679
 31
0.0
  0
LINE
  5
221
100
AcDbEntity
  8
Frei
  6
CONTINUOUS
 62
           3
100
AcDbLine
 10
-14235.679076049188
 20
-459.398178891194
 30
0.0
 11
-14235.745093581434
 21
-459.994535902921
 31
0.0
  0
LINE
  5
222
100
AcDbEntity
  8
Frei
  6
CONTINUOUS
 62
           3
100
AcDbLine
 10
-14217.854383229618
 20
-461.975061870279
 30
0.0
 11
-14217.788365697372
 21
-461.378704858552
 31
0.0
  0
LINE
  5
223
100
AcDbEntity
  8
Frei
  6
CONTINUOUS
 62
           3
100
AcDbLine
 10
-14218.602581928397
 20
-468.733774669855
 30
0.0
 11
-14218.734616992888
 21
-469.926488693309
 31
0.0
  0
LINE
  5
224
100
AcDbEntity
  8
Frei
  6
CONTINUOUS
 62
           3
100
AcDbLine
 10
-14218.38252348758
 20
-466.745917964097
 30
0.0
 11
-14218.51455855207
 21
-467.938631987552
 31
0.0
  0
LINE
  5
225
100
AcDbEntity
  8
Frei
  6
CONTINUOUS
 62
           3
100
AcDbLine
 10
-14218.162465046762
 20
-464.75806125834
 30
0.0
 11
-14218.294500111253
 21
-465.950775281794
 31
0.0
  0
LINE
  5
226
100
AcDbEntity
  8
Frei
  6
CONTINUOUS
 62
           3
100
AcDbLine
 10
-14218.074441670435
 20
-463.962918576037
 30
0.0
 11
-14217.942406605944
 21
-462.770204552582
 31
0.0
  0
LINE
  5
227
100
AcDbEntity
  8
Frei
  6
CONTINUOUS
 62
           3
100
AcDbLine
 10
-14229.9092267901
 20
-462.652791767952
 30
0.0
 11
-14235.965152022251
 21
-461.982392608679
 31
0.0
  0
LINE
  5
228
100
AcDbEntity
  8
Frei
  6
CONTINUOUS
 62
           3
100
AcDbLine
 10
-14229.246852246128
 20
-462.12245228847
 30
0.0
 11
-14229.9092267901
 21
-462.652791767952
 31
0.0
  0
LINE
  5
229
100
AcDbEntity
  8
Frei
  6
CONTINUOUS
 62
           3
100
AcDbLine
 10
-14229.246852246128
 20
-462.12245228847
 30
0.0
 11
-14235.30277747828
 21
-461.452053129197
 31
0.0
  0
LINE
  5
22A
100
AcDbEntity
  8
Frei
  6
CONTINUOUS
 62
           3
100
AcDbLine
 10
-14229.777191725609
 20
-461.460077744497
 30
0.0
 11
-14229.246852246128
 21
-462.12245228847
 31
0.0
  0
LINE
  5
22B
100
AcDbEntity
  8
Frei
  6
CONTINUOUS
 62
           3
100
AcDbLine
 10
-14230.430853686743
 20
-460.582829486644
 30
0.0
 11
-14235.745093581434
 21
-459.994535902921
 31
0.0
  0
LINE
  5
22C
100
AcDbEntity
  8
Frei
  6
CONTINUOUS
 62
           3
100
AcDbLine
 10
-14229.768479142769
 20
-460.052490007161
 30
0.0
 11
-14230.430853686743
 21
-460.582829486644
 31
0.0
  0
LINE
  5
22D
100
AcDbEntity
  8
Frei
  6
CONTINUOUS
 62
           3
100
AcDbLine
 10
-14223.698962603792
 20
-460.724393742584
 30
0.0
 11
-14218.384722709099
 21
-461.312687326307
 31
0.0
  0
LINE
  5
22E
100
AcDbEntity
  8
Frei
  6
CONTINUOUS
 62
           3
100
AcDbLine
 10
-14223.168623124311
 20
-461.386768286557
 30
0.0
 11
-14223.698962603792
 21
-460.724393742584
 31
0.0
  0
LINE
  5
22F
100
AcDbEntity
  8
Frei
  6
CONTINUOUS
 62
           3
100
AcDbLine
 10
-14224.660706382068
 20
-462.630144872791
 30
0.0
 11
-14224.130366902587
 21
-463.292519416764
 31
0.0
  0
LINE
  5
230
100
AcDbEntity
  8
Frei
  6
CONTINUOUS
 62
           3
100
AcDbLine
 10
-14223.998331838096
 20
-462.099805393309
 30
0.0
 11
-14217.942406605944
 21
-462.770204552582
 31
0.0
  0
LINE
  5
231
100
AcDbEntity
  8
Frei
  6
CONTINUOUS
 62
           3
100
AcDbLine
 10
-14223.998331838096
 20
-462.099805393309
 30
0.0
 11
-14224.660706382068
 21
-462.630144872791
 31
0.0
  0
LINE
  5
232
100
AcDbEntity
  8
Frei
  6
CONTINUOUS
 62
           3
100
AcDbLine
 10
-14218.824839590734
 20
-465.288400737822
 30
0.0
 11
-14235.522835919097
 21
-463.439909834954
 31
0.0
  0
LINE
  5
233
100
AcDbEntity
  8
Frei
  6
CONTINUOUS
 62
           3
100
AcDbLine
 10
-14218.604781149917
 20
-463.300544032064
 30
0.0
 11
-14224.660706382068
 21
-462.630144872791
 31
0.0
  0
LINE
  5
234
100
AcDbEntity
  8
Frei
  6
CONTINUOUS
 62
           3
100
AcDbLine
 10
-14235.082719037462
 20
-459.464196423439
 30
0.0
 11
-14229.768479142769
 21
-460.052490007161
 31
0.0
  0
LINE
  5
235
100
AcDbEntity
  8
Frei
  6
CONTINUOUS
 62
           3
100
AcDbLine
 10
-14235.745093581434
 20
-459.994535902921
 30
0.0
 11
-14235.082719037462
 21
-459.464196423439
 31
0.0
  0
LINE
  5
236
100
AcDbEntity
  8
Frei
  6
CONTINUOUS
 62
           3
100
AcDbLine
 10
-14217.854383229618
 20
-461.975061870279
 30
0.0
 11
-14223.168623124311
 21
-461.386768286557
 31
0.0
  0
LINE
  5
237
100
AcDbEntity
  8
Frei
  6
CONTINUOUS
 62
           3
100
AcDbLine
 10
-14218.384722709099
 20
-461.312687326307
 30
0.0
 11
-14217.854383229618
 21
-461.975061870279
 31
0.0
  0
LINE
  5
238
100
AcDbEntity
  8
Frei
  6
CONTINUOUS
 62
           3
100
AcDbLine
 10
-14217.942406605944
 20
-462.770204552582
 30
0.0
 11
-14218.604781149917
 21
-463.300544032064
 31
0.0
  0
LINE
  5
239
100
AcDbEntity
  8
Frei
  6
CONTINUOUS
 62
           3
100
AcDbLine
 10
-14235.83311695776
 20
-460.789678585224
 30
0.0
 11
-14229.777191725609
 21
-461.460077744497
 31
0.0
  0
LINE
  5
23A
100
AcDbEntity
  8
Frei
  6
CONTINUOUS
 62
           3
100
AcDbLine
 10
-14235.30277747828
 20
-461.452053129197
 30
0.0
 11
-14235.83311695776
 21
-460.789678585224
 31
0.0
  0
LINE
  5
23B
100
AcDbEntity
  8
Frei
  6
CONTINUOUS
 62
           3
100
AcDbLine
 10
-14235.965152022251
 20
-461.982392608679
 30
0.0
 11
-14235.30277747828
 21
-461.452053129197
 31
0.0
  0
LINE
  5
23C
100
AcDbEntity
  8
Frei
  6
CONTINUOUS
 62
           3
100
AcDbLine
 10
-14218.074441670435
 20
-463.962918576037
 30
0.0
 11
-14224.130366902587
 21
-463.292519416764
 31
0.0
  0
LINE
  5
23D
100
AcDbEntity
  8
Frei
  6
CONTINUOUS
 62
           3
100
AcDbLine
 10
-14218.604781149917
 20
-463.300544032064
 30
0.0
 11
-14218.074441670435
 21
-463.962918576037
 31
0.0
  0
LINE
  5
23E
100
AcDbEntity
  8
Frei
  6
CONTINUOUS
 62
           3
100
AcDbLine
 10
-14218.162465046762
 20
-464.75806125834
 30
0.0
 11
-14218.824839590734
 21
-465.288400737822
 31
0.0
  0
LINE
  5
23F
100
AcDbEntity
  8
Frei
  6
CONTINUOUS
 62
           3
100
AcDbLine
 10
-14236.053175398578
 20
-462.777535290982
 30
0.0
 11
-14218.162465046762
 21
-464.75806125834
 31
0.0
  0
LINE
  5
240
100
AcDbEntity
  8
Frei
  6
CONTINUOUS
 62
           3
100
AcDbLine
 10
-14235.522835919097
 20
-463.439909834954
 30
0.0
 11
-14236.053175398578
 21
-462.777535290982
 31
0.0
  0
LINE
  5
241
100
AcDbEntity
  8
Frei
  6
CONTINUOUS
 62
           3
100
AcDbLine
 10
-14236.185210463069
 20
-463.970249314436
 30
0.0
 11
-14235.522835919097
 21
-463.439909834954
 31
0.0
  0
LINE
  5
242
100
AcDbEntity
  8
Frei
  6
CONTINUOUS
 62
           3
100
AcDbLine
 10
-14218.294500111253
 20
-465.950775281794
 30
0.0
 11
-14236.185210463069
 21
-463.970249314436
 31
0.0
  0
LINE
  5
243
100
AcDbEntity
  8
Frei
  6
CONTINUOUS
 62
           3
100
AcDbLine
 10
-14218.824839590734
 20
-465.288400737822
 30
0.0
 11
-14218.294500111253
 21
-465.950775281794
 31
0.0
  0
LINE
  5
244
100
AcDbEntity
  8
Frei
  6
CONTINUOUS
 62
           3
100
AcDbLine
 10
-14235.742894359915
 20
-465.427766540711
 30
0.0
 11
-14219.044898031552
 21
-467.276257443579
 31
0.0
  0
LINE
  5
245
100
AcDbEntity
  8
Frei
  6
CONTINUOUS
 62
           3
100
AcDbLine
 10
-14218.38252348758
 20
-466.745917964097
 30
0.0
 11
-14219.044898031552
 21
-467.276257443579
 31
0.0
  0
LINE
  5
246
100
AcDbEntity
  8
Frei
  6
CONTINUOUS
 62
           3
100
AcDbLine
 10
-14236.273233839396
 20
-464.765391996739
 30
0.0
 11
-14218.38252348758
 21
-466.745917964097
 31
0.0
  0
LINE
  5
247
100
AcDbEntity
  8
Frei
  6
CONTINUOUS
 62
           3
100
AcDbLine
 10
-14235.742894359915
 20
-465.427766540711
 30
0.0
 11
-14236.273233839396
 21
-464.765391996739
 31
0.0
  0
LINE
  5
248
100
AcDbEntity
  8
Frei
  6
CONTINUOUS
 62
           3
100
AcDbLine
 10
-14236.405268903885
 20
-465.958106020194
 30
0.0
 11
-14235.742894359915
 21
-465.427766540711
 31
0.0
  0
LINE
  5
249
100
AcDbEntity
  8
Frei
  6
CONTINUOUS
 62
           3
100
AcDbLine
 10
-14218.51455855207
 20
-467.938631987552
 30
0.0
 11
-14236.405268903885
 21
-465.958106020194
 31
0.0
  0
LINE
  5
24A
100
AcDbEntity
  8
Frei
  6
CONTINUOUS
 62
           3
100
AcDbLine
 10
-14219.044898031552
 20
-467.276257443579
 30
0.0
 11
-14218.51455855207
 21
-467.938631987552
 31
0.0
  0
LINE
  5
24B
100
AcDbEntity
  8
Frei
  6
CONTINUOUS
 62
           3
100
AcDbLine
 10
-14219.264956472371
 20
-469.264114149337
 30
0.0
 11
-14235.962952800734
 21
-467.415623246469
 31
0.0
  0
LINE
  5
24C
100
AcDbEntity
  8
Frei
  6
CONTINUOUS
 62
           3
100
AcDbLine
 10
-14219.264956472371
 20
-469.264114149337
 30
0.0
 11
-14218.602581928397
 21
-468.733774669855
 31
0.0
  0
LINE
  5
24D
100
AcDbEntity
  8
Frei
  6
CONTINUOUS
 62
           3
100
AcDbLine
 10
-14218.734616992888
 20
-469.926488693309
 30
0.0
 11
-14219.264956472371
 21
-469.264114149337
 31
0.0
  0
LINE
  5
24E
100
AcDbEntity
  8
Frei
  6
CONTINUOUS
 62
           3
100
AcDbLine
 10
-14236.625327344704
 20
-467.945962725951
 30
0.0
 11
-14218.734616992888
 21
-469.926488693309
 31
0.0
  0
LINE
  5
24F
100
AcDbEntity
  8
Frei
  6
CONTINUOUS
 62
           3
100
AcDbLine
 10
-14235.962952800734
 20
-467.415623246469
 30
0.0
 11
-14236.625327344704
 21
-467.945962725951
 31
0.0
  0
LINE
  5
250
100
AcDbEntity
  8
Frei
  6
CONTINUOUS
 62
           3
100
AcDbLine
 10
-14236.493292280213
 20
-466.753248702497
 30
0.0
 11
-14235.962952800734
 21
-467.415623246469
 31
0.0
  0
LINE
  5
251
100
AcDbEntity
  8
Frei
  6
CONTINUOUS
 62
           3
100
AcDbLine
 10
-14218.602581928397
 20
-468.733774669855
 30
0.0
 11
-14236.493292280213
 21
-466.753248702497
 31
0.0
  0
LINE
  5
252
100
AcDbEntity
  8
Frei
  6
CONTINUOUS
 62
           7
100
AcDbLine
 10
-14193.037115524634
 20
-476.311534645707
 30
0.0
 11
-14192.429794902564
 21
-477.696165728378
 31
0.0
  0
LINE
  5
253
100
AcDbEntity
  8
Frei
  6
CONTINUOUS
 62
           7
100
AcDbLine
 10
-14193.037115524634
 20
-476.311534645707
 30
0.0
 11
-14197.255364287279
 21
-475.844568770854
 31
0.0
  0
LINE
  5
254
100
AcDbEntity
  8
Frei
  6
CONTINUOUS
 62
           7
100
AcDbLine
 10
-14191.997577763528
 20
-473.791813161937
 30
0.0
 11
-14193.037115524634
 21
-476.311534645707
 31
0.0
  0
LINE
  5
255
100
AcDbEntity
  8
Frei
  6
CONTINUOUS
 62
           7
100
AcDbLine
 10
-14192.020709124286
 20
-467.130017812271
 30
0.0
 11
-14191.557460881893
 21
-469.816099750422
 31
0.0
  0
LINE
  5
256
100
AcDbEntity
  8
Frei
  6
CONTINUOUS
 62
           7
100
AcDbLine
 10
-14192.020709124286
 20
-467.130017812271
 30
0.0
 11
-14196.238957886932
 21
-466.663051937418
 31
0.0
  0
LINE
  5
257
100
AcDbEntity
  8
Frei
  6
CONTINUOUS
 62
           7
100
AcDbLine
 10
-14191.125243742859
 20
-465.911747183982
 30
0.0
 11
-14192.020709124286
 21
-467.130017812271
 31
0.0
  0
LINE
  5
258
100
AcDbEntity
  8
Frei
  6
CONTINUOUS
 62
           7
100
AcDbLine
 10
-14192.649853343381
 20
-479.684022434135
 30
0.0
 11
-14193.545318724808
 21
-480.902293062425
 31
0.0
  0
LINE
  5
259
100
AcDbEntity
  8
Frei
  6
CONTINUOUS
 62
           7
100
AcDbLine
 10
-14191.512505924113
 20
-462.539259395553
 30
0.0
 11
-14195.730754686758
 21
-462.0722935207
 31
0.0
  0
LINE
  5
25A
100
AcDbEntity
  8
Frei
  6
CONTINUOUS
 62
           7
100
AcDbLine
 10
-14191.512505924113
 20
-462.539259395553
 30
0.0
 11
-14190.905185302043
 21
-463.923890478224
 31
0.0
  0
LINE
  5
25B
100
AcDbEntity
  8
Frei
  6
CONTINUOUS
 62
           7
100
AcDbLine
 10
-14197.619495107774
 20
-479.133876332092
 30
0.0
 11
-14197.763567487453
 21
-480.435327187572
 31
0.0
  0
LINE
  5
25C
100
AcDbEntity
  8
Frei
  6
CONTINUOUS
 62
           7
100
AcDbLine
 10
-14192.649853343381
 20
-479.684022434135
 30
0.0
 11
-14192.429794902564
 21
-477.696165728378
 31
0.0
  0
LINE
  5
25D
100
AcDbEntity
  8
Frei
  6
CONTINUOUS
 62
           7
100
AcDbLine
 10
-14192.649853343381
 20
-479.684022434135
 30
0.0
 11
-14197.619495107774
 21
-479.133876332092
 31
0.0
  0
LINE
  5
25E
100
AcDbEntity
  8
Frei
  6
CONTINUOUS
 62
           7
100
AcDbLine
 10
-14197.399436666958
 20
-477.146019626334
 30
0.0
 11
-14197.619495107774
 21
-479.133876332092
 31
0.0
  0
LINE
  5
25F
100
AcDbEntity
  8
Frei
  6
CONTINUOUS
 62
           7
100
AcDbLine
 10
-14192.429794902564
 20
-477.696165728378
 30
0.0
 11
-14191.997577763528
 21
-473.791813161937
 31
0.0
  0
LINE
  5
260
100
AcDbEntity
  8
Frei
  6
CONTINUOUS
 62
           7
100
AcDbLine
 10
-14192.429794902564
 20
-477.696165728378
 30
0.0
 11
-14197.399436666958
 21
-477.146019626334
 31
0.0
  0
LINE
  5
261
100
AcDbEntity
  8
Frei
  6
CONTINUOUS
 62
           7
100
AcDbLine
 10
-14197.255364287279
 20
-475.844568770854
 30
0.0
 11
-14197.399436666958
 21
-477.146019626334
 31
0.0
  0
LINE
  5
262
100
AcDbEntity
  8
Frei
  6
CONTINUOUS
 62
           7
100
AcDbLine
 10
-14196.967219527922
 20
-473.241667059893
 30
0.0
 11
-14197.255364287279
 21
-475.844568770854
 31
0.0
  0
LINE
  5
263
100
AcDbEntity
  8
Frei
  6
CONTINUOUS
 62
           7
100
AcDbLine
 10
-14191.997577763528
 20
-473.791813161937
 30
0.0
 11
-14191.557460881893
 21
-469.816099750422
 31
0.0
  0
LINE
  5
264
100
AcDbEntity
  8
Frei
  6
CONTINUOUS
 62
           7
100
AcDbLine
 10
-14191.997577763528
 20
-473.791813161937
 30
0.0
 11
-14196.967219527922
 21
-473.241667059893
 31
0.0
  0
LINE
  5
265
100
AcDbEntity
  8
Frei
  6
CONTINUOUS
 62
           7
100
AcDbLine
 10
-14196.527102646287
 20
-469.265953648378
 30
0.0
 11
-14196.967219527922
 21
-473.241667059893
 31
0.0
  0
LINE
  5
266
100
AcDbEntity
  8
Frei
  6
CONTINUOUS
 62
           7
100
AcDbLine
 10
-14191.557460881893
 20
-469.816099750422
 30
0.0
 11
-14191.125243742859
 21
-465.911747183982
 31
0.0
  0
LINE
  5
267
100
AcDbEntity
  8
Frei
  6
CONTINUOUS
 62
           7
100
AcDbLine
 10
-14191.557460881893
 20
-469.816099750422
 30
0.0
 11
-14196.527102646287
 21
-469.265953648378
 31
0.0
  0
LINE
  5
268
100
AcDbEntity
  8
Frei
  6
CONTINUOUS
 62
           7
100
AcDbLine
 10
-14196.238957886932
 20
-466.663051937418
 30
0.0
 11
-14196.527102646287
 21
-469.265953648378
 31
0.0
  0
LINE
  5
269
100
AcDbEntity
  8
Frei
  6
CONTINUOUS
 62
           7
100
AcDbLine
 10
-14196.094885507253
 20
-465.361601081938
 30
0.0
 11
-14196.238957886932
 21
-466.663051937418
 31
0.0
  0
LINE
  5
26A
100
AcDbEntity
  8
Frei
  6
CONTINUOUS
 62
           7
100
AcDbLine
 10
-14191.125243742859
 20
-465.911747183982
 30
0.0
 11
-14190.905185302043
 21
-463.923890478224
 31
0.0
  0
LINE
  5
26B
100
AcDbEntity
  8
Frei
  6
CONTINUOUS
 62
           7
100
AcDbLine
 10
-14191.125243742859
 20
-465.911747183982
 30
0.0
 11
-14196.094885507253
 21
-465.361601081938
 31
0.0
  0
LINE
  5
26C
100
AcDbEntity
  8
Frei
  6
CONTINUOUS
 62
           7
100
AcDbLine
 10
-14195.874827066436
 20
-463.37374437618
 30
0.0
 11
-14196.094885507253
 21
-465.361601081938
 31
0.0
  0
LINE
  5
26D
100
AcDbEntity
  8
Frei
  6
CONTINUOUS
 62
           7
100
AcDbLine
 10
-14195.874827066436
 20
-463.37374437618
 30
0.0
 11
-14190.905185302043
 21
-463.923890478224
 31
0.0
  0
LINE
  5
26E
100
AcDbEntity
  8
Frei
  6
CONTINUOUS
 62
           7
100
AcDbLine
 10
-14197.763567487453
 20
-480.435327187572
 30
0.0
 11
-14193.545318724808
 21
-480.902293062425
 31
0.0
  0
LINE
  5
26F
100
AcDbEntity
  8
Frei
  6
CONTINUOUS
 62
           7
100
AcDbLine
 10
-14195.730754686758
 20
-462.0722935207
 30
0.0
 11
-14195.874827066436
 21
-463.37374437618
 31
0.0
  0
LINE
  5
270
100
AcDbEntity
  8
Frei
  6
CONTINUOUS
 62
           7
100
AcDbLine
 10
-14239.115639466259
 20
-426.822267056213
 30
0.0
 11
-14239.693292873406
 21
-432.040390908826
 31
0.0
  0
LINE
  5
271
100
AcDbEntity
  8
Frei
  6
CONTINUOUS
 62
           7
100
AcDbLine
 10
-14238.394951479802
 20
-433.944809356977
 30
0.0
 11
-14238.009849208373
 21
-430.466060121902
 31
0.0
  0
LINE
  5
272
100
AcDbEntity
  8
Frei
  6
CONTINUOUS
 62
           7
100
AcDbLine
 10
-14239.146350039315
 20
-433.861628514535
 30
0.0
 11
-14238.394951479802
 21
-433.944809356977
 31
0.0
  0
LINE
  5
273
100
AcDbEntity
  8
Frei
  6
CONTINUOUS
 62
           7
100
AcDbLine
 10
-14238.009849208373
 20
-430.466060121902
 30
0.0
 11
-14237.239644665511
 21
-423.508561651751
 31
0.0
  0
LINE
  5
274
100
AcDbEntity
  8
Frei
  6
CONTINUOUS
 62
           7
100
AcDbLine
 10
-14238.761247767885
 20
-430.38287927946
 30
0.0
 11
-14238.009849208373
 21
-430.466060121902
 31
0.0
  0
LINE
  5
275
100
AcDbEntity
  8
Frei
  6
CONTINUOUS
 62
           7
100
AcDbLine
 10
-14237.239644665511
 20
-423.508561651751
 30
0.0
 11
-14236.85454239408
 21
-420.029812416675
 31
0.0
  0
LINE
  5
276
100
AcDbEntity
  8
Frei
  6
CONTINUOUS
 62
           7
100
AcDbLine
 10
-14237.991043225024
 20
-423.425380809309
 30
0.0
 11
-14237.239644665511
 21
-423.508561651751
 31
0.0
  0
LINE
  5
277
100
AcDbEntity
  8
Frei
  6
CONTINUOUS
 62
           7
100
AcDbLine
 10
-14236.85454239408
 20
-420.029812416675
 30
0.0
 11
-14236.249381681831
 21
-414.563206475842
 31
0.0
  0
LINE
  5
278
100
AcDbEntity
  8
Frei
  6
CONTINUOUS
 62
           7
100
AcDbLine
 10
-14237.605940953592
 20
-419.946631574233
 30
0.0
 11
-14236.85454239408
 21
-420.029812416675
 31
0.0
  0
LINE
  5
279
100
AcDbEntity
  8
Frei
  6
CONTINUOUS
 62
           7
100
AcDbLine
 10
-14202.376978173952
 20
-476.667234369364
 30
0.0
 11
-14201.056627529046
 21
-464.740094134819
 31
0.0
  0
LINE
  5
27A
100
AcDbEntity
  8
Frei
  6
CONTINUOUS
 62
           2
100
AcDbLine
 10
-14197.407336409558
 20
-477.217380471408
 30
0.0
 11
-14202.376978173952
 21
-476.667234369364
 31
0.0
  0
LINE
  5
27B
100
AcDbEntity
  8
Frei
  6
CONTINUOUS
 62
           7
100
AcDbLine
 10
-14201.056627529046
 20
-464.740094134819
 30
0.0
 11
-14200.946598308637
 21
-463.74616578194
 31
0.0
  0
LINE
  5
27C
100
AcDbEntity
  8
Frei
  6
CONTINUOUS
 62
           2
100
AcDbLine
 10
-14196.086985764652
 20
-465.290240236863
 30
0.0
 11
-14201.056627529046
 21
-464.740094134819
 31
0.0
  0
LINE
  5
27D
100
AcDbEntity
  8
Frei
  6
CONTINUOUS
 62
           7
100
AcDbLine
 10
-14202.48700739436
 20
-477.661162722243
 30
0.0
 11
-14202.376978173952
 21
-476.667234369364
 31
0.0
  0
LINE
  5
27E
100
AcDbEntity
  8
Frei
  6
CONTINUOUS
 62
           7
100
AcDbLine
 10
-14202.48700739436
 20
-477.661162722243
 30
0.0
 11
-14197.517365629967
 21
-478.211308824287
 31
0.0
  0
LINE
  5
27F
100
AcDbEntity
  8
Frei
  6
CONTINUOUS
 62
           7
100
AcDbLine
 10
-14200.946598308637
 20
-463.74616578194
 30
0.0
 11
-14200.891583698432
 21
-463.249201605501
 31
0.0
  0
LINE
  5
280
100
AcDbEntity
  8
Frei
  6
CONTINUOUS
 62
           7
100
AcDbLine
 10
-14200.946598308637
 20
-463.74616578194
 30
0.0
 11
-14195.976956544244
 21
-464.296311883984
 31
0.0
  0
LINE
  5
281
100
AcDbEntity
  8
Frei
  6
CONTINUOUS
 62
           7
100
AcDbLine
 10
-14221.832929852959
 20
-475.519542795572
 30
0.0
 11
-14240.753248980192
 21
-473.425037736505
 31
0.0
  0
LINE
  5
282
100
AcDbEntity
  8
Frei
  6
CONTINUOUS
 62
           7
100
AcDbLine
 10
-14214.634206069721
 20
-478.328668783095
 30
0.0
 11
-14221.832929852959
 21
-475.519542795572
 31
0.0
  0
LINE
  5
283
100
AcDbEntity
  8
Frei
  6
CONTINUOUS
 62
           7
100
AcDbLine
 10
-14239.053294117655
 20
-444.436071672409
 30
0.0
 11
-14239.550258294095
 21
-444.381057062204
 31
0.0
  0
LINE
  5
284
100
AcDbEntity
  8
Frei
  6
CONTINUOUS
 62
           7
100
AcDbLine
 10
-14239.053294117655
 20
-444.436071672409
 30
0.0
 11
-14242.079097678896
 21
-471.769101376574
 31
0.0
  0
LINE
  5
285
100
AcDbEntity
  8
Frei
  6
CONTINUOUS
 62
           7
100
AcDbLine
 10
-14221.832929852959
 20
-475.519542795572
 30
0.0
 11
-14215.905040158223
 21
-476.175768246724
 31
0.0
  0
LINE
  5
286
100
AcDbEntity
  8
Frei
  6
CONTINUOUS
 62
           7
100
AcDbLine
 10
-14211.22330023705
 20
-447.516889843854
 30
0.0
 11
-14239.053294117655
 21
-444.436071672409
 31
0.0
  0
LINE
  5
287
100
AcDbEntity
  8
Frei
  6
CONTINUOUS
 62
           7
100
AcDbLine
 10
-14211.22330023705
 20
-447.516889843854
 30
0.0
 11
-14214.249103798291
 21
-474.849919548019
 31
0.0
  0
LINE
  5
288
100
AcDbEntity
  8
Frei
  6
CONTINUOUS
 62
           7
100
AcDbLine
 10
-14214.634206069721
 20
-478.328668783095
 30
0.0
 11
-14204.197958364495
 21
-479.483975597387
 31
0.0
  0
LINE
  5
289
100
AcDbEntity
  8
Frei
  6
CONTINUOUS
 62
           7
100
AcDbLine
 10
-14202.542022004565
 20
-478.158126898682
 30
0.0
 11
-14202.48700739436
 21
-477.661162722243
 31
0.0
  0
LINE
  5
28A
100
AcDbEntity
  8
Frei
  6
CONTINUOUS
 62
           7
100
AcDbLine
 10
-14212.653680102363
 20
-460.437958431278
 30
0.0
 11
-14202.217432397138
 21
-461.59326524557
 31
0.0
  0
LINE
  5
28B
100
AcDbEntity
  8
Frei
  6
CONTINUOUS
 62
           7
100
AcDbLine
 10
-14239.550258294095
 20
-444.381057062204
 30
0.0
 11
-14239.440229073685
 21
-443.387128709325
 31
0.0
  0
LINE
  5
28C
100
AcDbEntity
  8
Frei
  6
CONTINUOUS
 62
           7
100
AcDbLine
 10
-14210.726336060612
 20
-447.571904454059
 30
0.0
 11
-14211.22330023705
 21
-447.516889843854
 31
0.0
  0
LINE
  5
28D
100
AcDbEntity
  8
Frei
  6
CONTINUOUS
 62
           7
100
AcDbLine
 10
-14210.616306840202
 20
-446.57797610118
 30
0.0
 11
-14210.726336060612
 21
-447.571904454059
 31
0.0
  0
LINE
  5
28E
100
AcDbEntity
  8
Frei
  6
CONTINUOUS
 62
           7
100
AcDbLine
 10
-14210.616306840202
 20
-446.57797610118
 30
0.0
 11
-14239.440229073685
 21
-443.387128709325
 31
0.0
  0
LINE
  5
28F
100
AcDbEntity
  8
Frei
  6
CONTINUOUS
 62
           7
100
AcDbLine
 10
-14207.810561719778
 20
-421.232803102772
 30
0.0
 11
-14207.749394260702
 21
-420.680258318535
 31
0.0
  0
LINE
  5
290
100
AcDbEntity
  8
Frei
  6
CONTINUOUS
 62
           7
100
AcDbLine
 10
-14236.249381681831
 20
-414.563206475842
 30
0.0
 11
-14209.447951380749
 21
-418.481234049385
 31
0.0
  0
LINE
  5
291
100
AcDbEntity
  8
Frei
  6
CONTINUOUS
 62
           7
100
AcDbLine
 10
-14204.051241379882
 20
-432.716161086482
 30
0.0
 11
-14204.106255990086
 21
-433.213125262921
 31
0.0
  0
LINE
  5
292
100
AcDbEntity
  8
Frei
  6
CONTINUOUS
 62
           1
100
AcDbLine
 10
-14204.051241379882
 20
-432.716161086482
 30
0.0
 11
-14206.524483933958
 21
-432.44236977213
 31
0.0
  0
LINE
  5
293
100
AcDbEntity
  8
Frei
  6
CONTINUOUS
 62
           7
100
AcDbLine
 10
-14203.611124498246
 20
-428.740447674967
 30
0.0
 11
-14204.051241379882
 21
-432.716161086482
 31
0.0
  0
LINE
  5
294
100
AcDbEntity
  8
Frei
  6
CONTINUOUS
 62
           1
100
AcDbLine
 10
-14203.611124498246
 20
-428.740447674967
 30
0.0
 11
-14206.084367052321
 21
-428.466656360614
 31
0.0
  0
LINE
  5
295
100
AcDbEntity
  8
Frei
  6
CONTINUOUS
 62
           7
100
AcDbLine
 10
-14204.106255990086
 20
-433.213125262921
 30
0.0
 11
-14204.161270600291
 21
-433.710089439361
 31
0.0
  0
LINE
  5
296
100
AcDbEntity
  8
Frei
  6
CONTINUOUS
 62
           1
100
AcDbLine
 10
-14204.106255990086
 20
-433.213125262921
 30
0.0
 11
-14206.579498544161
 21
-432.939333948569
 31
0.0
  0
LINE
  5
297
100
AcDbEntity
  8
Frei
  6
CONTINUOUS
 62
           7
100
AcDbLine
 10
-14203.556109888043
 20
-428.243483498528
 30
0.0
 11
-14203.611124498246
 21
-428.740447674967
 31
0.0
  0
LINE
  5
298
100
AcDbEntity
  8
Frei
  6
CONTINUOUS
 62
           1
100
AcDbLine
 10
-14203.556109888043
 20
-428.243483498528
 30
0.0
 11
-14206.029352442118
 21
-427.969692184175
 31
0.0
  0
LINE
  5
299
100
AcDbEntity
  8
Frei
  6
CONTINUOUS
 62
           7
100
AcDbLine
 10
-14205.155198953169
 20
-433.600060218952
 30
0.0
 11
-14204.495023630716
 21
-427.63649010168
 31
0.0
  0
LINE
  5
29A
100
AcDbEntity
  8
Frei
  6
CONTINUOUS
 62
           2
100
AcDbLine
 10
-14204.161270600291
 20
-433.710089439361
 30
0.0
 11
-14205.155198953169
 21
-433.600060218952
 31
0.0
  0
LINE
  5
29B
100
AcDbEntity
  8
Frei
  6
CONTINUOUS
 62
           7
100
AcDbLine
 10
-14204.495023630716
 20
-427.63649010168
 30
0.0
 11
-14204.384994410308
 21
-426.642561748801
 31
0.0
  0
LINE
  5
29C
100
AcDbEntity
  8
Frei
  6
CONTINUOUS
 62
           2
100
AcDbLine
 10
-14203.501095277838
 20
-427.746519322088
 30
0.0
 11
-14204.495023630716
 21
-427.63649010168
 31
0.0
  0
LINE
  5
29D
100
AcDbEntity
  8
Frei
  6
CONTINUOUS
 62
           7
100
AcDbLine
 10
-14205.265228173577
 20
-434.593988571831
 30
0.0
 11
-14205.155198953169
 21
-433.600060218952
 31
0.0
  0
LINE
  5
29E
100
AcDbEntity
  8
Frei
  6
CONTINUOUS
 62
           7
100
AcDbLine
 10
-14204.161270600291
 20
-433.710089439361
 30
0.0
 11
-14205.265228173577
 21
-434.593988571831
 31
0.0
  0
LINE
  5
29F
100
AcDbEntity
  8
Frei
  6
CONTINUOUS
 62
           7
100
AcDbLine
 10
-14203.501095277838
 20
-427.746519322088
 30
0.0
 11
-14203.556109888043
 21
-428.243483498528
 31
0.0
  0
LINE
  5
2A0
100
AcDbEntity
  8
Frei
  6
CONTINUOUS
 62
           7
100
AcDbLine
 10
-14204.384994410308
 20
-426.642561748801
 30
0.0
 11
-14203.834848308263
 21
-421.672919984407
 31
0.0
  0
LINE
  5
2A1
100
AcDbEntity
  8
Frei
  6
CONTINUOUS
 62
           7
100
AcDbLine
 10
-14204.384994410308
 20
-426.642561748801
 30
0.0
 11
-14203.501095277838
 21
-427.746519322088
 31
0.0
  0
LINE
  5
2A2
100
AcDbEntity
  8
Frei
  6
CONTINUOUS
 62
           7
100
AcDbLine
 10
-14239.440229073685
 20
-443.387128709325
 30
0.0
 11
-14238.394951479802
 21
-433.944809356977
 31
0.0
  0
LINE
  5
2A3
100
AcDbEntity
  8
Frei
  6
CONTINUOUS
 62
           7
100
AcDbLine
 10
-14209.791087687137
 20
-439.123513454589
 30
0.0
 11
-14210.616306840202
 21
-446.57797610118
 31
0.0
  0
LINE
  5
2A4
100
AcDbEntity
  8
Frei
  6
CONTINUOUS
 62
           7
100
AcDbLine
 10
-14206.706604146491
 20
-420.348903970302
 30
0.0
 11
-14208.907188554667
 21
-440.227471027877
 31
0.0
  0
LINE
  5
2A5
100
AcDbEntity
  8
Frei
  6
CONTINUOUS
 62
           7
100
AcDbLine
 10
-14204.718747440733
 20
-420.56896241112
 30
0.0
 11
-14206.919331848909
 21
-440.447529468694
 31
0.0
  0
LINE
  5
2A6
100
AcDbEntity
  8
Frei
  6
CONTINUOUS
 62
           7
100
AcDbLine
 10
-14205.815374275622
 20
-439.563630336224
 30
0.0
 11
-14206.919331848909
 21
-440.447529468694
 31
0.0
  0
LINE
  5
2A7
100
AcDbEntity
  8
Frei
  6
CONTINUOUS
 62
           7
100
AcDbLine
 10
-14208.907188554667
 20
-440.227471027877
 30
0.0
 11
-14209.791087687137
 21
-439.123513454589
 31
0.0
  0
LINE
  5
2A8
100
AcDbEntity
  8
Frei
  6
CONTINUOUS
 62
           7
100
AcDbLine
 10
-14207.810561719778
 20
-421.232803102772
 30
0.0
 11
-14206.706604146491
 21
-420.348903970302
 31
0.0
  0
LINE
  5
2A9
100
AcDbEntity
  8
Frei
  6
CONTINUOUS
 62
           7
100
AcDbLine
 10
-14203.834848308263
 20
-421.672919984407
 30
0.0
 11
-14204.718747440733
 21
-420.56896241112
 31
0.0
  0
LINE
  5
2AA
100
AcDbEntity
  8
Frei
  6
CONTINUOUS
 62
           7
100
AcDbLine
 10
-14205.815374275622
 20
-439.563630336224
 30
0.0
 11
-14205.265228173577
 21
-434.593988571831
 31
0.0
  0
LINE
  5
2AB
100
AcDbEntity
  8
Frei
  6
CONTINUOUS
 62
           7
100
AcDbLine
 10
-14208.907188554667
 20
-440.227471027877
 30
0.0
 11
-14206.919331848909
 21
-440.447529468694
 31
0.0
  0
LINE
  5
2AC
100
AcDbEntity
  8
Frei
  6
CONTINUOUS
 62
           7
100
AcDbLine
 10
-14207.810561719778
 20
-421.232803102772
 30
0.0
 11
-14209.791087687137
 21
-439.123513454589
 31
0.0
  0
LINE
  5
2AD
100
AcDbEntity
  8
Frei
  6
CONTINUOUS
 62
           7
100
AcDbLine
 10
-14204.718747440733
 20
-420.56896241112
 30
0.0
 11
-14206.706604146491
 21
-420.348903970302
 31
0.0
  0
LINE
  5
2AE
100
AcDbEntity
  8
Frei
  6
CONTINUOUS
 62
           7
100
AcDbLine
 10
-14255.840046896185
 20
-441.571646572581
 30
0.0
 11
-14245.403799190957
 21
-442.726953386873
 31
0.0
  0
LINE
  5
2AF
100
AcDbEntity
  8
Frei
  6
CONTINUOUS
 62
           7
100
AcDbLine
 10
-14238.294085682393
 20
-410.312420013305
 30
0.0
 11
-14252.209082622696
 21
-408.772010927582
 31
0.0
  0
LINE
  5
2B0
100
AcDbEntity
  8
Frei
  6
CONTINUOUS
 62
           7
100
AcDbLine
 10
-14237.410186549923
 20
-411.416377586593
 30
0.0
 11
-14239.885844009121
 21
-433.779765526364
 31
0.0
  0
LINE
  5
2B1
100
AcDbEntity
  8
Frei
  6
CONTINUOUS
 62
           7
100
AcDbLine
 10
-14398.855700490316
 20
-424.733510480839
 30
0.0
 11
-14396.380043031118
 21
-402.370122541067
 31
0.0
  0
LINE
  5
2B2
100
AcDbEntity
  8
Frei
  6
CONTINUOUS
 62
           7
100
AcDbLine
 10
-14397.727900981126
 20
-414.545744863831
 30
0.0
 11
-14397.15024757398
 21
-409.327621011218
 31
0.0
  0
LINE
  5
2B3
100
AcDbEntity
  8
Frei
  6
CONTINUOUS
 62
           7
100
AcDbLine
 10
-14238.537986059113
 20
-421.6041432036
 30
0.0
 11
-14239.115639466259
 21
-426.822267056213
 31
0.0
  0
ARC
  5
2B4
100
AcDbEntity
  8
Frei
  6
CONTINUOUS
 62
           7
100
AcDbCircle
 10
-14405.702411681048
 20
-408.380884813601
 30
0.0
 40
8.604407030244
100
AcDbArc
 50
329.681014671726
 51
353.682999999999
  0
ARC
  5
2B5
100
AcDbEntity
  8
Frei
  6
CONTINUOUS
 62
           7
100
AcDbCircle
 10
-14398.987945432276
 20
-403.842114488637
 30
0.0
 40
2.430106011614
100
AcDbArc
 50
307.617521857266
 51
353.682999999999
  0
ARC
  5
2B6
100
AcDbEntity
  8
Frei
  6
CONTINUOUS
 62
           7
100
AcDbCircle
 10
-14400.143252246569
 20
-414.278362193863
 30
0.0
 40
2.430106011614
100
AcDbArc
 50
307.617521857266
 51
353.682999999999
  0
ARC
  5
2B7
100
AcDbEntity
  8
Frei
  6
CONTINUOUS
 62
           7
100
AcDbCircle
 10
-14398.987945432276
 20
-403.842114488637
 30
0.0
 40
2.430106011614
100
AcDbArc
 50
353.682999999999
 51
39.748478142733
  0
ARC
  5
2B8
100
AcDbEntity
  8
Frei
  6
CONTINUOUS
 62
           7
100
AcDbCircle
 10
-14400.143252246569
 20
-414.278362193863
 30
0.0
 40
2.430106011614
100
AcDbArc
 50
353.682999999999
 51
39.748478142733
  0
ARC
  5
2B9
100
AcDbEntity
  8
Frei
  6
CONTINUOUS
 62
           7
100
AcDbCircle
 10
-14237.277941607961
 20
-432.307773578795
 30
0.0
 40
2.430106011614
100
AcDbArc
 50
127.617521857263
 51
173.683
  0
ARC
  5
2BA
100
AcDbEntity
  8
Frei
  6
CONTINUOUS
 62
           7
100
AcDbCircle
 10
-14236.122634793668
 20
-421.871525873568
 30
0.0
 40
2.430106011614
100
AcDbArc
 50
127.617521857263
 51
173.683
  0
ARC
  5
2BB
100
AcDbEntity
  8
Frei
  6
CONTINUOUS
 62
           7
100
AcDbCircle
 10
-14237.277941607961
 20
-432.307773578795
 30
0.0
 40
2.430106011614
100
AcDbArc
 50
173.683
 51
219.748478142737
  0
ARC
  5
2BC
100
AcDbEntity
  8
Frei
  6
CONTINUOUS
 62
           7
100
AcDbCircle
 10
-14236.122634793668
 20
-421.871525873568
 30
0.0
 40
2.430106011614
100
AcDbArc
 50
173.683
 51
219.748478142737
  0
ARC
  5
2BD
100
AcDbEntity
  8
Frei
  6
CONTINUOUS
 62
           7
100
AcDbCircle
 10
-14230.563475359191
 20
-427.769003253831
 30
0.0
 40
8.604407030244
100
AcDbArc
 50
149.681014671724
 51
173.683
  0
ARC
  5
2BE
100
AcDbEntity
  8
Frei
  6
CONTINUOUS
 62
           7
100
AcDbCircle
 10
-14374.798037173146
 20
-419.612378973688
 30
0.0
 40
4.481959213903
100
AcDbArc
 50
182.061955885586
 51
345.304044114414
  0
ARC
  5
2BF
100
AcDbEntity
  8
Frei
  6
CONTINUOUS
 62
           7
100
AcDbCircle
 10
-14405.702411681048
 20
-408.380884813601
 30
0.0
 40
8.604407030244
100
AcDbArc
 50
353.682999999999
 51
17.684985328274
  0
ARC
  5
2C0
100
AcDbEntity
  8
Frei
  6
CONTINUOUS
 62
           7
100
AcDbCircle
 10
-14230.563475359191
 20
-427.769003253831
 30
0.0
 40
8.604407030244
100
AcDbArc
 50
173.683
 51
197.684985328276
  0
POLYLINE
  5
2C1
100
AcDbEntity
  8
Frei
  6
CONTINUOUS
 62
           7
100
AcDb2dPolyline
 66
           1
 10
0.0
 20
0.0
 30
0.0
  0
VERTEX
  5
2C2
100
AcDbEntity
  8
Frei
  6
CONTINUOUS
 62
           7
100
AcDbVertex
100
AcDb2dVertex
 10
-14378.955884588922
 20
-419.454261280486
 30
0.0
 42
0.046286845788
  0
VERTEX
  5
2C3
100
AcDbEntity
  8
Frei
  6
CONTINUOUS
 62
           7
100
AcDbVertex
100
AcDb2dVertex
 10
-14378.967729158994
 20
-420.134266816672
 30
0.0
  0
VERTEX
  5
2C4
100
AcDbEntity
  8
Frei
  6
CONTINUOUS
 62
           7
100
AcDbVertex
100
AcDb2dVertex
 10
-14378.926294409031
 20
-420.473493229698
 30
0.0
  0
VERTEX
  5
2C5
100
AcDbEntity
  8
Frei
  6
CONTINUOUS
 62
           7
100
AcDbVertex
100
AcDb2dVertex
 10
-14378.85388379609
 20
-420.807484934808
 30
0.0
 42
0.045273723548
  0
VERTEX
  5
2C6
100
AcDbEntity
  8
Frei
  6
CONTINUOUS
 62
           7
100
AcDbVertex
100
AcDb2dVertex
 10
-14378.617807633951
 20
-421.453460243037
 30
0.0
  0
VERTEX
  5
2C7
100
AcDbEntity
  8
Frei
  6
CONTINUOUS
 62
           7
100
AcDbVertex
100
AcDb2dVertex
 10
-14378.455569441649
 20
-421.760821319599
 30
0.0
  0
VERTEX
  5
2C8
100
AcDbEntity
  8
Frei
  6
CONTINUOUS
 62
           7
100
AcDbVertex
100
AcDb2dVertex
 10
-14378.266673727303
 20
-422.052565108499
 30
0.0
 42
0.04348253534
  0
VERTEX
  5
2C9
100
AcDbEntity
  8
Frei
  6
CONTINUOUS
 62
           7
100
AcDbVertex
100
AcDb2dVertex
 10
-14377.811151102223
 20
-422.586596033018
 30
0.0
  0
VERTEX
  5
2CA
100
AcDbEntity
  8
Frei
  6
CONTINUOUS
 62
           7
100
AcDbVertex
100
AcDb2dVertex
 10
-14377.547772051272
 20
-422.824604595008
 30
0.0
  0
VERTEX
  5
2CB
100
AcDbEntity
  8
Frei
  6
CONTINUOUS
 62
           7
100
AcDbVertex
100
AcDb2dVertex
 10
-14377.265080583165
 20
-423.039326757185
 30
0.0
 42
0.041825507476
  0
VERTEX
  5
2CC
100
AcDbEntity
  8
Frei
  6
CONTINUOUS
 62
           7
100
AcDbVertex
100
AcDb2dVertex
 10
-14376.645054246523
 20
-423.39700128704
 30
0.0
  0
VERTEX
  5
2CD
100
AcDbEntity
  8
Frei
  6
CONTINUOUS
 62
           7
100
AcDbVertex
100
AcDb2dVertex
 10
-14376.31268720719
 20
-423.536830477445
 30
0.0
  0
VERTEX
  5
2CE
100
AcDbEntity
  8
Frei
  6
CONTINUOUS
 62
           7
100
AcDbVertex
100
AcDb2dVertex
 10
-14375.969911278793
 20
-423.648751862985
 30
0.0
 42
0.040993490696
  0
VERTEX
  5
2CF
100
AcDbEntity
  8
Frei
  6
CONTINUOUS
 62
           7
100
AcDbVertex
100
AcDb2dVertex
 10
-14375.260165557405
 20
-423.786929171162
 30
0.0
  0
VERTEX
  5
2D0
100
AcDbEntity
  8
Frei
  6
CONTINUOUS
 62
           7
100
AcDbVertex
100
AcDb2dVertex
 10
-14374.899192391178
 20
-423.811967454527
 30
0.0
  0
VERTEX
  5
2D1
100
AcDbEntity
  8
Frei
  6
CONTINUOUS
 62
           7
100
AcDbVertex
100
AcDb2dVertex
 10
-14374.53738234696
 20
-423.807334763982
 30
0.0
 42
0.041278481646
  0
VERTEX
  5
2D2
100
AcDbEntity
  8
Frei
  6
CONTINUOUS
 62
           7
100
AcDbVertex
100
AcDb2dVertex
 10
-14373.823523049556
 20
-423.709348627834
 30
0.0
  0
VERTEX
  5
2D3
100
AcDbEntity
  8
Frei
  6
CONTINUOUS
 62
           7
100
AcDbVertex
100
AcDb2dVertex
 10
-14373.477429406204
 20
-423.616957103111
 30
0.0
  0
VERTEX
  5
2D4
100
AcDbEntity
  8
Frei
  6
CONTINUOUS
 62
           7
100
AcDbVertex
100
AcDb2dVertex
 10
-14373.140277918717
 20
-423.495948021882
 30
0.0
 42
0.042584509173
  0
VERTEX
  5
2D5
100
AcDbEntity
  8
Frei
  6
CONTINUOUS
 62
           7
100
AcDbVertex
100
AcDb2dVertex
 10
-14372.508407012008
 20
-423.17361701555
 30
0.0
  0
VERTEX
  5
2D6
100
AcDbEntity
  8
Frei
  6
CONTINUOUS
 62
           7
100
AcDbVertex
100
AcDb2dVertex
 10
-14372.21857832714
 20
-422.97510405302
 30
0.0
  0
VERTEX
  5
2D7
100
AcDbEntity
  8
Frei
  6
CONTINUOUS
 62
           7
100
AcDbVertex
100
AcDb2dVertex
 10
-14371.94710940718
 20
-422.75214947336
 30
0.0
 42
0.044417198743
  0
VERTEX
  5
2D8
100
AcDbEntity
  8
Frei
  6
CONTINUOUS
 62
           7
100
AcDbVertex
100
AcDb2dVertex
 10
-14371.473439847932
 20
-422.244351473307
 30
0.0
  0
VERTEX
  5
2D9
100
AcDbEntity
  8
Frei
  6
CONTINUOUS
 62
           7
100
AcDbVertex
100
AcDb2dVertex
 10
-14371.274491572089
 20
-421.963427049497
 30
0.0
  0
VERTEX
  5
2DA
100
AcDbEntity
  8
Frei
  6
CONTINUOUS
 62
           7
100
AcDbVertex
100
AcDb2dVertex
 10
-14371.101790544131
 20
-421.665652200666
 30
0.0
 42
0.045929593742
  0
VERTEX
  5
2DB
100
AcDbEntity
  8
Frei
  6
CONTINUOUS
 62
           7
100
AcDbVertex
100
AcDb2dVertex
 10
-14370.843453871808
 20
-421.033635139999
 30
0.0
  0
VERTEX
  5
2DC
100
AcDbEntity
  8
Frei
  6
CONTINUOUS
 62
           7
100
AcDbVertex
100
AcDb2dVertex
 10
-14370.759422314055
 20
-420.703749236566
 30
0.0
  0
VERTEX
  5
2DD
100
AcDbEntity
  8
Frei
  6
CONTINUOUS
 62
           7
100
AcDbVertex
100
AcDb2dVertex
 10
-14370.70627926003
 20
-420.367503809879
 30
0.0
 42
0.046286845788
  0
VERTEX
  5
2DE
100
AcDbEntity
  8
Frei
  6
CONTINUOUS
 62
           7
100
AcDbVertex
100
AcDb2dVertex
 10
-14370.694434689958
 20
-419.687498273693
 30
0.0
  0
VERTEX
  5
2DF
100
AcDbEntity
  8
Frei
  6
CONTINUOUS
 62
           7
100
AcDbVertex
100
AcDb2dVertex
 10
-14370.735869439923
 20
-419.348271860668
 30
0.0
  0
VERTEX
  5
2E0
100
AcDbEntity
  8
Frei
  6
CONTINUOUS
 62
           7
100
AcDbVertex
100
AcDb2dVertex
 10
-14370.808280052865
 20
-419.014280155558
 30
0.0
 42
0.045273723548
  0
VERTEX
  5
2E1
100
AcDbEntity
  8
Frei
  6
CONTINUOUS
 62
           7
100
AcDbVertex
100
AcDb2dVertex
 10
-14371.044356215003
 20
-418.368304847328
 30
0.0
  0
VERTEX
  5
2E2
100
AcDbEntity
  8
Frei
  6
CONTINUOUS
 62
           7
100
AcDbVertex
100
AcDb2dVertex
 10
-14371.206594407306
 20
-418.060943770766
 30
0.0
  0
VERTEX
  5
2E3
100
AcDbEntity
  8
Frei
  6
CONTINUOUS
 62
           7
100
AcDbVertex
100
AcDb2dVertex
 10
-14371.395490121648
 20
-417.769199981867
 30
0.0
 42
0.04348253534
  0
VERTEX
  5
2E4
100
AcDbEntity
  8
Frei
  6
CONTINUOUS
 62
           7
100
AcDbVertex
100
AcDb2dVertex
 10
-14371.851012746731
 20
-417.235169057348
 30
0.0
  0
VERTEX
  5
2E5
100
AcDbEntity
  8
Frei
  6
CONTINUOUS
 62
           7
100
AcDbVertex
100
AcDb2dVertex
 10
-14372.114391797681
 20
-416.997160495358
 30
0.0
  0
VERTEX
  5
2E6
100
AcDbEntity
  8
Frei
  6
CONTINUOUS
 62
           7
100
AcDbVertex
100
AcDb2dVertex
 10
-14372.397083265787
 20
-416.78243833318
 30
0.0
 42
0.041825507476
  0
VERTEX
  5
2E7
100
AcDbEntity
  8
Frei
  6
CONTINUOUS
 62
           7
100
AcDbVertex
100
AcDb2dVertex
 10
-14373.01710960243
 20
-416.424763803325
 30
0.0
  0
VERTEX
  5
2E8
100
AcDbEntity
  8
Frei
  6
CONTINUOUS
 62
           7
100
AcDbVertex
100
AcDb2dVertex
 10
-14373.349476641763
 20
-416.28493461292
 30
0.0
  0
VERTEX
  5
2E9
100
AcDbEntity
  8
Frei
  6
CONTINUOUS
 62
           7
100
AcDbVertex
100
AcDb2dVertex
 10
-14373.692252570161
 20
-416.173013227381
 30
0.0
 42
0.040993490696
  0
VERTEX
  5
2EA
100
AcDbEntity
  8
Frei
  6
CONTINUOUS
 62
           7
100
AcDbVertex
100
AcDb2dVertex
 10
-14374.401998291547
 20
-416.034835919205
 30
0.0
  0
VERTEX
  5
2EB
100
AcDbEntity
  8
Frei
  6
CONTINUOUS
 62
           7
100
AcDbVertex
100
AcDb2dVertex
 10
-14374.762971457772
 20
-416.009797635839
 30
0.0
  0
VERTEX
  5
2EC
100
AcDbEntity
  8
Frei
  6
CONTINUOUS
 62
           7
100
AcDbVertex
100
AcDb2dVertex
 10
-14375.124781501994
 20
-416.014430326384
 30
0.0
 42
0.041278481646
  0
VERTEX
  5
2ED
100
AcDbEntity
  8
Frei
  6
CONTINUOUS
 62
           7
100
AcDbVertex
100
AcDb2dVertex
 10
-14375.838640799397
 20
-416.112416462531
 30
0.0
  0
VERTEX
  5
2EE
100
AcDbEntity
  8
Frei
  6
CONTINUOUS
 62
           7
100
AcDbVertex
100
AcDb2dVertex
 10
-14376.184734442748
 20
-416.204807987254
 30
0.0
  0
VERTEX
  5
2EF
100
AcDbEntity
  8
Frei
  6
CONTINUOUS
 62
           7
100
AcDbVertex
100
AcDb2dVertex
 10
-14376.521885930235
 20
-416.325817068484
 30
0.0
 42
0.042584509172
  0
VERTEX
  5
2F0
100
AcDbEntity
  8
Frei
  6
CONTINUOUS
 62
           7
100
AcDbVertex
100
AcDb2dVertex
 10
-14377.153756836946
 20
-416.648148074816
 30
0.0
  0
VERTEX
  5
2F1
100
AcDbEntity
  8
Frei
  6
CONTINUOUS
 62
           7
100
AcDbVertex
100
AcDb2dVertex
 10
-14377.443585521814
 20
-416.846661037346
 30
0.0
  0
VERTEX
  5
2F2
100
AcDbEntity
  8
Frei
  6
CONTINUOUS
 62
           7
100
AcDbVertex
100
AcDb2dVertex
 10
-14377.715054441771
 20
-417.069615617006
 30
0.0
 42
0.044417198743
  0
VERTEX
  5
2F3
100
AcDbEntity
  8
Frei
  6
CONTINUOUS
 62
           7
100
AcDbVertex
100
AcDb2dVertex
 10
-14378.188724001022
 20
-417.577413617058
 30
0.0
  0
VERTEX
  5
2F4
100
AcDbEntity
  8
Frei
  6
CONTINUOUS
 62
           7
100
AcDbVertex
100
AcDb2dVertex
 10
-14378.387672276865
 20
-417.858338040869
 30
0.0
  0
VERTEX
  5
2F5
100
AcDbEntity
  8
Frei
  6
CONTINUOUS
 62
           7
100
AcDbVertex
100
AcDb2dVertex
 10
-14378.560373304823
 20
-418.1561128897
 30
0.0
 42
0.045929593742
  0
VERTEX
  5
2F6
100
AcDbEntity
  8
Frei
  6
CONTINUOUS
 62
           7
100
AcDbVertex
100
AcDb2dVertex
 10
-14378.818709977144
 20
-418.788129950366
 30
0.0
  0
VERTEX
  5
2F7
100
AcDbEntity
  8
Frei
  6
CONTINUOUS
 62
           7
100
AcDbVertex
100
AcDb2dVertex
 10
-14378.902741534899
 20
-419.1180158538
 30
0.0
  0
VERTEX
  5
2F8
100
AcDbEntity
  8
Frei
  6
CONTINUOUS
 62
           7
100
AcDbVertex
100
AcDb2dVertex
 10
-14378.955884588922
 20
-419.454261280486
 30
0.0
  0
SEQEND
  5
2F9
100
AcDbEntity
  8
Frei
  6
CONTINUOUS
 62
           7
  0
POLYLINE
  5
2FA
100
AcDbEntity
  8
Frei
  6
CONTINUOUS
 62
           7
100
AcDb2dPolyline
 66
           1
 10
0.0
 20
0.0
 30
0.0
  0
VERTEX
  5
2FB
100
AcDbEntity
  8
Frei
  6
CONTINUOUS
 62
           7
100
AcDbVertex
100
AcDb2dVertex
 10
-14374.392819390358
 20
-415.951920034615
 30
0.0
 42
0.046286845788
  0
VERTEX
  5
2FC
100
AcDbEntity
  8
Frei
  6
CONTINUOUS
 62
           7
100
AcDbVertex
100
AcDb2dVertex
 10
-14375.168777982315
 20
-415.938404121251
 30
0.0
  0
VERTEX
  5
2FD
100
AcDbEntity
  8
Frei
  6
CONTINUOUS
 62
           7
100
AcDbVertex
100
AcDb2dVertex
 10
-14375.555871374645
 20
-415.985685574898
 30
0.0
  0
VERTEX
  5
2FE
100
AcDbEntity
  8
Frei
  6
CONTINUOUS
 62
           7
100
AcDbVertex
100
AcDb2dVertex
 10
-14375.936991408867
 20
-416.068313780511
 30
0.0
 42
0.045273723548
  0
VERTEX
  5
2FF
100
AcDbEntity
  8
Frei
  6
CONTINUOUS
 62
           7
100
AcDbVertex
100
AcDb2dVertex
 10
-14376.674117893786
 20
-416.337701773137
 30
0.0
  0
VERTEX
  5
300
100
AcDbEntity
  8
Frei
  6
CONTINUOUS
 62
           7
100
AcDbVertex
100
AcDb2dVertex
 10
-14377.024849550367
 20
-416.522832794225
 30
0.0
  0
VERTEX
  5
301
100
AcDbEntity
  8
Frei
  6
CONTINUOUS
 62
           7
100
AcDbVertex
100
AcDb2dVertex
 10
-14377.357760221827
 20
-416.73838288129
 30
0.0
 42
0.04348253534
  0
VERTEX
  5
302
100
AcDbEntity
  8
Frei
  6
CONTINUOUS
 62
           7
100
AcDbVertex
100
AcDb2dVertex
 10
-14377.967146266794
 20
-417.258182612253
 30
0.0
  0
VERTEX
  5
303
100
AcDbEntity
  8
Frei
  6
CONTINUOUS
 62
           7
100
AcDbVertex
100
AcDb2dVertex
 10
-14378.238739333037
 20
-417.558726102934
 30
0.0
  0
VERTEX
  5
304
100
AcDbEntity
  8
Frei
  6
CONTINUOUS
 62
           7
100
AcDbVertex
100
AcDb2dVertex
 10
-14378.483760142073
 20
-417.881307114232
 30
0.0
 42
0.041825507476
  0
VERTEX
  5
305
100
AcDbEntity
  8
Frei
  6
CONTINUOUS
 62
           7
100
AcDbVertex
100
AcDb2dVertex
 10
-14378.891904796485
 20
-418.58882306455
 30
0.0
  0
VERTEX
  5
306
100
AcDbEntity
  8
Frei
  6
CONTINUOUS
 62
           7
100
AcDbVertex
100
AcDb2dVertex
 10
-14379.051464764645
 20
-418.968089182441
 30
0.0
  0
VERTEX
  5
307
100
AcDbEntity
  8
Frei
  6
CONTINUOUS
 62
           7
100
AcDbVertex
100
AcDb2dVertex
 10
-14379.179178961238
 20
-419.359232949077
 30
0.0
 42
0.040993490695
  0
VERTEX
  5
308
100
AcDbEntity
  8
Frei
  6
CONTINUOUS
 62
           7
100
AcDbVertex
100
AcDb2dVertex
 10
-14379.336853956202
 20
-420.16912825332
 30
0.0
  0
VERTEX
  5
309
100
AcDbEntity
  8
Frei
  6
CONTINUOUS
 62
           7
100
AcDbVertex
100
AcDb2dVertex
 10
-14379.365425298744
 20
-420.581037002431
 30
0.0
  0
VERTEX
  5
30A
100
AcDbEntity
  8
Frei
  6
CONTINUOUS
 62
           7
100
AcDbVertex
100
AcDb2dVertex
 10
-14379.360138906441
 20
-420.993900718283
 30
0.0
 42
0.041278481646
  0
VERTEX
  5
30B
100
AcDbEntity
  8
Frei
  6
CONTINUOUS
 62
           7
100
AcDbVertex
100
AcDb2dVertex
 10
-14379.248326310528
 20
-421.808490049975
 30
0.0
  0
VERTEX
  5
30C
100
AcDbEntity
  8
Frei
  6
CONTINUOUS
 62
           7
100
AcDbVertex
100
AcDb2dVertex
 10
-14379.142897760879
 20
-422.203419682
 30
0.0
  0
VERTEX
  5
30D
100
AcDbEntity
  8
Frei
  6
CONTINUOUS
 62
           7
100
AcDbVertex
100
AcDb2dVertex
 10
-14379.004813537607
 20
-422.588145363756
 30
0.0
 42
0.042584509173
  0
VERTEX
  5
30E
100
AcDbEntity
  8
Frei
  6
CONTINUOUS
 62
           7
100
AcDbVertex
100
AcDb2dVertex
 10
-14378.636999600063
 20
-423.309177227438
 30
0.0
  0
VERTEX
  5
30F
100
AcDbEntity
  8
Frei
  6
CONTINUOUS
 62
           7
100
AcDbVertex
100
AcDb2dVertex
 10
-14378.410475210636
 20
-423.639902561645
 30
0.0
  0
VERTEX
  5
310
100
AcDbEntity
  8
Frei
  6
CONTINUOUS
 62
           7
100
AcDbVertex
100
AcDb2dVertex
 10
-14378.156060338262
 20
-423.949677452704
 30
0.0
 42
0.044417198743
  0
VERTEX
  5
311
100
AcDbEntity
  8
Frei
  6
CONTINUOUS
 62
           7
100
AcDbVertex
100
AcDb2dVertex
 10
-14377.576608848309
 20
-424.49018476432
 30
0.0
  0
VERTEX
  5
312
100
AcDbEntity
  8
Frei
  6
CONTINUOUS
 62
           7
100
AcDbVertex
100
AcDb2dVertex
 10
-14377.256044222364
 20
-424.717205892506
 30
0.0
  0
VERTEX
  5
313
100
AcDbEntity
  8
Frei
  6
CONTINUOUS
 62
           7
100
AcDbVertex
100
AcDb2dVertex
 10
-14376.916251470506
 20
-424.914276121132
 30
0.0
 42
0.045929593742
  0
VERTEX
  5
314
100
AcDbEntity
  8
Frei
  6
CONTINUOUS
 62
           7
100
AcDbVertex
100
AcDb2dVertex
 10
-14376.195052829626
 20
-425.209065721861
 30
0.0
  0
VERTEX
  5
315
100
AcDbEntity
  8
Frei
  6
CONTINUOUS
 62
           7
100
AcDbVertex
100
AcDb2dVertex
 10
-14375.818617951507
 20
-425.304954660648
 30
0.0
  0
VERTEX
  5
316
100
AcDbEntity
  8
Frei
  6
CONTINUOUS
 62
           7
100
AcDbVertex
100
AcDb2dVertex
 10
-14375.434926181426
 20
-425.365596533662
 30
0.0
 42
0.046286845788
  0
VERTEX
  5
317
100
AcDbEntity
  8
Frei
  6
CONTINUOUS
 62
           7
100
AcDbVertex
100
AcDb2dVertex
 10
-14374.658967589468
 20
-425.379112447027
 30
0.0
  0
VERTEX
  5
318
100
AcDbEntity
  8
Frei
  6
CONTINUOUS
 62
           7
100
AcDbVertex
100
AcDb2dVertex
 10
-14374.271874197137
 20
-425.331830993379
 30
0.0
  0
VERTEX
  5
319
100
AcDbEntity
  8
Frei
  6
CONTINUOUS
 62
           7
100
AcDbVertex
100
AcDb2dVertex
 10
-14373.890754162914
 20
-425.249202787766
 30
0.0
 42
0.045273723548
  0
VERTEX
  5
31A
100
AcDbEntity
  8
Frei
  6
CONTINUOUS
 62
           7
100
AcDbVertex
100
AcDb2dVertex
 10
-14373.153627677997
 20
-424.979814795139
 30
0.0
  0
VERTEX
  5
31B
100
AcDbEntity
  8
Frei
  6
CONTINUOUS
 62
           7
100
AcDbVertex
100
AcDb2dVertex
 10
-14372.802896021414
 20
-424.794683774051
 30
0.0
  0
VERTEX
  5
31C
100
AcDbEntity
  8
Frei
  6
CONTINUOUS
 62
           7
100
AcDbVertex
100
AcDb2dVertex
 10
-14372.469985349957
 20
-424.579133686986
 30
0.0
 42
0.04348253534
  0
VERTEX
  5
31D
100
AcDbEntity
  8
Frei
  6
CONTINUOUS
 62
           7
100
AcDbVertex
100
AcDb2dVertex
 10
-14371.86059930499
 20
-424.059333956024
 30
0.0
  0
VERTEX
  5
31E
100
AcDbEntity
  8
Frei
  6
CONTINUOUS
 62
           7
100
AcDbVertex
100
AcDb2dVertex
 10
-14371.589006238746
 20
-423.758790465343
 30
0.0
  0
VERTEX
  5
31F
100
AcDbEntity
  8
Frei
  6
CONTINUOUS
 62
           7
100
AcDbVertex
100
AcDb2dVertex
 10
-14371.34398542971
 20
-423.436209454046
 30
0.0
 42
0.041825507476
  0
VERTEX
  5
320
100
AcDbEntity
  8
Frei
  6
CONTINUOUS
 62
           7
100
AcDbVertex
100
AcDb2dVertex
 10
-14370.935840775297
 20
-422.728693503727
 30
0.0
  0
VERTEX
  5
321
100
AcDbEntity
  8
Frei
  6
CONTINUOUS
 62
           7
100
AcDbVertex
100
AcDb2dVertex
 10
-14370.776280807138
 20
-422.349427385835
 30
0.0
  0
VERTEX
  5
322
100
AcDbEntity
  8
Frei
  6
CONTINUOUS
 62
           7
100
AcDbVertex
100
AcDb2dVertex
 10
-14370.648566610544
 20
-421.958283619199
 30
0.0
 42
0.040993490695
  0
VERTEX
  5
323
100
AcDbEntity
  8
Frei
  6
CONTINUOUS
 62
           7
100
AcDbVertex
100
AcDb2dVertex
 10
-14370.49089161558
 20
-421.148388314958
 30
0.0
  0
VERTEX
  5
324
100
AcDbEntity
  8
Frei
  6
CONTINUOUS
 62
           7
100
AcDbVertex
100
AcDb2dVertex
 10
-14370.462320273038
 20
-420.736479565845
 30
0.0
  0
VERTEX
  5
325
100
AcDbEntity
  8
Frei
  6
CONTINUOUS
 62
           7
100
AcDbVertex
100
AcDb2dVertex
 10
-14370.467606665341
 20
-420.323615849993
 30
0.0
 42
0.041278481646
  0
VERTEX
  5
326
100
AcDbEntity
  8
Frei
  6
CONTINUOUS
 62
           7
100
AcDbVertex
100
AcDb2dVertex
 10
-14370.579419261254
 20
-419.509026518301
 30
0.0
  0
VERTEX
  5
327
100
AcDbEntity
  8
Frei
  6
CONTINUOUS
 62
           7
100
AcDbVertex
100
AcDb2dVertex
 10
-14370.684847810902
 20
-419.114096886277
 30
0.0
  0
VERTEX
  5
328
100
AcDbEntity
  8
Frei
  6
CONTINUOUS
 62
           7
100
AcDbVertex
100
AcDb2dVertex
 10
-14370.822932034176
 20
-418.729371204522
 30
0.0
 42
0.042584509173
  0
VERTEX
  5
329
100
AcDbEntity
  8
Frei
  6
CONTINUOUS
 62
           7
100
AcDbVertex
100
AcDb2dVertex
 10
-14371.19074597172
 20
-418.008339340839
 30
0.0
  0
VERTEX
  5
32A
100
AcDbEntity
  8
Frei
  6
CONTINUOUS
 62
           7
100
AcDbVertex
100
AcDb2dVertex
 10
-14371.417270361146
 20
-417.677614006631
 30
0.0
  0
VERTEX
  5
32B
100
AcDbEntity
  8
Frei
  6
CONTINUOUS
 62
           7
100
AcDbVertex
100
AcDb2dVertex
 10
-14371.671685233521
 20
-417.367839115572
 30
0.0
 42
0.044417198743
  0
VERTEX
  5
32C
100
AcDbEntity
  8
Frei
  6
CONTINUOUS
 62
           7
100
AcDbVertex
100
AcDb2dVertex
 10
-14372.251136723475
 20
-416.827331803956
 30
0.0
  0
VERTEX
  5
32D
100
AcDbEntity
  8
Frei
  6
CONTINUOUS
 62
           7
100
AcDbVertex
100
AcDb2dVertex
 10
-14372.57170134942
 20
-416.600310675771
 30
0.0
  0
VERTEX
  5
32E
100
AcDbEntity
  8
Frei
  6
CONTINUOUS
 62
           7
100
AcDbVertex
100
AcDb2dVertex
 10
-14372.911494101276
 20
-416.403240447145
 30
0.0
 42
0.045929593741
  0
VERTEX
  5
32F
100
AcDbEntity
  8
Frei
  6
CONTINUOUS
 62
           7
100
AcDbVertex
100
AcDb2dVertex
 10
-14373.632692742158
 20
-416.108450846416
 30
0.0
  0
VERTEX
  5
330
100
AcDbEntity
  8
Frei
  6
CONTINUOUS
 62
           7
100
AcDbVertex
100
AcDb2dVertex
 10
-14374.009127620277
 20
-416.012561907628
 30
0.0
  0
VERTEX
  5
331
100
AcDbEntity
  8
Frei
  6
CONTINUOUS
 62
           7
100
AcDbVertex
100
AcDb2dVertex
 10
-14374.392819390358
 20
-415.951920034615
 30
0.0
  0
SEQEND
  5
332
100
AcDbEntity
  8
Frei
  6
CONTINUOUS
 62
           7
  0
ARC
  5
333
100
AcDbEntity
  8
Frei
  6
CONTINUOUS
 62
           7
100
AcDbCircle
 10
-14241.615369019204
 20
-440.187172186981
 30
0.0
 40
0.5
100
AcDbArc
 50
270.832821982568
 51
353.682999999999
  0
ARC
  5
334
100
AcDbEntity
  8
Frei
  6
CONTINUOUS
 62
           7
100
AcDbCircle
 10
-14241.052283164627
 20
-435.100641591843
 30
0.0
 40
0.5
100
AcDbArc
 50
353.682999999999
 51
76.533178017423
  0
ARC
  5
335
100
AcDbEntity
  8
Frei
  6
CONTINUOUS
 62
           7
100
AcDbCircle
 10
-14394.153553844595
 20
-396.017730490654
 30
0.0
 40
0.5
100
AcDbArc
 50
90.832821982565
 51
173.683
  0
ARC
  5
336
100
AcDbEntity
  8
Frei
  6
CONTINUOUS
 62
           7
100
AcDbCircle
 10
-14394.716639699172
 20
-401.104261085793
 30
0.0
 40
0.5
100
AcDbArc
 50
173.683
 51
256.533178017419
  0
ARC
  5
337
100
AcDbEntity
  8
Frei
  6
CONTINUOUS
 62
           7
100
AcDbCircle
 10
-14424.425775188267
 20
-396.693888269423
 30
0.0
 40
2.0
100
AcDbArc
 50
85.683
 51
173.683
  0
ARC
  5
338
100
AcDbEntity
  8
Frei
  6
CONTINUOUS
 62
           7
100
AcDbCircle
 10
-14442.575719224782
 20
-451.586070169963
 30
0.0
 40
1.5
100
AcDbArc
 50
173.683
 51
263.683
  0
ARC
  5
339
100
AcDbEntity
  8
Frei
  6
CONTINUOUS
 62
           7
100
AcDbCircle
 10
-14440.925280918649
 20
-436.677144876782
 30
0.0
 40
1.5
100
AcDbArc
 50
83.683
 51
173.683
  0
ARC
  5
33A
100
AcDbEntity
  8
Frei
  6
CONTINUOUS
 62
           7
100
AcDbCircle
 10
-14430.428520549418
 20
-450.918564109111
 30
0.0
 40
1.5
100
AcDbArc
 50
173.683
 51
263.683
  0
ARC
  5
33B
100
AcDbEntity
  8
Frei
  6
CONTINUOUS
 62
           7
100
AcDbCircle
 10
-14405.58031172745
 20
-453.669294619331
 30
0.0
 40
1.5
100
AcDbArc
 50
263.683
 51
353.682999999999
  0
ARC
  5
33C
100
AcDbEntity
  8
Frei
  6
CONTINUOUS
 62
           7
100
AcDbCircle
 10
-14240.588205149579
 20
-471.934145207187
 30
0.0
 40
1.5
100
AcDbArc
 50
173.683
 51
263.683
  0
ARC
  5
33D
100
AcDbEntity
  8
Frei
  6
CONTINUOUS
 62
           7
100
AcDbCircle
 10
-14215.739996327609
 20
-474.684875717406
 30
0.0
 40
1.5
100
AcDbArc
 50
263.683
 51
353.682999999999
  0
ARC
  5
33E
100
AcDbEntity
  8
Frei
  6
CONTINUOUS
 62
           7
100
AcDbCircle
 10
-14202.382476227751
 20
-463.084157774888
 30
0.0
 40
1.5
100
AcDbArc
 50
353.682999999999
 51
83.683
  0
ARC
  5
33F
100
AcDbEntity
  8
Frei
  6
CONTINUOUS
 62
           7
100
AcDbCircle
 10
-14204.032914533884
 20
-477.993083068069
 30
0.0
 40
1.5
100
AcDbArc
 50
263.683
 51
353.682999999999
  0
ARC
  5
340
100
AcDbEntity
  8
Frei
  6
CONTINUOUS
 62
           7
100
AcDbCircle
 10
-14209.737250966458
 20
-420.460199877718
 30
0.0
 40
2.0
100
AcDbArc
 50
353.682999999999
 51
81.683
  0
ARC
  5
341
100
AcDbEntity
  8
Frei
  6
CONTINUOUS
 62
           7
100
AcDbCircle
 10
-14238.404114902802
 20
-411.306348366184
 30
0.0
 40
1.0
100
AcDbArc
 50
353.682999999999
 51
83.683
  0
ARC
  5
342
100
AcDbEntity
  8
Frei
  6
CONTINUOUS
 62
           7
100
AcDbCircle
 10
-14241.815020735474
 20
-442.118127305425
 30
0.0
 40
1.0
100
AcDbArc
 50
263.682999999999
 51
353.682999999999
  0
ARC
  5
343
100
AcDbEntity
  8
Frei
  6
CONTINUOUS
 62
           7
100
AcDbCircle
 10
-14397.861772137438
 20
-424.843539701247
 30
0.0
 40
1.0
100
AcDbArc
 50
173.683
 51
263.683
  0
ARC
  5
344
100
AcDbEntity
  8
Frei
  6
CONTINUOUS
 62
           7
100
AcDbCircle
 10
-14394.450866304765
 20
-394.031760762007
 30
0.0
 40
1.0
100
AcDbArc
 50
83.683
 51
173.683
  0
LINE
  5
345
100
AcDbEntity
  8
Frei
  6
CONTINUOUS
 62
           7
100
AcDbLine
 10
-14654.982933921934
 20
-387.682808578854
 30
0.0
 11
-14654.982933921934
 21
-457.682808578854
 31
0.0
  0
LINE
  5
346
100
AcDbEntity
  8
Frei
  6
CONTINUOUS
 62
           7
100
AcDbLine
 10
-14137.094048921936
 20
-457.682808578854
 30
0.0
 11
-14137.094048921936
 21
-387.682808578854
 31
0.0
  0
LINE
  5
347
100
AcDbEntity
  8
Frei
  6
CONTINUOUS
 62
          15
100
AcDbLine
 10
-14575.11590034224
 20
-387.682808578854
 30
0.0
 11
-14654.982933921934
 21
-387.682808578854
 31
0.0
  0
LINE
  5
348
100
AcDbEntity
  8
Frei
  6
GESTRICHELT
 62
          15
100
AcDbLine
 10
-14490.964569802936
 20
-387.682808578854
 30
0.0
 11
-14575.11590034224
 21
-387.682808578854
 31
0.0
  0
LINE
  5
349
100
AcDbEntity
  8
Frei
  6
CONTINUOUS
 62
          15
100
AcDbLine
 10
-14477.323948988227
 20
-387.682808578854
 30
0.0
 11
-14490.964569802936
 21
-387.682808578854
 31
0.0
  0
LINE
  5
34A
100
AcDbEntity
  8
Frei
  6
GESTRICHELT
 62
          15
100
AcDbLine
 10
-14322.746427504771
 20
-387.682808578854
 30
0.0
 11
-14477.323948988227
 21
-387.682808578854
 31
0.0
  0
LINE
  5
34B
100
AcDbEntity
  8
Frei
  6
CONTINUOUS
 62
          15
100
AcDbLine
 10
-14137.094048921936
 20
-387.682808578854
 30
0.0
 11
-14322.746427504771
 21
-387.682808578854
 31
0.0
  0
LINE
  5
34C
100
AcDbEntity
  8
Frei
  6
CONTINUOUS
 62
          15
100
AcDbLine
 10
-14240.519725908794
 20
-457.682808578854
 30
0.0
 11
-14654.982933921934
 21
-457.682808578854
 31
0.0
  0
LINE
  5
34D
100
AcDbEntity
  8
Frei
  6
GESTRICHELT
 62
          15
100
AcDbLine
 10
-14212.348681266691
 20
-457.682808578854
 30
0.0
 11
-14240.519725908794
 21
-457.682808578854
 31
0.0
  0
LINE
  5
34E
100
AcDbEntity
  8
Frei
  6
CONTINUOUS
 62
          15
100
AcDbLine
 10
-14137.094048921936
 20
-457.682808578854
 30
0.0
 11
-14212.348681266691
 21
-457.682808578854
 31
0.0
  0
TEXT
  5
34F
100
AcDbEntity
  8
FREI
  6
CONTINUOUS
 62
          15
100
AcDbText
 10
-14722.496181239207
 20
-479.893921420036
 30
0.0
 40
3.527777671814
  1
125-700
 41
0.899999979725
  7
GOTHICG
100
AcDbText
  0
ENDSEC
  0
SECTION
  2
OBJECTS
  0
DICTIONARY
  5
19
100
AcDbDictionary
  3
ACAD_GROUP
350
1A
  3
ACAD_MLINESTYLE
350
1B
  0
DICTIONARY
  5
1A
102
{ACAD_REACTORS
330
19
102
}
100
AcDbDictionary
  0
DICTIONARY
  5
1B
102
{ACAD_REACTORS
330
19
102
}
100
AcDbDictionary
  3
STANDARD
350
1C
  0
MLINESTYLE
  5
1C
102
{ACAD_REACTORS
330
1B
102
}
100
AcDbMlineStyle
  2
STANDARD
 70
           0
  3

 62
           0
 51
90.0
 52
90.0
 71
           2
 49
0.5
 62
         256
  6
BYLAYER
 49
-0.5
 62
         256
  6
BYLAYER
  0
ENDSEC
  0
EOF
