  0
SECTION
  2
HEADER
  9
$ACADVER
  1
AC1012
  9
$DWGCODEPAGE
  3
dos850
  9
$INSBASE
 10
0.0
 20
0.0
 30
0.0
  9
$EXTMIN
 10
-14808.422624063054
 20
-2066.479801244317
 30
0.0
  9
$EXTMAX
 10
-14147.591452722456
 20
-1788.27472048743
 30
0.0
  9
$LIMMIN
 10
-14808.422624063054
 20
-2066.479801244317
  9
$LIMMAX
 10
-14147.591452722456
 20
-1788.27472048743
  9
$ORTHOMODE
 70
           0
  9
$REGENMODE
 70
           1
  9
$FILLMODE
 70
           1
  9
$QTEXTMODE
 70
           0
  9
$MIRRTEXT
 70
           1
  9
$DRAGMODE
 70
           2
  9
$LTSCALE
 40
5.0
  9
$OSMODE
 70
           0
  9
$ATTMODE
 70
           1
  9
$TEXTSIZE
 40
0.2
  9
$TRACEWID
 40
0.05
  9
$TEXTSTYLE
  7
TXT
  9
$CLAYER
  8
0
  9
$CELTYPE
  6
CONTINUOUS
  9
$CECOLOR
 62
         256
  9
$CELTSCALE
 40
1.0
  9
$DELOBJ
 70
           1
  9
$DISPSILH
 70
           0
  9
$DIMSCALE
 40
1.0
  9
$DIMASZ
 40
3.5
  9
$DIMEXO
 40
0.0625
  9
$DIMDLI
 40
0.38
  9
$DIMRND
 40
0.0
  9
$DIMDLE
 40
0.0
  9
$DIMEXE
 40
0.18
  9
$DIMTP
 40
0.0
  9
$DIMTM
 40
0.0
  9
$DIMTXT
 40
3.5
  9
$DIMCEN
 40
0.09
  9
$DIMTSZ
 40
0.0
  9
$DIMTOL
 70
           0
  9
$DIMLIM
 70
           0
  9
$DIMTIH
 70
           1
  9
$DIMTOH
 70
           1
  9
$DIMSE1
 70
           0
  9
$DIMSE2
 70
           0
  9
$DIMTAD
 70
           0
  9
$DIMZIN
 70
           0
  9
$DIMBLK
  1

  9
$DIMASO
 70
           1
  9
$DIMSHO
 70
           1
  9
$DIMPOST
  1

  9
$DIMAPOST
  1

  9
$DIMALT
 70
           0
  9
$DIMALTD
 70
           2
  9
$DIMALTF
 40
25.4
  9
$DIMLFAC
 40
1.0
  9
$DIMTOFL
 70
           0
  9
$DIMTVP
 40
0.0
  9
$DIMTIX
 70
           0
  9
$DIMSOXD
 70
           0
  9
$DIMSAH
 70
           0
  9
$DIMBLK1
  1

  9
$DIMBLK2
  1

  9
$DIMSTYLE
  2
STANDARD
  9
$DIMCLRD
 70
           0
  9
$DIMCLRE
 70
           0
  9
$DIMCLRT
 70
           0
  9
$DIMTFAC
 40
1.0
  9
$DIMGAP
 40
0.09
  9
$DIMJUST
 70
           0
  9
$DIMSD1
 70
           0
  9
$DIMSD2
 70
           0
  9
$DIMTOLJ
 70
           1
  9
$DIMTZIN
 70
           0
  9
$DIMALTZ
 70
           0
  9
$DIMALTTZ
 70
           0
  9
$DIMFIT
 70
           3
  9
$DIMUPT
 70
           0
  9
$DIMUNIT
 70
           2
  9
$DIMDEC
 70
           4
  9
$DIMTDEC
 70
           4
  9
$DIMALTU
 70
           2
  9
$DIMALTTD
 70
           2
  9
$DIMTXSTY
  7
TXT
  9
$DIMAUNIT
 70
           0
  9
$LUNITS
 70
           2
  9
$LUPREC
 70
           3
  9
$SKETCHINC
 40
0.1
  9
$FILLETRAD
 40
0.0
  9
$AUNITS
 70
           0
  9
$AUPREC
 70
           3
  9
$MENU
  1
acad
  9
$ELEVATION
 40
0.0
  9
$PELEVATION
 40
0.0
  9
$THICKNESS
 40
0.0
  9
$LIMCHECK
 70
           0
  9
$BLIPMODE
 70
           1
  9
$CHAMFERA
 40
0.0
  9
$CHAMFERB
 40
0.0
  9
$CHAMFERC
 40
0.0
  9
$CHAMFERD
 40
0.0
  9
$SKPOLY
 70
           0
  9
$TDCREATE
 40
0.000000000
  9
$TDUPDATE
 40
0.000000000
  9
$TDINDWG
 40
0.0000000000
  9
$TDUSRTIMER
 40
0.0000000000
  9
$USRTIMER
 70
           1
  9
$ANGBASE
 50
0.0
  9
$ANGDIR
 70
           0
  9
$PDMODE
 70
           2
  9
$PDSIZE
 40
0.5
  9
$PLINEWID
 40
0.0
  9
$COORDS
 70
           0
  9
$SPLFRAME
 70
           0
  9
$SPLINETYPE
 70
           6
  9
$SPLINESEGS
 70
           8
  9
$ATTDIA
 70
           0
  9
$ATTREQ
 70
           1
  9
$HANDLING
 70
           1
  9
$HANDSEED
  5
3AC
  9
$SURFTAB1
 70
           6
  9
$SURFTAB2
 70
           6
  9
$SURFTYPE
 70
           6
  9
$SURFU
 70
           6
  9
$SURFV
 70
           6
  9
$UCSNAME
  2

  9
$UCSORG
 10
0.0
 20
0.0
 30
0.0
  9
$UCSXDIR
 10
1.0
 20
0.0
 30
0.0
  9
$UCSYDIR
 10
0.0
 20
1.0
 30
0.0
  9
$PUCSNAME
  2

  9
$PUCSORG
 10
0.0
 20
0.0
 30
0.0
  9
$PUCSXDIR
 10
1.0
 20
0.0
 30
0.0
  9
$PUCSYDIR
 10
0.0
 20
1.0
 30
0.0
  9
$USERI1
 70
           0
  9
$USERI2
 70
           0
  9
$USERI3
 70
           0
  9
$USERI4
 70
           0
  9
$USERI5
 70
           0
  9
$USERR1
 40
0.0
  9
$USERR2
 40
0.0
  9
$USERR3
 40
0.0
  9
$USERR4
 40
0.0
  9
$USERR5
 40
0.0
  9
$WORLDVIEW
 70
           1
  9
$SHADEDGE
 70
           3
  9
$SHADEDIF
 70
          70
  9
$TILEMODE
 70
           1
  9
$MAXACTVP
 70
          16
  9
$PINSBASE
 10
0.0
 20
0.0
 30
0.0
  9
$PLIMCHECK
 70
           0
  9
$PEXTMIN
 10
1.000000000000E+20
 20
1.000000000000E+20
 30
1.000000000000E+20
  9
$PEXTMAX
 10
-1.000000000000E+20
 20
-1.000000000000E+20
 30
-1.000000000000E+20
  9
$PLIMMIN
 10
0.0
 20
0.0
  9
$PLIMMAX
 10
12.0
 20
9.0
  9
$UNITMODE
 70
           0
  9
$VISRETAIN
 70
           0
  9
$PLINEGEN
 70
           1
  9
$PSLTSCALE
 70
           0
  9
$TREEDEPTH
 70
        3020
  9
$PICKSTYLE
 70
           1
  9
$CMLSTYLE
  2
STANDARD
  9
$CMLJUST
 70
           0
  9
$CMLSCALE
 40
1.0
  9
$SAVEIMAGES
 70
           0
  0
ENDSEC
  0
SECTION
  2
CLASSES
  0
CLASS
  1
LWPOLYLINE
  2
AcDbPolyline
  3
"AutoCAD"
 90
        0
280
           0
281
           1
  0
CLASS
  1
IMAGE
  2
AcDbRasterImage
  3
ISM
 90
      127
280
           0
281
           1
  0
CLASS
  1
OLE2FRAME
  2
AcDbOle2Frame
  3
""
 90
        0
280
           0
281
           1
  0
CLASS
  1
HATCH
  2
AcDbHatch
  3
"ACAD_SEDONA"
 90
        0
280
           0
281
           1
  0
CLASS
  1
DICTIONARYVAR
  2
AcDbDictionaryVar
  3
"AutoCAD"
 90
        0
280
           0
281
           0
  0
CLASS
  1
RASTERVARIABLES
  2
AcDbRasterVariables
  3
ISM
 90
        0
280
           0
281
           0
  0
CLASS
  1
IMAGEDEF
  2
AcDbRasterImageDef
  3
ISM
 90
        0
280
           0
281
           0
  0
CLASS
  1
IMAGEDEF_REACTOR
  2
AcDbRasterImageDefReactor
  3
ISM
 90
        1
280
           0
281
           0
  0
CLASS
  1
IDBUFFER
  2
AcDbIdBuffer
  3
"Acad"
 90
        0
280
           0
281
           0
  0
CLASS
  1
SPATIAL_FILTER
  2
AcDbSpatialFilter
  3
"Acad"
 90
        0
280
           0
281
           0
  0
CLASS
  1
XRECORD
  2
AcDbXrecord
  3
"<Built In>"
 90
        0
280
           0
281
           0
  0
ENDSEC
  0
SECTION
  2
TABLES
  0
TABLE
  2
VPORT
  5
7
100
AcDbSymbolTable
 70
           1
  0
VPORT
  5
15
100
AcDbSymbolTableRecord
100
AcDbViewportTableRecord
  2
*ACTIVE
 70
           0
 10
0.0
 20
0.0
 11
1.0
 21
1.0
 12
6.591288
 22
4.579184
 13
0.0
 23
0.0
 14
1.0
 24
1.0
 15
0.0
 25
0.0
 16
0.0
 26
0.0
 36
1.0
 17
0.0
 27
0.0
 37
0.0
 40
9.158369
 41
0.688564
 42
50.0
 43
0.0
 44
0.0
 50
0.0
 51
0.0
 71
           0
 72
         100
 73
           1
 74
           1
 75
           0
 76
           0
 77
           0
 78
           0
  0
ENDTAB
  0
TABLE
  2
LTYPE
  5
4
100
AcDbSymbolTable
 70
           5
  0
LTYPE
  5
11
100
AcDbSymbolTableRecord
100
AcDbLinetypeTableRecord
  2
BYBLOCK
 70
           0
  3

 72
          65
 73
           0
 40
0.0
  0
LTYPE
  5
12
100
AcDbSymbolTableRecord
100
AcDbLinetypeTableRecord
  2
BYLAYER
 70
           0
  3

 72
          65
 73
           0
 40
0.0
  0
LTYPE
  5
13
100
AcDbSymbolTableRecord
100
AcDbLinetypeTableRecord
  2
CONTINUOUS
 70
           0
  3
Solid line
 72
          65
 73
           0
 40
0.0
  0
LTYPE
  5
1D
100
AcDbSymbolTableRecord
100
AcDbLinetypeTableRecord
  2
GESTRICHELT
 70
           0
  3

 72
          65
 73
           2
 40
0.75
 49
0.5
 74
           0
 49
-0.25
 74
           0
  0
LTYPE
  5
1E
100
AcDbSymbolTableRecord
100
AcDbLinetypeTableRecord
  2
STRICHPUNKT
 70
           0
  3

 72
          65
 73
           4
 40
1.0
 49
0.5
 74
           0
 49
-0.25
 74
           0
 49
0.0
 74
           0
 49
-0.25
 74
           0
  0
ENDTAB
  0
TABLE
  2
LAYER
  5
2
100
AcDbSymbolTable
 70
           3
  0
LAYER
  5
14
100
AcDbSymbolTableRecord
100
AcDbLayerTableRecord
  2
0
 70
           0
 62
           7
  6
CONTINUOUS
  0
LAYER
  5
20
100
AcDbSymbolTableRecord
100
AcDbLayerTableRecord
  2
FREI
 70
           0
 62
           7
  6
CONTINUOUS
  0
LAYER
  5
21
100
AcDbSymbolTableRecord
100
AcDbLayerTableRecord
  2
Frei
 70
           0
 62
           7
  6
CONTINUOUS
  0
ENDTAB
  0
TABLE
  2
STYLE
  5
3
100
AcDbSymbolTable
 70
           2
  0
STYLE
  5
17
100
AcDbSymbolTableRecord
100
AcDbTextStyleTableRecord
  2
TXT
 70
           0
 40
3.5
 41
1.0
 50
0.0
 71
           0
 42
3.5
  3
TXT
  4

  0
STYLE
  5
1F
100
AcDbSymbolTableRecord
100
AcDbTextStyleTableRecord
  2
GOTHICG
 70
           0
 40
3.5
 41
1.0
 50
0.0
 71
           0
 42
3.5
  3
GOTHICG
  4

  0
ENDTAB
  0
TABLE
  2
VIEW
  5
5
100
AcDbSymbolTable
 70
           0
  0
ENDTAB
  0
TABLE
  2
UCS
  5
6
100
AcDbSymbolTable
 70
           0
  0
ENDTAB
  0
TABLE
  2
APPID
  5
8
100
AcDbSymbolTable
 70
           2
  0
APPID
  5
16
100
AcDbSymbolTableRecord
100
AcDbRegAppTableRecord
  2
ACAD
 70
           0
  0
APPID
  5
22
100
AcDbSymbolTableRecord
100
AcDbRegAppTableRecord
  2
MegaCADPntStyle
 70
           0
  0
ENDTAB
  0
TABLE
  2
DIMSTYLE
  5
9
100
AcDbSymbolTable
 70
           1
  0
DIMSTYLE
105
18
100
AcDbSymbolTableRecord
100
AcDbDimStyleTableRecord
  2
STANDARD
 70
           0
  3

  4

  5

  6

  7

 40
1.0
 41
0.18
 42
0.0625
 43
0.38
 44
0.18
 45
0.0
 46
0.0
 47
0.0
 48
0.0
140
0.18
141
0.09
142
0.0
143
25.4
144
1.0
145
0.0
146
1.0
147
0.09
 71
           0
 72
           0
 73
           1
 74
           1
 75
           0
 76
           0
 77
           0
 78
           0
170
           0
171
           2
172
           0
173
           0
174
           0
175
           0
176
           0
177
           0
178
           0
270
           2
271
           4
272
           4
273
           2
274
           2
340
17
275
           0
280
           0
281
           0
282
           0
283
           1
284
           0
285
           0
286
           0
287
           0
288
           0
  0
ENDTAB
  0
TABLE
  2
BLOCK_RECORD
  5
1
100
AcDbSymbolTable
 70
           3
  0
BLOCK_RECORD
  5
A
100
AcDbSymbolTableRecord
100
AcDbBlockTableRecord
  2
*MODEL_SPACE
  0
BLOCK_RECORD
  5
B
100
AcDbSymbolTableRecord
100
AcDbBlockTableRecord
  2
*PAPER_SPACE
  0
BLOCK_RECORD
  5
23
100
AcDbSymbolTableRecord
100
AcDbBlockTableRecord
  2
ELIPPSE
  0
BLOCK_RECORD
  5
24
100
AcDbSymbolTableRecord
100
AcDbBlockTableRecord
  2
MAK1
  0
BLOCK_RECORD
  5
25
100
AcDbSymbolTableRecord
100
AcDbBlockTableRecord
  2
MAK2
  0
ENDTAB
  0
ENDSEC
  0
SECTION
  2
BLOCKS
  0
BLOCK
  5
D
100
AcDbEntity
  8
0
100
AcDbBlockBegin
  2
*MODEL_SPACE
 70
           0
 10
0.0
 20
0.0
 30
0.0
  3
*MODEL_SPACE
  1

  0
ENDBLK
  5
E
100
AcDbEntity
  8
0
100
AcDbBlockEnd
  0
BLOCK
  5
F
100
AcDbEntity
 67
           1
  8
0
100
AcDbBlockBegin
  2
*PAPER_SPACE
 70
           0
 10
0.0
 20
0.0
 30
0.0
  3
*PAPER_SPACE
  1

  0
ENDBLK
  5
10
100
AcDbEntity
 67
           1
  8
0
100
AcDbBlockEnd
  0
BLOCK
  5
350
100
AcDbEntity
  8
0
100
AcDbBlockBegin
  2
ELIPPSE
 70
          64
 10
0.0
 20
0.0
 30
0.0
  3
ELIPPSE
  1

  0
CIRCLE
  5
351
100
AcDbEntity
  8
0
  6
BYBLOCK
 62
           0
100
AcDbCircle
 10
0.0
 20
0.0
 30
0.0
 40
1.0
  0
ENDBLK
  5
352
100
AcDbEntity
  8
0
  6
BYBLOCK
 62
           0
100
AcDbBlockEnd
  0
BLOCK
  5
353
100
AcDbEntity
  8
0
100
AcDbBlockBegin
  2
MAK1
 70
          64
 10
0.0
 20
0.0
 30
0.0
  3
MAK1
  1

  0
LINE
  5
354
100
AcDbEntity
  8
Frei
  6
CONTINUOUS
 62
           2
100
AcDbLine
 10
191.903508353415
 20
615.10691689356
 30
0.0
 11
192.293358480832
 21
615.496767020978
 31
0.0
  0
LINE
  5
355
100
AcDbEntity
  8
Frei
  6
CONTINUOUS
 62
           2
100
AcDbLine
 10
191.903508353415
 20
614.04625672178
 30
0.0
 11
193.354018652612
 21
615.496767020978
 31
0.0
  0
LINE
  5
356
100
AcDbEntity
  8
Frei
  6
CONTINUOUS
 62
           2
100
AcDbLine
 10
191.903508353415
 20
612.98559655
 30
0.0
 11
193.903508353416
 21
614.98559655
 31
0.0
  0
LINE
  5
357
100
AcDbEntity
  8
Frei
  6
CONTINUOUS
 62
           2
100
AcDbLine
 10
191.903508353416
 20
611.92493637822
 30
0.0
 11
193.903508353415
 21
613.92493637822
 31
0.0
  0
LINE
  5
358
100
AcDbEntity
  8
Frei
  6
CONTINUOUS
 62
           2
100
AcDbLine
 10
191.903508353415
 20
610.864276206441
 30
0.0
 11
193.903508353415
 21
612.864276206441
 31
0.0
  0
LINE
  5
359
100
AcDbEntity
  8
Frei
  6
CONTINUOUS
 62
           2
100
AcDbLine
 10
191.903508353415
 20
609.803616034661
 30
0.0
 11
193.903508353415
 21
611.803616034661
 31
0.0
  0
LINE
  5
35A
100
AcDbEntity
  8
Frei
  6
CONTINUOUS
 62
           2
100
AcDbLine
 10
191.903508353413
 20
608.742955862881
 30
0.0
 11
193.903508353416
 21
610.742955862881
 31
0.0
  0
LINE
  5
35B
100
AcDbEntity
  8
Frei
  6
CONTINUOUS
 62
           2
100
AcDbLine
 10
191.903508353413
 20
607.682295691101
 30
0.0
 11
193.903508353415
 21
609.682295691101
 31
0.0
  0
LINE
  5
35C
100
AcDbEntity
  8
Frei
  6
CONTINUOUS
 62
           2
100
AcDbLine
 10
191.903508353415
 20
606.621635519322
 30
0.0
 11
193.903508353415
 21
608.621635519321
 31
0.0
  0
LINE
  5
35D
100
AcDbEntity
  8
Frei
  6
CONTINUOUS
 62
           2
100
AcDbLine
 10
191.903508353413
 20
605.560975347542
 30
0.0
 11
193.903508353416
 21
607.560975347542
 31
0.0
  0
LINE
  5
35E
100
AcDbEntity
  8
Frei
  6
CONTINUOUS
 62
           2
100
AcDbLine
 10
191.903508353415
 20
604.500315175762
 30
0.0
 11
193.903508353415
 21
606.500315175762
 31
0.0
  0
LINE
  5
35F
100
AcDbEntity
  8
Frei
  6
CONTINUOUS
 62
           2
100
AcDbLine
 10
191.903508353415
 20
603.439655003982
 30
0.0
 11
193.903508353416
 21
605.439655003982
 31
0.0
  0
LINE
  5
360
100
AcDbEntity
  8
Frei
  6
CONTINUOUS
 62
           2
100
AcDbLine
 10
191.903508353415
 20
602.378994832203
 30
0.0
 11
193.903508353415
 21
604.378994832202
 31
0.0
  0
LINE
  5
361
100
AcDbEntity
  8
Frei
  6
CONTINUOUS
 62
           2
100
AcDbLine
 10
191.903508353413
 20
601.318334660423
 30
0.0
 11
193.903508353415
 21
603.318334660422
 31
0.0
  0
LINE
  5
362
100
AcDbEntity
  8
Frei
  6
CONTINUOUS
 62
           2
100
AcDbLine
 10
191.903508353415
 20
600.257674488643
 30
0.0
 11
193.903508353415
 21
602.257674488643
 31
0.0
  0
LINE
  5
363
100
AcDbEntity
  8
Frei
  6
CONTINUOUS
 62
           2
100
AcDbLine
 10
191.903508353413
 20
599.197014316863
 30
0.0
 11
193.903508353416
 21
601.197014316863
 31
0.0
  0
LINE
  5
364
100
AcDbEntity
  8
Frei
  6
CONTINUOUS
 62
           2
100
AcDbLine
 10
191.903508353415
 20
598.136354145084
 30
0.0
 11
193.903508353415
 21
600.136354145083
 31
0.0
  0
LINE
  5
365
100
AcDbEntity
  8
Frei
  6
CONTINUOUS
 62
           2
100
AcDbLine
 10
191.903508353415
 20
597.075693973304
 30
0.0
 11
193.903508353416
 21
599.075693973303
 31
0.0
  0
LINE
  5
366
100
AcDbEntity
  8
Frei
  6
CONTINUOUS
 62
           2
100
AcDbLine
 10
191.903508353415
 20
596.015033801524
 30
0.0
 11
193.903508353415
 21
598.015033801524
 31
0.0
  0
LINE
  5
367
100
AcDbEntity
  8
Frei
  6
CONTINUOUS
 62
           2
100
AcDbLine
 10
192.445901744648
 20
595.496767020978
 30
0.0
 11
193.903508353416
 21
596.954373629744
 31
0.0
  0
LINE
  5
368
100
AcDbEntity
  8
Frei
  6
CONTINUOUS
 62
           2
100
AcDbLine
 10
193.506561916429
 20
595.496767020978
 30
0.0
 11
193.903508353416
 21
595.893713457964
 31
0.0
  0
LINE
  5
369
100
AcDbEntity
  8
Frei
  6
CONTINUOUS
 62
           2
100
AcDbLine
 10
192.573740611431
 20
595.496767020978
 30
0.0
 11
191.903508353413
 21
596.166999278996
 31
0.0
  0
LINE
  5
36A
100
AcDbEntity
  8
Frei
  6
CONTINUOUS
 62
           2
100
AcDbLine
 10
193.63440078321
 20
595.496767020978
 30
0.0
 11
191.903508353415
 21
597.227659450776
 31
0.0
  0
LINE
  5
36B
100
AcDbEntity
  8
Frei
  6
CONTINUOUS
 62
           2
100
AcDbLine
 10
193.903508353415
 20
596.288319622556
 30
0.0
 11
191.903508353415
 21
598.288319622556
 31
0.0
  0
LINE
  5
36C
100
AcDbEntity
  8
Frei
  6
CONTINUOUS
 62
           2
100
AcDbLine
 10
193.903508353416
 20
597.348979794336
 30
0.0
 11
191.903508353415
 21
599.348979794336
 31
0.0
  0
LINE
  5
36D
100
AcDbEntity
  8
Frei
  6
CONTINUOUS
 62
           2
100
AcDbLine
 10
193.903508353416
 20
598.409639966116
 30
0.0
 11
191.903508353415
 21
600.409639966115
 31
0.0
  0
LINE
  5
36E
100
AcDbEntity
  8
Frei
  6
CONTINUOUS
 62
           2
100
AcDbLine
 10
193.903508353415
 20
599.470300137896
 30
0.0
 11
191.903508353415
 21
601.470300137896
 31
0.0
  0
LINE
  5
36F
100
AcDbEntity
  8
Frei
  6
CONTINUOUS
 62
           2
100
AcDbLine
 10
193.903508353416
 20
600.530960309675
 30
0.0
 11
191.903508353413
 21
602.530960309675
 31
0.0
  0
LINE
  5
370
100
AcDbEntity
  8
Frei
  6
CONTINUOUS
 62
           2
100
AcDbLine
 10
193.903508353415
 20
601.591620481455
 30
0.0
 11
191.903508353415
 21
603.591620481455
 31
0.0
  0
LINE
  5
371
100
AcDbEntity
  8
Frei
  6
CONTINUOUS
 62
           2
100
AcDbLine
 10
193.903508353415
 20
602.652280653235
 30
0.0
 11
191.903508353413
 21
604.652280653235
 31
0.0
  0
LINE
  5
372
100
AcDbEntity
  8
Frei
  6
CONTINUOUS
 62
           2
100
AcDbLine
 10
193.903508353415
 20
603.712940825014
 30
0.0
 11
191.903508353413
 21
605.712940825014
 31
0.0
  0
LINE
  5
373
100
AcDbEntity
  8
Frei
  6
CONTINUOUS
 62
           2
100
AcDbLine
 10
193.903508353415
 20
604.773600996794
 30
0.0
 11
191.903508353415
 21
606.773600996794
 31
0.0
  0
LINE
  5
374
100
AcDbEntity
  8
Frei
  6
CONTINUOUS
 62
           2
100
AcDbLine
 10
193.903508353415
 20
605.834261168574
 30
0.0
 11
191.903508353415
 21
607.834261168574
 31
0.0
  0
LINE
  5
375
100
AcDbEntity
  8
Frei
  6
CONTINUOUS
 62
           2
100
AcDbLine
 10
193.903508353416
 20
606.894921340354
 30
0.0
 11
191.903508353415
 21
608.894921340354
 31
0.0
  0
LINE
  5
376
100
AcDbEntity
  8
Frei
  6
CONTINUOUS
 62
           2
100
AcDbLine
 10
193.903508353416
 20
607.955581512134
 30
0.0
 11
191.903508353415
 21
609.955581512133
 31
0.0
  0
LINE
  5
377
100
AcDbEntity
  8
Frei
  6
CONTINUOUS
 62
           2
100
AcDbLine
 10
193.903508353415
 20
609.016241683913
 30
0.0
 11
191.903508353415
 21
611.016241683913
 31
0.0
  0
LINE
  5
378
100
AcDbEntity
  8
Frei
  6
CONTINUOUS
 62
           2
100
AcDbLine
 10
193.903508353416
 20
610.076901855693
 30
0.0
 11
191.903508353415
 21
612.076901855693
 31
0.0
  0
LINE
  5
379
100
AcDbEntity
  8
Frei
  6
CONTINUOUS
 62
           2
100
AcDbLine
 10
193.903508353415
 20
611.137562027473
 30
0.0
 11
191.903508353415
 21
613.137562027473
 31
0.0
  0
LINE
  5
37A
100
AcDbEntity
  8
Frei
  6
CONTINUOUS
 62
           2
100
AcDbLine
 10
193.903508353416
 20
612.198222199253
 30
0.0
 11
191.903508353413
 21
614.198222199253
 31
0.0
  0
LINE
  5
37B
100
AcDbEntity
  8
Frei
  6
CONTINUOUS
 62
           2
100
AcDbLine
 10
193.903508353415
 20
613.258882371032
 30
0.0
 11
191.903508353415
 21
615.258882371032
 31
0.0
  0
LINE
  5
37C
100
AcDbEntity
  8
Frei
  6
CONTINUOUS
 62
           2
100
AcDbLine
 10
193.903508353415
 20
614.319542542812
 30
0.0
 11
192.726283875249
 21
615.496767020978
 31
0.0
  0
LINE
  5
37D
100
AcDbEntity
  8
Frei
  6
CONTINUOUS
 62
           2
100
AcDbLine
 10
193.903508353415
 20
615.380202714592
 30
0.0
 11
193.786944047029
 21
615.496767020978
 31
0.0
  0
ENDBLK
  5
37E
100
AcDbEntity
  8
0
  6
BYBLOCK
 62
           0
100
AcDbBlockEnd
  0
BLOCK
  5
37F
100
AcDbEntity
  8
0
100
AcDbBlockBegin
  2
MAK2
 70
          64
 10
0.0
 20
0.0
 30
0.0
  3
MAK2
  1

  0
LINE
  5
380
100
AcDbEntity
  8
Frei
  6
CONTINUOUS
 62
           2
100
AcDbLine
 10
-32.096491646585
 20
614.906213139102
 30
0.0
 11
-31.505937764712
 21
615.496767020978
 31
0.0
  0
LINE
  5
381
100
AcDbEntity
  8
Frei
  6
CONTINUOUS
 62
           2
100
AcDbLine
 10
-32.096491646587
 20
613.845552967322
 30
0.0
 11
-30.445277592929
 21
615.496767020978
 31
0.0
  0
LINE
  5
382
100
AcDbEntity
  8
Frei
  6
CONTINUOUS
 62
           2
100
AcDbLine
 10
-32.096491646585
 20
612.784892795542
 30
0.0
 11
-30.096491646587
 21
614.784892795542
 31
0.0
  0
LINE
  5
383
100
AcDbEntity
  8
Frei
  6
CONTINUOUS
 62
           2
100
AcDbLine
 10
-32.096491646587
 20
611.724232623762
 30
0.0
 11
-30.096491646587
 21
613.724232623762
 31
0.0
  0
LINE
  5
384
100
AcDbEntity
  8
Frei
  6
CONTINUOUS
 62
           2
100
AcDbLine
 10
-32.096491646587
 20
610.663572451983
 30
0.0
 11
-30.096491646587
 21
612.663572451982
 31
0.0
  0
LINE
  5
385
100
AcDbEntity
  8
Frei
  6
CONTINUOUS
 62
           2
100
AcDbLine
 10
-32.096491646587
 20
609.602912280203
 30
0.0
 11
-30.096491646587
 21
611.602912280203
 31
0.0
  0
LINE
  5
386
100
AcDbEntity
  8
Frei
  6
CONTINUOUS
 62
           2
100
AcDbLine
 10
-32.096491646585
 20
608.542252108423
 30
0.0
 11
-30.096491646587
 21
610.542252108423
 31
0.0
  0
LINE
  5
387
100
AcDbEntity
  8
Frei
  6
CONTINUOUS
 62
           2
100
AcDbLine
 10
-32.096491646587
 20
607.481591936643
 30
0.0
 11
-30.096491646585
 21
609.481591936643
 31
0.0
  0
LINE
  5
388
100
AcDbEntity
  8
Frei
  6
CONTINUOUS
 62
           2
100
AcDbLine
 10
-32.096491646585
 20
606.420931764864
 30
0.0
 11
-30.096491646587
 21
608.420931764863
 31
0.0
  0
LINE
  5
389
100
AcDbEntity
  8
Frei
  6
CONTINUOUS
 62
           2
100
AcDbLine
 10
-32.096491646585
 20
605.360271593084
 30
0.0
 11
-30.096491646585
 21
607.360271593084
 31
0.0
  0
LINE
  5
38A
100
AcDbEntity
  8
Frei
  6
CONTINUOUS
 62
           2
100
AcDbLine
 10
-32.096491646585
 20
604.299611421304
 30
0.0
 11
-30.096491646589
 21
606.299611421304
 31
0.0
  0
LINE
  5
38B
100
AcDbEntity
  8
Frei
  6
CONTINUOUS
 62
           2
100
AcDbLine
 10
-32.096491646585
 20
603.238951249524
 30
0.0
 11
-30.096491646587
 21
605.238951249524
 31
0.0
  0
LINE
  5
38C
100
AcDbEntity
  8
Frei
  6
CONTINUOUS
 62
           2
100
AcDbLine
 10
-32.096491646585
 20
602.178291077745
 30
0.0
 11
-30.096491646587
 21
604.178291077744
 31
0.0
  0
LINE
  5
38D
100
AcDbEntity
  8
Frei
  6
CONTINUOUS
 62
           2
100
AcDbLine
 10
-32.096491646587
 20
601.117630905965
 30
0.0
 11
-30.096491646587
 21
603.117630905965
 31
0.0
  0
LINE
  5
38E
100
AcDbEntity
  8
Frei
  6
CONTINUOUS
 62
           2
100
AcDbLine
 10
-32.096491646585
 20
600.056970734185
 30
0.0
 11
-30.096491646587
 21
602.056970734185
 31
0.0
  0
LINE
  5
38F
100
AcDbEntity
  8
Frei
  6
CONTINUOUS
 62
           2
100
AcDbLine
 10
-32.096491646587
 20
598.996310562405
 30
0.0
 11
-30.096491646585
 21
600.996310562405
 31
0.0
  0
LINE
  5
390
100
AcDbEntity
  8
Frei
  6
CONTINUOUS
 62
           2
100
AcDbLine
 10
-32.096491646587
 20
597.935650390626
 30
0.0
 11
-30.096491646587
 21
599.935650390625
 31
0.0
  0
LINE
  5
391
100
AcDbEntity
  8
Frei
  6
CONTINUOUS
 62
           2
100
AcDbLine
 10
-32.096491646585
 20
596.874990218846
 30
0.0
 11
-30.096491646585
 21
598.874990218846
 31
0.0
  0
LINE
  5
392
100
AcDbEntity
  8
Frei
  6
CONTINUOUS
 62
           2
100
AcDbLine
 10
-32.096491646587
 20
595.814330047066
 30
0.0
 11
-30.096491646585
 21
597.814330047066
 31
0.0
  0
LINE
  5
393
100
AcDbEntity
  8
Frei
  6
CONTINUOUS
 62
           2
100
AcDbLine
 10
-31.353394500895
 20
595.496767020978
 30
0.0
 11
-30.096491646589
 21
596.753669875286
 31
0.0
  0
LINE
  5
394
100
AcDbEntity
  8
Frei
  6
CONTINUOUS
 62
           2
100
AcDbLine
 10
-30.292734329116
 20
595.496767020978
 30
0.0
 11
-30.096491646587
 21
595.693009703506
 31
0.0
  0
LINE
  5
395
100
AcDbEntity
  8
Frei
  6
CONTINUOUS
 62
           2
100
AcDbLine
 10
-31.225555634112
 20
595.496767020978
 30
0.0
 11
-32.096491646587
 21
596.367703033455
 31
0.0
  0
LINE
  5
396
100
AcDbEntity
  8
Frei
  6
CONTINUOUS
 62
           2
100
AcDbLine
 10
-30.164895462329
 20
595.496767020978
 30
0.0
 11
-32.096491646585
 21
597.428363205234
 31
0.0
  0
LINE
  5
397
100
AcDbEntity
  8
Frei
  6
CONTINUOUS
 62
           2
100
AcDbLine
 10
-30.096491646587
 20
596.489023377014
 30
0.0
 11
-32.096491646587
 21
598.489023377014
 31
0.0
  0
LINE
  5
398
100
AcDbEntity
  8
Frei
  6
CONTINUOUS
 62
           2
100
AcDbLine
 10
-30.096491646587
 20
597.549683548794
 30
0.0
 11
-32.096491646587
 21
599.549683548794
 31
0.0
  0
LINE
  5
399
100
AcDbEntity
  8
Frei
  6
CONTINUOUS
 62
           2
100
AcDbLine
 10
-30.096491646587
 20
598.610343720574
 30
0.0
 11
-32.096491646585
 21
600.610343720574
 31
0.0
  0
LINE
  5
39A
100
AcDbEntity
  8
Frei
  6
CONTINUOUS
 62
           2
100
AcDbLine
 10
-30.096491646589
 20
599.671003892353
 30
0.0
 11
-32.096491646587
 21
601.671003892354
 31
0.0
  0
LINE
  5
39B
100
AcDbEntity
  8
Frei
  6
CONTINUOUS
 62
           2
100
AcDbLine
 10
-30.096491646587
 20
600.731664064133
 30
0.0
 11
-32.096491646585
 21
602.731664064133
 31
0.0
  0
LINE
  5
39C
100
AcDbEntity
  8
Frei
  6
CONTINUOUS
 62
           2
100
AcDbLine
 10
-30.096491646585
 20
601.792324235913
 30
0.0
 11
-32.096491646585
 21
603.792324235913
 31
0.0
  0
LINE
  5
39D
100
AcDbEntity
  8
Frei
  6
CONTINUOUS
 62
           2
100
AcDbLine
 10
-30.096491646587
 20
602.852984407693
 30
0.0
 11
-32.096491646585
 21
604.852984407693
 31
0.0
  0
LINE
  5
39E
100
AcDbEntity
  8
Frei
  6
CONTINUOUS
 62
           2
100
AcDbLine
 10
-30.096491646585
 20
603.913644579473
 30
0.0
 11
-32.096491646587
 21
605.913644579473
 31
0.0
  0
LINE
  5
39F
100
AcDbEntity
  8
Frei
  6
CONTINUOUS
 62
           2
100
AcDbLine
 10
-30.096491646587
 20
604.974304751252
 30
0.0
 11
-32.096491646585
 21
606.974304751252
 31
0.0
  0
LINE
  5
3A0
100
AcDbEntity
  8
Frei
  6
CONTINUOUS
 62
           2
100
AcDbLine
 10
-30.096491646587
 20
606.034964923032
 30
0.0
 11
-32.096491646587
 21
608.034964923032
 31
0.0
  0
LINE
  5
3A1
100
AcDbEntity
  8
Frei
  6
CONTINUOUS
 62
           2
100
AcDbLine
 10
-30.096491646587
 20
607.095625094812
 30
0.0
 11
-32.096491646585
 21
609.095625094812
 31
0.0
  0
LINE
  5
3A2
100
AcDbEntity
  8
Frei
  6
CONTINUOUS
 62
           2
100
AcDbLine
 10
-30.096491646587
 20
608.156285266592
 30
0.0
 11
-32.096491646587
 21
610.156285266592
 31
0.0
  0
LINE
  5
3A3
100
AcDbEntity
  8
Frei
  6
CONTINUOUS
 62
           2
100
AcDbLine
 10
-30.096491646587
 20
609.216945438371
 30
0.0
 11
-32.096491646587
 21
611.216945438371
 31
0.0
  0
LINE
  5
3A4
100
AcDbEntity
  8
Frei
  6
CONTINUOUS
 62
           2
100
AcDbLine
 10
-30.096491646587
 20
610.277605610151
 30
0.0
 11
-32.096491646585
 21
612.277605610151
 31
0.0
  0
LINE
  5
3A5
100
AcDbEntity
  8
Frei
  6
CONTINUOUS
 62
           2
100
AcDbLine
 10
-30.096491646587
 20
611.338265781931
 30
0.0
 11
-32.096491646585
 21
613.338265781931
 31
0.0
  0
LINE
  5
3A6
100
AcDbEntity
  8
Frei
  6
CONTINUOUS
 62
           2
100
AcDbLine
 10
-30.096491646585
 20
612.398925953711
 30
0.0
 11
-32.096491646587
 21
614.398925953711
 31
0.0
  0
LINE
  5
3A7
100
AcDbEntity
  8
Frei
  6
CONTINUOUS
 62
           2
100
AcDbLine
 10
-30.096491646587
 20
613.45958612549
 30
0.0
 11
-32.096491646585
 21
615.45958612549
 31
0.0
  0
LINE
  5
3A8
100
AcDbEntity
  8
Frei
  6
CONTINUOUS
 62
           2
100
AcDbLine
 10
-30.096491646587
 20
614.52024629727
 30
0.0
 11
-31.073012370294
 21
615.496767020978
 31
0.0
  0
ENDBLK
  5
3A9
100
AcDbEntity
  8
0
  6
BYBLOCK
 62
           0
100
AcDbBlockEnd
  0
ENDSEC
  0
SECTION
  2
ENTITIES
  0
INSERT
  5
26
100
AcDbEntity
  8
FREI
  6
CONTINUOUS
 62
           7
100
AcDbBlockReference
  2
MAK1
 10
-14475.664975355809
 20
-2486.585510308391
 30
0.0
 50
353.682999999999
  0
INSERT
  5
27
100
AcDbEntity
  8
FREI
  6
CONTINUOUS
 62
           7
100
AcDbBlockReference
  2
MAK2
 10
-14475.664975355809
 20
-2486.585510308391
 30
0.0
 50
353.682999999999
  0
LINE
  5
28
100
AcDbEntity
  8
FREI
  6
STRICHPUNKT
 62
          15
100
AcDbLine
 10
-14630.480337722454
 20
-1788.27472048743
 30
0.0
 11
-14630.480337722454
 21
-1848.27472048743
 31
0.0
  0
LINE
  5
29
100
AcDbEntity
  8
FREI
  6
STRICHPUNKT
 62
          15
100
AcDbLine
 10
-14630.480337722454
 20
-1848.27472048743
 30
0.0
 11
-14530.480337722454
 21
-2021.479801244317
 31
0.0
  0
LINE
  5
2A
100
AcDbEntity
  8
FREI
  6
CONTINUOUS
 62
          15
100
AcDbLine
 10
-14477.482516387203
 20
-1933.27472048743
 30
0.0
 11
-14452.538051381855
 21
-1976.479801244317
 31
0.0
  0
LINE
  5
2B
100
AcDbEntity
  8
FREI
  6
GESTRICHELT
 62
          15
100
AcDbLine
 10
-14521.134431632452
 20
-1857.667385434969
 30
0.0
 11
-14477.482516387203
 21
-1933.27472048743
 31
0.0
  0
LINE
  5
2C
100
AcDbEntity
  8
FREI
  6
CONTINUOUS
 62
          15
100
AcDbLine
 10
-14526.557289268321
 20
-1848.27472048743
 30
0.0
 11
-14521.134431632452
 21
-1857.667385434969
 31
0.0
  0
LINE
  5
2D
100
AcDbEntity
  8
FREI
  6
CONTINUOUS
 62
          15
100
AcDbLine
 10
-14630.480337722454
 20
-2028.27472048743
 30
0.0
 11
-14608.422624063054
 21
-2066.479801244317
 31
0.0
  0
LINE
  5
2E
100
AcDbEntity
  8
FREI
  6
STRICHPUNKT
 62
          15
100
AcDbLine
 10
-14630.480337722454
 20
-1848.27472048743
 30
0.0
 11
-14730.480337722454
 21
-2021.479801244317
 31
0.0
  0
LINE
  5
2F
100
AcDbEntity
  8
FREI
  6
CONTINUOUS
 62
          15
100
AcDbLine
 10
-14734.403386176587
 20
-1848.27472048743
 30
0.0
 11
-14808.422624063054
 21
-1976.479801244317
 31
0.0
  0
LINE
  5
30
100
AcDbEntity
  8
FREI
  6
CONTINUOUS
 62
          15
100
AcDbLine
 10
-14630.480337722454
 20
-2028.27472048743
 30
0.0
 11
-14652.538051381855
 21
-2066.479801244317
 31
0.0
  0
LINE
  5
31
100
AcDbEntity
  8
FREI
  6
CONTINUOUS
 62
          15
100
AcDbLine
 10
-14630.480337722454
 20
-1863.274720487429
 30
0.0
 11
-14630.480337722454
 21
-1848.27472048743
 31
0.0
  0
LINE
  5
32
100
AcDbEntity
  8
FREI
  6
GESTRICHELT
 62
          15
100
AcDbLine
 10
-14630.480337722454
 20
-1901.026754163225
 30
0.0
 11
-14630.480337722454
 21
-1863.274720487429
 31
0.0
  0
LINE
  5
33
100
AcDbEntity
  8
FREI
  6
GESTRICHELT
 62
          15
100
AcDbLine
 10
-14630.480337722454
 20
-1933.274720487429
 30
0.0
 11
-14630.480337722454
 21
-1915.522686811635
 31
0.0
  0
LINE
  5
34
100
AcDbEntity
  8
FREI
  6
CONTINUOUS
 62
          15
100
AcDbLine
 10
-14630.480337722454
 20
-2028.27472048743
 30
0.0
 11
-14630.480337722454
 21
-1933.274720487429
 31
0.0
  0
LINE
  5
35
100
AcDbEntity
  8
FREI
  6
CONTINUOUS
 62
          15
100
AcDbLine
 10
-14734.403386176587
 20
-1848.27472048743
 30
0.0
 11
-14720.480337722454
 21
-1788.27472048743
 31
0.0
  0
LINE
  5
36
100
AcDbEntity
  8
FREI
  6
CONTINUOUS
 62
          15
100
AcDbLine
 10
-14720.480337722454
 20
-1788.27472048743
 30
0.0
 11
-14540.480337722454
 21
-1788.27472048743
 31
0.0
  0
LINE
  5
37
100
AcDbEntity
  8
FREI
  6
CONTINUOUS
 62
          15
100
AcDbLine
 10
-14540.480337722454
 20
-1788.27472048743
 30
0.0
 11
-14526.557289268321
 21
-1848.27472048743
 31
0.0
  0
LINE
  5
38
100
AcDbEntity
  8
FREI
  6
CONTINUOUS
 62
          15
100
AcDbLine
 10
-14526.557289268321
 20
-1848.27472048743
 30
0.0
 11
-14734.403386176587
 21
-1848.27472048743
 31
0.0
  0
LINE
  5
39
100
AcDbEntity
  8
FREI
  6
CONTINUOUS
 62
          15
100
AcDbLine
 10
-14808.422624063054
 20
-1976.479801244317
 30
0.0
 11
-14652.538051381855
 21
-2066.479801244317
 31
0.0
  0
LINE
  5
3A
100
AcDbEntity
  8
FREI
  6
CONTINUOUS
 62
          15
100
AcDbLine
 10
-14608.422624063054
 20
-2066.479801244317
 30
0.0
 11
-14452.538051381855
 21
-1976.479801244317
 31
0.0
  0
CIRCLE
  5
3B
100
AcDbEntity
  8
FREI
  6
CONTINUOUS
 62
          15
100
AcDbCircle
 10
-14630.480337722454
 20
-1908.27472048743
 30
0.0
 40
7.247966324205
  0
ARC
  5
3C
100
AcDbEntity
  8
FREI
  6
CONTINUOUS
 62
          15
100
AcDbCircle
 10
-14630.480337722454
 20
-1908.27472048743
 30
0.0
 40
17.25
100
AcDbArc
 50
119.192990506928
 51
300.807009493073
  0
LINE
  5
3D
100
AcDbEntity
  8
FREI
  6
CONTINUOUS
 62
          15
100
AcDbLine
 10
-14566.499593548811
 20
-1852.533793863655
 30
0.0
 11
-14638.894074614504
 21
-1893.215785215925
 31
0.0
  0
LINE
  5
3E
100
AcDbEntity
  8
FREI
  6
GESTRICHELT
 62
          15
100
AcDbLine
 10
-14565.7680709457
 20
-1852.122715618798
 30
0.0
 11
-14566.499593548811
 21
-1852.533793863655
 31
0.0
  0
LINE
  5
3F
100
AcDbEntity
  8
FREI
  6
CONTINUOUS
 62
          15
100
AcDbLine
 10
-14563.928137025734
 20
-1851.088766970795
 30
0.0
 11
-14565.7680709457
 21
-1852.122715618798
 31
0.0
  0
LINE
  5
40
100
AcDbEntity
  8
FREI
  6
CONTINUOUS
 62
          15
100
AcDbLine
 10
-14617.602618878258
 20
-1920.679816420928
 30
0.0
 11
-14621.645785669411
 21
-1923.090698012456
 31
0.0
  0
ARC
  5
41
100
AcDbEntity
  8
FREI
  6
CONTINUOUS
 62
          15
100
AcDbCircle
 10
-14556.002152996993
 20
-1865.27472048743
 30
0.0
 40
16.25
100
AcDbArc
 50
41.271052753469
 51
119.192990506929
  0
ARC
  5
42
100
AcDbEntity
  8
FREI
  6
GESTRICHELT
 62
          15
100
AcDbCircle
 10
-14556.002152996993
 20
-1865.27472048743
 30
0.0
 40
16.25
100
AcDbArc
 50
306.069996507533
 51
41.271052753469
  0
ARC
  5
43
100
AcDbEntity
  8
FREI
  6
CONTINUOUS
 62
          15
100
AcDbCircle
 10
-14556.002152996993
 20
-1865.27472048743
 30
0.0
 40
16.25
100
AcDbArc
 50
221.296003492467
 51
306.069996507533
  0
ARC
  5
44
100
AcDbEntity
  8
FREI
  6
GESTRICHELT
 62
          15
100
AcDbCircle
 10
-14556.002152996993
 20
-1865.27472048743
 30
0.0
 40
16.25
100
AcDbArc
 50
217.634979203191
 51
221.296003492467
  0
LINE
  5
45
100
AcDbEntity
  8
FREI
  6
CONTINUOUS
 62
          15
100
AcDbLine
 10
-14576.57477266868
 20
-1874.937034437083
 30
0.0
 11
-14614.544820237774
 21
-1917.844052604045
 31
0.0
  0
ARC
  5
46
100
AcDbEntity
  8
FREI
  6
CONTINUOUS
 62
          15
100
AcDbCircle
 10
-14622.724098329305
 20
-1912.09084394264
 30
0.0
 40
10.000000000014
100
AcDbArc
 50
300.807009493082
 51
324.877894256036
  0
ARC
  5
47
100
AcDbEntity
  8
FREI
  6
CONTINUOUS
 62
          15
100
AcDbCircle
 10
-14572.830389262403
 20
-1878.250581314193
 30
0.0
 40
5.0
100
AcDbArc
 50
46.128156733688
 51
138.493166028592
  0
ARC
  5
48
100
AcDbEntity
  8
FREI
  6
GESTRICHELT
 62
          15
100
AcDbCircle
 10
-14572.830389262403
 20
-1878.250581314193
 30
0.0
 40
5.0
100
AcDbArc
 50
37.634979203188
 51
46.128156733688
  0
LINE
  5
49
100
AcDbEntity
  8
Frei
  6
GESTRICHELT
 62
           7
100
AcDbLine
 10
-14185.08449014538
 20
-1906.337848599803
 30
0.0
 11
-14183.158978788226
 21
-1888.944102424425
 31
0.0
  0
LINE
  5
4A
100
AcDbEntity
  8
Frei
  6
GESTRICHELT
 62
           7
100
AcDbLine
 10
-14183.158978788226
 20
-1888.944102424425
 30
0.0
 11
-14187.134692199741
 21
-1888.50398554279
 31
0.0
  0
LINE
  5
4B
100
AcDbEntity
  8
Frei
  6
CONTINUOUS
 62
           7
100
AcDbLine
 10
-14187.134692199741
 20
-1888.50398554279
 30
0.0
 11
-14186.089414605858
 21
-1879.061666190442
 31
0.0
  0
LINE
  5
4C
100
AcDbEntity
  8
Frei
  6
CONTINUOUS
 62
           7
100
AcDbLine
 10
-14186.089414605858
 20
-1879.061666190442
 30
0.0
 11
-14215.509693851069
 21
-1875.804801266342
 31
0.0
  0
LINE
  5
4D
100
AcDbEntity
  8
Frei
  6
CONTINUOUS
 62
           7
100
AcDbLine
 10
-14215.509693851069
 20
-1875.804801266342
 30
0.0
 11
-14215.564708461274
 21
-1876.301765442782
 31
0.0
  0
LINE
  5
4E
100
AcDbEntity
  8
Frei
  6
CONTINUOUS
 62
           7
100
AcDbLine
 10
-14215.564708461274
 20
-1876.301765442782
 30
0.0
 11
-14435.160250487725
 21
-1851.992602280805
 31
0.0
  0
LINE
  5
4F
100
AcDbEntity
  8
Frei
  6
CONTINUOUS
 62
           7
100
AcDbLine
 10
-14435.160250487725
 20
-1851.992602280805
 30
0.0
 11
-14435.10523587752
 21
-1851.495638104365
 31
0.0
  0
LINE
  5
50
100
AcDbEntity
  8
Frei
  6
CONTINUOUS
 62
           7
100
AcDbLine
 10
-14435.10523587752
 20
-1851.495638104365
 30
0.0
 11
-14464.52551512273
 21
-1848.238773180266
 31
0.0
  0
LINE
  5
51
100
AcDbEntity
  8
Frei
  6
CONTINUOUS
 62
           7
100
AcDbLine
 10
-14464.52551512273
 20
-1848.238773180266
 30
0.0
 11
-14465.570792716615
 21
-1857.681092532614
 31
0.0
  0
LINE
  5
52
100
AcDbEntity
  8
Frei
  6
CONTINUOUS
 62
           7
100
AcDbLine
 10
-14465.570792716615
 20
-1857.681092532614
 30
0.0
 11
-14476.007040421842
 21
-1856.525785718322
 31
0.0
  0
LINE
  5
53
100
AcDbEntity
  8
Frei
  6
CONTINUOUS
 62
           7
100
AcDbLine
 10
-14476.007040421842
 20
-1856.525785718322
 30
0.0
 11
-14476.062055032045
 21
-1857.022749894761
 31
0.0
  0
LINE
  5
54
100
AcDbEntity
  8
Frei
  6
CONTINUOUS
 62
           7
100
AcDbLine
 10
-14476.062055032045
 20
-1857.022749894761
 30
0.0
 11
-14486.995266913711
 21
-1855.812428470264
 31
0.0
  0
LINE
  5
55
100
AcDbEntity
  8
Frei
  6
CONTINUOUS
 62
           7
100
AcDbLine
 10
-14486.995266913711
 20
-1855.812428470264
 30
0.0
 11
-14490.73626040761
 21
-1889.605992468141
 31
0.0
  0
LINE
  5
56
100
AcDbEntity
  8
Frei
  6
CONTINUOUS
 62
           7
100
AcDbLine
 10
-14490.73626040761
 20
-1889.605992468141
 30
0.0
 11
-14479.803048525944
 21
-1890.816313892638
 31
0.0
  0
LINE
  5
57
100
AcDbEntity
  8
Frei
  6
CONTINUOUS
 62
           7
100
AcDbLine
 10
-14479.803048525944
 20
-1890.816313892638
 30
0.0
 11
-14479.858063136149
 21
-1891.313278069077
 31
0.0
  0
LINE
  5
58
100
AcDbEntity
  8
Frei
  6
CONTINUOUS
 62
           7
100
AcDbLine
 10
-14479.858063136149
 20
-1891.313278069077
 30
0.0
 11
-14469.421815430922
 21
-1892.468584883369
 31
0.0
  0
LINE
  5
59
100
AcDbEntity
  8
Frei
  6
CONTINUOUS
 62
           7
100
AcDbLine
 10
-14469.421815430922
 20
-1892.468584883369
 30
0.0
 11
-14470.467093024805
 21
-1901.910904235717
 31
0.0
  0
LINE
  5
5A
100
AcDbEntity
  8
Frei
  6
CONTINUOUS
 62
           7
100
AcDbLine
 10
-14470.467093024805
 20
-1901.910904235717
 30
0.0
 11
-14441.046813779594
 21
-1905.167769159817
 31
0.0
  0
LINE
  5
5B
100
AcDbEntity
  8
Frei
  6
CONTINUOUS
 62
           7
100
AcDbLine
 10
-14441.046813779594
 20
-1905.167769159817
 30
0.0
 11
-14440.991799169389
 21
-1904.670804983378
 31
0.0
  0
LINE
  5
5C
100
AcDbEntity
  8
Frei
  6
CONTINUOUS
 62
           7
100
AcDbLine
 10
-14222.358853895605
 20
-1928.873408962487
 30
0.0
 11
-14221.396257142938
 21
-1928.979968145354
 31
0.0
  0
LINE
  5
5D
100
AcDbEntity
  8
Frei
  6
GESTRICHELT
 62
           7
100
AcDbLine
 10
-14250.188852793282
 20
-1925.792636111826
 30
0.0
 11
-14222.358853895605
 21
-1928.873408962487
 31
0.0
  0
LINE
  5
5E
100
AcDbEntity
  8
Frei
  6
CONTINUOUS
 62
           7
100
AcDbLine
 10
-14412.199203519047
 20
-1907.858137016906
 30
0.0
 11
-14250.188852793282
 21
-1925.792636111826
 31
0.0
  0
LINE
  5
5F
100
AcDbEntity
  8
Frei
  6
GESTRICHELT
 62
           7
100
AcDbLine
 10
-14440.029202416725
 20
-1904.777364166245
 30
0.0
 11
-14412.199203519047
 21
-1907.858137016906
 31
0.0
  0
LINE
  5
60
100
AcDbEntity
  8
Frei
  6
CONTINUOUS
 62
           7
100
AcDbLine
 10
-14440.991799169389
 20
-1904.670804983378
 30
0.0
 11
-14440.029202416725
 21
-1904.777364166245
 31
0.0
  0
LINE
  5
61
100
AcDbEntity
  8
Frei
  6
CONTINUOUS
 62
           7
100
AcDbLine
 10
-14221.396257142938
 20
-1928.979968145354
 30
0.0
 11
-14221.451271753143
 21
-1929.476932321794
 31
0.0
  0
LINE
  5
62
100
AcDbEntity
  8
Frei
  6
CONTINUOUS
 62
           7
100
AcDbLine
 10
-14221.451271753143
 20
-1929.476932321794
 30
0.0
 11
-14192.030992507933
 21
-1932.733797245894
 31
0.0
  0
LINE
  5
63
100
AcDbEntity
  8
Frei
  6
CONTINUOUS
 62
           7
100
AcDbLine
 10
-14192.030992507933
 20
-1932.733797245894
 30
0.0
 11
-14190.985714914048
 21
-1923.291477893546
 31
0.0
  0
LINE
  5
64
100
AcDbEntity
  8
Frei
  6
GESTRICHELT
 62
           7
100
AcDbLine
 10
-14190.985714914048
 20
-1923.291477893546
 30
0.0
 11
-14187.010001502533
 21
-1923.731594775181
 31
0.0
  0
LINE
  5
65
100
AcDbEntity
  8
Frei
  6
GESTRICHELT
 62
           7
100
AcDbLine
 10
-14187.010001502533
 20
-1923.731594775181
 30
0.0
 11
-14185.08449014538
 21
-1906.337848599803
 31
0.0
  0
LINE
  5
66
100
AcDbEntity
  8
Frei
  6
CONTINUOUS
 62
           7
100
AcDbLine
 10
-14187.134692199741
 20
-1888.50398554279
 30
0.0
 11
-14190.985714914048
 21
-1923.291477893546
 31
0.0
  0
LINE
  5
67
100
AcDbEntity
  8
Frei
  6
CONTINUOUS
 62
           7
100
AcDbLine
 10
-14219.874405225202
 20
-1915.232603906098
 30
0.0
 11
-14221.396257142938
 21
-1928.979968145354
 31
0.0
  0
LINE
  5
68
100
AcDbEntity
  8
Frei
  6
GESTRICHELT
 62
           7
100
AcDbLine
 10
-14217.790786977366
 20
-1896.410628748893
 30
0.0
 11
-14219.874405225202
 21
-1915.232603906098
 31
0.0
  0
LINE
  5
69
100
AcDbEntity
  8
Frei
  6
CONTINUOUS
 62
           7
100
AcDbLine
 10
-14215.564708461274
 20
-1876.301765442782
 30
0.0
 11
-14217.790786977366
 21
-1896.410628748893
 31
0.0
  0
LINE
  5
6A
100
AcDbEntity
  8
Frei
  6
CONTINUOUS
 62
           7
100
AcDbLine
 10
-14439.469907663914
 20
-1890.923083135688
 30
0.0
 11
-14440.991799169389
 21
-1904.670804983378
 31
0.0
  0
LINE
  5
6B
100
AcDbEntity
  8
Frei
  6
GESTRICHELT
 62
           7
100
AcDbLine
 10
-14437.386289416077
 20
-1872.101107978484
 30
0.0
 11
-14439.469907663914
 21
-1890.923083135688
 31
0.0
  0
LINE
  5
6C
100
AcDbEntity
  8
Frei
  6
CONTINUOUS
 62
           7
100
AcDbLine
 10
-14435.160250487725
 20
-1851.992602280805
 30
0.0
 11
-14437.386289416077
 21
-1872.101107978484
 31
0.0
  0
LINE
  5
6D
100
AcDbEntity
  8
Frei
  6
CONTINUOUS
 62
           7
100
AcDbLine
 10
-14465.570792716615
 20
-1857.681092532614
 30
0.0
 11
-14469.421815430922
 21
-1892.468584883369
 31
0.0
  0
LINE
  5
6E
100
AcDbEntity
  8
Frei
  6
CONTINUOUS
 62
           7
100
AcDbLine
 10
-14476.007040421842
 20
-1856.525785718322
 30
0.0
 11
-14479.858063136149
 21
-1891.313278069077
 31
0.0
  0
LINE
  5
6F
100
AcDbEntity
  8
Frei
  6
GESTRICHELT
 62
           7
100
AcDbLine
 10
-14501.678333222737
 20
-1865.254189170246
 30
0.0
 11
-14519.74611554578
 21
-1863.254061094855
 31
0.0
  0
LINE
  5
70
100
AcDbEntity
  8
Frei
  6
CONTINUOUS
 62
           7
100
AcDbLine
 10
-14496.653979337676
 20
-1865.810391978456
 30
0.0
 11
-14501.678333222737
 21
-1865.254189170246
 31
0.0
  0
LINE
  5
71
100
AcDbEntity
  8
Frei
  6
GESTRICHELT
 62
           7
100
AcDbLine
 10
-14502.998683867643
 20
-1877.18132940479
 30
0.0
 11
-14521.066466190687
 21
-1875.1812013294
 31
0.0
  0
LINE
  5
72
100
AcDbEntity
  8
Frei
  6
CONTINUOUS
 62
           7
100
AcDbLine
 10
-14497.974329982582
 20
-1877.737532213001
 30
0.0
 11
-14502.998683867643
 21
-1877.18132940479
 31
0.0
  0
LINE
  5
73
100
AcDbEntity
  8
Frei
  6
GESTRICHELT
 62
           7
100
AcDbLine
 10
-14520.592629112683
 20
-1863.931825010349
 30
0.0
 11
-14519.74611554578
 21
-1863.254061094855
 31
0.0
  0
LINE
  5
74
100
AcDbEntity
  8
Frei
  6
GESTRICHELT
 62
           7
100
AcDbLine
 10
-14521.744241145754
 20
-1874.334696601486
 30
0.0
 11
-14521.066466190687
 21
-1875.1812013294
 31
0.0
  0
LINE
  5
75
100
AcDbEntity
  8
Frei
  6
GESTRICHELT
 62
           7
100
AcDbLine
 10
-14520.592629112683
 20
-1863.931825010349
 30
0.0
 11
-14521.744241145754
 21
-1874.334696601486
 31
0.0
  0
LINE
  5
76
100
AcDbEntity
  8
Frei
  6
CONTINUOUS
 62
           7
100
AcDbLine
 10
-14501.762702528655
 20
-1866.016323491949
 30
0.0
 11
-14496.738348643594
 21
-1866.57252630016
 31
0.0
  0
LINE
  5
77
100
AcDbEntity
  8
Frei
  6
GESTRICHELT
 62
           7
100
AcDbLine
 10
-14520.592629112683
 20
-1863.931825010349
 30
0.0
 11
-14501.762702528655
 21
-1866.016323491949
 31
0.0
  0
LINE
  5
78
100
AcDbEntity
  8
Frei
  6
CONTINUOUS
 62
           7
100
AcDbLine
 10
-14502.914314561725
 20
-1876.419195083086
 30
0.0
 11
-14497.889960676664
 21
-1876.975397891297
 31
0.0
  0
LINE
  5
79
100
AcDbEntity
  8
Frei
  6
GESTRICHELT
 62
           7
100
AcDbLine
 10
-14521.744241145754
 20
-1874.334696601486
 30
0.0
 11
-14502.914314561725
 21
-1876.419195083086
 31
0.0
  0
LINE
  5
7A
100
AcDbEntity
  8
Frei
  6
GESTRICHELT
 62
           7
100
AcDbLine
 10
-14519.74611554578
 20
-1863.254061094855
 30
0.0
 11
-14521.066466190687
 21
-1875.1812013294
 31
0.0
  0
LINE
  5
7B
100
AcDbEntity
  8
Frei
  6
CONTINUOUS
 62
           7
100
AcDbLine
 10
-14487.985529897391
 20
-1864.757783646173
 30
0.0
 11
-14496.433920896859
 21
-1863.822535272698
 31
0.0
  0
LINE
  5
7C
100
AcDbEntity
  8
Frei
  6
CONTINUOUS
 62
           7
100
AcDbLine
 10
-14496.433920896859
 20
-1863.822535272698
 30
0.0
 11
-14498.194388423399
 21
-1879.725388918758
 31
0.0
  0
LINE
  5
7D
100
AcDbEntity
  8
Frei
  6
CONTINUOUS
 62
           7
100
AcDbLine
 10
-14498.194388423399
 20
-1879.725388918758
 30
0.0
 11
-14489.74599742393
 21
-1880.660637292233
 31
0.0
  0
LINE
  5
7E
100
AcDbEntity
  8
Frei
  6
CONTINUOUS
 62
           7
100
AcDbLine
 10
-14496.801012485201
 20
-1867.138588375691
 30
0.0
 11
-14491.500064582944
 21
-1867.725410517774
 31
0.0
  0
LINE
  5
7F
100
AcDbEntity
  8
Frei
  6
CONTINUOUS
 62
           7
100
AcDbLine
 10
-14497.827296835057
 20
-1876.409335815765
 30
0.0
 11
-14492.526348932801
 21
-1876.996157957848
 31
0.0
  0
LINE
  5
80
100
AcDbEntity
  8
Frei
  6
CONTINUOUS
 62
           7
100
AcDbLine
 10
-14491.500064582944
 20
-1867.725410517774
 30
0.0
 11
-14492.526348932801
 21
-1876.996157957848
 31
0.0
  0
LINE
  5
81
100
AcDbEntity
  8
Frei
  6
CONTINUOUS
 62
           7
100
AcDbLine
 10
-14496.801012485201
 20
-1867.138588375691
 30
0.0
 11
-14492.526348932801
 21
-1876.996157957848
 31
0.0
  0
LINE
  5
82
100
AcDbEntity
  8
Frei
  6
CONTINUOUS
 62
           7
100
AcDbLine
 10
-14491.500064582944
 20
-1867.725410517774
 30
0.0
 11
-14497.827296835057
 21
-1876.409335815765
 31
0.0
  0
CIRCLE
  5
83
100
AcDbEntity
  8
Frei
  6
CONTINUOUS
 62
           7
100
AcDbCircle
 10
-14454.241482455918
 20
-1882.578817910987
 30
0.0
 40
5.7225
  0
ARC
  5
84
100
AcDbEntity
  8
Frei
  6
CONTINUOUS
 62
           7
100
AcDbCircle
 10
-14454.241482455918
 20
-1882.578817910987
 30
0.0
 40
6.5785
100
AcDbArc
 50
103.683
 51
13.683
  0
CIRCLE
  5
85
100
AcDbEntity
  8
Frei
  6
CONTINUOUS
 62
           7
100
AcDbCircle
 10
-14202.315025174745
 20
-1898.393752515173
 30
0.0
 40
5.7225
  0
ARC
  5
86
100
AcDbEntity
  8
Frei
  6
CONTINUOUS
 62
           7
100
AcDbCircle
 10
-14202.315025174745
 20
-1898.393752515173
 30
0.0
 40
6.57849
100
AcDbArc
 50
103.682999999994
 51
13.683
  0
LINE
  5
87
100
AcDbEntity
  8
Frei
  6
CONTINUOUS
 62
           7
100
AcDbLine
 10
-14444.859873897616
 20
-1866.447223638913
 30
0.0
 11
-14452.604804150231
 21
-1872.648356089087
 31
0.0
  0
LINE
  5
88
100
AcDbEntity
  8
Frei
  6
CONTINUOUS
 62
           7
100
AcDbLine
 10
-14445.641063950894
 20
-1865.471545935642
 30
0.0
 11
-14453.385984300881
 21
-1871.672588932264
 31
0.0
  0
CIRCLE
  5
89
100
AcDbEntity
  8
Frei
  6
CONTINUOUS
 62
           7
100
AcDbCircle
 10
-14449.122931299833
 20
-1869.059926164156
 30
0.0
 40
5.0
  0
LINE
  5
8A
100
AcDbEntity
  8
Frei
  6
CONTINUOUS
 62
           7
100
AcDbLine
 10
-14203.170225151278
 20
-1909.300014502661
 30
0.0
 11
-14210.915543072604
 21
-1915.501013487595
 31
0.0
  0
LINE
  5
8B
100
AcDbEntity
  8
Frei
  6
CONTINUOUS
 62
           7
100
AcDbLine
 10
-14203.951604087595
 20
-1908.324225339994
 30
0.0
 11
-14211.696931911554
 21
-1914.52531377848
 31
0.0
  0
CIRCLE
  5
8C
100
AcDbEntity
  8
Frei
  6
CONTINUOUS
 62
           7
100
AcDbCircle
 10
-14207.433576330832
 20
-1911.912644262003
 30
0.0
 40
5.0
  0
LINE
  5
8D
100
AcDbEntity
  8
Frei
  6
CONTINUOUS
 62
           7
100
AcDbLine
 10
-14501.519000783524
 20
-1860.271467063985
 30
0.0
 11
-14504.109297342527
 21
-1859.984717712094
 31
0.0
  0
LINE
  5
8E
100
AcDbEntity
  8
Frei
  6
CONTINUOUS
 62
           7
100
AcDbLine
 10
-14506.699574022967
 20
-1859.697970560786
 30
0.0
 11
-14504.109297342527
 21
-1859.984717712094
 31
0.0
  0
LINE
  5
8F
100
AcDbEntity
  8
Frei
  6
CONTINUOUS
 62
           7
100
AcDbLine
 10
-14509.113615118737
 20
-1881.504758622946
 30
0.0
 11
-14506.523338438297
 21
-1881.791505774253
 31
0.0
  0
LINE
  5
90
100
AcDbEntity
  8
Frei
  6
CONTINUOUS
 62
           7
100
AcDbLine
 10
-14503.933041879294
 20
-1882.078255126145
 30
0.0
 11
-14506.523338438297
 21
-1881.791505774253
 31
0.0
  0
LINE
  5
91
100
AcDbEntity
  8
Frei
  6
CONTINUOUS
 62
           7
100
AcDbLine
 10
-14502.122512157759
 20
-1865.723174018809
 30
0.0
 11
-14504.712808716762
 21
-1865.436424666917
 31
0.0
  0
LINE
  5
92
100
AcDbEntity
  8
Frei
  6
CONTINUOUS
 62
           7
100
AcDbLine
 10
-14507.303085397201
 20
-1865.14967751561
 30
0.0
 11
-14504.712808716762
 21
-1865.436424666917
 31
0.0
  0
LINE
  5
93
100
AcDbEntity
  8
Frei
  6
CONTINUOUS
 62
           7
100
AcDbLine
 10
-14508.510103744502
 20
-1876.053051668122
 30
0.0
 11
-14505.919827064063
 21
-1876.33979881943
 31
0.0
  0
LINE
  5
94
100
AcDbEntity
  8
Frei
  6
CONTINUOUS
 62
           7
100
AcDbLine
 10
-14503.32953050506
 20
-1876.626548171322
 30
0.0
 11
-14505.919827064063
 21
-1876.33979881943
 31
0.0
  0
ARC
  5
95
100
AcDbEntity
  8
Frei
  6
CONTINUOUS
 62
           7
100
AcDbCircle
 10
-14540.88066464178
 20
-1866.951090190195
 30
0.0
 40
38.7776
100
AcDbArc
 50
354.542436999999
 51
1.81461
  0
ARC
  5
96
100
AcDbEntity
  8
Frei
  6
CONTINUOUS
 62
           7
100
AcDbCircle
 10
-14469.751971139047
 20
-1874.825133296152
 30
0.0
 40
38.7776
100
AcDbArc
 50
165.551
 51
172.824
  0
ARC
  5
97
100
AcDbEntity
  8
Frei
  6
CONTINUOUS
 62
           7
100
AcDbCircle
 10
-14469.751971139047
 20
-1874.825133296152
 30
0.0
 40
38.7776
100
AcDbArc
 50
174.541999999999
 51
181.814999999999
  0
ARC
  5
98
100
AcDbEntity
  8
Frei
  6
CONTINUOUS
 62
           7
100
AcDbCircle
 10
-14540.88066464178
 20
-1866.951090190195
 30
0.0
 40
38.7776
100
AcDbArc
 50
345.551389999999
 51
352.823562999999
  0
LINE
  5
99
100
AcDbEntity
  8
Frei
  6
CONTINUOUS
 62
           7
100
AcDbLine
 10
-14502.278844456991
 20
-1870.639169085092
 30
0.0
 11
-14502.33850854519
 21
-1871.217759287518
 31
0.0
  0
LINE
  5
9A
100
AcDbEntity
  8
Frei
  6
CONTINUOUS
 62
           7
100
AcDbLine
 10
-14508.225756335069
 20
-1869.980837852374
 30
0.0
 11
-14508.294127235638
 21
-1870.558464198829
 31
0.0
  0
LINE
  5
9B
100
AcDbEntity
  8
Frei
  6
CONTINUOUS
 62
           7
100
AcDbLine
 10
-14508.353751566701
 20
-1871.137058802424
 30
0.0
 11
-14508.294127235638
 21
-1870.558464198829
 31
0.0
  0
LINE
  5
9C
100
AcDbEntity
  8
Frei
  6
CONTINUOUS
 62
           7
100
AcDbLine
 10
-14502.406839688623
 20
-1871.795390035142
 30
0.0
 11
-14502.33850854519
 21
-1871.217759287518
 31
0.0
  0
ARC
  5
9D
100
AcDbEntity
  8
Frei
  6
CONTINUOUS
 62
           7
100
AcDbCircle
 10
-14511.50621222711
 20
-1861.925142508543
 30
0.0
 40
10.1345
100
AcDbArc
 50
337.964499999999
 51
353.682999999999
  0
ARC
  5
9E
100
AcDbEntity
  8
Frei
  6
CONTINUOUS
 62
           7
100
AcDbCircle
 10
-14497.315887193778
 20
-1863.496030788611
 30
0.0
 40
10.1232
100
AcDbArc
 50
173.683
 51
189.401999999999
  0
ARC
  5
9F
100
AcDbEntity
  8
Frei
  6
CONTINUOUS
 62
           7
100
AcDbCircle
 10
-14499.126413614435
 20
-1879.851082078096
 30
0.0
 40
10.1345
100
AcDbArc
 50
157.964
 51
173.683
  0
ARC
  5
A0
100
AcDbEntity
  8
Frei
  6
CONTINUOUS
 62
           7
100
AcDbCircle
 10
-14513.316738647767
 20
-1878.280193798028
 30
0.0
 40
10.1232
100
AcDbArc
 50
353.682999999999
 51
9.4015
  0
ARC
  5
A1
100
AcDbEntity
  8
Frei
  6
CONTINUOUS
 62
           7
100
AcDbCircle
 10
-14511.50621222711
 20
-1861.925142508543
 30
0.0
 40
10.1232
100
AcDbArc
 50
353.682999999999
 51
9.4015
  0
ARC
  5
A2
100
AcDbEntity
  8
Frei
  6
CONTINUOUS
 62
           7
100
AcDbCircle
 10
-14497.315887193778
 20
-1863.496030788611
 30
0.0
 40
10.1345
100
AcDbArc
 50
157.964
 51
173.683
  0
ARC
  5
A3
100
AcDbEntity
  8
Frei
  6
CONTINUOUS
 62
           7
100
AcDbCircle
 10
-14499.126413614435
 20
-1879.851082078096
 30
0.0
 40
10.1232
100
AcDbArc
 50
173.683
 51
189.401999999999
  0
ARC
  5
A4
100
AcDbEntity
  8
Frei
  6
CONTINUOUS
 62
           7
100
AcDbCircle
 10
-14513.316738647767
 20
-1878.280193798028
 30
0.0
 40
10.1345
100
AcDbArc
 50
337.964499999999
 51
353.682999999999
  0
LINE
  5
A5
100
AcDbEntity
  8
Frei
  6
CONTINUOUS
 62
           7
100
AcDbLine
 10
-14501.433245334862
 20
-1863.040233642775
 30
0.0
 11
-14502.33850854519
 21
-1871.217759287518
 31
0.0
  0
LINE
  5
A6
100
AcDbEntity
  8
Frei
  6
CONTINUOUS
 62
           7
100
AcDbLine
 10
-14507.38886402531
 20
-1862.380938554086
 30
0.0
 11
-14508.294127235638
 21
-1870.558464198829
 31
0.0
  0
LINE
  5
A7
100
AcDbEntity
  8
Frei
  6
CONTINUOUS
 62
           7
100
AcDbLine
 10
-14509.199390445967
 20
-1878.735989843571
 30
0.0
 11
-14508.294127235638
 21
-1870.558464198829
 31
0.0
  0
LINE
  5
A8
100
AcDbEntity
  8
Frei
  6
CONTINUOUS
 62
           7
100
AcDbLine
 10
-14503.243771755519
 20
-1879.395284932261
 30
0.0
 11
-14502.33850854519
 21
-1871.217759287518
 31
0.0
  0
LINE
  5
A9
100
AcDbEntity
  8
Frei
  6
CONTINUOUS
 62
           7
100
AcDbLine
 10
-14182.366641949018
 20
-1918.267548174952
 30
0.0
 11
-14183.205032989315
 21
-1918.189522086386
 31
0.0
  0
LINE
  5
AA
100
AcDbEntity
  8
Frei
  6
CONTINUOUS
 62
           7
100
AcDbLine
 10
-14181.497366450041
 20
-1917.559013753318
 30
0.0
 11
-14182.288379891988
 21
-1924.704485515626
 31
0.0
  0
LINE
  5
AB
100
AcDbEntity
  8
Frei
  6
CONTINUOUS
 62
           7
100
AcDbLine
 10
-14179.129980828564
 20
-1896.173679179075
 30
0.0
 11
-14179.146148631244
 21
-1896.319727996173
 31
0.0
  0
LINE
  5
AC
100
AcDbEntity
  8
Frei
  6
CONTINUOUS
 62
           7
100
AcDbLine
 10
-14180.658393631567
 20
-1895.184932461741
 30
0.0
 11
-14179.82323638766
 21
-1895.292170444266
 31
0.0
  0
LINE
  5
AD
100
AcDbEntity
  8
Frei
  6
CONTINUOUS
 62
           7
100
AcDbLine
 10
-14178.970467090759
 20
-1896.913980464688
 30
0.0
 11
-14181.179794578464
 21
-1916.871526493504
 31
0.0
  0
LINE
  5
AE
100
AcDbEntity
  8
Frei
  6
CONTINUOUS
 62
           7
100
AcDbLine
 10
-14168.480984522535
 20
-1917.833414062958
 30
0.0
 11
-14180.611923148386
 21
-1916.704430514587
 31
0.0
  0
LINE
  5
AF
100
AcDbEntity
  8
Frei
  6
CONTINUOUS
 62
           7
100
AcDbLine
 10
-14166.368745243964
 20
-1898.752896185651
 30
0.0
 11
-14178.452893072148
 21
-1897.201236730982
 31
0.0
  0
LINE
  5
B0
100
AcDbEntity
  8
Frei
  6
CONTINUOUS
 62
           7
100
AcDbLine
 10
-14181.481198647361
 20
-1917.41296493622
 30
0.0
 11
-14181.497366450041
 21
-1917.559013753318
 31
0.0
  0
LINE
  5
B1
100
AcDbEntity
  8
Frei
  6
CONTINUOUS
 62
           7
100
AcDbLine
 10
-14181.25223318037
 20
-1886.261464846164
 30
0.0
 11
-14180.377235930675
 21
-1886.389378293789
 31
0.0
  0
LINE
  5
B2
100
AcDbEntity
  8
Frei
  6
CONTINUOUS
 62
           7
100
AcDbLine
 10
-14178.338967386617
 20
-1889.028207416768
 30
0.0
 11
-14179.129980828564
 21
-1896.173679179075
 31
0.0
  0
LINE
  5
B3
100
AcDbEntity
  8
Frei
  6
CONTINUOUS
 62
           7
100
AcDbLine
 10
-14184.854466965235
 20
-1926.833606209836
 30
0.0
 11
-14185.736255556658
 21
-1926.767041075615
 31
0.0
  0
LINE
  5
B4
100
AcDbEntity
  8
Frei
  6
CONTINUOUS
 62
           7
100
AcDbLine
 10
-14182.230939147246
 20
-1881.068324391787
 30
0.0
 11
-14186.246568946206
 21
-1880.481290487226
 31
0.0
  0
LINE
  5
B5
100
AcDbEntity
  8
Frei
  6
CONTINUOUS
 62
           7
100
AcDbLine
 10
-14187.827120001321
 20
-1931.62037591081
 30
0.0
 11
-14191.873917343066
 21
-1931.314888165973
 31
0.0
  0
LINE
  5
B6
100
AcDbEntity
  8
Frei
  6
CONTINUOUS
 62
           7
100
AcDbLine
 10
-14184.943583987269
 20
-1919.606590929653
 30
0.0
 11
-14185.736255556658
 21
-1926.767041075615
 31
0.0
  0
LINE
  5
B7
100
AcDbEntity
  8
Frei
  6
CONTINUOUS
 62
           7
100
AcDbLine
 10
-14181.25223318037
 20
-1886.261464846164
 30
0.0
 11
-14182.044904749759
 21
-1893.421914992123
 31
0.0
  0
LINE
  5
B8
100
AcDbEntity
  8
Frei
  6
CONTINUOUS
 62
           7
100
AcDbLine
 10
-14180.872093451206
 20
-1882.827543807107
 30
0.0
 11
-14181.25223318037
 21
-1886.261464846164
 31
0.0
  0
LINE
  5
B9
100
AcDbEntity
  8
Frei
  6
CONTINUOUS
 62
           7
100
AcDbLine
 10
-14185.736255556658
 20
-1926.767041075615
 30
0.0
 11
-14186.116395285822
 21
-1930.20096211467
 31
0.0
  0
ARC
  5
BA
100
AcDbEntity
  8
Frei
  6
CONTINUOUS
 62
           7
100
AcDbCircle
 10
-14167.591390722455
 20
-1908.274720487429
 30
0.0
 40
9.6
100
AcDbArc
 50
264.682999999997
 51
82.683000000002
  0
ARC
  5
BB
100
AcDbEntity
  8
Frei
  6
CONTINUOUS
 62
           7
100
AcDbCircle
 10
-14167.591390722455
 20
-1908.27472048743
 30
0.0
 40
4.799999999999
100
AcDbArc
 50
173.682999999991
 51
353.683000000007
  0
ARC
  5
BC
100
AcDbEntity
  8
Frei
  6
CONTINUOUS
 62
           7
100
AcDbCircle
 10
-14167.591390722451
 20
-1908.274720487426
 30
0.0
 40
4.799999999995
100
AcDbArc
 50
353.682999999957
 51
63.886117282784
  0
ARC
  5
BD
100
AcDbEntity
  8
Frei
  6
CONTINUOUS
 62
           7
100
AcDbCircle
 10
-14167.591390722453
 20
-1908.274720487429
 30
0.0
 40
4.8
100
AcDbArc
 50
63.886117282778
 51
173.683
  0
ARC
  5
BE
100
AcDbEntity
  8
Frei
  6
CONTINUOUS
 62
           7
100
AcDbCircle
 10
-14180.686055965059
 20
-1917.500988312542
 30
0.0
 40
0.799999999995
100
AcDbArc
 50
84.682999999852
 51
128.110004000953
  0
ARC
  5
BF
100
AcDbEntity
  8
Frei
  6
CONTINUOUS
 62
           7
100
AcDbCircle
 10
-14180.68605596507
 20
-1917.50098831254
 30
0.0
 40
0.799999999986
100
AcDbArc
 50
128.110004000438
 51
173.683000000423
  0
ARC
  5
C0
100
AcDbEntity
  8
Frei
  6
CONTINUOUS
 62
           7
100
AcDbCircle
 10
-14182.292509132345
 20
-1917.470990376991
 30
0.0
 40
0.8
100
AcDbArc
 50
264.682999999975
 51
353.682999999991
  0
ARC
  5
C1
100
AcDbEntity
  8
Frei
  6
CONTINUOUS
 62
           7
100
AcDbCircle
 10
-14183.353298622664
 20
-1919.782637682307
 30
0.0
 40
1.599999999999
100
AcDbArc
 50
84.682999999911
 51
173.682999999991
  0
ARC
  5
C2
100
AcDbEntity
  8
Frei
  6
CONTINUOUS
 62
           7
100
AcDbCircle
 10
-14178.351005948953
 20
-1896.407751372505
 30
0.0
 40
0.799999999987
100
AcDbArc
 50
173.682999999556
 51
219.255995999584
  0
ARC
  5
C3
100
AcDbEntity
  8
Frei
  6
CONTINUOUS
 62
           7
100
AcDbCircle
 10
-14178.351005948942
 20
-1896.407751372506
 30
0.0
 40
0.799999999995
100
AcDbArc
 50
219.2559959991
 51
262.683000000148
  0
ARC
  5
C4
100
AcDbEntity
  8
Frei
  6
CONTINUOUS
 62
           7
100
AcDbCircle
 10
-14180.454619385153
 20
-1893.597961744777
 30
0.0
 40
1.600000000001
100
AcDbArc
 50
173.683000000032
 51
262.683000000024
  0
ARC
  5
C5
100
AcDbEntity
  8
Frei
  6
CONTINUOUS
 62
           7
100
AcDbCircle
 10
-14179.925123510868
 20
-1896.085655802748
 30
0.0
 40
0.8
100
AcDbArc
 50
353.682999999999
 51
82.683000000024
  0
ARC
  5
C6
100
AcDbEntity
  8
Frei
  6
CONTINUOUS
 62
           7
100
AcDbCircle
 10
-14187.706680650426
 20
-1930.024915362018
 30
0.0
 40
1.599999999999
100
AcDbArc
 50
265.682999999913
 51
353.683000000036
  0
ARC
  5
C7
100
AcDbEntity
  8
Frei
  6
CONTINUOUS
 62
           7
100
AcDbCircle
 10
-14184.6738079389
 20
-1924.440415386645
 30
0.0
 40
2.4
100
AcDbArc
 50
265.68300000002
 51
353.682999999997
  0
ARC
  5
C8
100
AcDbEntity
  8
Frei
  6
CONTINUOUS
 62
           7
100
AcDbCircle
 10
-14180.724395433528
 20
-1888.764137287788
 30
0.0
 40
2.400000000001
100
AcDbArc
 50
353.683000000013
 51
81.682999999936
  0
ARC
  5
C9
100
AcDbEntity
  8
Frei
  6
CONTINUOUS
 62
           7
100
AcDbCircle
 10
-14182.46237881581
 20
-1882.651497054452
 30
0.0
 40
1.599999999999
100
AcDbArc
 50
353.682999999963
 51
81.683000000086
  0
LINE
  5
CA
100
AcDbEntity
  8
Frei
  6
CONTINUOUS
 62
           7
100
AcDbLine
 10
-14508.954302558092
 20
-1876.522034316101
 30
0.0
 11
-14508.888285025845
 21
-1875.925677304374
 31
0.0
  0
LINE
  5
CB
100
AcDbEntity
  8
Frei
  6
CONTINUOUS
 62
           7
100
AcDbLine
 10
-14508.888285025845
 20
-1875.925677304374
 30
0.0
 11
-14507.699969445432
 21
-1865.191251093283
 31
0.0
  0
LINE
  5
CC
100
AcDbEntity
  8
Frei
  6
CONTINUOUS
 62
           7
100
AcDbLine
 10
-14507.699969445432
 20
-1865.191251093283
 30
0.0
 11
-14507.633951913185
 21
-1864.594894081556
 31
0.0
  0
LINE
  5
CD
100
AcDbEntity
  8
Frei
  6
CONTINUOUS
 62
           7
100
AcDbLine
 10
-14507.633951913185
 20
-1864.594894081556
 30
0.0
 11
-14507.270855485836
 21
-1861.314930517056
 31
0.0
  0
LINE
  5
CE
100
AcDbEntity
  8
Frei
  6
CONTINUOUS
 62
           7
100
AcDbLine
 10
-14533.468758349634
 20
-1879.844903143563
 30
0.0
 11
-14532.172504863631
 21
-1879.988400167372
 31
0.0
  0
LINE
  5
CF
100
AcDbEntity
  8
Frei
  6
CONTINUOUS
 62
           7
100
AcDbLine
 10
-14529.53180357382
 20
-1856.134119698282
 30
0.0
 11
-14530.828057059824
 21
-1855.990622674473
 31
0.0
  0
LINE
  5
D0
100
AcDbEntity
  8
Frei
  6
CONTINUOUS
 62
           7
100
AcDbLine
 10
-14532.172504863631
 20
-1879.988400167372
 30
0.0
 11
-14528.399723749953
 21
-1880.406052167648
 31
0.0
  0
LINE
  5
D1
100
AcDbEntity
  8
Frei
  6
CONTINUOUS
 62
           7
100
AcDbLine
 10
-14525.759022460143
 20
-1856.551771698558
 30
0.0
 11
-14529.53180357382
 21
-1856.134119698282
 31
0.0
  0
LINE
  5
D2
100
AcDbEntity
  8
Frei
  6
CONTINUOUS
 62
           7
100
AcDbLine
 10
-14566.148194009556
 20
-1852.080635478662
 30
0.0
 11
-14530.828057059824
 21
-1855.990622674473
 31
0.0
  0
LINE
  5
D3
100
AcDbEntity
  8
Frei
  6
CONTINUOUS
 62
           7
100
AcDbLine
 10
-14568.788895299367
 20
-1875.934915947751
 30
0.0
 11
-14533.468758349634
 21
-1879.844903143563
 31
0.0
  0
LINE
  5
D4
100
AcDbEntity
  8
Frei
  6
CONTINUOUS
 62
           7
100
AcDbLine
 10
-14525.062539539287
 20
-1858.439869032108
 30
0.0
 11
-14527.307135635625
 21
-1878.716007430834
 31
0.0
  0
LINE
  5
D5
100
AcDbEntity
  8
Frei
  6
CONTINUOUS
 62
           7
100
AcDbLine
 10
-14508.066364705061
 20
-1860.321368701098
 30
0.0
 11
-14510.770227068628
 21
-1860.022047460191
 31
0.0
  0
LINE
  5
D6
100
AcDbEntity
  8
Frei
  6
CONTINUOUS
 62
           7
100
AcDbLine
 10
-14509.31739898544
 20
-1879.801997880601
 30
0.0
 11
-14508.954302558092
 21
-1876.522034316101
 31
0.0
  0
LINE
  5
D7
100
AcDbEntity
  8
Frei
  6
CONTINUOUS
 62
           7
100
AcDbLine
 10
-14526.412600118032
 20
-1878.815033729202
 30
0.0
 11
-14524.583236337772
 21
-1879.017546787616
 31
0.0
  0
LINE
  5
D8
100
AcDbEntity
  8
Frei
  6
CONTINUOUS
 62
           7
100
AcDbLine
 10
-14522.206605176943
 20
-1857.548694365436
 30
0.0
 11
-14522.338640241434
 21
-1858.74140838889
 31
0.0
  0
LINE
  5
D9
100
AcDbEntity
  8
Frei
  6
CONTINUOUS
 62
           7
100
AcDbLine
 10
-14522.338640241434
 20
-1858.74140838889
 30
0.0
 11
-14524.168004021694
 21
-1858.538895330476
 31
0.0
  0
LINE
  5
DA
100
AcDbEntity
  8
Frei
  6
CONTINUOUS
 62
           7
100
AcDbLine
 10
-14522.338640241434
 20
-1858.74140838889
 30
0.0
 11
-14524.583236337772
 21
-1879.017546787616
 31
0.0
  0
LINE
  5
DB
100
AcDbEntity
  8
Frei
  6
CONTINUOUS
 62
           7
100
AcDbLine
 10
-14524.583236337772
 20
-1879.017546787616
 30
0.0
 11
-14524.715271402263
 21
-1880.210260811071
 31
0.0
  0
LINE
  5
DC
100
AcDbEntity
  8
Frei
  6
CONTINUOUS
 62
           7
100
AcDbLine
 10
-14513.146858229456
 20
-1881.490899882372
 30
0.0
 11
-14513.014823164965
 21
-1880.298185858917
 31
0.0
  0
LINE
  5
DD
100
AcDbEntity
  8
Frei
  6
CONTINUOUS
 62
           7
100
AcDbLine
 10
-14513.014823164965
 20
-1880.298185858917
 30
0.0
 11
-14510.310960801398
 21
-1880.597507099824
 31
0.0
  0
LINE
  5
DE
100
AcDbEntity
  8
Frei
  6
CONTINUOUS
 62
           7
100
AcDbLine
 10
-14513.014823164965
 20
-1880.298185858917
 30
0.0
 11
-14510.770227068628
 21
-1860.022047460191
 31
0.0
  0
LINE
  5
DF
100
AcDbEntity
  8
Frei
  6
CONTINUOUS
 62
           7
100
AcDbLine
 10
-14510.770227068628
 20
-1860.022047460191
 30
0.0
 11
-14510.638192004137
 21
-1858.829333436737
 31
0.0
  0
LINE
  5
E0
100
AcDbEntity
  8
Frei
  6
CONTINUOUS
 62
           7
100
AcDbLine
 10
-14522.206605176943
 20
-1857.548694365436
 30
0.0
 11
-14510.638192004137
 21
-1858.829333436737
 31
0.0
  0
LINE
  5
E1
100
AcDbEntity
  8
Frei
  6
CONTINUOUS
 62
           7
100
AcDbLine
 10
-14524.715271402263
 20
-1880.210260811071
 30
0.0
 11
-14513.146858229456
 21
-1881.490899882372
 31
0.0
  0
ARC
  5
E2
100
AcDbEntity
  8
Frei
  6
CONTINUOUS
 62
           7
100
AcDbCircle
 10
-14547.818788776271
 20
-1866.18303041264
 30
0.0
 40
20.866107311614
100
AcDbArc
 50
318.576694434247
 51
28.789305565753
  0
ARC
  5
E3
100
AcDbEntity
  8
Frei
  6
CONTINUOUS
 62
           7
100
AcDbCircle
 10
-14537.988377212661
 20
-1867.271270342117
 30
0.0
 40
29.660254037844
100
AcDbArc
 50
149.81807458395
 51
197.54792541605
  0
ARC
  5
E4
100
AcDbEntity
  8
Frei
  6
CONTINUOUS
 62
           7
100
AcDbCircle
 10
-14548.531666185499
 20
-1866.104113913924
 30
0.0
 40
22.516660498395
100
AcDbArc
 50
141.478772496028
 51
205.887227503973
  0
CIRCLE
  5
E5
100
AcDbEntity
  8
Frei
  6
CONTINUOUS
 62
           7
100
AcDbCircle
 10
-14556.002688173818
 20
-1865.277061619208
 30
0.0
 40
6.0
  0
CIRCLE
  5
E6
100
AcDbEntity
  8
Frei
  6
CONTINUOUS
 62
           7
100
AcDbCircle
 10
-14556.002688173818
 20
-1865.277061619208
 30
0.0
 40
5.1
  0
ARC
  5
E7
100
AcDbEntity
  8
Frei
  6
CONTINUOUS
 62
           7
100
AcDbCircle
 10
-14525.85804875851
 20
-1857.446307216149
 30
0.0
 40
0.9
100
AcDbArc
 50
353.682999999999
 51
83.683
  0
ARC
  5
E8
100
AcDbEntity
  8
Frei
  6
CONTINUOUS
 62
           7
100
AcDbCircle
 10
-14524.068977723326
 20
-1857.644359812885
 30
0.0
 40
0.9
100
AcDbArc
 50
173.683
 51
263.682999999999
  0
ARC
  5
E9
100
AcDbEntity
  8
Frei
  6
CONTINUOUS
 62
           7
100
AcDbCircle
 10
-14508.165391003427
 20
-1861.215904218689
 30
0.0
 40
0.9
100
AcDbArc
 50
353.682999999999
 51
83.683
  0
ARC
  5
EA
100
AcDbEntity
  8
Frei
  6
CONTINUOUS
 62
           7
100
AcDbCircle
 10
-14510.211934503031
 20
-1879.702971582233
 30
0.0
 40
0.9
100
AcDbArc
 50
263.682999999999
 51
353.682999999999
  0
ARC
  5
EB
100
AcDbEntity
  8
Frei
  6
CONTINUOUS
 62
           7
100
AcDbCircle
 10
-14526.511626416401
 20
-1879.709569246793
 30
0.0
 40
0.9
100
AcDbArc
 50
83.683
 51
173.683
  0
ARC
  5
EC
100
AcDbEntity
  8
Frei
  6
CONTINUOUS
 62
           7
100
AcDbCircle
 10
-14528.300697451585
 20
-1879.511516650057
 30
0.0
 40
0.9
100
AcDbArc
 50
263.682999999999
 51
353.682999999999
  0
LINE
  5
ED
100
AcDbEntity
  8
Frei
  6
CONTINUOUS
 62
           7
100
AcDbLine
 10
-14255.901202991477
 20
-1918.318865295448
 30
0.0
 11
-14252.422453756402
 21
-1918.703967566878
 31
0.0
  0
LINE
  5
EE
100
AcDbEntity
  8
Frei
  6
CONTINUOUS
 62
           7
100
AcDbLine
 10
-14255.681144550661
 20
-1916.33100858969
 30
0.0
 11
-14255.901202991477
 21
-1918.318865295448
 31
0.0
  0
LINE
  5
EF
100
AcDbEntity
  8
Frei
  6
CONTINUOUS
 62
           7
100
AcDbLine
 10
-14250.383247809641
 20
-1909.371677434939
 30
0.0
 11
-14251.318496183116
 21
-1917.820068434408
 31
0.0
  0
LINE
  5
F0
100
AcDbEntity
  8
Frei
  6
CONTINUOUS
 62
           7
100
AcDbLine
 10
-14254.855925397595
 20
-1908.8765459431
 30
0.0
 11
-14250.383247809641
 21
-1909.371677434939
 31
0.0
  0
LINE
  5
F1
100
AcDbEntity
  8
Frei
  6
CONTINUOUS
 62
           7
100
AcDbLine
 10
-14254.9109400078
 20
-1909.373510119539
 30
0.0
 11
-14254.855925397595
 21
-1908.8765459431
 31
0.0
  0
LINE
  5
F2
100
AcDbEntity
  8
Frei
  6
CONTINUOUS
 62
           7
100
AcDbLine
 10
-14251.43324583578
 20
-1910.206301031641
 30
0.0
 11
-14254.9109400078
 21
-1909.373510119539
 31
0.0
  0
LINE
  5
F3
100
AcDbEntity
  8
Frei
  6
CONTINUOUS
 62
           7
100
AcDbLine
 10
-14251.279251105792
 20
-1912.793869231752
 30
0.0
 11
-14251.052722788707
 21
-1910.747568110622
 31
0.0
  0
LINE
  5
F4
100
AcDbEntity
  8
Frei
  6
CONTINUOUS
 62
           7
100
AcDbLine
 10
-14255.681144550661
 20
-1916.33100858969
 30
0.0
 11
-14254.9109400078
 21
-1909.373510119539
 31
0.0
  0
LINE
  5
F5
100
AcDbEntity
  8
Frei
  6
CONTINUOUS
 62
           7
100
AcDbLine
 10
-14252.105505332804
 20
-1916.2790312764
 30
0.0
 11
-14255.681144550661
 21
-1916.33100858969
 31
0.0
  0
LINE
  5
F6
100
AcDbEntity
  8
Frei
  6
CONTINUOUS
 62
           7
100
AcDbLine
 10
-14251.389280326201
 20
-1913.787797584631
 30
0.0
 11
-14251.615808643284
 21
-1915.834098705761
 31
0.0
  0
LINE
  5
F7
100
AcDbEntity
  8
Frei
  6
CONTINUOUS
 62
           2
100
AcDbLine
 10
-14252.910951374186
 20
-1913.116292161533
 30
0.0
 11
-14250.150957127811
 21
-1913.421827278206
 31
0.0
  0
LINE
  5
F8
100
AcDbEntity
  8
Frei
  6
CONTINUOUS
 62
           7
100
AcDbLine
 10
-14252.855936763983
 20
-1912.619327985094
 30
0.0
 11
-14251.279251105792
 21
-1912.793869231752
 31
0.0
  0
LINE
  5
F9
100
AcDbEntity
  8
Frei
  6
CONTINUOUS
 62
           7
100
AcDbLine
 10
-14252.910951374186
 20
-1913.116292161533
 30
0.0
 11
-14252.855936763983
 21
-1912.619327985094
 31
0.0
  0
LINE
  5
FA
100
AcDbEntity
  8
Frei
  6
CONTINUOUS
 62
           7
100
AcDbLine
 10
-14252.965965984391
 20
-1913.613256337973
 30
0.0
 11
-14252.910951374186
 21
-1913.116292161533
 31
0.0
  0
LINE
  5
FB
100
AcDbEntity
  8
Frei
  6
CONTINUOUS
 62
           7
100
AcDbLine
 10
-14251.389280326201
 20
-1913.787797584631
 30
0.0
 11
-14252.965965984391
 21
-1913.613256337973
 31
0.0
  0
LINE
  5
FC
100
AcDbEntity
  8
Frei
  6
CONTINUOUS
 62
           7
100
AcDbLine
 10
-14394.554208218064
 20
-1902.969789048424
 30
0.0
 11
-14390.923243944575
 21
-1870.170153403426
 31
0.0
  0
LINE
  5
FD
100
AcDbEntity
  8
Frei
  6
CONTINUOUS
 62
           7
100
AcDbLine
 10
-14408.469205158366
 20
-1901.429379962701
 30
0.0
 11
-14394.554208218064
 21
-1902.969789048424
 31
0.0
  0
LINE
  5
FE
100
AcDbEntity
  8
Frei
  6
CONTINUOUS
 62
           7
100
AcDbLine
 10
-14400.862527473362
 20
-1869.069861199338
 30
0.0
 11
-14391.420208121013
 21
-1870.115138793221
 31
0.0
  0
LINE
  5
FF
100
AcDbEntity
  8
Frei
  6
CONTINUOUS
 62
           7
100
AcDbLine
 10
-14401.082585914179
 20
-1871.057717905095
 30
0.0
 11
-14400.862527473362
 21
-1869.069861199338
 31
0.0
  0
LINE
  5
100
100
AcDbEntity
  8
Frei
  6
CONTINUOUS
 62
           7
100
AcDbLine
 10
-14401.85279045704
 20
-1878.015216375246
 30
0.0
 11
-14401.907805067245
 21
-1878.512180551686
 31
0.0
  0
LINE
  5
101
100
AcDbEntity
  8
Frei
  6
CONTINUOUS
 62
           7
100
AcDbLine
 10
-14406.877446831639
 20
-1877.962034449642
 30
0.0
 11
-14405.942198458164
 21
-1869.513643450173
 31
0.0
  0
LINE
  5
102
100
AcDbEntity
  8
Frei
  6
CONTINUOUS
 62
           7
100
AcDbLine
 10
-14401.907805067245
 20
-1878.512180551686
 30
0.0
 11
-14406.877446831639
 21
-1877.962034449642
 31
0.0
  0
LINE
  5
103
100
AcDbEntity
  8
Frei
  6
CONTINUOUS
 62
           7
100
AcDbLine
 10
-14404.838240884877
 20
-1868.629744317703
 30
0.0
 11
-14400.862527473362
 21
-1869.069861199338
 31
0.0
  0
LINE
  5
104
100
AcDbEntity
  8
Frei
  6
CONTINUOUS
 62
           7
100
AcDbLine
 10
-14405.330484629059
 20
-1877.182425463145
 30
0.0
 11
-14401.85279045704
 21
-1878.015216375246
 31
0.0
  0
LINE
  5
105
100
AcDbEntity
  8
Frei
  6
CONTINUOUS
 62
           7
100
AcDbLine
 10
-14405.484479359047
 20
-1874.594857263033
 30
0.0
 11
-14405.711007676133
 21
-1876.641158384164
 31
0.0
  0
LINE
  5
106
100
AcDbEntity
  8
Frei
  6
CONTINUOUS
 62
           7
100
AcDbLine
 10
-14401.082585914179
 20
-1871.057717905095
 30
0.0
 11
-14401.85279045704
 21
-1878.015216375246
 31
0.0
  0
LINE
  5
107
100
AcDbEntity
  8
Frei
  6
CONTINUOUS
 62
           7
100
AcDbLine
 10
-14404.658225132036
 20
-1871.109695218385
 30
0.0
 11
-14401.082585914179
 21
-1871.057717905095
 31
0.0
  0
LINE
  5
108
100
AcDbEntity
  8
Frei
  6
CONTINUOUS
 62
           7
100
AcDbLine
 10
-14405.374450138639
 20
-1873.600928910154
 30
0.0
 11
-14405.147921821555
 21
-1871.554627789025
 31
0.0
  0
LINE
  5
109
100
AcDbEntity
  8
Frei
  6
CONTINUOUS
 62
           2
100
AcDbLine
 10
-14403.852779090656
 20
-1874.272434333253
 30
0.0
 11
-14406.612773337029
 21
-1873.96689921658
 31
0.0
  0
LINE
  5
10A
100
AcDbEntity
  8
Frei
  6
CONTINUOUS
 62
           7
100
AcDbLine
 10
-14403.907793700859
 20
-1874.769398509691
 30
0.0
 11
-14405.484479359047
 21
-1874.594857263033
 31
0.0
  0
LINE
  5
10B
100
AcDbEntity
  8
Frei
  6
CONTINUOUS
 62
           7
100
AcDbLine
 10
-14403.852779090656
 20
-1874.272434333253
 30
0.0
 11
-14403.907793700859
 21
-1874.769398509691
 31
0.0
  0
LINE
  5
10C
100
AcDbEntity
  8
Frei
  6
CONTINUOUS
 62
           7
100
AcDbLine
 10
-14403.79776448045
 20
-1873.775470156812
 30
0.0
 11
-14403.852779090656
 21
-1874.272434333253
 31
0.0
  0
LINE
  5
10D
100
AcDbEntity
  8
Frei
  6
CONTINUOUS
 62
           7
100
AcDbLine
 10
-14405.374450138639
 20
-1873.600928910154
 30
0.0
 11
-14403.79776448045
 21
-1873.775470156812
 31
0.0
  0
LINE
  5
10E
100
AcDbEntity
  8
Frei
  6
CONTINUOUS
 62
           7
100
AcDbLine
 10
-14369.075167470564
 20
-1909.110512343552
 30
0.0
 11
-14369.130182080769
 21
-1909.607476519991
 31
0.0
  0
LINE
  5
10F
100
AcDbEntity
  8
Frei
  6
CONTINUOUS
 62
           7
100
AcDbLine
 10
-14369.130182080769
 20
-1909.607476519991
 30
0.0
 11
-14292.597698909105
 21
-1918.079726491467
 31
0.0
  0
LINE
  5
110
100
AcDbEntity
  8
Frei
  6
CONTINUOUS
 62
           7
100
AcDbLine
 10
-14292.597698909105
 20
-1918.079726491467
 30
0.0
 11
-14287.426325549894
 21
-1871.365093906167
 31
0.0
  0
LINE
  5
111
100
AcDbEntity
  8
Frei
  6
CONTINUOUS
 62
           7
100
AcDbLine
 10
-14287.426325549894
 20
-1871.365093906167
 30
0.0
 11
-14363.958808721558
 21
-1862.892843934692
 31
0.0
  0
LINE
  5
112
100
AcDbEntity
  8
Frei
  6
CONTINUOUS
 62
           7
100
AcDbLine
 10
-14391.420208121013
 20
-1870.115138793221
 30
0.0
 11
-14390.923243944575
 21
-1870.170153403426
 31
0.0
  0
LINE
  5
113
100
AcDbEntity
  8
Frei
  6
CONTINUOUS
 62
           7
100
AcDbLine
 10
-14364.952737074438
 20
-1862.782814714283
 30
0.0
 11
-14390.297910072844
 21
-1859.977069593859
 31
0.0
  0
LINE
  5
114
100
AcDbEntity
  8
Frei
  6
CONTINUOUS
 62
           7
100
AcDbLine
 10
-14394.972319255618
 20
-1906.746716789363
 30
0.0
 11
-14394.554208218064
 21
-1902.969789048424
 31
0.0
  0
LINE
  5
115
100
AcDbEntity
  8
Frei
  6
CONTINUOUS
 62
           7
100
AcDbLine
 10
-14391.420208121013
 20
-1870.115138793221
 30
0.0
 11
-14390.297910072844
 21
-1859.977069593859
 31
0.0
  0
LINE
  5
116
100
AcDbEntity
  8
Frei
  6
CONTINUOUS
 62
           7
100
AcDbLine
 10
-14369.075167470564
 20
-1909.110512343552
 30
0.0
 11
-14370.069095823445
 21
-1909.000483123143
 31
0.0
  0
LINE
  5
117
100
AcDbEntity
  8
Frei
  6
CONTINUOUS
 62
           7
100
AcDbLine
 10
-14364.013823331761
 20
-1863.38980811113
 30
0.0
 11
-14369.075167470564
 21
-1909.110512343552
 31
0.0
  0
LINE
  5
118
100
AcDbEntity
  8
Frei
  6
CONTINUOUS
 62
           7
100
AcDbLine
 10
-14364.013823331761
 20
-1863.38980811113
 30
0.0
 11
-14365.007751684641
 21
-1863.279778890721
 31
0.0
  0
LINE
  5
119
100
AcDbEntity
  8
Frei
  6
CONTINUOUS
 62
           7
100
AcDbLine
 10
-14363.958808721558
 20
-1862.892843934692
 30
0.0
 11
-14364.013823331761
 21
-1863.38980811113
 31
0.0
  0
LINE
  5
11A
100
AcDbEntity
  8
Frei
  6
CONTINUOUS
 62
           7
100
AcDbLine
 10
-14370.069095823445
 20
-1909.000483123143
 30
0.0
 11
-14364.952737074438
 21
-1862.782814714283
 31
0.0
  0
LINE
  5
11B
100
AcDbEntity
  8
Frei
  6
CONTINUOUS
 62
           7
100
AcDbLine
 10
-14370.12411043365
 20
-1909.497447299583
 30
0.0
 11
-14370.069095823445
 21
-1909.000483123143
 31
0.0
  0
LINE
  5
11C
100
AcDbEntity
  8
Frei
  6
CONTINUOUS
 62
           7
100
AcDbLine
 10
-14394.972319255618
 20
-1906.746716789363
 30
0.0
 11
-14370.12411043365
 21
-1909.497447299583
 31
0.0
  0
LINE
  5
11D
100
AcDbEntity
  8
Frei
  6
CONTINUOUS
 62
           7
100
AcDbLine
 10
-14291.603770556227
 20
-1918.189755711876
 30
0.0
 11
-14266.755561734259
 21
-1920.940486222095
 31
0.0
  0
LINE
  5
11E
100
AcDbEntity
  8
Frei
  6
CONTINUOUS
 62
           7
100
AcDbLine
 10
-14291.548755946022
 20
-1917.692791535436
 30
0.0
 11
-14291.603770556227
 21
-1918.189755711876
 31
0.0
  0
LINE
  5
11F
100
AcDbEntity
  8
Frei
  6
CONTINUOUS
 62
           7
100
AcDbLine
 10
-14286.432397197015
 20
-1871.475123126576
 30
0.0
 11
-14291.548755946022
 21
-1917.692791535436
 31
0.0
  0
LINE
  5
120
100
AcDbEntity
  8
Frei
  6
CONTINUOUS
 62
           7
100
AcDbLine
 10
-14286.487411807218
 20
-1871.972087303014
 30
0.0
 11
-14287.481340160097
 21
-1871.862058082606
 31
0.0
  0
LINE
  5
121
100
AcDbEntity
  8
Frei
  6
CONTINUOUS
 62
           7
100
AcDbLine
 10
-14291.548755946022
 20
-1917.692791535436
 30
0.0
 11
-14292.5426842989
 21
-1917.582762315027
 31
0.0
  0
LINE
  5
122
100
AcDbEntity
  8
Frei
  6
CONTINUOUS
 62
           7
100
AcDbLine
 10
-14261.087224198607
 20
-1874.280868247
 30
0.0
 11
-14262.209522246776
 21
-1884.418937446362
 31
0.0
  0
LINE
  5
123
100
AcDbEntity
  8
Frei
  6
CONTINUOUS
 62
           7
100
AcDbLine
 10
-14261.087224198607
 20
-1874.280868247
 30
0.0
 11
-14286.432397197015
 21
-1871.475123126576
 31
0.0
  0
LINE
  5
124
100
AcDbEntity
  8
Frei
  6
CONTINUOUS
 62
           7
100
AcDbLine
 10
-14262.706486423216
 20
-1884.363922836157
 30
0.0
 11
-14262.209522246776
 21
-1884.418937446362
 31
0.0
  0
LINE
  5
125
100
AcDbEntity
  8
Frei
  6
CONTINUOUS
 62
           7
100
AcDbLine
 10
-14262.706486423216
 20
-1884.363922836157
 30
0.0
 11
-14266.755561734259
 21
-1920.940486222095
 31
0.0
  0
LINE
  5
126
100
AcDbEntity
  8
Frei
  6
CONTINUOUS
 62
           7
100
AcDbLine
 10
-14437.856102286092
 20
-1871.51432894813
 30
0.0
 11
-14439.843958991849
 21
-1871.294270507312
 31
0.0
  0
LINE
  5
127
100
AcDbEntity
  8
Frei
  6
CONTINUOUS
 62
           7
100
AcDbLine
 10
-14438.952729120982
 20
-1890.508996873234
 30
0.0
 11
-14436.972203153622
 21
-1872.618286521417
 31
0.0
  0
LINE
  5
128
100
AcDbEntity
  8
Frei
  6
CONTINUOUS
 62
           7
100
AcDbLine
 10
-14442.044543400025
 20
-1891.172837564887
 30
0.0
 11
-14440.056686694268
 21
-1891.392896005704
 31
0.0
  0
LINE
  5
129
100
AcDbEntity
  8
Frei
  6
CONTINUOUS
 62
           7
100
AcDbLine
 10
-14442.378296430452
 20
-1885.099238227205
 30
0.0
 11
-14442.928442532497
 21
-1890.068879991599
 31
0.0
  0
LINE
  5
12A
100
AcDbEntity
  8
Frei
  6
CONTINUOUS
 62
           7
100
AcDbLine
 10
-14439.843958991849
 20
-1871.294270507312
 30
0.0
 11
-14440.947916565137
 21
-1872.178169639782
 31
0.0
  0
LINE
  5
12B
100
AcDbEntity
  8
Frei
  6
CONTINUOUS
 62
           7
100
AcDbLine
 10
-14437.856102286092
 20
-1871.51432894813
 30
0.0
 11
-14436.972203153622
 21
-1872.618286521417
 31
0.0
  0
LINE
  5
12C
100
AcDbEntity
  8
Frei
  6
CONTINUOUS
 62
           7
100
AcDbLine
 10
-14438.952729120982
 20
-1890.508996873234
 30
0.0
 11
-14440.056686694268
 21
-1891.392896005704
 31
0.0
  0
LINE
  5
12D
100
AcDbEntity
  8
Frei
  6
CONTINUOUS
 62
           7
100
AcDbLine
 10
-14442.044543400025
 20
-1891.172837564887
 30
0.0
 11
-14442.928442532497
 21
-1890.068879991599
 31
0.0
  0
LINE
  5
12E
100
AcDbEntity
  8
Frei
  6
CONTINUOUS
 62
           7
100
AcDbLine
 10
-14442.044543400025
 20
-1891.172837564887
 30
0.0
 11
-14439.843958991849
 21
-1871.294270507312
 31
0.0
  0
LINE
  5
12F
100
AcDbEntity
  8
Frei
  6
CONTINUOUS
 62
           7
100
AcDbLine
 10
-14440.056686694268
 20
-1891.392896005704
 30
0.0
 11
-14437.856102286092
 21
-1871.51432894813
 31
0.0
  0
LINE
  5
130
100
AcDbEntity
  8
Frei
  6
CONTINUOUS
 62
           7
100
AcDbLine
 10
-14439.777948274046
 20
-1897.963459519825
 30
0.0
 11
-14438.952729120982
 21
-1890.508996873234
 31
0.0
  0
LINE
  5
131
100
AcDbEntity
  8
Frei
  6
CONTINUOUS
 62
           7
100
AcDbLine
 10
-14409.90874844668
 20
-1891.711987559331
 30
0.0
 11
-14410.954026040563
 21
-1901.154306911679
 31
0.0
  0
LINE
  5
132
100
AcDbEntity
  8
Frei
  6
CONTINUOUS
 62
           7
100
AcDbLine
 10
-14442.602020240469
 20
-1878.031710536646
 30
0.0
 11
-14441.498062667182
 21
-1877.147811404176
 31
0.0
  0
LINE
  5
133
100
AcDbEntity
  8
Frei
  6
CONTINUOUS
 62
           7
100
AcDbLine
 10
-14440.947916565137
 20
-1872.178169639782
 30
0.0
 11
-14441.498062667182
 21
-1877.147811404176
 31
0.0
  0
LINE
  5
134
100
AcDbEntity
  8
Frei
  6
CONTINUOUS
 62
           7
100
AcDbLine
 10
-14442.657034850674
 20
-1878.528674713085
 30
0.0
 11
-14442.602020240469
 21
-1878.031710536646
 31
0.0
  0
LINE
  5
135
100
AcDbEntity
  8
Frei
  6
CONTINUOUS
 62
           7
100
AcDbLine
 10
-14442.378296430452
 20
-1885.099238227205
 30
0.0
 11
-14443.262195562922
 21
-1883.995280653918
 31
0.0
  0
LINE
  5
136
100
AcDbEntity
  8
Frei
  6
CONTINUOUS
 62
           7
100
AcDbLine
 10
-14442.268267210044
 20
-1884.105309874327
 30
0.0
 11
-14442.378296430452
 21
-1885.099238227205
 31
0.0
  0
LINE
  5
137
100
AcDbEntity
  8
Frei
  6
CONTINUOUS
 62
           2
100
AcDbLine
 10
-14441.60809188759
 20
-1878.141739757054
 30
0.0
 11
-14442.602020240469
 21
-1878.031710536646
 31
0.0
  0
LINE
  5
138
100
AcDbEntity
  8
Frei
  6
CONTINUOUS
 62
           7
100
AcDbLine
 10
-14441.498062667182
 20
-1877.147811404176
 30
0.0
 11
-14441.60809188759
 21
-1878.141739757054
 31
0.0
  0
LINE
  5
139
100
AcDbEntity
  8
Frei
  6
CONTINUOUS
 62
           2
100
AcDbLine
 10
-14442.268267210044
 20
-1884.105309874327
 30
0.0
 11
-14443.262195562922
 21
-1883.995280653918
 31
0.0
  0
LINE
  5
13A
100
AcDbEntity
  8
Frei
  6
CONTINUOUS
 62
           7
100
AcDbLine
 10
-14441.60809188759
 20
-1878.141739757054
 30
0.0
 11
-14442.268267210044
 21
-1884.105309874327
 31
0.0
  0
LINE
  5
13B
100
AcDbEntity
  8
Frei
  6
CONTINUOUS
 62
           1
100
AcDbLine
 10
-14440.183792296599
 20
-1878.802466027437
 30
0.0
 11
-14442.657034850674
 21
-1878.528674713085
 31
0.0
  0
LINE
  5
13C
100
AcDbEntity
  8
Frei
  6
CONTINUOUS
 62
           7
100
AcDbLine
 10
-14442.712049460877
 20
-1879.025638889524
 30
0.0
 11
-14442.657034850674
 21
-1878.528674713085
 31
0.0
  0
LINE
  5
13D
100
AcDbEntity
  8
Frei
  6
CONTINUOUS
 62
           1
100
AcDbLine
 10
-14440.733938398642
 20
-1883.772107791831
 30
0.0
 11
-14443.207180952717
 21
-1883.498316477479
 31
0.0
  0
LINE
  5
13E
100
AcDbEntity
  8
Frei
  6
CONTINUOUS
 62
           7
100
AcDbLine
 10
-14443.262195562922
 20
-1883.995280653918
 30
0.0
 11
-14443.207180952717
 21
-1883.498316477479
 31
0.0
  0
LINE
  5
13F
100
AcDbEntity
  8
Frei
  6
CONTINUOUS
 62
           1
100
AcDbLine
 10
-14440.238806906802
 20
-1879.299430203877
 30
0.0
 11
-14442.712049460877
 21
-1879.025638889524
 31
0.0
  0
LINE
  5
140
100
AcDbEntity
  8
Frei
  6
CONTINUOUS
 62
           7
100
AcDbLine
 10
-14443.152166342514
 20
-1883.001352301039
 30
0.0
 11
-14442.712049460877
 21
-1879.025638889524
 31
0.0
  0
LINE
  5
141
100
AcDbEntity
  8
Frei
  6
CONTINUOUS
 62
           1
100
AcDbLine
 10
-14440.678923788439
 20
-1883.275143615392
 30
0.0
 11
-14443.152166342514
 21
-1883.001352301039
 31
0.0
  0
LINE
  5
142
100
AcDbEntity
  8
Frei
  6
CONTINUOUS
 62
           7
100
AcDbLine
 10
-14443.207180952717
 20
-1883.498316477479
 30
0.0
 11
-14443.152166342514
 21
-1883.001352301039
 31
0.0
  0
LINE
  5
143
100
AcDbEntity
  8
Frei
  6
CONTINUOUS
 62
           7
100
AcDbLine
 10
-14434.772629800173
 20
-1870.291474492006
 30
0.0
 11
-14407.763178648709
 21
-1872.330384678196
 31
0.0
  0
LINE
  5
144
100
AcDbEntity
  8
Frei
  6
CONTINUOUS
 62
           7
100
AcDbLine
 10
-14436.911035694546
 20
-1872.06574173718
 30
0.0
 11
-14436.972203153622
 21
-1872.618286521417
 31
0.0
  0
LINE
  5
145
100
AcDbEntity
  8
Frei
  6
CONTINUOUS
 62
           7
100
AcDbLine
 10
-14410.954026040563
 20
-1901.154306911679
 30
0.0
 11
-14439.777948274046
 21
-1897.963459519825
 31
0.0
  0
LINE
  5
146
100
AcDbEntity
  8
Frei
  6
CONTINUOUS
 62
           7
100
AcDbLine
 10
-14439.887977494456
 20
-1898.957387872704
 30
0.0
 11
-14439.777948274046
 21
-1897.963459519825
 31
0.0
  0
LINE
  5
147
100
AcDbEntity
  8
Frei
  6
CONTINUOUS
 62
           7
100
AcDbLine
 10
-14439.391013318016
 20
-1899.012402482908
 30
0.0
 11
-14439.887977494456
 21
-1898.957387872704
 31
0.0
  0
LINE
  5
148
100
AcDbEntity
  8
Frei
  6
CONTINUOUS
 62
           7
100
AcDbLine
 10
-14410.954026040563
 20
-1901.154306911679
 30
0.0
 11
-14411.064055260973
 21
-1902.148235264558
 31
0.0
  0
LINE
  5
149
100
AcDbEntity
  8
Frei
  6
CONTINUOUS
 62
           7
100
AcDbLine
 10
-14451.257640888556
 20
-1910.778164256039
 30
0.0
 11
-14440.821393183329
 21
-1911.933471070332
 31
0.0
  0
LINE
  5
14A
100
AcDbEntity
  8
Frei
  6
CONTINUOUS
 62
           7
100
AcDbLine
 10
-14454.509000944416
 20
-1926.515974071486
 30
0.0
 11
-14454.564015554621
 21
-1927.012938247925
 31
0.0
  0
LINE
  5
14B
100
AcDbEntity
  8
Frei
  6
CONTINUOUS
 62
           7
100
AcDbLine
 10
-14453.238166855914
 20
-1928.668874607857
 30
0.0
 11
-14442.801919150686
 21
-1929.824181422149
 31
0.0
  0
LINE
  5
14C
100
AcDbEntity
  8
Frei
  6
CONTINUOUS
 62
           7
100
AcDbLine
 10
-14442.416816879257
 20
-1926.345432187073
 30
0.0
 11
-14439.391013318016
 21
-1899.012402482908
 31
0.0
  0
LINE
  5
14D
100
AcDbEntity
  8
Frei
  6
CONTINUOUS
 62
           7
100
AcDbLine
 10
-14411.561019437411
 20
-1902.093220654353
 30
0.0
 11
-14439.391013318016
 21
-1899.012402482908
 31
0.0
  0
LINE
  5
14E
100
AcDbEntity
  8
Frei
  6
CONTINUOUS
 62
           7
100
AcDbLine
 10
-14441.090968180551
 20
-1928.001368547004
 30
0.0
 11
-14435.163078485817
 21
-1928.657593998157
 31
0.0
  0
LINE
  5
14F
100
AcDbEntity
  8
Frei
  6
CONTINUOUS
 62
           7
100
AcDbLine
 10
-14414.586822998652
 20
-1929.426250358519
 30
0.0
 11
-14411.561019437411
 21
-1902.093220654353
 31
0.0
  0
LINE
  5
150
100
AcDbEntity
  8
Frei
  6
CONTINUOUS
 62
           7
100
AcDbLine
 10
-14411.064055260973
 20
-1902.148235264558
 30
0.0
 11
-14411.561019437411
 21
-1902.093220654353
 31
0.0
  0
LINE
  5
151
100
AcDbEntity
  8
Frei
  6
CONTINUOUS
 62
           7
100
AcDbLine
 10
-14435.163078485817
 20
-1928.657593998157
 30
0.0
 11
-14442.801919150686
 21
-1929.824181422149
 31
0.0
  0
LINE
  5
152
100
AcDbEntity
  8
Frei
  6
CONTINUOUS
 62
           7
100
AcDbLine
 10
-14416.242759358583
 20
-1930.752099057224
 30
0.0
 11
-14435.163078485817
 21
-1928.657593998157
 31
0.0
  0
LINE
  5
153
100
AcDbEntity
  8
Frei
  6
CONTINUOUS
 62
           7
100
AcDbLine
 10
-14457.938233623086
 20
-1912.05083102914
 30
0.0
 11
-14452.968591858693
 21
-1912.600977131184
 31
0.0
  0
LINE
  5
154
100
AcDbEntity
  8
Frei
  6
CONTINUOUS
 62
           7
100
AcDbLine
 10
-14452.913577248488
 20
-1912.104012954744
 30
0.0
 11
-14452.968591858693
 21
-1912.600977131184
 31
0.0
  0
LINE
  5
155
100
AcDbEntity
  8
Frei
  6
CONTINUOUS
 62
           7
100
AcDbLine
 10
-14459.478642708809
 20
-1925.965827969442
 30
0.0
 11
-14454.509000944416
 21
-1926.515974071486
 31
0.0
  0
LINE
  5
156
100
AcDbEntity
  8
Frei
  6
CONTINUOUS
 62
           7
100
AcDbLine
 10
-14454.398971724007
 20
-1925.522045718607
 30
0.0
 11
-14454.509000944416
 21
-1926.515974071486
 31
0.0
  0
LINE
  5
157
100
AcDbEntity
  8
Frei
  6
CONTINUOUS
 62
           2
100
AcDbLine
 10
-14453.078621079101
 20
-1913.594905484063
 30
0.0
 11
-14458.048262843495
 21
-1913.044759382019
 31
0.0
  0
LINE
  5
158
100
AcDbEntity
  8
Frei
  6
CONTINUOUS
 62
           7
100
AcDbLine
 10
-14452.968591858693
 20
-1912.600977131184
 30
0.0
 11
-14453.078621079101
 21
-1913.594905484063
 31
0.0
  0
LINE
  5
159
100
AcDbEntity
  8
Frei
  6
CONTINUOUS
 62
           2
100
AcDbLine
 10
-14454.398971724007
 20
-1925.522045718607
 30
0.0
 11
-14459.368613488401
 21
-1924.971899616563
 31
0.0
  0
LINE
  5
15A
100
AcDbEntity
  8
Frei
  6
CONTINUOUS
 62
           7
100
AcDbLine
 10
-14453.078621079101
 20
-1913.594905484063
 30
0.0
 11
-14454.398971724007
 21
-1925.522045718607
 31
0.0
  0
LINE
  5
15B
100
AcDbEntity
  8
Frei
  6
CONTINUOUS
 62
           7
100
AcDbLine
 10
-14408.368339360957
 20
-1877.796990619029
 30
0.0
 11
-14407.616940801441
 21
-1877.880171461471
 31
0.0
  0
LINE
  5
15C
100
AcDbEntity
  8
Frei
  6
CONTINUOUS
 62
           7
100
AcDbLine
 10
-14407.763178648709
 20
-1872.330384678196
 30
0.0
 11
-14408.368339360957
 21
-1877.796990619029
 31
0.0
  0
LINE
  5
15D
100
AcDbEntity
  8
Frei
  6
CONTINUOUS
 62
           7
100
AcDbLine
 10
-14408.753441632389
 20
-1881.275739854104
 30
0.0
 11
-14408.002043072873
 21
-1881.358920696547
 31
0.0
  0
LINE
  5
15E
100
AcDbEntity
  8
Frei
  6
CONTINUOUS
 62
           7
100
AcDbLine
 10
-14408.368339360957
 20
-1877.796990619029
 30
0.0
 11
-14408.753441632389
 21
-1881.275739854104
 31
0.0
  0
LINE
  5
15F
100
AcDbEntity
  8
Frei
  6
CONTINUOUS
 62
           7
100
AcDbLine
 10
-14409.52364617525
 20
-1888.233238324256
 30
0.0
 11
-14408.772247615734
 21
-1888.316419166698
 31
0.0
  0
LINE
  5
160
100
AcDbEntity
  8
Frei
  6
CONTINUOUS
 62
           7
100
AcDbLine
 10
-14408.753441632389
 20
-1881.275739854104
 30
0.0
 11
-14409.52364617525
 21
-1888.233238324256
 31
0.0
  0
LINE
  5
161
100
AcDbEntity
  8
Frei
  6
CONTINUOUS
 62
           7
100
AcDbLine
 10
-14409.90874844668
 20
-1891.711987559331
 30
0.0
 11
-14409.157349887164
 21
-1891.795168401773
 31
0.0
  0
LINE
  5
162
100
AcDbEntity
  8
Frei
  6
CONTINUOUS
 62
           7
100
AcDbLine
 10
-14409.52364617525
 20
-1888.233238324256
 30
0.0
 11
-14409.90874844668
 21
-1891.711987559331
 31
0.0
  0
LINE
  5
163
100
AcDbEntity
  8
Frei
  6
CONTINUOUS
 62
           7
100
AcDbLine
 10
-14407.6476513745
 20
-1884.919532919793
 30
0.0
 11
-14407.069997967354
 21
-1879.70140906718
 31
0.0
  0
LINE
  5
164
100
AcDbEntity
  8
Frei
  6
CONTINUOUS
 62
           7
100
AcDbLine
 10
-14457.836104145279
 20
-1911.128263521336
 30
0.0
 11
-14457.6920317656
 21
-1909.826812665855
 31
0.0
  0
LINE
  5
165
100
AcDbEntity
  8
Frei
  6
CONTINUOUS
 62
           7
100
AcDbLine
 10
-14463.94309332894
 20
-1927.722880457873
 30
0.0
 11
-14459.724844566295
 21
-1928.189846332727
 31
0.0
  0
LINE
  5
166
100
AcDbEntity
  8
Frei
  6
CONTINUOUS
 62
           7
100
AcDbLine
 10
-14462.805745909673
 20
-1910.578117419292
 30
0.0
 11
-14457.836104145279
 21
-1911.128263521336
 31
0.0
  0
LINE
  5
167
100
AcDbEntity
  8
Frei
  6
CONTINUOUS
 62
           7
100
AcDbLine
 10
-14458.056162586096
 20
-1913.116120227094
 30
0.0
 11
-14457.836104145279
 21
-1911.128263521336
 31
0.0
  0
LINE
  5
168
100
AcDbEntity
  8
Frei
  6
CONTINUOUS
 62
           7
100
AcDbLine
 10
-14458.056162586096
 20
-1913.116120227094
 30
0.0
 11
-14463.025804350489
 21
-1912.56597412505
 31
0.0
  0
LINE
  5
169
100
AcDbEntity
  8
Frei
  6
CONTINUOUS
 62
           7
100
AcDbLine
 10
-14462.805745909673
 20
-1910.578117419292
 30
0.0
 11
-14463.025804350489
 21
-1912.56597412505
 31
0.0
  0
LINE
  5
16A
100
AcDbEntity
  8
Frei
  6
CONTINUOUS
 62
           7
100
AcDbLine
 10
-14458.200234965774
 20
-1914.417571082573
 30
0.0
 11
-14458.056162586096
 21
-1913.116120227094
 31
0.0
  0
LINE
  5
16B
100
AcDbEntity
  8
Frei
  6
CONTINUOUS
 62
           7
100
AcDbLine
 10
-14458.48837972513
 20
-1917.020472793533
 30
0.0
 11
-14458.200234965774
 21
-1914.417571082573
 31
0.0
  0
LINE
  5
16C
100
AcDbEntity
  8
Frei
  6
CONTINUOUS
 62
           7
100
AcDbLine
 10
-14458.48837972513
 20
-1917.020472793533
 30
0.0
 11
-14463.458021489523
 21
-1916.47032669149
 31
0.0
  0
LINE
  5
16D
100
AcDbEntity
  8
Frei
  6
CONTINUOUS
 62
           7
100
AcDbLine
 10
-14463.025804350489
 20
-1912.56597412505
 30
0.0
 11
-14463.458021489523
 21
-1916.47032669149
 31
0.0
  0
LINE
  5
16E
100
AcDbEntity
  8
Frei
  6
CONTINUOUS
 62
           7
100
AcDbLine
 10
-14458.928496606764
 20
-1920.996186205048
 30
0.0
 11
-14458.48837972513
 21
-1917.020472793533
 31
0.0
  0
LINE
  5
16F
100
AcDbEntity
  8
Frei
  6
CONTINUOUS
 62
           7
100
AcDbLine
 10
-14458.928496606764
 20
-1920.996186205048
 30
0.0
 11
-14463.898138371158
 21
-1920.446040103005
 31
0.0
  0
LINE
  5
170
100
AcDbEntity
  8
Frei
  6
CONTINUOUS
 62
           7
100
AcDbLine
 10
-14463.458021489523
 20
-1916.47032669149
 30
0.0
 11
-14463.898138371158
 21
-1920.446040103005
 31
0.0
  0
LINE
  5
171
100
AcDbEntity
  8
Frei
  6
CONTINUOUS
 62
           7
100
AcDbLine
 10
-14459.216641366122
 20
-1923.599087916009
 30
0.0
 11
-14458.928496606764
 21
-1920.996186205048
 31
0.0
  0
LINE
  5
172
100
AcDbEntity
  8
Frei
  6
CONTINUOUS
 62
           7
100
AcDbLine
 10
-14459.3607137458
 20
-1924.90053877149
 30
0.0
 11
-14459.216641366122
 21
-1923.599087916009
 31
0.0
  0
LINE
  5
173
100
AcDbEntity
  8
Frei
  6
CONTINUOUS
 62
           7
100
AcDbLine
 10
-14459.3607137458
 20
-1924.90053877149
 30
0.0
 11
-14464.330355510194
 21
-1924.350392669446
 31
0.0
  0
LINE
  5
174
100
AcDbEntity
  8
Frei
  6
CONTINUOUS
 62
           7
100
AcDbLine
 10
-14463.898138371158
 20
-1920.446040103005
 30
0.0
 11
-14464.330355510194
 21
-1924.350392669446
 31
0.0
  0
LINE
  5
175
100
AcDbEntity
  8
Frei
  6
CONTINUOUS
 62
           7
100
AcDbLine
 10
-14459.580772186617
 20
-1926.888395477247
 30
0.0
 11
-14459.3607137458
 21
-1924.90053877149
 31
0.0
  0
LINE
  5
176
100
AcDbEntity
  8
Frei
  6
CONTINUOUS
 62
           7
100
AcDbLine
 10
-14459.580772186617
 20
-1926.888395477247
 30
0.0
 11
-14464.55041395101
 21
-1926.338249375203
 31
0.0
  0
LINE
  5
177
100
AcDbEntity
  8
Frei
  6
CONTINUOUS
 62
           7
100
AcDbLine
 10
-14464.330355510194
 20
-1924.350392669446
 30
0.0
 11
-14464.55041395101
 21
-1926.338249375203
 31
0.0
  0
LINE
  5
178
100
AcDbEntity
  8
Frei
  6
CONTINUOUS
 62
           7
100
AcDbLine
 10
-14459.724844566295
 20
-1928.189846332727
 30
0.0
 11
-14459.580772186617
 21
-1926.888395477247
 31
0.0
  0
LINE
  5
179
100
AcDbEntity
  8
Frei
  6
CONTINUOUS
 62
           7
100
AcDbLine
 10
-14462.805745909673
 20
-1910.578117419292
 30
0.0
 11
-14461.910280528245
 21
-1909.359846791002
 31
0.0
  0
LINE
  5
17A
100
AcDbEntity
  8
Frei
  6
CONTINUOUS
 62
           7
100
AcDbLine
 10
-14457.6920317656
 20
-1909.826812665855
 30
0.0
 11
-14461.910280528245
 21
-1909.359846791002
 31
0.0
  0
LINE
  5
17B
100
AcDbEntity
  8
Frei
  6
CONTINUOUS
 62
           7
100
AcDbLine
 10
-14463.94309332894
 20
-1927.722880457873
 30
0.0
 11
-14464.55041395101
 21
-1926.338249375203
 31
0.0
  0
LINE
  5
17C
100
AcDbEntity
  8
Frei
  6
CONTINUOUS
 62
           7
100
AcDbLine
 10
-14462.418483728419
 20
-1913.950605207719
 30
0.0
 11
-14463.025804350489
 21
-1912.56597412505
 31
0.0
  0
LINE
  5
17D
100
AcDbEntity
  8
Frei
  6
CONTINUOUS
 62
           7
100
AcDbLine
 10
-14458.200234965774
 20
-1914.417571082573
 30
0.0
 11
-14462.418483728419
 21
-1913.950605207719
 31
0.0
  0
LINE
  5
17E
100
AcDbEntity
  8
Frei
  6
CONTINUOUS
 62
           7
100
AcDbLine
 10
-14463.458021489523
 20
-1916.47032669149
 30
0.0
 11
-14462.418483728419
 21
-1913.950605207719
 31
0.0
  0
LINE
  5
17F
100
AcDbEntity
  8
Frei
  6
CONTINUOUS
 62
           7
100
AcDbLine
 10
-14463.434890128767
 20
-1923.132122041155
 30
0.0
 11
-14463.898138371158
 21
-1920.446040103005
 31
0.0
  0
LINE
  5
180
100
AcDbEntity
  8
Frei
  6
CONTINUOUS
 62
           7
100
AcDbLine
 10
-14459.216641366122
 20
-1923.599087916009
 30
0.0
 11
-14463.434890128767
 21
-1923.132122041155
 31
0.0
  0
LINE
  5
181
100
AcDbEntity
  8
Frei
  6
CONTINUOUS
 62
           7
100
AcDbLine
 10
-14464.330355510194
 20
-1924.350392669446
 30
0.0
 11
-14463.434890128767
 21
-1923.132122041155
 31
0.0
  0
LINE
  5
182
100
AcDbEntity
  8
Frei
  6
CONTINUOUS
 62
           3
100
AcDbLine
 10
-14418.940301128756
 20
-1923.310105480354
 30
0.0
 11
-14436.831011480574
 21
-1921.329579512996
 31
0.0
  0
LINE
  5
183
100
AcDbEntity
  8
Frei
  6
CONTINUOUS
 62
           3
100
AcDbLine
 10
-14419.60267567273
 20
-1923.840444959836
 30
0.0
 11
-14418.940301128756
 21
-1923.310105480354
 31
0.0
  0
LINE
  5
184
100
AcDbEntity
  8
Frei
  6
CONTINUOUS
 62
           3
100
AcDbLine
 10
-14419.072336193247
 20
-1924.502819503809
 30
0.0
 11
-14419.60267567273
 21
-1923.840444959836
 31
0.0
  0
LINE
  5
185
100
AcDbEntity
  8
Frei
  6
CONTINUOUS
 62
           3
100
AcDbLine
 10
-14436.963046545065
 20
-1922.522293536451
 30
0.0
 11
-14419.072336193247
 21
-1924.502819503809
 31
0.0
  0
LINE
  5
186
100
AcDbEntity
  8
Frei
  6
CONTINUOUS
 62
           3
100
AcDbLine
 10
-14436.300672001093
 20
-1921.991954056969
 30
0.0
 11
-14436.963046545065
 21
-1922.522293536451
 31
0.0
  0
LINE
  5
187
100
AcDbEntity
  8
Frei
  6
CONTINUOUS
 62
           3
100
AcDbLine
 10
-14436.831011480574
 20
-1921.329579512996
 30
0.0
 11
-14436.300672001093
 21
-1921.991954056969
 31
0.0
  0
LINE
  5
188
100
AcDbEntity
  8
Frei
  6
CONTINUOUS
 62
           3
100
AcDbLine
 10
-14419.60267567273
 20
-1923.840444959836
 30
0.0
 11
-14436.300672001093
 21
-1921.991954056969
 31
0.0
  0
LINE
  5
189
100
AcDbEntity
  8
Frei
  6
CONTINUOUS
 62
           3
100
AcDbLine
 10
-14436.742988104246
 20
-1920.534436830693
 30
0.0
 11
-14436.080613560274
 21
-1920.004097351211
 31
0.0
  0
LINE
  5
18A
100
AcDbEntity
  8
Frei
  6
CONTINUOUS
 62
           3
100
AcDbLine
 10
-14418.852277752429
 20
-1922.514962798051
 30
0.0
 11
-14436.742988104246
 21
-1920.534436830693
 31
0.0
  0
LINE
  5
18B
100
AcDbEntity
  8
Frei
  6
CONTINUOUS
 62
           3
100
AcDbLine
 10
-14419.382617231911
 20
-1921.852588254079
 30
0.0
 11
-14418.852277752429
 21
-1922.514962798051
 31
0.0
  0
LINE
  5
18C
100
AcDbEntity
  8
Frei
  6
CONTINUOUS
 62
           3
100
AcDbLine
 10
-14418.720242687939
 20
-1921.322248774597
 30
0.0
 11
-14419.382617231911
 21
-1921.852588254079
 31
0.0
  0
LINE
  5
18D
100
AcDbEntity
  8
Frei
  6
CONTINUOUS
 62
           3
100
AcDbLine
 10
-14436.610953039757
 20
-1919.341722807239
 30
0.0
 11
-14418.720242687939
 21
-1921.322248774597
 31
0.0
  0
LINE
  5
18E
100
AcDbEntity
  8
Frei
  6
CONTINUOUS
 62
           3
100
AcDbLine
 10
-14436.080613560274
 20
-1920.004097351211
 30
0.0
 11
-14436.610953039757
 21
-1919.341722807239
 31
0.0
  0
LINE
  5
18F
100
AcDbEntity
  8
Frei
  6
CONTINUOUS
 62
           3
100
AcDbLine
 10
-14436.080613560274
 20
-1920.004097351211
 30
0.0
 11
-14419.382617231911
 21
-1921.852588254079
 31
0.0
  0
LINE
  5
190
100
AcDbEntity
  8
Frei
  6
CONTINUOUS
 62
           3
100
AcDbLine
 10
-14436.52292966343
 20
-1918.546580124936
 30
0.0
 11
-14435.860555119456
 21
-1918.016240645454
 31
0.0
  0
LINE
  5
191
100
AcDbEntity
  8
Frei
  6
CONTINUOUS
 62
           3
100
AcDbLine
 10
-14418.632219311612
 20
-1920.527106092294
 30
0.0
 11
-14436.52292966343
 21
-1918.546580124936
 31
0.0
  0
LINE
  5
192
100
AcDbEntity
  8
Frei
  6
CONTINUOUS
 62
           3
100
AcDbLine
 10
-14419.162558791093
 20
-1919.864731548321
 30
0.0
 11
-14418.632219311612
 21
-1920.527106092294
 31
0.0
  0
LINE
  5
193
100
AcDbEntity
  8
Frei
  6
CONTINUOUS
 62
           3
100
AcDbLine
 10
-14418.500184247121
 20
-1919.334392068839
 30
0.0
 11
-14419.162558791093
 21
-1919.864731548321
 31
0.0
  0
LINE
  5
194
100
AcDbEntity
  8
Frei
  6
CONTINUOUS
 62
           3
100
AcDbLine
 10
-14436.390894598939
 20
-1917.353866101481
 30
0.0
 11
-14418.500184247121
 21
-1919.334392068839
 31
0.0
  0
LINE
  5
195
100
AcDbEntity
  8
Frei
  6
CONTINUOUS
 62
           3
100
AcDbLine
 10
-14435.860555119456
 20
-1918.016240645454
 30
0.0
 11
-14436.390894598939
 21
-1917.353866101481
 31
0.0
  0
LINE
  5
196
100
AcDbEntity
  8
Frei
  6
CONTINUOUS
 62
           3
100
AcDbLine
 10
-14436.302871222611
 20
-1916.558723419178
 30
0.0
 11
-14435.640496678639
 21
-1916.028383939696
 31
0.0
  0
LINE
  5
197
100
AcDbEntity
  8
Frei
  6
CONTINUOUS
 62
           3
100
AcDbLine
 10
-14430.246945990459
 20
-1917.229122578451
 30
0.0
 11
-14436.302871222611
 21
-1916.558723419178
 31
0.0
  0
LINE
  5
198
100
AcDbEntity
  8
Frei
  6
CONTINUOUS
 62
           3
100
AcDbLine
 10
-14418.942500350277
 20
-1917.876874842564
 30
0.0
 11
-14418.412160870794
 21
-1918.539249386536
 31
0.0
  0
LINE
  5
199
100
AcDbEntity
  8
Frei
  6
CONTINUOUS
 62
           3
100
AcDbLine
 10
-14418.280125806303
 20
-1917.346535363082
 30
0.0
 11
-14418.942500350277
 21
-1917.876874842564
 31
0.0
  0
LINE
  5
19A
100
AcDbEntity
  8
Frei
  6
CONTINUOUS
 62
           3
100
AcDbLine
 10
-14424.336051038455
 20
-1916.676136203809
 30
0.0
 11
-14418.280125806303
 21
-1917.346535363082
 31
0.0
  0
LINE
  5
19B
100
AcDbEntity
  8
Frei
  6
CONTINUOUS
 62
           3
100
AcDbLine
 10
-14435.640496678639
 20
-1916.028383939696
 30
0.0
 11
-14436.17083615812
 21
-1915.366009395724
 31
0.0
  0
LINE
  5
19C
100
AcDbEntity
  8
Frei
  6
CONTINUOUS
 62
           3
100
AcDbLine
 10
-14436.082812781795
 20
-1914.570866713421
 30
0.0
 11
-14435.420438237821
 21
-1914.040527233939
 31
0.0
  0
LINE
  5
19D
100
AcDbEntity
  8
Frei
  6
CONTINUOUS
 62
           3
100
AcDbLine
 10
-14430.768572887102
 20
-1915.159160297143
 30
0.0
 11
-14436.082812781795
 21
-1914.570866713421
 31
0.0
  0
LINE
  5
19E
100
AcDbEntity
  8
Frei
  6
CONTINUOUS
 62
           3
100
AcDbLine
 10
-14418.722441909458
 20
-1915.889018136806
 30
0.0
 11
-14418.192102429977
 21
-1916.551392680779
 31
0.0
  0
LINE
  5
19F
100
AcDbEntity
  8
Frei
  6
CONTINUOUS
 62
           3
100
AcDbLine
 10
-14424.036681804151
 20
-1915.300724553084
 30
0.0
 11
-14418.722441909458
 21
-1915.889018136806
 31
0.0
  0
LINE
  5
1A0
100
AcDbEntity
  8
Frei
  6
CONTINUOUS
 62
           3
100
AcDbLine
 10
-14429.584571446489
 20
-1916.698783098969
 30
0.0
 11
-14435.640496678639
 21
-1916.028383939696
 31
0.0
  0
LINE
  5
1A1
100
AcDbEntity
  8
Frei
  6
CONTINUOUS
 62
           3
100
AcDbLine
 10
-14419.162558791093
 20
-1919.864731548321
 30
0.0
 11
-14435.860555119456
 21
-1918.016240645454
 31
0.0
  0
LINE
  5
1A2
100
AcDbEntity
  8
Frei
  6
CONTINUOUS
 62
           3
100
AcDbLine
 10
-14429.584571446489
 20
-1916.698783098969
 30
0.0
 11
-14430.114910925968
 21
-1916.036408554997
 31
0.0
  0
LINE
  5
1A3
100
AcDbEntity
  8
Frei
  6
CONTINUOUS
 62
           3
100
AcDbLine
 10
-14436.17083615812
 20
-1915.366009395724
 30
0.0
 11
-14430.114910925968
 21
-1916.036408554997
 31
0.0
  0
LINE
  5
1A4
100
AcDbEntity
  8
Frei
  6
CONTINUOUS
 62
           3
100
AcDbLine
 10
-14430.246945990459
 20
-1917.229122578451
 30
0.0
 11
-14429.584571446489
 21
-1916.698783098969
 31
0.0
  0
LINE
  5
1A5
100
AcDbEntity
  8
Frei
  6
CONTINUOUS
 62
           3
100
AcDbLine
 10
-14430.106198343128
 20
-1914.628820817661
 30
0.0
 11
-14430.768572887102
 21
-1915.159160297143
 31
0.0
  0
LINE
  5
1A6
100
AcDbEntity
  8
Frei
  6
CONTINUOUS
 62
           3
100
AcDbLine
 10
-14435.420438237821
 20
-1914.040527233939
 30
0.0
 11
-14430.106198343128
 21
-1914.628820817661
 31
0.0
  0
LINE
  5
1A7
100
AcDbEntity
  8
Frei
  6
CONTINUOUS
 62
           3
100
AcDbLine
 10
-14423.50634232467
 20
-1915.963099097057
 30
0.0
 11
-14424.036681804151
 21
-1915.300724553084
 31
0.0
  0
LINE
  5
1A8
100
AcDbEntity
  8
Frei
  6
CONTINUOUS
 62
           3
100
AcDbLine
 10
-14418.192102429977
 20
-1916.551392680779
 30
0.0
 11
-14423.50634232467
 21
-1915.963099097057
 31
0.0
  0
LINE
  5
1A9
100
AcDbEntity
  8
Frei
  6
CONTINUOUS
 62
           3
100
AcDbLine
 10
-14424.998425582429
 20
-1917.206475683291
 30
0.0
 11
-14424.336051038455
 21
-1916.676136203809
 31
0.0
  0
LINE
  5
1AA
100
AcDbEntity
  8
Frei
  6
CONTINUOUS
 62
           3
100
AcDbLine
 10
-14418.942500350277
 20
-1917.876874842564
 30
0.0
 11
-14424.998425582429
 21
-1917.206475683291
 31
0.0
  0
LINE
  5
1AB
100
AcDbEntity
  8
Frei
  6
CONTINUOUS
 62
           3
100
AcDbLine
 10
-14424.468086102946
 20
-1917.868850227263
 30
0.0
 11
-14424.998425582429
 21
-1917.206475683291
 31
0.0
  0
LINE
  5
1AC
100
AcDbEntity
  8
Frei
  6
CONTINUOUS
 62
           3
100
AcDbLine
 10
-14418.412160870794
 20
-1918.539249386536
 30
0.0
 11
-14424.468086102946
 21
-1917.868850227263
 31
0.0
  0
LINE
  5
1AD
100
AcDbEntity
  8
Frei
  6
CONTINUOUS
 62
           3
100
AcDbLine
 10
-14436.17083615812
 20
-1915.366009395724
 30
0.0
 11
-14436.302871222611
 21
-1916.558723419178
 31
0.0
  0
LINE
  5
1AE
100
AcDbEntity
  8
Frei
  6
CONTINUOUS
 62
           3
100
AcDbLine
 10
-14436.52292966343
 20
-1918.546580124936
 30
0.0
 11
-14436.390894598939
 21
-1917.353866101481
 31
0.0
  0
LINE
  5
1AF
100
AcDbEntity
  8
Frei
  6
CONTINUOUS
 62
           3
100
AcDbLine
 10
-14436.742988104246
 20
-1920.534436830693
 30
0.0
 11
-14436.610953039757
 21
-1919.341722807239
 31
0.0
  0
LINE
  5
1B0
100
AcDbEntity
  8
Frei
  6
CONTINUOUS
 62
           3
100
AcDbLine
 10
-14436.963046545065
 20
-1922.522293536451
 30
0.0
 11
-14436.831011480574
 21
-1921.329579512996
 31
0.0
  0
LINE
  5
1B1
100
AcDbEntity
  8
Frei
  6
CONTINUOUS
 62
           3
100
AcDbLine
 10
-14436.016795249549
 20
-1913.974509701694
 30
0.0
 11
-14436.082812781795
 21
-1914.570866713421
 31
0.0
  0
LINE
  5
1B2
100
AcDbEntity
  8
Frei
  6
CONTINUOUS
 62
           3
100
AcDbLine
 10
-14418.192102429977
 20
-1916.551392680779
 30
0.0
 11
-14418.126084897731
 21
-1915.955035669051
 31
0.0
  0
LINE
  5
1B3
100
AcDbEntity
  8
Frei
  6
CONTINUOUS
 62
           3
100
AcDbLine
 10
-14418.412160870794
 20
-1918.539249386536
 30
0.0
 11
-14418.280125806303
 21
-1917.346535363082
 31
0.0
  0
LINE
  5
1B4
100
AcDbEntity
  8
Frei
  6
CONTINUOUS
 62
           3
100
AcDbLine
 10
-14418.632219311612
 20
-1920.527106092294
 30
0.0
 11
-14418.500184247121
 21
-1919.334392068839
 31
0.0
  0
LINE
  5
1B5
100
AcDbEntity
  8
Frei
  6
CONTINUOUS
 62
           3
100
AcDbLine
 10
-14418.852277752429
 20
-1922.514962798051
 30
0.0
 11
-14418.720242687939
 21
-1921.322248774597
 31
0.0
  0
LINE
  5
1B6
100
AcDbEntity
  8
Frei
  6
CONTINUOUS
 62
           3
100
AcDbLine
 10
-14419.072336193247
 20
-1924.502819503809
 30
0.0
 11
-14418.940301128756
 21
-1923.310105480354
 31
0.0
  0
LINE
  5
1B7
100
AcDbEntity
  8
Frei
  6
CONTINUOUS
 62
           3
100
AcDbLine
 10
-14417.311868666706
 20
-1908.599965857749
 30
0.0
 11
-14417.179833602217
 21
-1907.407251834294
 31
0.0
  0
LINE
  5
1B8
100
AcDbEntity
  8
Frei
  6
CONTINUOUS
 62
           3
100
AcDbLine
 10
-14417.531927107524
 20
-1910.587822563506
 30
0.0
 11
-14417.399892043033
 21
-1909.395108540052
 31
0.0
  0
LINE
  5
1B9
100
AcDbEntity
  8
Frei
  6
CONTINUOUS
 62
           3
100
AcDbLine
 10
-14417.751985548341
 20
-1912.575679269264
 30
0.0
 11
-14417.619950483851
 21
-1911.382965245809
 31
0.0
  0
LINE
  5
1BA
100
AcDbEntity
  8
Frei
  6
CONTINUOUS
 62
           3
100
AcDbLine
 10
-14417.972043989159
 20
-1914.563535975021
 30
0.0
 11
-14417.840008924668
 21
-1913.370821951567
 31
0.0
  0
LINE
  5
1BB
100
AcDbEntity
  8
Frei
  6
CONTINUOUS
 62
           3
100
AcDbLine
 10
-14418.126084897731
 20
-1915.955035669051
 30
0.0
 11
-14418.060067365486
 21
-1915.358678657324
 31
0.0
  0
LINE
  5
1BC
100
AcDbEntity
  8
Frei
  6
CONTINUOUS
 62
           3
100
AcDbLine
 10
-14435.950777717304
 20
-1913.378152689966
 30
0.0
 11
-14436.016795249549
 21
-1913.974509701694
 31
0.0
  0
LINE
  5
1BD
100
AcDbEntity
  8
Frei
  6
CONTINUOUS
 62
           3
100
AcDbLine
 10
-14435.202579018523
 20
-1906.619439890391
 30
0.0
 11
-14435.070543954034
 21
-1905.426725866937
 31
0.0
  0
LINE
  5
1BE
100
AcDbEntity
  8
Frei
  6
CONTINUOUS
 62
           3
100
AcDbLine
 10
-14435.422637459342
 20
-1908.607296596148
 30
0.0
 11
-14435.290602394851
 21
-1907.414582572694
 31
0.0
  0
LINE
  5
1BF
100
AcDbEntity
  8
Frei
  6
CONTINUOUS
 62
           3
100
AcDbLine
 10
-14435.642695900158
 20
-1910.595153301906
 30
0.0
 11
-14435.510660835669
 21
-1909.402439278451
 31
0.0
  0
LINE
  5
1C0
100
AcDbEntity
  8
Frei
  6
CONTINUOUS
 62
           3
100
AcDbLine
 10
-14435.730719276486
 20
-1911.390295984209
 30
0.0
 11
-14435.862754340977
 21
-1912.583010007663
 31
0.0
  0
LINE
  5
1C1
100
AcDbEntity
  8
Frei
  6
CONTINUOUS
 62
           3
100
AcDbLine
 10
-14423.895934156821
 20
-1912.700422792294
 30
0.0
 11
-14417.840008924668
 21
-1913.370821951567
 31
0.0
  0
LINE
  5
1C2
100
AcDbEntity
  8
Frei
  6
CONTINUOUS
 62
           3
100
AcDbLine
 10
-14424.558308700794
 20
-1913.230762271776
 30
0.0
 11
-14423.895934156821
 21
-1912.700422792294
 31
0.0
  0
LINE
  5
1C3
100
AcDbEntity
  8
Frei
  6
CONTINUOUS
 62
           3
100
AcDbLine
 10
-14424.558308700794
 20
-1913.230762271776
 30
0.0
 11
-14418.502383468642
 21
-1913.901161431049
 31
0.0
  0
LINE
  5
1C4
100
AcDbEntity
  8
Frei
  6
CONTINUOUS
 62
           3
100
AcDbLine
 10
-14424.027969221312
 20
-1913.893136815748
 30
0.0
 11
-14424.558308700794
 21
-1913.230762271776
 31
0.0
  0
LINE
  5
1C5
100
AcDbEntity
  8
Frei
  6
CONTINUOUS
 62
           3
100
AcDbLine
 10
-14423.374307260179
 20
-1914.770385073602
 30
0.0
 11
-14418.060067365486
 21
-1915.358678657324
 31
0.0
  0
LINE
  5
1C6
100
AcDbEntity
  8
Frei
  6
CONTINUOUS
 62
           3
100
AcDbLine
 10
-14424.036681804151
 20
-1915.300724553084
 30
0.0
 11
-14423.374307260179
 21
-1914.770385073602
 31
0.0
  0
LINE
  5
1C7
100
AcDbEntity
  8
Frei
  6
CONTINUOUS
 62
           3
100
AcDbLine
 10
-14430.636537822611
 20
-1913.966446273689
 30
0.0
 11
-14430.106198343128
 21
-1914.628820817661
 31
0.0
  0
LINE
  5
1C8
100
AcDbEntity
  8
Frei
  6
CONTINUOUS
 62
           3
100
AcDbLine
 10
-14429.144454564854
 20
-1912.723069687454
 30
0.0
 11
-14429.674794044333
 21
-1912.060695143482
 31
0.0
  0
LINE
  5
1C9
100
AcDbEntity
  8
Frei
  6
CONTINUOUS
 62
           3
100
AcDbLine
 10
-14429.806829108824
 20
-1913.253409166936
 30
0.0
 11
-14435.862754340977
 21
-1912.583010007663
 31
0.0
  0
LINE
  5
1CA
100
AcDbEntity
  8
Frei
  6
CONTINUOUS
 62
           3
100
AcDbLine
 10
-14429.806829108824
 20
-1913.253409166936
 30
0.0
 11
-14429.144454564854
 21
-1912.723069687454
 31
0.0
  0
LINE
  5
1CB
100
AcDbEntity
  8
Frei
  6
CONTINUOUS
 62
           3
100
AcDbLine
 10
-14434.980321356186
 20
-1910.064813822424
 30
0.0
 11
-14418.282325027823
 21
-1911.913304725291
 31
0.0
  0
LINE
  5
1CC
100
AcDbEntity
  8
Frei
  6
CONTINUOUS
 62
           3
100
AcDbLine
 10
-14435.200379797005
 20
-1912.052670528181
 30
0.0
 11
-14429.144454564854
 21
-1912.723069687454
 31
0.0
  0
LINE
  5
1CD
100
AcDbEntity
  8
Frei
  6
CONTINUOUS
 62
           3
100
AcDbLine
 10
-14418.060067365486
 20
-1915.358678657324
 30
0.0
 11
-14418.722441909458
 21
-1915.889018136806
 31
0.0
  0
LINE
  5
1CE
100
AcDbEntity
  8
Frei
  6
CONTINUOUS
 62
           3
100
AcDbLine
 10
-14435.950777717304
 20
-1913.378152689966
 30
0.0
 11
-14430.636537822611
 21
-1913.966446273689
 31
0.0
  0
LINE
  5
1CF
100
AcDbEntity
  8
Frei
  6
CONTINUOUS
 62
           3
100
AcDbLine
 10
-14435.420438237821
 20
-1914.040527233939
 30
0.0
 11
-14435.950777717304
 21
-1913.378152689966
 31
0.0
  0
LINE
  5
1D0
100
AcDbEntity
  8
Frei
  6
CONTINUOUS
 62
           3
100
AcDbLine
 10
-14435.862754340977
 20
-1912.583010007663
 30
0.0
 11
-14435.200379797005
 21
-1912.052670528181
 31
0.0
  0
LINE
  5
1D1
100
AcDbEntity
  8
Frei
  6
CONTINUOUS
 62
           3
100
AcDbLine
 10
-14417.972043989159
 20
-1914.563535975021
 30
0.0
 11
-14424.027969221312
 21
-1913.893136815748
 31
0.0
  0
LINE
  5
1D2
100
AcDbEntity
  8
Frei
  6
CONTINUOUS
 62
           3
100
AcDbLine
 10
-14418.502383468642
 20
-1913.901161431049
 30
0.0
 11
-14417.972043989159
 21
-1914.563535975021
 31
0.0
  0
LINE
  5
1D3
100
AcDbEntity
  8
Frei
  6
CONTINUOUS
 62
           3
100
AcDbLine
 10
-14417.840008924668
 20
-1913.370821951567
 30
0.0
 11
-14418.502383468642
 21
-1913.901161431049
 31
0.0
  0
LINE
  5
1D4
100
AcDbEntity
  8
Frei
  6
CONTINUOUS
 62
           3
100
AcDbLine
 10
-14435.730719276486
 20
-1911.390295984209
 30
0.0
 11
-14429.674794044333
 21
-1912.060695143482
 31
0.0
  0
LINE
  5
1D5
100
AcDbEntity
  8
Frei
  6
CONTINUOUS
 62
           3
100
AcDbLine
 10
-14435.200379797005
 20
-1912.052670528181
 30
0.0
 11
-14435.730719276486
 21
-1911.390295984209
 31
0.0
  0
LINE
  5
1D6
100
AcDbEntity
  8
Frei
  6
CONTINUOUS
 62
           3
100
AcDbLine
 10
-14435.642695900158
 20
-1910.595153301906
 30
0.0
 11
-14434.980321356186
 21
-1910.064813822424
 31
0.0
  0
LINE
  5
1D7
100
AcDbEntity
  8
Frei
  6
CONTINUOUS
 62
           3
100
AcDbLine
 10
-14417.751985548341
 20
-1912.575679269264
 30
0.0
 11
-14435.642695900158
 21
-1910.595153301906
 31
0.0
  0
LINE
  5
1D8
100
AcDbEntity
  8
Frei
  6
CONTINUOUS
 62
           3
100
AcDbLine
 10
-14418.282325027823
 20
-1911.913304725291
 30
0.0
 11
-14417.751985548341
 21
-1912.575679269264
 31
0.0
  0
LINE
  5
1D9
100
AcDbEntity
  8
Frei
  6
CONTINUOUS
 62
           3
100
AcDbLine
 10
-14417.619950483851
 20
-1911.382965245809
 30
0.0
 11
-14418.282325027823
 21
-1911.913304725291
 31
0.0
  0
LINE
  5
1DA
100
AcDbEntity
  8
Frei
  6
CONTINUOUS
 62
           3
100
AcDbLine
 10
-14435.510660835669
 20
-1909.402439278451
 30
0.0
 11
-14417.619950483851
 21
-1911.382965245809
 31
0.0
  0
LINE
  5
1DB
100
AcDbEntity
  8
Frei
  6
CONTINUOUS
 62
           3
100
AcDbLine
 10
-14434.980321356186
 20
-1910.064813822424
 30
0.0
 11
-14435.510660835669
 21
-1909.402439278451
 31
0.0
  0
LINE
  5
1DC
100
AcDbEntity
  8
Frei
  6
CONTINUOUS
 62
           3
100
AcDbLine
 10
-14418.062266587005
 20
-1909.925448019534
 30
0.0
 11
-14434.760262915368
 21
-1908.076957116666
 31
0.0
  0
LINE
  5
1DD
100
AcDbEntity
  8
Frei
  6
CONTINUOUS
 62
           3
100
AcDbLine
 10
-14435.422637459342
 20
-1908.607296596148
 30
0.0
 11
-14434.760262915368
 21
-1908.076957116666
 31
0.0
  0
LINE
  5
1DE
100
AcDbEntity
  8
Frei
  6
CONTINUOUS
 62
           3
100
AcDbLine
 10
-14417.531927107524
 20
-1910.587822563506
 30
0.0
 11
-14435.422637459342
 21
-1908.607296596148
 31
0.0
  0
LINE
  5
1DF
100
AcDbEntity
  8
Frei
  6
CONTINUOUS
 62
           3
100
AcDbLine
 10
-14418.062266587005
 20
-1909.925448019534
 30
0.0
 11
-14417.531927107524
 21
-1910.587822563506
 31
0.0
  0
LINE
  5
1E0
100
AcDbEntity
  8
Frei
  6
CONTINUOUS
 62
           3
100
AcDbLine
 10
-14417.399892043033
 20
-1909.395108540052
 30
0.0
 11
-14418.062266587005
 21
-1909.925448019534
 31
0.0
  0
LINE
  5
1E1
100
AcDbEntity
  8
Frei
  6
CONTINUOUS
 62
           3
100
AcDbLine
 10
-14435.290602394851
 20
-1907.414582572694
 30
0.0
 11
-14417.399892043033
 21
-1909.395108540052
 31
0.0
  0
LINE
  5
1E2
100
AcDbEntity
  8
Frei
  6
CONTINUOUS
 62
           3
100
AcDbLine
 10
-14434.760262915368
 20
-1908.076957116666
 30
0.0
 11
-14435.290602394851
 21
-1907.414582572694
 31
0.0
  0
LINE
  5
1E3
100
AcDbEntity
  8
Frei
  6
CONTINUOUS
 62
           3
100
AcDbLine
 10
-14434.540204474552
 20
-1906.089100410909
 30
0.0
 11
-14417.842208146189
 21
-1907.937591313777
 31
0.0
  0
LINE
  5
1E4
100
AcDbEntity
  8
Frei
  6
CONTINUOUS
 62
           3
100
AcDbLine
 10
-14434.540204474552
 20
-1906.089100410909
 30
0.0
 11
-14435.202579018523
 21
-1906.619439890391
 31
0.0
  0
LINE
  5
1E5
100
AcDbEntity
  8
Frei
  6
CONTINUOUS
 62
           3
100
AcDbLine
 10
-14435.070543954034
 20
-1905.426725866937
 30
0.0
 11
-14434.540204474552
 21
-1906.089100410909
 31
0.0
  0
LINE
  5
1E6
100
AcDbEntity
  8
Frei
  6
CONTINUOUS
 62
           3
100
AcDbLine
 10
-14417.179833602217
 20
-1907.407251834294
 30
0.0
 11
-14435.070543954034
 21
-1905.426725866937
 31
0.0
  0
LINE
  5
1E7
100
AcDbEntity
  8
Frei
  6
CONTINUOUS
 62
           3
100
AcDbLine
 10
-14417.842208146189
 20
-1907.937591313777
 30
0.0
 11
-14417.179833602217
 21
-1907.407251834294
 31
0.0
  0
LINE
  5
1E8
100
AcDbEntity
  8
Frei
  6
CONTINUOUS
 62
           3
100
AcDbLine
 10
-14417.311868666706
 20
-1908.599965857749
 30
0.0
 11
-14417.842208146189
 21
-1907.937591313777
 31
0.0
  0
LINE
  5
1E9
100
AcDbEntity
  8
Frei
  6
CONTINUOUS
 62
           3
100
AcDbLine
 10
-14435.202579018523
 20
-1906.619439890391
 30
0.0
 11
-14417.311868666706
 21
-1908.599965857749
 31
0.0
  0
LINE
  5
1EA
100
AcDbEntity
  8
Frei
  6
CONTINUOUS
 62
           3
100
AcDbLine
 10
-14245.362263618683
 20
-1927.635020988466
 30
0.0
 11
-14227.471553266867
 21
-1929.615546955824
 31
0.0
  0
LINE
  5
1EB
100
AcDbEntity
  8
Frei
  6
CONTINUOUS
 62
           3
100
AcDbLine
 10
-14244.699889074713
 20
-1927.104681508984
 30
0.0
 11
-14245.362263618683
 21
-1927.635020988466
 31
0.0
  0
LINE
  5
1EC
100
AcDbEntity
  8
Frei
  6
CONTINUOUS
 62
           3
100
AcDbLine
 10
-14245.230228554194
 20
-1926.442306965012
 30
0.0
 11
-14244.699889074713
 21
-1927.104681508984
 31
0.0
  0
LINE
  5
1ED
100
AcDbEntity
  8
Frei
  6
CONTINUOUS
 62
           3
100
AcDbLine
 10
-14227.339518202378
 20
-1928.42283293237
 30
0.0
 11
-14245.230228554194
 21
-1926.442306965012
 31
0.0
  0
LINE
  5
1EE
100
AcDbEntity
  8
Frei
  6
CONTINUOUS
 62
           3
100
AcDbLine
 10
-14228.00189274635
 20
-1928.953172411852
 30
0.0
 11
-14227.339518202378
 21
-1928.42283293237
 31
0.0
  0
LINE
  5
1EF
100
AcDbEntity
  8
Frei
  6
CONTINUOUS
 62
           3
100
AcDbLine
 10
-14227.471553266867
 20
-1929.615546955824
 30
0.0
 11
-14228.00189274635
 21
-1928.953172411852
 31
0.0
  0
LINE
  5
1F0
100
AcDbEntity
  8
Frei
  6
CONTINUOUS
 62
           3
100
AcDbLine
 10
-14244.699889074713
 20
-1927.104681508984
 30
0.0
 11
-14228.00189274635
 21
-1928.953172411852
 31
0.0
  0
LINE
  5
1F1
100
AcDbEntity
  8
Frei
  6
CONTINUOUS
 62
           3
100
AcDbLine
 10
-14227.559576643194
 20
-1930.410689638127
 30
0.0
 11
-14228.221951187166
 21
-1930.941029117609
 31
0.0
  0
LINE
  5
1F2
100
AcDbEntity
  8
Frei
  6
CONTINUOUS
 62
           3
100
AcDbLine
 10
-14245.45028699501
 20
-1928.430163670769
 30
0.0
 11
-14227.559576643194
 21
-1930.410689638127
 31
0.0
  0
LINE
  5
1F3
100
AcDbEntity
  8
Frei
  6
CONTINUOUS
 62
           3
100
AcDbLine
 10
-14244.919947515529
 20
-1929.092538214742
 30
0.0
 11
-14245.45028699501
 21
-1928.430163670769
 31
0.0
  0
LINE
  5
1F4
100
AcDbEntity
  8
Frei
  6
CONTINUOUS
 62
           3
100
AcDbLine
 10
-14245.582322059501
 20
-1929.622877694224
 30
0.0
 11
-14244.919947515529
 21
-1929.092538214742
 31
0.0
  0
LINE
  5
1F5
100
AcDbEntity
  8
Frei
  6
CONTINUOUS
 62
           3
100
AcDbLine
 10
-14227.691611707685
 20
-1931.603403661582
 30
0.0
 11
-14245.582322059501
 21
-1929.622877694224
 31
0.0
  0
LINE
  5
1F6
100
AcDbEntity
  8
Frei
  6
CONTINUOUS
 62
           3
100
AcDbLine
 10
-14228.221951187166
 20
-1930.941029117609
 30
0.0
 11
-14227.691611707685
 21
-1931.603403661582
 31
0.0
  0
LINE
  5
1F7
100
AcDbEntity
  8
Frei
  6
CONTINUOUS
 62
           3
100
AcDbLine
 10
-14228.221951187166
 20
-1930.941029117609
 30
0.0
 11
-14244.919947515529
 21
-1929.092538214742
 31
0.0
  0
LINE
  5
1F8
100
AcDbEntity
  8
Frei
  6
CONTINUOUS
 62
           3
100
AcDbLine
 10
-14227.779635084013
 20
-1932.398546343885
 30
0.0
 11
-14228.442009627985
 21
-1932.928885823367
 31
0.0
  0
LINE
  5
1F9
100
AcDbEntity
  8
Frei
  6
CONTINUOUS
 62
           3
100
AcDbLine
 10
-14245.670345435828
 20
-1930.418020376527
 30
0.0
 11
-14227.779635084013
 21
-1932.398546343885
 31
0.0
  0
LINE
  5
1FA
100
AcDbEntity
  8
Frei
  6
CONTINUOUS
 62
           3
100
AcDbLine
 10
-14245.140005956348
 20
-1931.080394920499
 30
0.0
 11
-14245.670345435828
 21
-1930.418020376527
 31
0.0
  0
LINE
  5
1FB
100
AcDbEntity
  8
Frei
  6
CONTINUOUS
 62
           3
100
AcDbLine
 10
-14245.802380500318
 20
-1931.610734399981
 30
0.0
 11
-14245.140005956348
 21
-1931.080394920499
 31
0.0
  0
LINE
  5
1FC
100
AcDbEntity
  8
Frei
  6
CONTINUOUS
 62
           3
100
AcDbLine
 10
-14227.911670148502
 20
-1933.591260367339
 30
0.0
 11
-14245.802380500318
 21
-1931.610734399981
 31
0.0
  0
LINE
  5
1FD
100
AcDbEntity
  8
Frei
  6
CONTINUOUS
 62
           3
100
AcDbLine
 10
-14228.442009627985
 20
-1932.928885823367
 30
0.0
 11
-14227.911670148502
 21
-1933.591260367339
 31
0.0
  0
LINE
  5
1FE
100
AcDbEntity
  8
Frei
  6
CONTINUOUS
 62
           3
100
AcDbLine
 10
-14227.999693524829
 20
-1934.386403049642
 30
0.0
 11
-14228.662068068803
 21
-1934.916742529124
 31
0.0
  0
LINE
  5
1FF
100
AcDbEntity
  8
Frei
  6
CONTINUOUS
 62
           3
100
AcDbLine
 10
-14234.055618756982
 20
-1933.716003890369
 30
0.0
 11
-14227.999693524829
 21
-1934.386403049642
 31
0.0
  0
LINE
  5
200
100
AcDbEntity
  8
Frei
  6
CONTINUOUS
 62
           3
100
AcDbLine
 10
-14245.360064397166
 20
-1933.068251626257
 30
0.0
 11
-14245.890403876645
 21
-1932.405877082284
 31
0.0
  0
LINE
  5
201
100
AcDbEntity
  8
Frei
  6
CONTINUOUS
 62
           3
100
AcDbLine
 10
-14246.022438941136
 20
-1933.598591105739
 30
0.0
 11
-14245.360064397166
 21
-1933.068251626257
 31
0.0
  0
LINE
  5
202
100
AcDbEntity
  8
Frei
  6
CONTINUOUS
 62
           3
100
AcDbLine
 10
-14239.966513708985
 20
-1934.268990265012
 30
0.0
 11
-14246.022438941136
 21
-1933.598591105739
 31
0.0
  0
LINE
  5
203
100
AcDbEntity
  8
Frei
  6
CONTINUOUS
 62
           3
100
AcDbLine
 10
-14228.662068068803
 20
-1934.916742529124
 30
0.0
 11
-14228.13172858932
 21
-1935.579117073097
 31
0.0
  0
LINE
  5
204
100
AcDbEntity
  8
Frei
  6
CONTINUOUS
 62
           3
100
AcDbLine
 10
-14228.219751965647
 20
-1936.3742597554
 30
0.0
 11
-14228.882126509619
 21
-1936.904599234882
 31
0.0
  0
LINE
  5
205
100
AcDbEntity
  8
Frei
  6
CONTINUOUS
 62
           3
100
AcDbLine
 10
-14233.53399186034
 20
-1935.785966171677
 30
0.0
 11
-14228.219751965647
 21
-1936.3742597554
 31
0.0
  0
LINE
  5
206
100
AcDbEntity
  8
Frei
  6
CONTINUOUS
 62
           3
100
AcDbLine
 10
-14245.580122837982
 20
-1935.056108332014
 30
0.0
 11
-14246.110462317463
 21
-1934.393733788042
 31
0.0
  0
LINE
  5
207
100
AcDbEntity
  8
Frei
  6
CONTINUOUS
 62
           3
100
AcDbLine
 10
-14234.717993300954
 20
-1934.246343369851
 30
0.0
 11
-14228.662068068803
 21
-1934.916742529124
 31
0.0
  0
LINE
  5
208
100
AcDbEntity
  8
Frei
  6
CONTINUOUS
 62
           3
100
AcDbLine
 10
-14245.140005956348
 20
-1931.080394920499
 30
0.0
 11
-14228.442009627985
 21
-1932.928885823367
 31
0.0
  0
LINE
  5
209
100
AcDbEntity
  8
Frei
  6
CONTINUOUS
 62
           3
100
AcDbLine
 10
-14234.717993300954
 20
-1934.246343369851
 30
0.0
 11
-14234.187653821473
 21
-1934.908717913824
 31
0.0
  0
LINE
  5
20A
100
AcDbEntity
  8
Frei
  6
CONTINUOUS
 62
           3
100
AcDbLine
 10
-14228.13172858932
 20
-1935.579117073097
 30
0.0
 11
-14234.187653821473
 21
-1934.908717913824
 31
0.0
  0
LINE
  5
20B
100
AcDbEntity
  8
Frei
  6
CONTINUOUS
 62
           3
100
AcDbLine
 10
-14234.055618756982
 20
-1933.716003890369
 30
0.0
 11
-14234.717993300954
 21
-1934.246343369851
 31
0.0
  0
LINE
  5
20C
100
AcDbEntity
  8
Frei
  6
CONTINUOUS
 62
           3
100
AcDbLine
 10
-14234.196366404312
 20
-1936.316305651159
 30
0.0
 11
-14233.53399186034
 21
-1935.785966171677
 31
0.0
  0
LINE
  5
20D
100
AcDbEntity
  8
Frei
  6
CONTINUOUS
 62
           3
100
AcDbLine
 10
-14240.796222422772
 20
-1934.982027371764
 30
0.0
 11
-14240.265882943289
 21
-1935.644401915736
 31
0.0
  0
LINE
  5
20E
100
AcDbEntity
  8
Frei
  6
CONTINUOUS
 62
           3
100
AcDbLine
 10
-14246.110462317463
 20
-1934.393733788042
 30
0.0
 11
-14240.796222422772
 21
-1934.982027371764
 31
0.0
  0
LINE
  5
20F
100
AcDbEntity
  8
Frei
  6
CONTINUOUS
 62
           3
100
AcDbLine
 10
-14239.304139165013
 20
-1933.73865078553
 30
0.0
 11
-14239.966513708985
 21
-1934.268990265012
 31
0.0
  0
LINE
  5
210
100
AcDbEntity
  8
Frei
  6
CONTINUOUS
 62
           3
100
AcDbLine
 10
-14245.360064397166
 20
-1933.068251626257
 30
0.0
 11
-14239.304139165013
 21
-1933.73865078553
 31
0.0
  0
LINE
  5
211
100
AcDbEntity
  8
Frei
  6
CONTINUOUS
 62
           3
100
AcDbLine
 10
-14239.834478644494
 20
-1933.076276241557
 30
0.0
 11
-14239.304139165013
 21
-1933.73865078553
 31
0.0
  0
LINE
  5
212
100
AcDbEntity
  8
Frei
  6
CONTINUOUS
 62
           3
100
AcDbLine
 10
-14245.890403876645
 20
-1932.405877082284
 30
0.0
 11
-14239.834478644494
 21
-1933.076276241557
 31
0.0
  0
LINE
  5
213
100
AcDbEntity
  8
Frei
  6
CONTINUOUS
 62
           3
100
AcDbLine
 10
-14228.13172858932
 20
-1935.579117073097
 30
0.0
 11
-14227.999693524829
 21
-1934.386403049642
 31
0.0
  0
LINE
  5
214
100
AcDbEntity
  8
Frei
  6
CONTINUOUS
 62
           3
100
AcDbLine
 10
-14227.779635084013
 20
-1932.398546343885
 30
0.0
 11
-14227.911670148502
 21
-1933.591260367339
 31
0.0
  0
LINE
  5
215
100
AcDbEntity
  8
Frei
  6
CONTINUOUS
 62
           3
100
AcDbLine
 10
-14227.559576643194
 20
-1930.410689638127
 30
0.0
 11
-14227.691611707685
 21
-1931.603403661582
 31
0.0
  0
LINE
  5
216
100
AcDbEntity
  8
Frei
  6
CONTINUOUS
 62
           3
100
AcDbLine
 10
-14227.339518202378
 20
-1928.42283293237
 30
0.0
 11
-14227.471553266867
 21
-1929.615546955824
 31
0.0
  0
LINE
  5
217
100
AcDbEntity
  8
Frei
  6
CONTINUOUS
 62
           3
100
AcDbLine
 10
-14228.285769497892
 20
-1936.970616767127
 30
0.0
 11
-14228.219751965647
 21
-1936.3742597554
 31
0.0
  0
LINE
  5
218
100
AcDbEntity
  8
Frei
  6
CONTINUOUS
 62
           3
100
AcDbLine
 10
-14246.110462317463
 20
-1934.393733788042
 30
0.0
 11
-14246.176479849708
 21
-1934.990090799769
 31
0.0
  0
LINE
  5
219
100
AcDbEntity
  8
Frei
  6
CONTINUOUS
 62
           3
100
AcDbLine
 10
-14245.890403876645
 20
-1932.405877082284
 30
0.0
 11
-14246.022438941136
 21
-1933.598591105739
 31
0.0
  0
LINE
  5
21A
100
AcDbEntity
  8
Frei
  6
CONTINUOUS
 62
           3
100
AcDbLine
 10
-14245.670345435828
 20
-1930.418020376527
 30
0.0
 11
-14245.802380500318
 21
-1931.610734399981
 31
0.0
  0
LINE
  5
21B
100
AcDbEntity
  8
Frei
  6
CONTINUOUS
 62
           3
100
AcDbLine
 10
-14245.45028699501
 20
-1928.430163670769
 30
0.0
 11
-14245.582322059501
 21
-1929.622877694224
 31
0.0
  0
LINE
  5
21C
100
AcDbEntity
  8
Frei
  6
CONTINUOUS
 62
           3
100
AcDbLine
 10
-14245.230228554194
 20
-1926.442306965012
 30
0.0
 11
-14245.362263618683
 21
-1927.635020988466
 31
0.0
  0
LINE
  5
21D
100
AcDbEntity
  8
Frei
  6
CONTINUOUS
 62
           3
100
AcDbLine
 10
-14246.990696080733
 20
-1942.345160611072
 30
0.0
 11
-14247.122731145224
 21
-1943.537874634526
 31
0.0
  0
LINE
  5
21E
100
AcDbEntity
  8
Frei
  6
CONTINUOUS
 62
           3
100
AcDbLine
 10
-14246.770637639916
 20
-1940.357303905314
 30
0.0
 11
-14246.902672704406
 21
-1941.550017928769
 31
0.0
  0
LINE
  5
21F
100
AcDbEntity
  8
Frei
  6
CONTINUOUS
 62
           3
100
AcDbLine
 10
-14246.550579199098
 20
-1938.369447199557
 30
0.0
 11
-14246.682614263589
 21
-1939.562161223011
 31
0.0
  0
LINE
  5
220
100
AcDbEntity
  8
Frei
  6
CONTINUOUS
 62
           3
100
AcDbLine
 10
-14246.33052075828
 20
-1936.381590493799
 30
0.0
 11
-14246.462555822771
 21
-1937.574304517254
 31
0.0
  0
LINE
  5
221
100
AcDbEntity
  8
Frei
  6
CONTINUOUS
 62
           3
100
AcDbLine
 10
-14246.176479849708
 20
-1934.990090799769
 30
0.0
 11
-14246.242497381954
 21
-1935.586447811496
 31
0.0
  0
LINE
  5
222
100
AcDbEntity
  8
Frei
  6
CONTINUOUS
 62
           3
100
AcDbLine
 10
-14228.351787030138
 20
-1937.566973778854
 30
0.0
 11
-14228.285769497892
 21
-1936.970616767127
 31
0.0
  0
LINE
  5
223
100
AcDbEntity
  8
Frei
  6
CONTINUOUS
 62
           3
100
AcDbLine
 10
-14229.099985728917
 20
-1944.32568657843
 30
0.0
 11
-14229.232020793408
 21
-1945.518400601884
 31
0.0
  0
LINE
  5
224
100
AcDbEntity
  8
Frei
  6
CONTINUOUS
 62
           3
100
AcDbLine
 10
-14228.879927288101
 20
-1942.337829872672
 30
0.0
 11
-14229.01196235259
 21
-1943.530543896127
 31
0.0
  0
LINE
  5
225
100
AcDbEntity
  8
Frei
  6
CONTINUOUS
 62
           3
100
AcDbLine
 10
-14228.659868847282
 20
-1940.349973166915
 30
0.0
 11
-14228.791903911773
 21
-1941.542687190369
 31
0.0
  0
LINE
  5
226
100
AcDbEntity
  8
Frei
  6
CONTINUOUS
 62
           3
100
AcDbLine
 10
-14228.571845470955
 20
-1939.554830484612
 30
0.0
 11
-14228.439810406464
 21
-1938.362116461157
 31
0.0
  0
LINE
  5
227
100
AcDbEntity
  8
Frei
  6
CONTINUOUS
 62
           3
100
AcDbLine
 10
-14240.40663059062
 20
-1938.244703676527
 30
0.0
 11
-14246.462555822771
 21
-1937.574304517254
 31
0.0
  0
LINE
  5
228
100
AcDbEntity
  8
Frei
  6
CONTINUOUS
 62
           3
100
AcDbLine
 10
-14239.744256046648
 20
-1937.714364197045
 30
0.0
 11
-14240.40663059062
 21
-1938.244703676527
 31
0.0
  0
LINE
  5
229
100
AcDbEntity
  8
Frei
  6
CONTINUOUS
 62
           3
100
AcDbLine
 10
-14239.744256046648
 20
-1937.714364197045
 30
0.0
 11
-14245.800181278801
 21
-1937.043965037772
 31
0.0
  0
LINE
  5
22A
100
AcDbEntity
  8
Frei
  6
CONTINUOUS
 62
           3
100
AcDbLine
 10
-14240.274595526129
 20
-1937.051989653072
 30
0.0
 11
-14239.744256046648
 21
-1937.714364197045
 31
0.0
  0
LINE
  5
22B
100
AcDbEntity
  8
Frei
  6
CONTINUOUS
 62
           3
100
AcDbLine
 10
-14240.928257487263
 20
-1936.174741395219
 30
0.0
 11
-14246.242497381954
 21
-1935.586447811496
 31
0.0
  0
LINE
  5
22C
100
AcDbEntity
  8
Frei
  6
CONTINUOUS
 62
           3
100
AcDbLine
 10
-14240.265882943289
 20
-1935.644401915736
 30
0.0
 11
-14240.928257487263
 21
-1936.174741395219
 31
0.0
  0
LINE
  5
22D
100
AcDbEntity
  8
Frei
  6
CONTINUOUS
 62
           3
100
AcDbLine
 10
-14234.196366404312
 20
-1936.316305651159
 30
0.0
 11
-14228.882126509619
 21
-1936.904599234882
 31
0.0
  0
LINE
  5
22E
100
AcDbEntity
  8
Frei
  6
CONTINUOUS
 62
           3
100
AcDbLine
 10
-14233.666026924831
 20
-1936.978680195132
 30
0.0
 11
-14234.196366404312
 21
-1936.316305651159
 31
0.0
  0
LINE
  5
22F
100
AcDbEntity
  8
Frei
  6
CONTINUOUS
 62
           3
100
AcDbLine
 10
-14235.158110182589
 20
-1938.222056781366
 30
0.0
 11
-14234.627770703108
 21
-1938.884431325339
 31
0.0
  0
LINE
  5
230
100
AcDbEntity
  8
Frei
  6
CONTINUOUS
 62
           3
100
AcDbLine
 10
-14234.495735638617
 20
-1937.691717301884
 30
0.0
 11
-14228.439810406464
 21
-1938.362116461157
 31
0.0
  0
LINE
  5
231
100
AcDbEntity
  8
Frei
  6
CONTINUOUS
 62
           3
100
AcDbLine
 10
-14234.495735638617
 20
-1937.691717301884
 30
0.0
 11
-14235.158110182589
 21
-1938.222056781366
 31
0.0
  0
LINE
  5
232
100
AcDbEntity
  8
Frei
  6
CONTINUOUS
 62
           3
100
AcDbLine
 10
-14229.322243391254
 20
-1940.880312646397
 30
0.0
 11
-14246.020239719617
 21
-1939.031821743529
 31
0.0
  0
LINE
  5
233
100
AcDbEntity
  8
Frei
  6
CONTINUOUS
 62
           3
100
AcDbLine
 10
-14229.102184950438
 20
-1938.892455940639
 30
0.0
 11
-14235.158110182589
 21
-1938.222056781366
 31
0.0
  0
LINE
  5
234
100
AcDbEntity
  8
Frei
  6
CONTINUOUS
 62
           3
100
AcDbLine
 10
-14245.580122837982
 20
-1935.056108332014
 30
0.0
 11
-14240.265882943289
 21
-1935.644401915736
 31
0.0
  0
LINE
  5
235
100
AcDbEntity
  8
Frei
  6
CONTINUOUS
 62
           3
100
AcDbLine
 10
-14246.242497381954
 20
-1935.586447811496
 30
0.0
 11
-14245.580122837982
 21
-1935.056108332014
 31
0.0
  0
LINE
  5
236
100
AcDbEntity
  8
Frei
  6
CONTINUOUS
 62
           3
100
AcDbLine
 10
-14228.351787030138
 20
-1937.566973778854
 30
0.0
 11
-14233.666026924831
 21
-1936.978680195132
 31
0.0
  0
LINE
  5
237
100
AcDbEntity
  8
Frei
  6
CONTINUOUS
 62
           3
100
AcDbLine
 10
-14228.882126509619
 20
-1936.904599234882
 30
0.0
 11
-14228.351787030138
 21
-1937.566973778854
 31
0.0
  0
LINE
  5
238
100
AcDbEntity
  8
Frei
  6
CONTINUOUS
 62
           3
100
AcDbLine
 10
-14228.439810406464
 20
-1938.362116461157
 30
0.0
 11
-14229.102184950438
 21
-1938.892455940639
 31
0.0
  0
LINE
  5
239
100
AcDbEntity
  8
Frei
  6
CONTINUOUS
 62
           3
100
AcDbLine
 10
-14246.33052075828
 20
-1936.381590493799
 30
0.0
 11
-14240.274595526129
 21
-1937.051989653072
 31
0.0
  0
LINE
  5
23A
100
AcDbEntity
  8
Frei
  6
CONTINUOUS
 62
           3
100
AcDbLine
 10
-14245.800181278801
 20
-1937.043965037772
 30
0.0
 11
-14246.33052075828
 21
-1936.381590493799
 31
0.0
  0
LINE
  5
23B
100
AcDbEntity
  8
Frei
  6
CONTINUOUS
 62
           3
100
AcDbLine
 10
-14246.462555822771
 20
-1937.574304517254
 30
0.0
 11
-14245.800181278801
 21
-1937.043965037772
 31
0.0
  0
LINE
  5
23C
100
AcDbEntity
  8
Frei
  6
CONTINUOUS
 62
           3
100
AcDbLine
 10
-14228.571845470955
 20
-1939.554830484612
 30
0.0
 11
-14234.627770703108
 21
-1938.884431325339
 31
0.0
  0
LINE
  5
23D
100
AcDbEntity
  8
Frei
  6
CONTINUOUS
 62
           3
100
AcDbLine
 10
-14229.102184950438
 20
-1938.892455940639
 30
0.0
 11
-14228.571845470955
 21
-1939.554830484612
 31
0.0
  0
LINE
  5
23E
100
AcDbEntity
  8
Frei
  6
CONTINUOUS
 62
           3
100
AcDbLine
 10
-14228.659868847282
 20
-1940.349973166915
 30
0.0
 11
-14229.322243391254
 21
-1940.880312646397
 31
0.0
  0
LINE
  5
23F
100
AcDbEntity
  8
Frei
  6
CONTINUOUS
 62
           3
100
AcDbLine
 10
-14246.550579199098
 20
-1938.369447199557
 30
0.0
 11
-14228.659868847282
 21
-1940.349973166915
 31
0.0
  0
LINE
  5
240
100
AcDbEntity
  8
Frei
  6
CONTINUOUS
 62
           3
100
AcDbLine
 10
-14246.020239719617
 20
-1939.031821743529
 30
0.0
 11
-14246.550579199098
 21
-1938.369447199557
 31
0.0
  0
LINE
  5
241
100
AcDbEntity
  8
Frei
  6
CONTINUOUS
 62
           3
100
AcDbLine
 10
-14246.682614263589
 20
-1939.562161223011
 30
0.0
 11
-14246.020239719617
 21
-1939.031821743529
 31
0.0
  0
LINE
  5
242
100
AcDbEntity
  8
Frei
  6
CONTINUOUS
 62
           3
100
AcDbLine
 10
-14228.791903911773
 20
-1941.542687190369
 30
0.0
 11
-14246.682614263589
 21
-1939.562161223011
 31
0.0
  0
LINE
  5
243
100
AcDbEntity
  8
Frei
  6
CONTINUOUS
 62
           3
100
AcDbLine
 10
-14229.322243391254
 20
-1940.880312646397
 30
0.0
 11
-14228.791903911773
 21
-1941.542687190369
 31
0.0
  0
LINE
  5
244
100
AcDbEntity
  8
Frei
  6
CONTINUOUS
 62
           3
100
AcDbLine
 10
-14246.240298160435
 20
-1941.019678449286
 30
0.0
 11
-14229.542301832073
 21
-1942.868169352154
 31
0.0
  0
LINE
  5
245
100
AcDbEntity
  8
Frei
  6
CONTINUOUS
 62
           3
100
AcDbLine
 10
-14228.879927288101
 20
-1942.337829872672
 30
0.0
 11
-14229.542301832073
 21
-1942.868169352154
 31
0.0
  0
LINE
  5
246
100
AcDbEntity
  8
Frei
  6
CONTINUOUS
 62
           3
100
AcDbLine
 10
-14246.770637639916
 20
-1940.357303905314
 30
0.0
 11
-14228.879927288101
 21
-1942.337829872672
 31
0.0
  0
LINE
  5
247
100
AcDbEntity
  8
Frei
  6
CONTINUOUS
 62
           3
100
AcDbLine
 10
-14246.240298160435
 20
-1941.019678449286
 30
0.0
 11
-14246.770637639916
 21
-1940.357303905314
 31
0.0
  0
LINE
  5
248
100
AcDbEntity
  8
Frei
  6
CONTINUOUS
 62
           3
100
AcDbLine
 10
-14246.902672704406
 20
-1941.550017928769
 30
0.0
 11
-14246.240298160435
 21
-1941.019678449286
 31
0.0
  0
LINE
  5
249
100
AcDbEntity
  8
Frei
  6
CONTINUOUS
 62
           3
100
AcDbLine
 10
-14229.01196235259
 20
-1943.530543896127
 30
0.0
 11
-14246.902672704406
 21
-1941.550017928769
 31
0.0
  0
LINE
  5
24A
100
AcDbEntity
  8
Frei
  6
CONTINUOUS
 62
           3
100
AcDbLine
 10
-14229.542301832073
 20
-1942.868169352154
 30
0.0
 11
-14229.01196235259
 21
-1943.530543896127
 31
0.0
  0
LINE
  5
24B
100
AcDbEntity
  8
Frei
  6
CONTINUOUS
 62
           3
100
AcDbLine
 10
-14229.762360272891
 20
-1944.856026057912
 30
0.0
 11
-14246.460356601254
 21
-1943.007535155044
 31
0.0
  0
LINE
  5
24C
100
AcDbEntity
  8
Frei
  6
CONTINUOUS
 62
           3
100
AcDbLine
 10
-14229.762360272891
 20
-1944.856026057912
 30
0.0
 11
-14229.099985728917
 21
-1944.32568657843
 31
0.0
  0
LINE
  5
24D
100
AcDbEntity
  8
Frei
  6
CONTINUOUS
 62
           3
100
AcDbLine
 10
-14229.232020793408
 20
-1945.518400601884
 30
0.0
 11
-14229.762360272891
 21
-1944.856026057912
 31
0.0
  0
LINE
  5
24E
100
AcDbEntity
  8
Frei
  6
CONTINUOUS
 62
           3
100
AcDbLine
 10
-14247.122731145224
 20
-1943.537874634526
 30
0.0
 11
-14229.232020793408
 21
-1945.518400601884
 31
0.0
  0
LINE
  5
24F
100
AcDbEntity
  8
Frei
  6
CONTINUOUS
 62
           3
100
AcDbLine
 10
-14246.460356601254
 20
-1943.007535155044
 30
0.0
 11
-14247.122731145224
 21
-1943.537874634526
 31
0.0
  0
LINE
  5
250
100
AcDbEntity
  8
Frei
  6
CONTINUOUS
 62
           3
100
AcDbLine
 10
-14246.990696080733
 20
-1942.345160611072
 30
0.0
 11
-14246.460356601254
 21
-1943.007535155044
 31
0.0
  0
LINE
  5
251
100
AcDbEntity
  8
Frei
  6
CONTINUOUS
 62
           3
100
AcDbLine
 10
-14229.099985728917
 20
-1944.32568657843
 30
0.0
 11
-14246.990696080733
 21
-1942.345160611072
 31
0.0
  0
LINE
  5
252
100
AcDbEntity
  8
Frei
  6
CONTINUOUS
 62
           7
100
AcDbLine
 10
-14203.534519325154
 20
-1951.903446554282
 30
0.0
 11
-14202.927198703084
 21
-1953.288077636953
 31
0.0
  0
LINE
  5
253
100
AcDbEntity
  8
Frei
  6
CONTINUOUS
 62
           7
100
AcDbLine
 10
-14203.534519325154
 20
-1951.903446554282
 30
0.0
 11
-14207.752768087799
 21
-1951.436480679429
 31
0.0
  0
LINE
  5
254
100
AcDbEntity
  8
Frei
  6
CONTINUOUS
 62
           7
100
AcDbLine
 10
-14202.494981564048
 20
-1949.383725070512
 30
0.0
 11
-14203.534519325154
 21
-1951.903446554282
 31
0.0
  0
LINE
  5
255
100
AcDbEntity
  8
Frei
  6
CONTINUOUS
 62
           7
100
AcDbLine
 10
-14202.518112924807
 20
-1942.721929720846
 30
0.0
 11
-14202.054864682414
 21
-1945.408011658997
 31
0.0
  0
LINE
  5
256
100
AcDbEntity
  8
Frei
  6
CONTINUOUS
 62
           7
100
AcDbLine
 10
-14202.518112924807
 20
-1942.721929720846
 30
0.0
 11
-14206.736361687452
 21
-1942.254963845993
 31
0.0
  0
LINE
  5
257
100
AcDbEntity
  8
Frei
  6
CONTINUOUS
 62
           7
100
AcDbLine
 10
-14201.62264754338
 20
-1941.503659092557
 30
0.0
 11
-14202.518112924807
 21
-1942.721929720846
 31
0.0
  0
LINE
  5
258
100
AcDbEntity
  8
Frei
  6
CONTINUOUS
 62
           7
100
AcDbLine
 10
-14203.147257143901
 20
-1955.27593434271
 30
0.0
 11
-14204.042722525328
 21
-1956.494204971
 31
0.0
  0
LINE
  5
259
100
AcDbEntity
  8
Frei
  6
CONTINUOUS
 62
           7
100
AcDbLine
 10
-14202.009909724633
 20
-1938.131171304128
 30
0.0
 11
-14206.228158487278
 21
-1937.664205429275
 31
0.0
  0
LINE
  5
25A
100
AcDbEntity
  8
Frei
  6
CONTINUOUS
 62
           7
100
AcDbLine
 10
-14202.009909724633
 20
-1938.131171304128
 30
0.0
 11
-14201.402589102563
 21
-1939.515802386799
 31
0.0
  0
LINE
  5
25B
100
AcDbEntity
  8
Frei
  6
CONTINUOUS
 62
           7
100
AcDbLine
 10
-14208.116898908294
 20
-1954.725788240667
 30
0.0
 11
-14208.260971287973
 21
-1956.027239096147
 31
0.0
  0
LINE
  5
25C
100
AcDbEntity
  8
Frei
  6
CONTINUOUS
 62
           7
100
AcDbLine
 10
-14203.147257143901
 20
-1955.27593434271
 30
0.0
 11
-14202.927198703084
 21
-1953.288077636953
 31
0.0
  0
LINE
  5
25D
100
AcDbEntity
  8
Frei
  6
CONTINUOUS
 62
           7
100
AcDbLine
 10
-14203.147257143901
 20
-1955.27593434271
 30
0.0
 11
-14208.116898908294
 21
-1954.725788240667
 31
0.0
  0
LINE
  5
25E
100
AcDbEntity
  8
Frei
  6
CONTINUOUS
 62
           7
100
AcDbLine
 10
-14207.896840467478
 20
-1952.737931534909
 30
0.0
 11
-14208.116898908294
 21
-1954.725788240667
 31
0.0
  0
LINE
  5
25F
100
AcDbEntity
  8
Frei
  6
CONTINUOUS
 62
           7
100
AcDbLine
 10
-14202.927198703084
 20
-1953.288077636953
 30
0.0
 11
-14202.494981564048
 21
-1949.383725070512
 31
0.0
  0
LINE
  5
260
100
AcDbEntity
  8
Frei
  6
CONTINUOUS
 62
           7
100
AcDbLine
 10
-14202.927198703084
 20
-1953.288077636953
 30
0.0
 11
-14207.896840467478
 21
-1952.737931534909
 31
0.0
  0
LINE
  5
261
100
AcDbEntity
  8
Frei
  6
CONTINUOUS
 62
           7
100
AcDbLine
 10
-14207.752768087799
 20
-1951.436480679429
 30
0.0
 11
-14207.896840467478
 21
-1952.737931534909
 31
0.0
  0
LINE
  5
262
100
AcDbEntity
  8
Frei
  6
CONTINUOUS
 62
           7
100
AcDbLine
 10
-14207.464623328442
 20
-1948.833578968468
 30
0.0
 11
-14207.752768087799
 21
-1951.436480679429
 31
0.0
  0
LINE
  5
263
100
AcDbEntity
  8
Frei
  6
CONTINUOUS
 62
           7
100
AcDbLine
 10
-14202.494981564048
 20
-1949.383725070512
 30
0.0
 11
-14202.054864682414
 21
-1945.408011658997
 31
0.0
  0
LINE
  5
264
100
AcDbEntity
  8
Frei
  6
CONTINUOUS
 62
           7
100
AcDbLine
 10
-14202.494981564048
 20
-1949.383725070512
 30
0.0
 11
-14207.464623328442
 21
-1948.833578968468
 31
0.0
  0
LINE
  5
265
100
AcDbEntity
  8
Frei
  6
CONTINUOUS
 62
           7
100
AcDbLine
 10
-14207.024506446807
 20
-1944.857865556953
 30
0.0
 11
-14207.464623328442
 21
-1948.833578968468
 31
0.0
  0
LINE
  5
266
100
AcDbEntity
  8
Frei
  6
CONTINUOUS
 62
           7
100
AcDbLine
 10
-14202.054864682414
 20
-1945.408011658997
 30
0.0
 11
-14201.62264754338
 21
-1941.503659092557
 31
0.0
  0
LINE
  5
267
100
AcDbEntity
  8
Frei
  6
CONTINUOUS
 62
           7
100
AcDbLine
 10
-14202.054864682414
 20
-1945.408011658997
 30
0.0
 11
-14207.024506446807
 21
-1944.857865556953
 31
0.0
  0
LINE
  5
268
100
AcDbEntity
  8
Frei
  6
CONTINUOUS
 62
           7
100
AcDbLine
 10
-14206.736361687452
 20
-1942.254963845993
 30
0.0
 11
-14207.024506446807
 21
-1944.857865556953
 31
0.0
  0
LINE
  5
269
100
AcDbEntity
  8
Frei
  6
CONTINUOUS
 62
           7
100
AcDbLine
 10
-14206.592289307773
 20
-1940.953512990513
 30
0.0
 11
-14206.736361687452
 21
-1942.254963845993
 31
0.0
  0
LINE
  5
26A
100
AcDbEntity
  8
Frei
  6
CONTINUOUS
 62
           7
100
AcDbLine
 10
-14201.62264754338
 20
-1941.503659092557
 30
0.0
 11
-14201.402589102563
 21
-1939.515802386799
 31
0.0
  0
LINE
  5
26B
100
AcDbEntity
  8
Frei
  6
CONTINUOUS
 62
           7
100
AcDbLine
 10
-14201.62264754338
 20
-1941.503659092557
 30
0.0
 11
-14206.592289307773
 21
-1940.953512990513
 31
0.0
  0
LINE
  5
26C
100
AcDbEntity
  8
Frei
  6
CONTINUOUS
 62
           7
100
AcDbLine
 10
-14206.372230866957
 20
-1938.965656284755
 30
0.0
 11
-14206.592289307773
 21
-1940.953512990513
 31
0.0
  0
LINE
  5
26D
100
AcDbEntity
  8
Frei
  6
CONTINUOUS
 62
           7
100
AcDbLine
 10
-14206.372230866957
 20
-1938.965656284755
 30
0.0
 11
-14201.402589102563
 21
-1939.515802386799
 31
0.0
  0
LINE
  5
26E
100
AcDbEntity
  8
Frei
  6
CONTINUOUS
 62
           7
100
AcDbLine
 10
-14208.260971287973
 20
-1956.027239096147
 30
0.0
 11
-14204.042722525328
 21
-1956.494204971
 31
0.0
  0
LINE
  5
26F
100
AcDbEntity
  8
Frei
  6
CONTINUOUS
 62
           7
100
AcDbLine
 10
-14206.228158487278
 20
-1937.664205429275
 30
0.0
 11
-14206.372230866957
 21
-1938.965656284755
 31
0.0
  0
LINE
  5
270
100
AcDbEntity
  8
Frei
  6
CONTINUOUS
 62
           7
100
AcDbLine
 10
-14249.61304326678
 20
-1902.414178964788
 30
0.0
 11
-14250.190696673926
 21
-1907.632302817401
 31
0.0
  0
LINE
  5
271
100
AcDbEntity
  8
Frei
  6
CONTINUOUS
 62
           7
100
AcDbLine
 10
-14248.892355280323
 20
-1909.536721265552
 30
0.0
 11
-14248.507253008893
 21
-1906.057972030477
 31
0.0
  0
LINE
  5
272
100
AcDbEntity
  8
Frei
  6
CONTINUOUS
 62
           7
100
AcDbLine
 10
-14249.643753839835
 20
-1909.45354042311
 30
0.0
 11
-14248.892355280323
 21
-1909.536721265552
 31
0.0
  0
LINE
  5
273
100
AcDbEntity
  8
Frei
  6
CONTINUOUS
 62
           7
100
AcDbLine
 10
-14248.507253008893
 20
-1906.057972030477
 30
0.0
 11
-14247.737048466031
 21
-1899.100473560326
 31
0.0
  0
LINE
  5
274
100
AcDbEntity
  8
Frei
  6
CONTINUOUS
 62
           7
100
AcDbLine
 10
-14249.258651568405
 20
-1905.974791188035
 30
0.0
 11
-14248.507253008893
 21
-1906.057972030477
 31
0.0
  0
LINE
  5
275
100
AcDbEntity
  8
Frei
  6
CONTINUOUS
 62
           7
100
AcDbLine
 10
-14247.737048466031
 20
-1899.100473560326
 30
0.0
 11
-14247.3519461946
 21
-1895.62172432525
 31
0.0
  0
LINE
  5
276
100
AcDbEntity
  8
Frei
  6
CONTINUOUS
 62
           7
100
AcDbLine
 10
-14248.488447025544
 20
-1899.017292717884
 30
0.0
 11
-14247.737048466031
 21
-1899.100473560326
 31
0.0
  0
LINE
  5
277
100
AcDbEntity
  8
Frei
  6
CONTINUOUS
 62
           7
100
AcDbLine
 10
-14247.3519461946
 20
-1895.62172432525
 30
0.0
 11
-14246.746785482352
 21
-1890.155118384417
 31
0.0
  0
LINE
  5
278
100
AcDbEntity
  8
Frei
  6
CONTINUOUS
 62
           7
100
AcDbLine
 10
-14248.103344754112
 20
-1895.538543482808
 30
0.0
 11
-14247.3519461946
 21
-1895.62172432525
 31
0.0
  0
LINE
  5
279
100
AcDbEntity
  8
Frei
  6
CONTINUOUS
 62
           7
100
AcDbLine
 10
-14212.874381974472
 20
-1952.259146277939
 30
0.0
 11
-14211.554031329566
 21
-1940.332006043394
 31
0.0
  0
LINE
  5
27A
100
AcDbEntity
  8
Frei
  6
CONTINUOUS
 62
           2
100
AcDbLine
 10
-14207.904740210079
 20
-1952.809292379983
 30
0.0
 11
-14212.874381974472
 21
-1952.259146277939
 31
0.0
  0
LINE
  5
27B
100
AcDbEntity
  8
Frei
  6
CONTINUOUS
 62
           7
100
AcDbLine
 10
-14211.554031329566
 20
-1940.332006043394
 30
0.0
 11
-14211.444002109158
 21
-1939.338077690515
 31
0.0
  0
LINE
  5
27C
100
AcDbEntity
  8
Frei
  6
CONTINUOUS
 62
           2
100
AcDbLine
 10
-14206.584389565172
 20
-1940.882152145438
 30
0.0
 11
-14211.554031329566
 21
-1940.332006043394
 31
0.0
  0
LINE
  5
27D
100
AcDbEntity
  8
Frei
  6
CONTINUOUS
 62
           7
100
AcDbLine
 10
-14212.984411194881
 20
-1953.253074630818
 30
0.0
 11
-14212.874381974472
 21
-1952.259146277939
 31
0.0
  0
LINE
  5
27E
100
AcDbEntity
  8
Frei
  6
CONTINUOUS
 62
           7
100
AcDbLine
 10
-14212.984411194881
 20
-1953.253074630818
 30
0.0
 11
-14208.014769430487
 21
-1953.803220732862
 31
0.0
  0
LINE
  5
27F
100
AcDbEntity
  8
Frei
  6
CONTINUOUS
 62
           7
100
AcDbLine
 10
-14211.444002109158
 20
-1939.338077690515
 30
0.0
 11
-14211.388987498953
 21
-1938.841113514076
 31
0.0
  0
LINE
  5
280
100
AcDbEntity
  8
Frei
  6
CONTINUOUS
 62
           7
100
AcDbLine
 10
-14211.444002109158
 20
-1939.338077690515
 30
0.0
 11
-14206.474360344764
 21
-1939.888223792559
 31
0.0
  0
LINE
  5
281
100
AcDbEntity
  8
Frei
  6
CONTINUOUS
 62
           7
100
AcDbLine
 10
-14232.330333653479
 20
-1951.111454704147
 30
0.0
 11
-14251.250652780713
 21
-1949.01694964508
 31
0.0
  0
LINE
  5
282
100
AcDbEntity
  8
Frei
  6
CONTINUOUS
 62
           7
100
AcDbLine
 10
-14225.131609870241
 20
-1953.92058069167
 30
0.0
 11
-14232.330333653479
 21
-1951.111454704147
 31
0.0
  0
LINE
  5
283
100
AcDbEntity
  8
Frei
  6
CONTINUOUS
 62
           7
100
AcDbLine
 10
-14249.550697918176
 20
-1920.027983580984
 30
0.0
 11
-14250.047662094616
 21
-1919.972968970779
 31
0.0
  0
LINE
  5
284
100
AcDbEntity
  8
Frei
  6
CONTINUOUS
 62
           7
100
AcDbLine
 10
-14249.550697918176
 20
-1920.027983580984
 30
0.0
 11
-14252.576501479416
 21
-1947.361013285149
 31
0.0
  0
LINE
  5
285
100
AcDbEntity
  8
Frei
  6
CONTINUOUS
 62
           7
100
AcDbLine
 10
-14232.330333653479
 20
-1951.111454704147
 30
0.0
 11
-14226.402443958743
 21
-1951.767680155299
 31
0.0
  0
LINE
  5
286
100
AcDbEntity
  8
Frei
  6
CONTINUOUS
 62
           7
100
AcDbLine
 10
-14221.720704037571
 20
-1923.108801752429
 30
0.0
 11
-14249.550697918176
 21
-1920.027983580984
 31
0.0
  0
LINE
  5
287
100
AcDbEntity
  8
Frei
  6
CONTINUOUS
 62
           7
100
AcDbLine
 10
-14221.720704037571
 20
-1923.108801752429
 30
0.0
 11
-14224.746507598811
 21
-1950.441831456594
 31
0.0
  0
LINE
  5
288
100
AcDbEntity
  8
Frei
  6
CONTINUOUS
 62
           7
100
AcDbLine
 10
-14225.131609870241
 20
-1953.92058069167
 30
0.0
 11
-14214.695362165015
 21
-1955.075887505962
 31
0.0
  0
LINE
  5
289
100
AcDbEntity
  8
Frei
  6
CONTINUOUS
 62
           7
100
AcDbLine
 10
-14213.039425805086
 20
-1953.750038807257
 30
0.0
 11
-14212.984411194881
 21
-1953.253074630818
 31
0.0
  0
LINE
  5
28A
100
AcDbEntity
  8
Frei
  6
CONTINUOUS
 62
           7
100
AcDbLine
 10
-14223.151083902883
 20
-1936.029870339853
 30
0.0
 11
-14212.714836197658
 21
-1937.185177154145
 31
0.0
  0
LINE
  5
28B
100
AcDbEntity
  8
Frei
  6
CONTINUOUS
 62
           7
100
AcDbLine
 10
-14250.047662094616
 20
-1919.972968970779
 30
0.0
 11
-14249.937632874206
 21
-1918.9790406179
 31
0.0
  0
LINE
  5
28C
100
AcDbEntity
  8
Frei
  6
CONTINUOUS
 62
           7
100
AcDbLine
 10
-14221.223739861132
 20
-1923.163816362634
 30
0.0
 11
-14221.720704037571
 21
-1923.108801752429
 31
0.0
  0
LINE
  5
28D
100
AcDbEntity
  8
Frei
  6
CONTINUOUS
 62
           7
100
AcDbLine
 10
-14221.113710640722
 20
-1922.169888009755
 30
0.0
 11
-14221.223739861132
 21
-1923.163816362634
 31
0.0
  0
LINE
  5
28E
100
AcDbEntity
  8
Frei
  6
CONTINUOUS
 62
           7
100
AcDbLine
 10
-14221.113710640722
 20
-1922.169888009755
 30
0.0
 11
-14249.937632874206
 21
-1918.9790406179
 31
0.0
  0
LINE
  5
28F
100
AcDbEntity
  8
Frei
  6
CONTINUOUS
 62
           7
100
AcDbLine
 10
-14218.307965520298
 20
-1896.824715011347
 30
0.0
 11
-14218.246798061222
 21
-1896.27217022711
 31
0.0
  0
LINE
  5
290
100
AcDbEntity
  8
Frei
  6
CONTINUOUS
 62
           7
100
AcDbLine
 10
-14246.746785482352
 20
-1890.155118384417
 30
0.0
 11
-14219.945355181269
 21
-1894.07314595796
 31
0.0
  0
LINE
  5
291
100
AcDbEntity
  8
Frei
  6
CONTINUOUS
 62
           7
100
AcDbLine
 10
-14214.548645180403
 20
-1908.308072995057
 30
0.0
 11
-14214.603659790606
 21
-1908.805037171496
 31
0.0
  0
LINE
  5
292
100
AcDbEntity
  8
Frei
  6
CONTINUOUS
 62
           1
100
AcDbLine
 10
-14214.548645180403
 20
-1908.308072995057
 30
0.0
 11
-14217.021887734478
 21
-1908.034281680705
 31
0.0
  0
LINE
  5
293
100
AcDbEntity
  8
Frei
  6
CONTINUOUS
 62
           7
100
AcDbLine
 10
-14214.108528298766
 20
-1904.332359583542
 30
0.0
 11
-14214.548645180403
 21
-1908.308072995057
 31
0.0
  0
LINE
  5
294
100
AcDbEntity
  8
Frei
  6
CONTINUOUS
 62
           1
100
AcDbLine
 10
-14214.108528298766
 20
-1904.332359583542
 30
0.0
 11
-14216.581770852841
 21
-1904.058568269189
 31
0.0
  0
LINE
  5
295
100
AcDbEntity
  8
Frei
  6
CONTINUOUS
 62
           7
100
AcDbLine
 10
-14214.603659790606
 20
-1908.805037171496
 30
0.0
 11
-14214.658674400811
 21
-1909.302001347936
 31
0.0
  0
LINE
  5
296
100
AcDbEntity
  8
Frei
  6
CONTINUOUS
 62
           1
100
AcDbLine
 10
-14214.603659790606
 20
-1908.805037171496
 30
0.0
 11
-14217.076902344681
 21
-1908.531245857144
 31
0.0
  0
LINE
  5
297
100
AcDbEntity
  8
Frei
  6
CONTINUOUS
 62
           7
100
AcDbLine
 10
-14214.053513688563
 20
-1903.835395407103
 30
0.0
 11
-14214.108528298766
 21
-1904.332359583542
 31
0.0
  0
LINE
  5
298
100
AcDbEntity
  8
Frei
  6
CONTINUOUS
 62
           1
100
AcDbLine
 10
-14214.053513688563
 20
-1903.835395407103
 30
0.0
 11
-14216.526756242638
 21
-1903.56160409275
 31
0.0
  0
LINE
  5
299
100
AcDbEntity
  8
Frei
  6
CONTINUOUS
 62
           7
100
AcDbLine
 10
-14215.652602753689
 20
-1909.191972127527
 30
0.0
 11
-14214.992427431236
 21
-1903.228402010255
 31
0.0
  0
LINE
  5
29A
100
AcDbEntity
  8
Frei
  6
CONTINUOUS
 62
           2
100
AcDbLine
 10
-14214.658674400811
 20
-1909.302001347936
 30
0.0
 11
-14215.652602753689
 21
-1909.191972127527
 31
0.0
  0
LINE
  5
29B
100
AcDbEntity
  8
Frei
  6
CONTINUOUS
 62
           7
100
AcDbLine
 10
-14214.992427431236
 20
-1903.228402010255
 30
0.0
 11
-14214.882398210828
 21
-1902.234473657376
 31
0.0
  0
LINE
  5
29C
100
AcDbEntity
  8
Frei
  6
CONTINUOUS
 62
           2
100
AcDbLine
 10
-14213.998499078358
 20
-1903.338431230663
 30
0.0
 11
-14214.992427431236
 21
-1903.228402010255
 31
0.0
  0
LINE
  5
29D
100
AcDbEntity
  8
Frei
  6
CONTINUOUS
 62
           7
100
AcDbLine
 10
-14215.762631974098
 20
-1910.185900480406
 30
0.0
 11
-14215.652602753689
 21
-1909.191972127527
 31
0.0
  0
LINE
  5
29E
100
AcDbEntity
  8
Frei
  6
CONTINUOUS
 62
           7
100
AcDbLine
 10
-14214.658674400811
 20
-1909.302001347936
 30
0.0
 11
-14215.762631974098
 21
-1910.185900480406
 31
0.0
  0
LINE
  5
29F
100
AcDbEntity
  8
Frei
  6
CONTINUOUS
 62
           7
100
AcDbLine
 10
-14213.998499078358
 20
-1903.338431230663
 30
0.0
 11
-14214.053513688563
 21
-1903.835395407103
 31
0.0
  0
LINE
  5
2A0
100
AcDbEntity
  8
Frei
  6
CONTINUOUS
 62
           7
100
AcDbLine
 10
-14214.882398210828
 20
-1902.234473657376
 30
0.0
 11
-14214.332252108783
 21
-1897.264831892982
 31
0.0
  0
LINE
  5
2A1
100
AcDbEntity
  8
Frei
  6
CONTINUOUS
 62
           7
100
AcDbLine
 10
-14214.882398210828
 20
-1902.234473657376
 30
0.0
 11
-14213.998499078358
 21
-1903.338431230663
 31
0.0
  0
LINE
  5
2A2
100
AcDbEntity
  8
Frei
  6
CONTINUOUS
 62
           7
100
AcDbLine
 10
-14249.937632874206
 20
-1918.9790406179
 30
0.0
 11
-14248.892355280323
 21
-1909.536721265552
 31
0.0
  0
LINE
  5
2A3
100
AcDbEntity
  8
Frei
  6
CONTINUOUS
 62
           7
100
AcDbLine
 10
-14220.288491487658
 20
-1914.715425363164
 30
0.0
 11
-14221.113710640722
 21
-1922.169888009755
 31
0.0
  0
LINE
  5
2A4
100
AcDbEntity
  8
Frei
  6
CONTINUOUS
 62
           7
100
AcDbLine
 10
-14217.204007947012
 20
-1895.940815878877
 30
0.0
 11
-14219.404592355188
 21
-1915.819382936452
 31
0.0
  0
LINE
  5
2A5
100
AcDbEntity
  8
Frei
  6
CONTINUOUS
 62
           7
100
AcDbLine
 10
-14215.216151241253
 20
-1896.160874319695
 30
0.0
 11
-14217.416735649429
 21
-1916.039441377269
 31
0.0
  0
LINE
  5
2A6
100
AcDbEntity
  8
Frei
  6
CONTINUOUS
 62
           7
100
AcDbLine
 10
-14216.312778076142
 20
-1915.155542244799
 30
0.0
 11
-14217.416735649429
 21
-1916.039441377269
 31
0.0
  0
LINE
  5
2A7
100
AcDbEntity
  8
Frei
  6
CONTINUOUS
 62
           7
100
AcDbLine
 10
-14219.404592355188
 20
-1915.819382936452
 30
0.0
 11
-14220.288491487658
 21
-1914.715425363164
 31
0.0
  0
LINE
  5
2A8
100
AcDbEntity
  8
Frei
  6
CONTINUOUS
 62
           7
100
AcDbLine
 10
-14218.307965520298
 20
-1896.824715011347
 30
0.0
 11
-14217.204007947012
 21
-1895.940815878877
 31
0.0
  0
LINE
  5
2A9
100
AcDbEntity
  8
Frei
  6
CONTINUOUS
 62
           7
100
AcDbLine
 10
-14214.332252108783
 20
-1897.264831892982
 30
0.0
 11
-14215.216151241253
 21
-1896.160874319695
 31
0.0
  0
LINE
  5
2AA
100
AcDbEntity
  8
Frei
  6
CONTINUOUS
 62
           7
100
AcDbLine
 10
-14216.312778076142
 20
-1915.155542244799
 30
0.0
 11
-14215.762631974098
 21
-1910.185900480406
 31
0.0
  0
LINE
  5
2AB
100
AcDbEntity
  8
Frei
  6
CONTINUOUS
 62
           7
100
AcDbLine
 10
-14219.404592355188
 20
-1915.819382936452
 30
0.0
 11
-14217.416735649429
 21
-1916.039441377269
 31
0.0
  0
LINE
  5
2AC
100
AcDbEntity
  8
Frei
  6
CONTINUOUS
 62
           7
100
AcDbLine
 10
-14218.307965520298
 20
-1896.824715011347
 30
0.0
 11
-14220.288491487658
 21
-1914.715425363164
 31
0.0
  0
LINE
  5
2AD
100
AcDbEntity
  8
Frei
  6
CONTINUOUS
 62
           7
100
AcDbLine
 10
-14215.216151241253
 20
-1896.160874319695
 30
0.0
 11
-14217.204007947012
 21
-1895.940815878877
 31
0.0
  0
LINE
  5
2AE
100
AcDbEntity
  8
Frei
  6
CONTINUOUS
 62
           7
100
AcDbLine
 10
-14266.337450696705
 20
-1917.163558481156
 30
0.0
 11
-14255.901202991477
 21
-1918.318865295448
 31
0.0
  0
LINE
  5
2AF
100
AcDbEntity
  8
Frei
  6
CONTINUOUS
 62
           7
100
AcDbLine
 10
-14248.791489482914
 20
-1885.90433192188
 30
0.0
 11
-14262.706486423216
 21
-1884.363922836157
 31
0.0
  0
LINE
  5
2B0
100
AcDbEntity
  8
Frei
  6
CONTINUOUS
 62
           7
100
AcDbLine
 10
-14247.907590350444
 20
-1887.008289495168
 30
0.0
 11
-14250.383247809641
 21
-1909.371677434939
 31
0.0
  0
LINE
  5
2B1
100
AcDbEntity
  8
Frei
  6
CONTINUOUS
 62
           7
100
AcDbLine
 10
-14409.353104290836
 20
-1900.325422389414
 30
0.0
 11
-14406.877446831639
 21
-1877.962034449642
 31
0.0
  0
LINE
  5
2B2
100
AcDbEntity
  8
Frei
  6
CONTINUOUS
 62
           7
100
AcDbLine
 10
-14408.225304781647
 20
-1890.137656772406
 30
0.0
 11
-14407.6476513745
 21
-1884.919532919793
 31
0.0
  0
LINE
  5
2B3
100
AcDbEntity
  8
Frei
  6
CONTINUOUS
 62
           7
100
AcDbLine
 10
-14249.035389859633
 20
-1897.196055112175
 30
0.0
 11
-14249.61304326678
 21
-1902.414178964788
 31
0.0
  0
ARC
  5
2B4
100
AcDbEntity
  8
Frei
  6
CONTINUOUS
 62
           7
100
AcDbCircle
 10
-14416.199815481568
 20
-1883.972796722176
 30
0.0
 40
8.604407030244
100
AcDbArc
 50
329.681014671726
 51
353.682999999999
  0
ARC
  5
2B5
100
AcDbEntity
  8
Frei
  6
CONTINUOUS
 62
           7
100
AcDbCircle
 10
-14409.485349232797
 20
-1879.434026397212
 30
0.0
 40
2.430106011614
100
AcDbArc
 50
307.617521857266
 51
353.682999999999
  0
ARC
  5
2B6
100
AcDbEntity
  8
Frei
  6
CONTINUOUS
 62
           7
100
AcDbCircle
 10
-14410.64065604709
 20
-1889.870274102438
 30
0.0
 40
2.430106011614
100
AcDbArc
 50
307.617521857266
 51
353.682999999999
  0
ARC
  5
2B7
100
AcDbEntity
  8
Frei
  6
CONTINUOUS
 62
           7
100
AcDbCircle
 10
-14409.485349232797
 20
-1879.434026397212
 30
0.0
 40
2.430106011614
100
AcDbArc
 50
353.682999999999
 51
39.748478142733
  0
ARC
  5
2B8
100
AcDbEntity
  8
Frei
  6
CONTINUOUS
 62
           7
100
AcDbCircle
 10
-14410.64065604709
 20
-1889.870274102438
 30
0.0
 40
2.430106011614
100
AcDbArc
 50
353.682999999999
 51
39.748478142733
  0
ARC
  5
2B9
100
AcDbEntity
  8
Frei
  6
CONTINUOUS
 62
           7
100
AcDbCircle
 10
-14247.775345408481
 20
-1907.89968548737
 30
0.0
 40
2.430106011614
100
AcDbArc
 50
127.617521857263
 51
173.683
  0
ARC
  5
2BA
100
AcDbEntity
  8
Frei
  6
CONTINUOUS
 62
           7
100
AcDbCircle
 10
-14246.620038594188
 20
-1897.463437782143
 30
0.0
 40
2.430106011614
100
AcDbArc
 50
127.617521857263
 51
173.683
  0
ARC
  5
2BB
100
AcDbEntity
  8
Frei
  6
CONTINUOUS
 62
           7
100
AcDbCircle
 10
-14247.775345408481
 20
-1907.89968548737
 30
0.0
 40
2.430106011614
100
AcDbArc
 50
173.683
 51
219.748478142737
  0
ARC
  5
2BC
100
AcDbEntity
  8
Frei
  6
CONTINUOUS
 62
           7
100
AcDbCircle
 10
-14246.620038594188
 20
-1897.463437782143
 30
0.0
 40
2.430106011614
100
AcDbArc
 50
173.683
 51
219.748478142737
  0
ARC
  5
2BD
100
AcDbEntity
  8
Frei
  6
CONTINUOUS
 62
           7
100
AcDbCircle
 10
-14241.060879159711
 20
-1903.360915162406
 30
0.0
 40
8.604407030244
100
AcDbArc
 50
149.681014671724
 51
173.683
  0
ARC
  5
2BE
100
AcDbEntity
  8
Frei
  6
CONTINUOUS
 62
           7
100
AcDbCircle
 10
-14385.295440973667
 20
-1895.204290882263
 30
0.0
 40
4.481959213903
100
AcDbArc
 50
182.061955885586
 51
345.304044114414
  0
ARC
  5
2BF
100
AcDbEntity
  8
Frei
  6
CONTINUOUS
 62
           7
100
AcDbCircle
 10
-14416.199815481568
 20
-1883.972796722176
 30
0.0
 40
8.604407030244
100
AcDbArc
 50
353.682999999999
 51
17.684985328274
  0
ARC
  5
2C0
100
AcDbEntity
  8
Frei
  6
CONTINUOUS
 62
           7
100
AcDbCircle
 10
-14241.060879159711
 20
-1903.360915162406
 30
0.0
 40
8.604407030244
100
AcDbArc
 50
173.683
 51
197.684985328276
  0
POLYLINE
  5
2C1
100
AcDbEntity
  8
Frei
  6
CONTINUOUS
 62
           7
100
AcDb2dPolyline
 66
           1
 10
0.0
 20
0.0
 30
0.0
  0
VERTEX
  5
2C2
100
AcDbEntity
  8
Frei
  6
CONTINUOUS
 62
           7
100
AcDbVertex
100
AcDb2dVertex
 10
-14389.453288389443
 20
-1895.046173189061
 30
0.0
 42
0.046286845788
  0
VERTEX
  5
2C3
100
AcDbEntity
  8
Frei
  6
CONTINUOUS
 62
           7
100
AcDbVertex
100
AcDb2dVertex
 10
-14389.465132959514
 20
-1895.726178725247
 30
0.0
  0
VERTEX
  5
2C4
100
AcDbEntity
  8
Frei
  6
CONTINUOUS
 62
           7
100
AcDbVertex
100
AcDb2dVertex
 10
-14389.423698209552
 20
-1896.065405138273
 30
0.0
  0
VERTEX
  5
2C5
100
AcDbEntity
  8
Frei
  6
CONTINUOUS
 62
           7
100
AcDbVertex
100
AcDb2dVertex
 10
-14389.35128759661
 20
-1896.399396843383
 30
0.0
 42
0.045273723548
  0
VERTEX
  5
2C6
100
AcDbEntity
  8
Frei
  6
CONTINUOUS
 62
           7
100
AcDbVertex
100
AcDb2dVertex
 10
-14389.115211434471
 20
-1897.045372151612
 30
0.0
  0
VERTEX
  5
2C7
100
AcDbEntity
  8
Frei
  6
CONTINUOUS
 62
           7
100
AcDbVertex
100
AcDb2dVertex
 10
-14388.952973242169
 20
-1897.352733228174
 30
0.0
  0
VERTEX
  5
2C8
100
AcDbEntity
  8
Frei
  6
CONTINUOUS
 62
           7
100
AcDbVertex
100
AcDb2dVertex
 10
-14388.764077527823
 20
-1897.644477017074
 30
0.0
 42
0.04348253534
  0
VERTEX
  5
2C9
100
AcDbEntity
  8
Frei
  6
CONTINUOUS
 62
           7
100
AcDbVertex
100
AcDb2dVertex
 10
-14388.308554902744
 20
-1898.178507941593
 30
0.0
  0
VERTEX
  5
2CA
100
AcDbEntity
  8
Frei
  6
CONTINUOUS
 62
           7
100
AcDbVertex
100
AcDb2dVertex
 10
-14388.045175851792
 20
-1898.416516503583
 30
0.0
  0
VERTEX
  5
2CB
100
AcDbEntity
  8
Frei
  6
CONTINUOUS
 62
           7
100
AcDbVertex
100
AcDb2dVertex
 10
-14387.762484383686
 20
-1898.63123866576
 30
0.0
 42
0.041825507476
  0
VERTEX
  5
2CC
100
AcDbEntity
  8
Frei
  6
CONTINUOUS
 62
           7
100
AcDbVertex
100
AcDb2dVertex
 10
-14387.142458047043
 20
-1898.988913195615
 30
0.0
  0
VERTEX
  5
2CD
100
AcDbEntity
  8
Frei
  6
CONTINUOUS
 62
           7
100
AcDbVertex
100
AcDb2dVertex
 10
-14386.81009100771
 20
-1899.12874238602
 30
0.0
  0
VERTEX
  5
2CE
100
AcDbEntity
  8
Frei
  6
CONTINUOUS
 62
           7
100
AcDbVertex
100
AcDb2dVertex
 10
-14386.467315079313
 20
-1899.24066377156
 30
0.0
 42
0.040993490696
  0
VERTEX
  5
2CF
100
AcDbEntity
  8
Frei
  6
CONTINUOUS
 62
           7
100
AcDbVertex
100
AcDb2dVertex
 10
-14385.757569357926
 20
-1899.378841079737
 30
0.0
  0
VERTEX
  5
2D0
100
AcDbEntity
  8
Frei
  6
CONTINUOUS
 62
           7
100
AcDbVertex
100
AcDb2dVertex
 10
-14385.396596191698
 20
-1899.403879363102
 30
0.0
  0
VERTEX
  5
2D1
100
AcDbEntity
  8
Frei
  6
CONTINUOUS
 62
           7
100
AcDbVertex
100
AcDb2dVertex
 10
-14385.03478614748
 20
-1899.399246672557
 30
0.0
 42
0.041278481646
  0
VERTEX
  5
2D2
100
AcDbEntity
  8
Frei
  6
CONTINUOUS
 62
           7
100
AcDbVertex
100
AcDb2dVertex
 10
-14384.320926850076
 20
-1899.301260536409
 30
0.0
  0
VERTEX
  5
2D3
100
AcDbEntity
  8
Frei
  6
CONTINUOUS
 62
           7
100
AcDbVertex
100
AcDb2dVertex
 10
-14383.974833206725
 20
-1899.208869011686
 30
0.0
  0
VERTEX
  5
2D4
100
AcDbEntity
  8
Frei
  6
CONTINUOUS
 62
           7
100
AcDbVertex
100
AcDb2dVertex
 10
-14383.637681719238
 20
-1899.087859930457
 30
0.0
 42
0.042584509173
  0
VERTEX
  5
2D5
100
AcDbEntity
  8
Frei
  6
CONTINUOUS
 62
           7
100
AcDbVertex
100
AcDb2dVertex
 10
-14383.005810812529
 20
-1898.765528924125
 30
0.0
  0
VERTEX
  5
2D6
100
AcDbEntity
  8
Frei
  6
CONTINUOUS
 62
           7
100
AcDbVertex
100
AcDb2dVertex
 10
-14382.71598212766
 20
-1898.567015961595
 30
0.0
  0
VERTEX
  5
2D7
100
AcDbEntity
  8
Frei
  6
CONTINUOUS
 62
           7
100
AcDbVertex
100
AcDb2dVertex
 10
-14382.4445132077
 20
-1898.344061381935
 30
0.0
 42
0.044417198743
  0
VERTEX
  5
2D8
100
AcDbEntity
  8
Frei
  6
CONTINUOUS
 62
           7
100
AcDbVertex
100
AcDb2dVertex
 10
-14381.970843648453
 20
-1897.836263381882
 30
0.0
  0
VERTEX
  5
2D9
100
AcDbEntity
  8
Frei
  6
CONTINUOUS
 62
           7
100
AcDbVertex
100
AcDb2dVertex
 10
-14381.771895372609
 20
-1897.555338958072
 30
0.0
  0
VERTEX
  5
2DA
100
AcDbEntity
  8
Frei
  6
CONTINUOUS
 62
           7
100
AcDbVertex
100
AcDb2dVertex
 10
-14381.599194344652
 20
-1897.257564109241
 30
0.0
 42
0.045929593742
  0
VERTEX
  5
2DB
100
AcDbEntity
  8
Frei
  6
CONTINUOUS
 62
           7
100
AcDbVertex
100
AcDb2dVertex
 10
-14381.340857672329
 20
-1896.625547048574
 30
0.0
  0
VERTEX
  5
2DC
100
AcDbEntity
  8
Frei
  6
CONTINUOUS
 62
           7
100
AcDbVertex
100
AcDb2dVertex
 10
-14381.256826114575
 20
-1896.295661145141
 30
0.0
  0
VERTEX
  5
2DD
100
AcDbEntity
  8
Frei
  6
CONTINUOUS
 62
           7
100
AcDbVertex
100
AcDb2dVertex
 10
-14381.20368306055
 20
-1895.959415718454
 30
0.0
 42
0.046286845788
  0
VERTEX
  5
2DE
100
AcDbEntity
  8
Frei
  6
CONTINUOUS
 62
           7
100
AcDbVertex
100
AcDb2dVertex
 10
-14381.191838490478
 20
-1895.279410182268
 30
0.0
  0
VERTEX
  5
2DF
100
AcDbEntity
  8
Frei
  6
CONTINUOUS
 62
           7
100
AcDbVertex
100
AcDb2dVertex
 10
-14381.233273240443
 20
-1894.940183769243
 30
0.0
  0
VERTEX
  5
2E0
100
AcDbEntity
  8
Frei
  6
CONTINUOUS
 62
           7
100
AcDbVertex
100
AcDb2dVertex
 10
-14381.305683853385
 20
-1894.606192064133
 30
0.0
 42
0.045273723548
  0
VERTEX
  5
2E1
100
AcDbEntity
  8
Frei
  6
CONTINUOUS
 62
           7
100
AcDbVertex
100
AcDb2dVertex
 10
-14381.541760015523
 20
-1893.960216755903
 30
0.0
  0
VERTEX
  5
2E2
100
AcDbEntity
  8
Frei
  6
CONTINUOUS
 62
           7
100
AcDbVertex
100
AcDb2dVertex
 10
-14381.703998207826
 20
-1893.652855679341
 30
0.0
  0
VERTEX
  5
2E3
100
AcDbEntity
  8
Frei
  6
CONTINUOUS
 62
           7
100
AcDbVertex
100
AcDb2dVertex
 10
-14381.892893922168
 20
-1893.361111890442
 30
0.0
 42
0.04348253534
  0
VERTEX
  5
2E4
100
AcDbEntity
  8
Frei
  6
CONTINUOUS
 62
           7
100
AcDbVertex
100
AcDb2dVertex
 10
-14382.348416547251
 20
-1892.827080965923
 30
0.0
  0
VERTEX
  5
2E5
100
AcDbEntity
  8
Frei
  6
CONTINUOUS
 62
           7
100
AcDbVertex
100
AcDb2dVertex
 10
-14382.611795598201
 20
-1892.589072403933
 30
0.0
  0
VERTEX
  5
2E6
100
AcDbEntity
  8
Frei
  6
CONTINUOUS
 62
           7
100
AcDbVertex
100
AcDb2dVertex
 10
-14382.894487066307
 20
-1892.374350241755
 30
0.0
 42
0.041825507476
  0
VERTEX
  5
2E7
100
AcDbEntity
  8
Frei
  6
CONTINUOUS
 62
           7
100
AcDbVertex
100
AcDb2dVertex
 10
-14383.51451340295
 20
-1892.0166757119
 30
0.0
  0
VERTEX
  5
2E8
100
AcDbEntity
  8
Frei
  6
CONTINUOUS
 62
           7
100
AcDbVertex
100
AcDb2dVertex
 10
-14383.846880442283
 20
-1891.876846521495
 30
0.0
  0
VERTEX
  5
2E9
100
AcDbEntity
  8
Frei
  6
CONTINUOUS
 62
           7
100
AcDbVertex
100
AcDb2dVertex
 10
-14384.189656370681
 20
-1891.764925135956
 30
0.0
 42
0.040993490696
  0
VERTEX
  5
2EA
100
AcDbEntity
  8
Frei
  6
CONTINUOUS
 62
           7
100
AcDbVertex
100
AcDb2dVertex
 10
-14384.899402092067
 20
-1891.62674782778
 30
0.0
  0
VERTEX
  5
2EB
100
AcDbEntity
  8
Frei
  6
CONTINUOUS
 62
           7
100
AcDbVertex
100
AcDb2dVertex
 10
-14385.260375258293
 20
-1891.601709544414
 30
0.0
  0
VERTEX
  5
2EC
100
AcDbEntity
  8
Frei
  6
CONTINUOUS
 62
           7
100
AcDbVertex
100
AcDb2dVertex
 10
-14385.622185302514
 20
-1891.606342234959
 30
0.0
 42
0.041278481646
  0
VERTEX
  5
2ED
100
AcDbEntity
  8
Frei
  6
CONTINUOUS
 62
           7
100
AcDbVertex
100
AcDb2dVertex
 10
-14386.336044599917
 20
-1891.704328371106
 30
0.0
  0
VERTEX
  5
2EE
100
AcDbEntity
  8
Frei
  6
CONTINUOUS
 62
           7
100
AcDbVertex
100
AcDb2dVertex
 10
-14386.682138243268
 20
-1891.796719895829
 30
0.0
  0
VERTEX
  5
2EF
100
AcDbEntity
  8
Frei
  6
CONTINUOUS
 62
           7
100
AcDbVertex
100
AcDb2dVertex
 10
-14387.019289730755
 20
-1891.917728977059
 30
0.0
 42
0.042584509172
  0
VERTEX
  5
2F0
100
AcDbEntity
  8
Frei
  6
CONTINUOUS
 62
           7
100
AcDbVertex
100
AcDb2dVertex
 10
-14387.651160637466
 20
-1892.240059983391
 30
0.0
  0
VERTEX
  5
2F1
100
AcDbEntity
  8
Frei
  6
CONTINUOUS
 62
           7
100
AcDbVertex
100
AcDb2dVertex
 10
-14387.940989322335
 20
-1892.438572945921
 30
0.0
  0
VERTEX
  5
2F2
100
AcDbEntity
  8
Frei
  6
CONTINUOUS
 62
           7
100
AcDbVertex
100
AcDb2dVertex
 10
-14388.212458242291
 20
-1892.661527525581
 30
0.0
 42
0.044417198743
  0
VERTEX
  5
2F3
100
AcDbEntity
  8
Frei
  6
CONTINUOUS
 62
           7
100
AcDbVertex
100
AcDb2dVertex
 10
-14388.686127801542
 20
-1893.169325525633
 30
0.0
  0
VERTEX
  5
2F4
100
AcDbEntity
  8
Frei
  6
CONTINUOUS
 62
           7
100
AcDbVertex
100
AcDb2dVertex
 10
-14388.885076077386
 20
-1893.450249949444
 30
0.0
  0
VERTEX
  5
2F5
100
AcDbEntity
  8
Frei
  6
CONTINUOUS
 62
           7
100
AcDbVertex
100
AcDb2dVertex
 10
-14389.057777105343
 20
-1893.748024798275
 30
0.0
 42
0.045929593742
  0
VERTEX
  5
2F6
100
AcDbEntity
  8
Frei
  6
CONTINUOUS
 62
           7
100
AcDbVertex
100
AcDb2dVertex
 10
-14389.316113777664
 20
-1894.380041858941
 30
0.0
  0
VERTEX
  5
2F7
100
AcDbEntity
  8
Frei
  6
CONTINUOUS
 62
           7
100
AcDbVertex
100
AcDb2dVertex
 10
-14389.400145335419
 20
-1894.709927762375
 30
0.0
  0
VERTEX
  5
2F8
100
AcDbEntity
  8
Frei
  6
CONTINUOUS
 62
           7
100
AcDbVertex
100
AcDb2dVertex
 10
-14389.453288389443
 20
-1895.046173189061
 30
0.0
  0
SEQEND
  5
2F9
100
AcDbEntity
  8
Frei
  6
CONTINUOUS
 62
           7
  0
POLYLINE
  5
2FA
100
AcDbEntity
  8
Frei
  6
CONTINUOUS
 62
           7
100
AcDb2dPolyline
 66
           1
 10
0.0
 20
0.0
 30
0.0
  0
VERTEX
  5
2FB
100
AcDbEntity
  8
Frei
  6
CONTINUOUS
 62
           7
100
AcDbVertex
100
AcDb2dVertex
 10
-14384.890223190878
 20
-1891.54383194319
 30
0.0
 42
0.046286845788
  0
VERTEX
  5
2FC
100
AcDbEntity
  8
Frei
  6
CONTINUOUS
 62
           7
100
AcDbVertex
100
AcDb2dVertex
 10
-14385.666181782835
 20
-1891.530316029826
 30
0.0
  0
VERTEX
  5
2FD
100
AcDbEntity
  8
Frei
  6
CONTINUOUS
 62
           7
100
AcDbVertex
100
AcDb2dVertex
 10
-14386.053275175165
 20
-1891.577597483473
 30
0.0
  0
VERTEX
  5
2FE
100
AcDbEntity
  8
Frei
  6
CONTINUOUS
 62
           7
100
AcDbVertex
100
AcDb2dVertex
 10
-14386.434395209388
 20
-1891.660225689086
 30
0.0
 42
0.045273723548
  0
VERTEX
  5
2FF
100
AcDbEntity
  8
Frei
  6
CONTINUOUS
 62
           7
100
AcDbVertex
100
AcDb2dVertex
 10
-14387.171521694307
 20
-1891.929613681712
 30
0.0
  0
VERTEX
  5
300
100
AcDbEntity
  8
Frei
  6
CONTINUOUS
 62
           7
100
AcDbVertex
100
AcDb2dVertex
 10
-14387.522253350888
 20
-1892.1147447028
 30
0.0
  0
VERTEX
  5
301
100
AcDbEntity
  8
Frei
  6
CONTINUOUS
 62
           7
100
AcDbVertex
100
AcDb2dVertex
 10
-14387.855164022347
 20
-1892.330294789865
 30
0.0
 42
0.04348253534
  0
VERTEX
  5
302
100
AcDbEntity
  8
Frei
  6
CONTINUOUS
 62
           7
100
AcDbVertex
100
AcDb2dVertex
 10
-14388.464550067314
 20
-1892.850094520828
 30
0.0
  0
VERTEX
  5
303
100
AcDbEntity
  8
Frei
  6
CONTINUOUS
 62
           7
100
AcDbVertex
100
AcDb2dVertex
 10
-14388.736143133558
 20
-1893.150638011509
 30
0.0
  0
VERTEX
  5
304
100
AcDbEntity
  8
Frei
  6
CONTINUOUS
 62
           7
100
AcDbVertex
100
AcDb2dVertex
 10
-14388.981163942593
 20
-1893.473219022807
 30
0.0
 42
0.041825507476
  0
VERTEX
  5
305
100
AcDbEntity
  8
Frei
  6
CONTINUOUS
 62
           7
100
AcDbVertex
100
AcDb2dVertex
 10
-14389.389308597005
 20
-1894.180734973125
 30
0.0
  0
VERTEX
  5
306
100
AcDbEntity
  8
Frei
  6
CONTINUOUS
 62
           7
100
AcDbVertex
100
AcDb2dVertex
 10
-14389.548868565165
 20
-1894.560001091016
 30
0.0
  0
VERTEX
  5
307
100
AcDbEntity
  8
Frei
  6
CONTINUOUS
 62
           7
100
AcDbVertex
100
AcDb2dVertex
 10
-14389.676582761758
 20
-1894.951144857652
 30
0.0
 42
0.040993490695
  0
VERTEX
  5
308
100
AcDbEntity
  8
Frei
  6
CONTINUOUS
 62
           7
100
AcDbVertex
100
AcDb2dVertex
 10
-14389.834257756722
 20
-1895.761040161895
 30
0.0
  0
VERTEX
  5
309
100
AcDbEntity
  8
Frei
  6
CONTINUOUS
 62
           7
100
AcDbVertex
100
AcDb2dVertex
 10
-14389.862829099264
 20
-1896.172948911006
 30
0.0
  0
VERTEX
  5
30A
100
AcDbEntity
  8
Frei
  6
CONTINUOUS
 62
           7
100
AcDbVertex
100
AcDb2dVertex
 10
-14389.857542706961
 20
-1896.585812626858
 30
0.0
 42
0.041278481646
  0
VERTEX
  5
30B
100
AcDbEntity
  8
Frei
  6
CONTINUOUS
 62
           7
100
AcDbVertex
100
AcDb2dVertex
 10
-14389.745730111048
 20
-1897.40040195855
 30
0.0
  0
VERTEX
  5
30C
100
AcDbEntity
  8
Frei
  6
CONTINUOUS
 62
           7
100
AcDbVertex
100
AcDb2dVertex
 10
-14389.6403015614
 20
-1897.795331590575
 30
0.0
  0
VERTEX
  5
30D
100
AcDbEntity
  8
Frei
  6
CONTINUOUS
 62
           7
100
AcDbVertex
100
AcDb2dVertex
 10
-14389.502217338128
 20
-1898.180057272331
 30
0.0
 42
0.042584509173
  0
VERTEX
  5
30E
100
AcDbEntity
  8
Frei
  6
CONTINUOUS
 62
           7
100
AcDbVertex
100
AcDb2dVertex
 10
-14389.134403400583
 20
-1898.901089136013
 30
0.0
  0
VERTEX
  5
30F
100
AcDbEntity
  8
Frei
  6
CONTINUOUS
 62
           7
100
AcDbVertex
100
AcDb2dVertex
 10
-14388.907879011156
 20
-1899.23181447022
 30
0.0
  0
VERTEX
  5
310
100
AcDbEntity
  8
Frei
  6
CONTINUOUS
 62
           7
100
AcDbVertex
100
AcDb2dVertex
 10
-14388.653464138783
 20
-1899.541589361279
 30
0.0
 42
0.044417198743
  0
VERTEX
  5
311
100
AcDbEntity
  8
Frei
  6
CONTINUOUS
 62
           7
100
AcDbVertex
100
AcDb2dVertex
 10
-14388.074012648829
 20
-1900.082096672895
 30
0.0
  0
VERTEX
  5
312
100
AcDbEntity
  8
Frei
  6
CONTINUOUS
 62
           7
100
AcDbVertex
100
AcDb2dVertex
 10
-14387.753448022884
 20
-1900.309117801081
 30
0.0
  0
VERTEX
  5
313
100
AcDbEntity
  8
Frei
  6
CONTINUOUS
 62
           7
100
AcDbVertex
100
AcDb2dVertex
 10
-14387.413655271026
 20
-1900.506188029707
 30
0.0
 42
0.045929593742
  0
VERTEX
  5
314
100
AcDbEntity
  8
Frei
  6
CONTINUOUS
 62
           7
100
AcDbVertex
100
AcDb2dVertex
 10
-14386.692456630146
 20
-1900.800977630436
 30
0.0
  0
VERTEX
  5
315
100
AcDbEntity
  8
Frei
  6
CONTINUOUS
 62
           7
100
AcDbVertex
100
AcDb2dVertex
 10
-14386.316021752027
 20
-1900.896866569223
 30
0.0
  0
VERTEX
  5
316
100
AcDbEntity
  8
Frei
  6
CONTINUOUS
 62
           7
100
AcDbVertex
100
AcDb2dVertex
 10
-14385.932329981946
 20
-1900.957508442237
 30
0.0
 42
0.046286845788
  0
VERTEX
  5
317
100
AcDbEntity
  8
Frei
  6
CONTINUOUS
 62
           7
100
AcDbVertex
100
AcDb2dVertex
 10
-14385.156371389989
 20
-1900.971024355602
 30
0.0
  0
VERTEX
  5
318
100
AcDbEntity
  8
Frei
  6
CONTINUOUS
 62
           7
100
AcDbVertex
100
AcDb2dVertex
 10
-14384.769277997657
 20
-1900.923742901954
 30
0.0
  0
VERTEX
  5
319
100
AcDbEntity
  8
Frei
  6
CONTINUOUS
 62
           7
100
AcDbVertex
100
AcDb2dVertex
 10
-14384.388157963434
 20
-1900.841114696341
 30
0.0
 42
0.045273723548
  0
VERTEX
  5
31A
100
AcDbEntity
  8
Frei
  6
CONTINUOUS
 62
           7
100
AcDbVertex
100
AcDb2dVertex
 10
-14383.651031478517
 20
-1900.571726703714
 30
0.0
  0
VERTEX
  5
31B
100
AcDbEntity
  8
Frei
  6
CONTINUOUS
 62
           7
100
AcDbVertex
100
AcDb2dVertex
 10
-14383.300299821934
 20
-1900.386595682626
 30
0.0
  0
VERTEX
  5
31C
100
AcDbEntity
  8
Frei
  6
CONTINUOUS
 62
           7
100
AcDbVertex
100
AcDb2dVertex
 10
-14382.967389150477
 20
-1900.171045595561
 30
0.0
 42
0.04348253534
  0
VERTEX
  5
31D
100
AcDbEntity
  8
Frei
  6
CONTINUOUS
 62
           7
100
AcDbVertex
100
AcDb2dVertex
 10
-14382.35800310551
 20
-1899.651245864599
 30
0.0
  0
VERTEX
  5
31E
100
AcDbEntity
  8
Frei
  6
CONTINUOUS
 62
           7
100
AcDbVertex
100
AcDb2dVertex
 10
-14382.086410039266
 20
-1899.350702373918
 30
0.0
  0
VERTEX
  5
31F
100
AcDbEntity
  8
Frei
  6
CONTINUOUS
 62
           7
100
AcDbVertex
100
AcDb2dVertex
 10
-14381.841389230231
 20
-1899.028121362621
 30
0.0
 42
0.041825507476
  0
VERTEX
  5
320
100
AcDbEntity
  8
Frei
  6
CONTINUOUS
 62
           7
100
AcDbVertex
100
AcDb2dVertex
 10
-14381.433244575817
 20
-1898.320605412302
 30
0.0
  0
VERTEX
  5
321
100
AcDbEntity
  8
Frei
  6
CONTINUOUS
 62
           7
100
AcDbVertex
100
AcDb2dVertex
 10
-14381.273684607659
 20
-1897.94133929441
 30
0.0
  0
VERTEX
  5
322
100
AcDbEntity
  8
Frei
  6
CONTINUOUS
 62
           7
100
AcDbVertex
100
AcDb2dVertex
 10
-14381.145970411064
 20
-1897.550195527774
 30
0.0
 42
0.040993490695
  0
VERTEX
  5
323
100
AcDbEntity
  8
Frei
  6
CONTINUOUS
 62
           7
100
AcDbVertex
100
AcDb2dVertex
 10
-14380.9882954161
 20
-1896.740300223533
 30
0.0
  0
VERTEX
  5
324
100
AcDbEntity
  8
Frei
  6
CONTINUOUS
 62
           7
100
AcDbVertex
100
AcDb2dVertex
 10
-14380.959724073558
 20
-1896.32839147442
 30
0.0
  0
VERTEX
  5
325
100
AcDbEntity
  8
Frei
  6
CONTINUOUS
 62
           7
100
AcDbVertex
100
AcDb2dVertex
 10
-14380.965010465861
 20
-1895.915527758568
 30
0.0
 42
0.041278481646
  0
VERTEX
  5
326
100
AcDbEntity
  8
Frei
  6
CONTINUOUS
 62
           7
100
AcDbVertex
100
AcDb2dVertex
 10
-14381.076823061774
 20
-1895.100938426876
 30
0.0
  0
VERTEX
  5
327
100
AcDbEntity
  8
Frei
  6
CONTINUOUS
 62
           7
100
AcDbVertex
100
AcDb2dVertex
 10
-14381.182251611423
 20
-1894.706008794852
 30
0.0
  0
VERTEX
  5
328
100
AcDbEntity
  8
Frei
  6
CONTINUOUS
 62
           7
100
AcDbVertex
100
AcDb2dVertex
 10
-14381.320335834696
 20
-1894.321283113097
 30
0.0
 42
0.042584509173
  0
VERTEX
  5
329
100
AcDbEntity
  8
Frei
  6
CONTINUOUS
 62
           7
100
AcDbVertex
100
AcDb2dVertex
 10
-14381.688149772241
 20
-1893.600251249414
 30
0.0
  0
VERTEX
  5
32A
100
AcDbEntity
  8
Frei
  6
CONTINUOUS
 62
           7
100
AcDbVertex
100
AcDb2dVertex
 10
-14381.914674161666
 20
-1893.269525915206
 30
0.0
  0
VERTEX
  5
32B
100
AcDbEntity
  8
Frei
  6
CONTINUOUS
 62
           7
100
AcDbVertex
100
AcDb2dVertex
 10
-14382.169089034041
 20
-1892.959751024147
 30
0.0
 42
0.044417198743
  0
VERTEX
  5
32C
100
AcDbEntity
  8
Frei
  6
CONTINUOUS
 62
           7
100
AcDbVertex
100
AcDb2dVertex
 10
-14382.748540523995
 20
-1892.419243712531
 30
0.0
  0
VERTEX
  5
32D
100
AcDbEntity
  8
Frei
  6
CONTINUOUS
 62
           7
100
AcDbVertex
100
AcDb2dVertex
 10
-14383.06910514994
 20
-1892.192222584346
 30
0.0
  0
VERTEX
  5
32E
100
AcDbEntity
  8
Frei
  6
CONTINUOUS
 62
           7
100
AcDbVertex
100
AcDb2dVertex
 10
-14383.408897901796
 20
-1891.99515235572
 30
0.0
 42
0.045929593741
  0
VERTEX
  5
32F
100
AcDbEntity
  8
Frei
  6
CONTINUOUS
 62
           7
100
AcDbVertex
100
AcDb2dVertex
 10
-14384.130096542678
 20
-1891.700362754991
 30
0.0
  0
VERTEX
  5
330
100
AcDbEntity
  8
Frei
  6
CONTINUOUS
 62
           7
100
AcDbVertex
100
AcDb2dVertex
 10
-14384.506531420797
 20
-1891.604473816203
 30
0.0
  0
VERTEX
  5
331
100
AcDbEntity
  8
Frei
  6
CONTINUOUS
 62
           7
100
AcDbVertex
100
AcDb2dVertex
 10
-14384.890223190878
 20
-1891.54383194319
 30
0.0
  0
SEQEND
  5
332
100
AcDbEntity
  8
Frei
  6
CONTINUOUS
 62
           7
  0
ARC
  5
333
100
AcDbEntity
  8
Frei
  6
CONTINUOUS
 62
           7
100
AcDbCircle
 10
-14252.112772819724
 20
-1915.779084095556
 30
0.0
 40
0.5
100
AcDbArc
 50
270.832821982568
 51
353.682999999999
  0
ARC
  5
334
100
AcDbEntity
  8
Frei
  6
CONTINUOUS
 62
           7
100
AcDbCircle
 10
-14251.549686965147
 20
-1910.692553500418
 30
0.0
 40
0.5
100
AcDbArc
 50
353.682999999999
 51
76.533178017423
  0
ARC
  5
335
100
AcDbEntity
  8
Frei
  6
CONTINUOUS
 62
           7
100
AcDbCircle
 10
-14404.650957645115
 20
-1871.609642399229
 30
0.0
 40
0.5
100
AcDbArc
 50
90.832821982565
 51
173.683
  0
ARC
  5
336
100
AcDbEntity
  8
Frei
  6
CONTINUOUS
 62
           7
100
AcDbCircle
 10
-14405.214043499693
 20
-1876.696172994368
 30
0.0
 40
0.5
100
AcDbArc
 50
173.683
 51
256.533178017419
  0
ARC
  5
337
100
AcDbEntity
  8
Frei
  6
CONTINUOUS
 62
           7
100
AcDbCircle
 10
-14434.923178988787
 20
-1872.285800177998
 30
0.0
 40
2.0
100
AcDbArc
 50
85.683
 51
173.683
  0
ARC
  5
338
100
AcDbEntity
  8
Frei
  6
CONTINUOUS
 62
           7
100
AcDbCircle
 10
-14453.073123025302
 20
-1927.177982078538
 30
0.0
 40
1.5
100
AcDbArc
 50
173.683
 51
263.683
  0
ARC
  5
339
100
AcDbEntity
  8
Frei
  6
CONTINUOUS
 62
           7
100
AcDbCircle
 10
-14451.422684719169
 20
-1912.269056785357
 30
0.0
 40
1.5
100
AcDbArc
 50
83.683
 51
173.683
  0
ARC
  5
33A
100
AcDbEntity
  8
Frei
  6
CONTINUOUS
 62
           7
100
AcDbCircle
 10
-14440.925924349938
 20
-1926.510476017686
 30
0.0
 40
1.5
100
AcDbArc
 50
173.683
 51
263.683
  0
ARC
  5
33B
100
AcDbEntity
  8
Frei
  6
CONTINUOUS
 62
           7
100
AcDbCircle
 10
-14416.07771552797
 20
-1929.261206527906
 30
0.0
 40
1.5
100
AcDbArc
 50
263.683
 51
353.682999999999
  0
ARC
  5
33C
100
AcDbEntity
  8
Frei
  6
CONTINUOUS
 62
           7
100
AcDbCircle
 10
-14251.085608950099
 20
-1947.526057115762
 30
0.0
 40
1.5
100
AcDbArc
 50
173.683
 51
263.683
  0
ARC
  5
33D
100
AcDbEntity
  8
Frei
  6
CONTINUOUS
 62
           7
100
AcDbCircle
 10
-14226.23740012813
 20
-1950.276787625981
 30
0.0
 40
1.5
100
AcDbArc
 50
263.683
 51
353.682999999999
  0
ARC
  5
33E
100
AcDbEntity
  8
Frei
  6
CONTINUOUS
 62
           7
100
AcDbCircle
 10
-14212.879880028271
 20
-1938.676069683463
 30
0.0
 40
1.5
100
AcDbArc
 50
353.682999999999
 51
83.683
  0
ARC
  5
33F
100
AcDbEntity
  8
Frei
  6
CONTINUOUS
 62
           7
100
AcDbCircle
 10
-14214.530318334404
 20
-1953.584994976644
 30
0.0
 40
1.5
100
AcDbArc
 50
263.683
 51
353.682999999999
  0
ARC
  5
340
100
AcDbEntity
  8
Frei
  6
CONTINUOUS
 62
           7
100
AcDbCircle
 10
-14220.234654766979
 20
-1896.052111786293
 30
0.0
 40
2.0
100
AcDbArc
 50
353.682999999999
 51
81.683
  0
ARC
  5
341
100
AcDbEntity
  8
Frei
  6
CONTINUOUS
 62
           7
100
AcDbCircle
 10
-14248.901518703322
 20
-1886.898260274759
 30
0.0
 40
1.0
100
AcDbArc
 50
353.682999999999
 51
83.683
  0
ARC
  5
342
100
AcDbEntity
  8
Frei
  6
CONTINUOUS
 62
           7
100
AcDbCircle
 10
-14252.312424535994
 20
-1917.710039214
 30
0.0
 40
1.0
100
AcDbArc
 50
263.682999999999
 51
353.682999999999
  0
ARC
  5
343
100
AcDbEntity
  8
Frei
  6
CONTINUOUS
 62
           7
100
AcDbCircle
 10
-14408.359175937958
 20
-1900.435451609822
 30
0.0
 40
1.0
100
AcDbArc
 50
173.683
 51
263.683
  0
ARC
  5
344
100
AcDbEntity
  8
Frei
  6
CONTINUOUS
 62
           7
100
AcDbCircle
 10
-14404.948270105286
 20
-1869.623672670582
 30
0.0
 40
1.0
100
AcDbArc
 50
83.683
 51
173.683
  0
LINE
  5
345
100
AcDbEntity
  8
Frei
  6
CONTINUOUS
 62
           7
100
AcDbLine
 10
-14665.480337722454
 20
-1863.274720487429
 30
0.0
 11
-14665.480337722454
 21
-1933.274720487429
 31
0.0
  0
LINE
  5
346
100
AcDbEntity
  8
Frei
  6
CONTINUOUS
 62
           7
100
AcDbLine
 10
-14147.591452722456
 20
-1933.274720487429
 30
0.0
 11
-14147.591452722456
 21
-1863.274720487429
 31
0.0
  0
LINE
  5
347
100
AcDbEntity
  8
Frei
  6
CONTINUOUS
 62
          15
100
AcDbLine
 10
-14585.61330414276
 20
-1863.274720487429
 30
0.0
 11
-14665.480337722454
 21
-1863.274720487429
 31
0.0
  0
LINE
  5
348
100
AcDbEntity
  8
Frei
  6
GESTRICHELT
 62
          15
100
AcDbLine
 10
-14501.461973603456
 20
-1863.274720487429
 30
0.0
 11
-14585.61330414276
 21
-1863.274720487429
 31
0.0
  0
LINE
  5
349
100
AcDbEntity
  8
Frei
  6
CONTINUOUS
 62
          15
100
AcDbLine
 10
-14487.821352788747
 20
-1863.274720487429
 30
0.0
 11
-14501.461973603456
 21
-1863.274720487429
 31
0.0
  0
LINE
  5
34A
100
AcDbEntity
  8
Frei
  6
GESTRICHELT
 62
          15
100
AcDbLine
 10
-14333.243831305292
 20
-1863.274720487429
 30
0.0
 11
-14487.821352788747
 21
-1863.274720487429
 31
0.0
  0
LINE
  5
34B
100
AcDbEntity
  8
Frei
  6
CONTINUOUS
 62
          15
100
AcDbLine
 10
-14147.591452722456
 20
-1863.274720487429
 30
0.0
 11
-14333.243831305292
 21
-1863.274720487429
 31
0.0
  0
LINE
  5
34C
100
AcDbEntity
  8
Frei
  6
CONTINUOUS
 62
          15
100
AcDbLine
 10
-14251.017129709315
 20
-1933.274720487429
 30
0.0
 11
-14665.480337722454
 21
-1933.274720487429
 31
0.0
  0
LINE
  5
34D
100
AcDbEntity
  8
Frei
  6
GESTRICHELT
 62
          15
100
AcDbLine
 10
-14222.846085067211
 20
-1933.274720487429
 30
0.0
 11
-14251.017129709315
 21
-1933.274720487429
 31
0.0
  0
LINE
  5
34E
100
AcDbEntity
  8
Frei
  6
CONTINUOUS
 62
          15
100
AcDbLine
 10
-14147.591452722456
 20
-1933.274720487429
 30
0.0
 11
-14222.846085067211
 21
-1933.274720487429
 31
0.0
  0
TEXT
  5
34F
100
AcDbEntity
  8
FREI
  6
CONTINUOUS
 62
          15
100
AcDbText
 10
-14779.312374895702
 20
-1975.377304449917
 30
0.0
 40
3.527777671814
  1
180-700
 41
0.899999979725
  7
GOTHICG
100
AcDbText
  0
ENDSEC
  0
SECTION
  2
OBJECTS
  0
DICTIONARY
  5
19
100
AcDbDictionary
  3
ACAD_GROUP
350
1A
  3
ACAD_MLINESTYLE
350
1B
  0
DICTIONARY
  5
1A
102
{ACAD_REACTORS
330
19
102
}
100
AcDbDictionary
  0
DICTIONARY
  5
1B
102
{ACAD_REACTORS
330
19
102
}
100
AcDbDictionary
  3
STANDARD
350
1C
  0
MLINESTYLE
  5
1C
102
{ACAD_REACTORS
330
1B
102
}
100
AcDbMlineStyle
  2
STANDARD
 70
           0
  3

 62
           0
 51
90.0
 52
90.0
 71
           2
 49
0.5
 62
         256
  6
BYLAYER
 49
-0.5
 62
         256
  6
BYLAYER
  0
ENDSEC
  0
EOF
