  0
SECTION
  2
HEADER
  9
$ACADVER
  1
AC1012
  9
$DWGCODEPAGE
  3
dos850
  9
$INSBASE
 10
0.0
 20
0.0
 30
0.0
  9
$EXTMIN
 10
-14893.496539436932
 20
-3551.763161813538
 30
0.0
  9
$EXTMAX
 10
-14138.921466261987
 20
-3180.18630279174
 30
0.0
  9
$LIMMIN
 10
-14893.496539436932
 20
-3551.763161813538
  9
$LIMMAX
 10
-14138.921466261987
 20
-3180.18630279174
  9
$ORTHOMODE
 70
           0
  9
$REGENMODE
 70
           1
  9
$FILLMODE
 70
           1
  9
$QTEXTMODE
 70
           0
  9
$MIRRTEXT
 70
           1
  9
$DRAGMODE
 70
           2
  9
$LTSCALE
 40
5.0
  9
$OSMODE
 70
           0
  9
$ATTMODE
 70
           1
  9
$TEXTSIZE
 40
0.2
  9
$TRACEWID
 40
0.05
  9
$TEXTSTYLE
  7
TXT
  9
$CLAYER
  8
0
  9
$CELTYPE
  6
CONTINUOUS
  9
$CECOLOR
 62
         256
  9
$CELTSCALE
 40
1.0
  9
$DELOBJ
 70
           1
  9
$DISPSILH
 70
           0
  9
$DIMSCALE
 40
1.0
  9
$DIMASZ
 40
3.5
  9
$DIMEXO
 40
0.0625
  9
$DIMDLI
 40
0.38
  9
$DIMRND
 40
0.0
  9
$DIMDLE
 40
0.0
  9
$DIMEXE
 40
0.18
  9
$DIMTP
 40
0.0
  9
$DIMTM
 40
0.0
  9
$DIMTXT
 40
3.5
  9
$DIMCEN
 40
0.09
  9
$DIMTSZ
 40
0.0
  9
$DIMTOL
 70
           0
  9
$DIMLIM
 70
           0
  9
$DIMTIH
 70
           1
  9
$DIMTOH
 70
           1
  9
$DIMSE1
 70
           0
  9
$DIMSE2
 70
           0
  9
$DIMTAD
 70
           0
  9
$DIMZIN
 70
           0
  9
$DIMBLK
  1

  9
$DIMASO
 70
           1
  9
$DIMSHO
 70
           1
  9
$DIMPOST
  1

  9
$DIMAPOST
  1

  9
$DIMALT
 70
           0
  9
$DIMALTD
 70
           2
  9
$DIMALTF
 40
25.4
  9
$DIMLFAC
 40
1.0
  9
$DIMTOFL
 70
           0
  9
$DIMTVP
 40
0.0
  9
$DIMTIX
 70
           0
  9
$DIMSOXD
 70
           0
  9
$DIMSAH
 70
           0
  9
$DIMBLK1
  1

  9
$DIMBLK2
  1

  9
$DIMSTYLE
  2
STANDARD
  9
$DIMCLRD
 70
           0
  9
$DIMCLRE
 70
           0
  9
$DIMCLRT
 70
           0
  9
$DIMTFAC
 40
1.0
  9
$DIMGAP
 40
0.09
  9
$DIMJUST
 70
           0
  9
$DIMSD1
 70
           0
  9
$DIMSD2
 70
           0
  9
$DIMTOLJ
 70
           1
  9
$DIMTZIN
 70
           0
  9
$DIMALTZ
 70
           0
  9
$DIMALTTZ
 70
           0
  9
$DIMFIT
 70
           3
  9
$DIMUPT
 70
           0
  9
$DIMUNIT
 70
           2
  9
$DIMDEC
 70
           4
  9
$DIMTDEC
 70
           4
  9
$DIMALTU
 70
           2
  9
$DIMALTTD
 70
           2
  9
$DIMTXSTY
  7
TXT
  9
$DIMAUNIT
 70
           0
  9
$LUNITS
 70
           2
  9
$LUPREC
 70
           3
  9
$SKETCHINC
 40
0.1
  9
$FILLETRAD
 40
0.0
  9
$AUNITS
 70
           0
  9
$AUPREC
 70
           3
  9
$MENU
  1
acad
  9
$ELEVATION
 40
0.0
  9
$PELEVATION
 40
0.0
  9
$THICKNESS
 40
0.0
  9
$LIMCHECK
 70
           0
  9
$BLIPMODE
 70
           1
  9
$CHAMFERA
 40
0.0
  9
$CHAMFERB
 40
0.0
  9
$CHAMFERC
 40
0.0
  9
$CHAMFERD
 40
0.0
  9
$SKPOLY
 70
           0
  9
$TDCREATE
 40
0.000000000
  9
$TDUPDATE
 40
0.000000000
  9
$TDINDWG
 40
0.0000000000
  9
$TDUSRTIMER
 40
0.0000000000
  9
$USRTIMER
 70
           1
  9
$ANGBASE
 50
0.0
  9
$ANGDIR
 70
           0
  9
$PDMODE
 70
           2
  9
$PDSIZE
 40
0.5
  9
$PLINEWID
 40
0.0
  9
$COORDS
 70
           0
  9
$SPLFRAME
 70
           0
  9
$SPLINETYPE
 70
           6
  9
$SPLINESEGS
 70
           8
  9
$ATTDIA
 70
           0
  9
$ATTREQ
 70
           1
  9
$HANDLING
 70
           1
  9
$HANDSEED
  5
3A5
  9
$SURFTAB1
 70
           6
  9
$SURFTAB2
 70
           6
  9
$SURFTYPE
 70
           6
  9
$SURFU
 70
           6
  9
$SURFV
 70
           6
  9
$UCSNAME
  2

  9
$UCSORG
 10
0.0
 20
0.0
 30
0.0
  9
$UCSXDIR
 10
1.0
 20
0.0
 30
0.0
  9
$UCSYDIR
 10
0.0
 20
1.0
 30
0.0
  9
$PUCSNAME
  2

  9
$PUCSORG
 10
0.0
 20
0.0
 30
0.0
  9
$PUCSXDIR
 10
1.0
 20
0.0
 30
0.0
  9
$PUCSYDIR
 10
0.0
 20
1.0
 30
0.0
  9
$USERI1
 70
           0
  9
$USERI2
 70
           0
  9
$USERI3
 70
           0
  9
$USERI4
 70
           0
  9
$USERI5
 70
           0
  9
$USERR1
 40
0.0
  9
$USERR2
 40
0.0
  9
$USERR3
 40
0.0
  9
$USERR4
 40
0.0
  9
$USERR5
 40
0.0
  9
$WORLDVIEW
 70
           1
  9
$SHADEDGE
 70
           3
  9
$SHADEDIF
 70
          70
  9
$TILEMODE
 70
           1
  9
$MAXACTVP
 70
          16
  9
$PINSBASE
 10
0.0
 20
0.0
 30
0.0
  9
$PLIMCHECK
 70
           0
  9
$PEXTMIN
 10
1.000000000000E+20
 20
1.000000000000E+20
 30
1.000000000000E+20
  9
$PEXTMAX
 10
-1.000000000000E+20
 20
-1.000000000000E+20
 30
-1.000000000000E+20
  9
$PLIMMIN
 10
0.0
 20
0.0
  9
$PLIMMAX
 10
12.0
 20
9.0
  9
$UNITMODE
 70
           0
  9
$VISRETAIN
 70
           0
  9
$PLINEGEN
 70
           1
  9
$PSLTSCALE
 70
           0
  9
$TREEDEPTH
 70
        3020
  9
$PICKSTYLE
 70
           1
  9
$CMLSTYLE
  2
STANDARD
  9
$CMLJUST
 70
           0
  9
$CMLSCALE
 40
1.0
  9
$SAVEIMAGES
 70
           0
  0
ENDSEC
  0
SECTION
  2
CLASSES
  0
CLASS
  1
LWPOLYLINE
  2
AcDbPolyline
  3
"AutoCAD"
 90
        0
280
           0
281
           1
  0
CLASS
  1
IMAGE
  2
AcDbRasterImage
  3
ISM
 90
      127
280
           0
281
           1
  0
CLASS
  1
OLE2FRAME
  2
AcDbOle2Frame
  3
""
 90
        0
280
           0
281
           1
  0
CLASS
  1
HATCH
  2
AcDbHatch
  3
"ACAD_SEDONA"
 90
        0
280
           0
281
           1
  0
CLASS
  1
DICTIONARYVAR
  2
AcDbDictionaryVar
  3
"AutoCAD"
 90
        0
280
           0
281
           0
  0
CLASS
  1
RASTERVARIABLES
  2
AcDbRasterVariables
  3
ISM
 90
        0
280
           0
281
           0
  0
CLASS
  1
IMAGEDEF
  2
AcDbRasterImageDef
  3
ISM
 90
        0
280
           0
281
           0
  0
CLASS
  1
IMAGEDEF_REACTOR
  2
AcDbRasterImageDefReactor
  3
ISM
 90
        1
280
           0
281
           0
  0
CLASS
  1
IDBUFFER
  2
AcDbIdBuffer
  3
"Acad"
 90
        0
280
           0
281
           0
  0
CLASS
  1
SPATIAL_FILTER
  2
AcDbSpatialFilter
  3
"Acad"
 90
        0
280
           0
281
           0
  0
CLASS
  1
XRECORD
  2
AcDbXrecord
  3
"<Built In>"
 90
        0
280
           0
281
           0
  0
ENDSEC
  0
SECTION
  2
TABLES
  0
TABLE
  2
VPORT
  5
7
100
AcDbSymbolTable
 70
           1
  0
VPORT
  5
15
100
AcDbSymbolTableRecord
100
AcDbViewportTableRecord
  2
*ACTIVE
 70
           0
 10
0.0
 20
0.0
 11
1.0
 21
1.0
 12
6.591288
 22
4.579184
 13
0.0
 23
0.0
 14
1.0
 24
1.0
 15
0.0
 25
0.0
 16
0.0
 26
0.0
 36
1.0
 17
0.0
 27
0.0
 37
0.0
 40
9.158369
 41
0.688564
 42
50.0
 43
0.0
 44
0.0
 50
0.0
 51
0.0
 71
           0
 72
         100
 73
           1
 74
           1
 75
           0
 76
           0
 77
           0
 78
           0
  0
ENDTAB
  0
TABLE
  2
LTYPE
  5
4
100
AcDbSymbolTable
 70
           5
  0
LTYPE
  5
11
100
AcDbSymbolTableRecord
100
AcDbLinetypeTableRecord
  2
BYBLOCK
 70
           0
  3

 72
          65
 73
           0
 40
0.0
  0
LTYPE
  5
12
100
AcDbSymbolTableRecord
100
AcDbLinetypeTableRecord
  2
BYLAYER
 70
           0
  3

 72
          65
 73
           0
 40
0.0
  0
LTYPE
  5
13
100
AcDbSymbolTableRecord
100
AcDbLinetypeTableRecord
  2
CONTINUOUS
 70
           0
  3
Solid line
 72
          65
 73
           0
 40
0.0
  0
LTYPE
  5
1D
100
AcDbSymbolTableRecord
100
AcDbLinetypeTableRecord
  2
GESTRICHELT
 70
           0
  3

 72
          65
 73
           2
 40
0.75
 49
0.5
 74
           0
 49
-0.25
 74
           0
  0
LTYPE
  5
1E
100
AcDbSymbolTableRecord
100
AcDbLinetypeTableRecord
  2
STRICHPUNKT
 70
           0
  3

 72
          65
 73
           4
 40
1.0
 49
0.5
 74
           0
 49
-0.25
 74
           0
 49
0.0
 74
           0
 49
-0.25
 74
           0
  0
ENDTAB
  0
TABLE
  2
LAYER
  5
2
100
AcDbSymbolTable
 70
           3
  0
LAYER
  5
14
100
AcDbSymbolTableRecord
100
AcDbLayerTableRecord
  2
0
 70
           0
 62
           7
  6
CONTINUOUS
  0
LAYER
  5
20
100
AcDbSymbolTableRecord
100
AcDbLayerTableRecord
  2
FREI
 70
           0
 62
           7
  6
CONTINUOUS
  0
LAYER
  5
21
100
AcDbSymbolTableRecord
100
AcDbLayerTableRecord
  2
Frei
 70
           0
 62
           7
  6
CONTINUOUS
  0
ENDTAB
  0
TABLE
  2
STYLE
  5
3
100
AcDbSymbolTable
 70
           2
  0
STYLE
  5
17
100
AcDbSymbolTableRecord
100
AcDbTextStyleTableRecord
  2
TXT
 70
           0
 40
3.5
 41
1.0
 50
0.0
 71
           0
 42
3.5
  3
TXT
  4

  0
STYLE
  5
1F
100
AcDbSymbolTableRecord
100
AcDbTextStyleTableRecord
  2
GOTHICG
 70
           0
 40
3.5
 41
1.0
 50
0.0
 71
           0
 42
3.5
  3
GOTHICG
  4

  0
ENDTAB
  0
TABLE
  2
VIEW
  5
5
100
AcDbSymbolTable
 70
           0
  0
ENDTAB
  0
TABLE
  2
UCS
  5
6
100
AcDbSymbolTable
 70
           0
  0
ENDTAB
  0
TABLE
  2
APPID
  5
8
100
AcDbSymbolTable
 70
           2
  0
APPID
  5
16
100
AcDbSymbolTableRecord
100
AcDbRegAppTableRecord
  2
ACAD
 70
           0
  0
APPID
  5
22
100
AcDbSymbolTableRecord
100
AcDbRegAppTableRecord
  2
MegaCADPntStyle
 70
           0
  0
ENDTAB
  0
TABLE
  2
DIMSTYLE
  5
9
100
AcDbSymbolTable
 70
           1
  0
DIMSTYLE
105
18
100
AcDbSymbolTableRecord
100
AcDbDimStyleTableRecord
  2
STANDARD
 70
           0
  3

  4

  5

  6

  7

 40
1.0
 41
0.18
 42
0.0625
 43
0.38
 44
0.18
 45
0.0
 46
0.0
 47
0.0
 48
0.0
140
0.18
141
0.09
142
0.0
143
25.4
144
1.0
145
0.0
146
1.0
147
0.09
 71
           0
 72
           0
 73
           1
 74
           1
 75
           0
 76
           0
 77
           0
 78
           0
170
           0
171
           2
172
           0
173
           0
174
           0
175
           0
176
           0
177
           0
178
           0
270
           2
271
           4
272
           4
273
           2
274
           2
340
17
275
           0
280
           0
281
           0
282
           0
283
           1
284
           0
285
           0
286
           0
287
           0
288
           0
  0
ENDTAB
  0
TABLE
  2
BLOCK_RECORD
  5
1
100
AcDbSymbolTable
 70
           3
  0
BLOCK_RECORD
  5
A
100
AcDbSymbolTableRecord
100
AcDbBlockTableRecord
  2
*MODEL_SPACE
  0
BLOCK_RECORD
  5
B
100
AcDbSymbolTableRecord
100
AcDbBlockTableRecord
  2
*PAPER_SPACE
  0
BLOCK_RECORD
  5
23
100
AcDbSymbolTableRecord
100
AcDbBlockTableRecord
  2
ELIPPSE
  0
BLOCK_RECORD
  5
24
100
AcDbSymbolTableRecord
100
AcDbBlockTableRecord
  2
MAK1
  0
BLOCK_RECORD
  5
25
100
AcDbSymbolTableRecord
100
AcDbBlockTableRecord
  2
MAK2
  0
ENDTAB
  0
ENDSEC
  0
SECTION
  2
BLOCKS
  0
BLOCK
  5
D
100
AcDbEntity
  8
0
100
AcDbBlockBegin
  2
*MODEL_SPACE
 70
           0
 10
0.0
 20
0.0
 30
0.0
  3
*MODEL_SPACE
  1

  0
ENDBLK
  5
E
100
AcDbEntity
  8
0
100
AcDbBlockEnd
  0
BLOCK
  5
F
100
AcDbEntity
 67
           1
  8
0
100
AcDbBlockBegin
  2
*PAPER_SPACE
 70
           0
 10
0.0
 20
0.0
 30
0.0
  3
*PAPER_SPACE
  1

  0
ENDBLK
  5
10
100
AcDbEntity
 67
           1
  8
0
100
AcDbBlockEnd
  0
BLOCK
  5
349
100
AcDbEntity
  8
0
100
AcDbBlockBegin
  2
ELIPPSE
 70
          64
 10
0.0
 20
0.0
 30
0.0
  3
ELIPPSE
  1

  0
CIRCLE
  5
34A
100
AcDbEntity
  8
0
  6
BYBLOCK
 62
           0
100
AcDbCircle
 10
0.0
 20
0.0
 30
0.0
 40
1.0
  0
ENDBLK
  5
34B
100
AcDbEntity
  8
0
  6
BYBLOCK
 62
           0
100
AcDbBlockEnd
  0
BLOCK
  5
34C
100
AcDbEntity
  8
0
100
AcDbBlockBegin
  2
MAK1
 70
          64
 10
0.0
 20
0.0
 30
0.0
  3
MAK1
  1

  0
LINE
  5
34D
100
AcDbEntity
  8
Frei
  6
CONTINUOUS
 62
           2
100
AcDbLine
 10
191.903508353413
 20
615.10691689356
 30
0.0
 11
192.293358480829
 21
615.496767020979
 31
0.0
  0
LINE
  5
34E
100
AcDbEntity
  8
Frei
  6
CONTINUOUS
 62
           2
100
AcDbLine
 10
191.903508353413
 20
614.046256721781
 30
0.0
 11
193.354018652612
 21
615.496767020979
 31
0.0
  0
LINE
  5
34F
100
AcDbEntity
  8
Frei
  6
CONTINUOUS
 62
           2
100
AcDbLine
 10
191.903508353413
 20
612.985596550002
 30
0.0
 11
193.903508353413
 21
614.985596550001
 31
0.0
  0
LINE
  5
350
100
AcDbEntity
  8
Frei
  6
CONTINUOUS
 62
           2
100
AcDbLine
 10
191.903508353413
 20
611.924936378221
 30
0.0
 11
193.903508353415
 21
613.924936378221
 31
0.0
  0
LINE
  5
351
100
AcDbEntity
  8
Frei
  6
CONTINUOUS
 62
           2
100
AcDbLine
 10
191.903508353413
 20
610.864276206442
 30
0.0
 11
193.903508353413
 21
612.864276206441
 31
0.0
  0
LINE
  5
352
100
AcDbEntity
  8
Frei
  6
CONTINUOUS
 62
           2
100
AcDbLine
 10
191.903508353413
 20
609.803616034662
 30
0.0
 11
193.903508353413
 21
611.803616034661
 31
0.0
  0
LINE
  5
353
100
AcDbEntity
  8
Frei
  6
CONTINUOUS
 62
           2
100
AcDbLine
 10
191.903508353413
 20
608.742955862882
 30
0.0
 11
193.903508353413
 21
610.742955862882
 31
0.0
  0
LINE
  5
354
100
AcDbEntity
  8
Frei
  6
CONTINUOUS
 62
           2
100
AcDbLine
 10
191.903508353411
 20
607.682295691102
 30
0.0
 11
193.903508353413
 21
609.682295691102
 31
0.0
  0
LINE
  5
355
100
AcDbEntity
  8
Frei
  6
CONTINUOUS
 62
           2
100
AcDbLine
 10
191.903508353415
 20
606.621635519322
 30
0.0
 11
193.903508353413
 21
608.621635519322
 31
0.0
  0
LINE
  5
356
100
AcDbEntity
  8
Frei
  6
CONTINUOUS
 62
           2
100
AcDbLine
 10
191.903508353413
 20
605.560975347543
 30
0.0
 11
193.903508353413
 21
607.560975347543
 31
0.0
  0
LINE
  5
357
100
AcDbEntity
  8
Frei
  6
CONTINUOUS
 62
           2
100
AcDbLine
 10
191.903508353415
 20
604.500315175763
 30
0.0
 11
193.903508353411
 21
606.500315175764
 31
0.0
  0
LINE
  5
358
100
AcDbEntity
  8
Frei
  6
CONTINUOUS
 62
           2
100
AcDbLine
 10
191.903508353413
 20
603.439655003983
 30
0.0
 11
193.903508353413
 21
605.439655003983
 31
0.0
  0
LINE
  5
359
100
AcDbEntity
  8
Frei
  6
CONTINUOUS
 62
           2
100
AcDbLine
 10
191.903508353413
 20
602.378994832204
 30
0.0
 11
193.903508353413
 21
604.378994832203
 31
0.0
  0
LINE
  5
35A
100
AcDbEntity
  8
Frei
  6
CONTINUOUS
 62
           2
100
AcDbLine
 10
191.903508353413
 20
601.318334660425
 30
0.0
 11
193.903508353415
 21
603.318334660423
 31
0.0
  0
LINE
  5
35B
100
AcDbEntity
  8
Frei
  6
CONTINUOUS
 62
           2
100
AcDbLine
 10
191.903508353413
 20
600.257674488644
 30
0.0
 11
193.903508353413
 21
602.257674488644
 31
0.0
  0
LINE
  5
35C
100
AcDbEntity
  8
Frei
  6
CONTINUOUS
 62
           2
100
AcDbLine
 10
191.903508353413
 20
599.197014316864
 30
0.0
 11
193.903508353413
 21
601.197014316864
 31
0.0
  0
LINE
  5
35D
100
AcDbEntity
  8
Frei
  6
CONTINUOUS
 62
           2
100
AcDbLine
 10
191.903508353413
 20
598.136354145084
 30
0.0
 11
193.903508353413
 21
600.136354145084
 31
0.0
  0
LINE
  5
35E
100
AcDbEntity
  8
Frei
  6
CONTINUOUS
 62
           2
100
AcDbLine
 10
191.903508353413
 20
597.075693973305
 30
0.0
 11
193.903508353413
 21
599.075693973305
 31
0.0
  0
LINE
  5
35F
100
AcDbEntity
  8
Frei
  6
CONTINUOUS
 62
           2
100
AcDbLine
 10
191.903508353413
 20
596.015033801525
 30
0.0
 11
193.903508353413
 21
598.015033801525
 31
0.0
  0
LINE
  5
360
100
AcDbEntity
  8
Frei
  6
CONTINUOUS
 62
           2
100
AcDbLine
 10
192.445901744646
 20
595.49676702098
 30
0.0
 11
193.903508353413
 21
596.954373629745
 31
0.0
  0
LINE
  5
361
100
AcDbEntity
  8
Frei
  6
CONTINUOUS
 62
           2
100
AcDbLine
 10
193.506561916425
 20
595.496767020979
 30
0.0
 11
193.903508353413
 21
595.893713457964
 31
0.0
  0
LINE
  5
362
100
AcDbEntity
  8
Frei
  6
CONTINUOUS
 62
           2
100
AcDbLine
 10
192.573740611429
 20
595.496767020979
 30
0.0
 11
191.903508353413
 21
596.166999278998
 31
0.0
  0
LINE
  5
363
100
AcDbEntity
  8
Frei
  6
CONTINUOUS
 62
           2
100
AcDbLine
 10
193.63440078321
 20
595.49676702098
 30
0.0
 11
191.903508353415
 21
597.227659450778
 31
0.0
  0
LINE
  5
364
100
AcDbEntity
  8
Frei
  6
CONTINUOUS
 62
           2
100
AcDbLine
 10
193.903508353413
 20
596.288319622557
 30
0.0
 11
191.903508353413
 21
598.288319622557
 31
0.0
  0
LINE
  5
365
100
AcDbEntity
  8
Frei
  6
CONTINUOUS
 62
           2
100
AcDbLine
 10
193.903508353415
 20
597.348979794337
 30
0.0
 11
191.903508353413
 21
599.348979794337
 31
0.0
  0
LINE
  5
366
100
AcDbEntity
  8
Frei
  6
CONTINUOUS
 62
           2
100
AcDbLine
 10
193.903508353415
 20
598.409639966117
 30
0.0
 11
191.903508353411
 21
600.409639966117
 31
0.0
  0
LINE
  5
367
100
AcDbEntity
  8
Frei
  6
CONTINUOUS
 62
           2
100
AcDbLine
 10
193.903508353415
 20
599.470300137897
 30
0.0
 11
191.903508353413
 21
601.470300137896
 31
0.0
  0
LINE
  5
368
100
AcDbEntity
  8
Frei
  6
CONTINUOUS
 62
           2
100
AcDbLine
 10
193.903508353413
 20
600.530960309676
 30
0.0
 11
191.903508353413
 21
602.530960309676
 31
0.0
  0
LINE
  5
369
100
AcDbEntity
  8
Frei
  6
CONTINUOUS
 62
           2
100
AcDbLine
 10
193.903508353411
 20
601.591620481456
 30
0.0
 11
191.903508353413
 21
603.591620481457
 31
0.0
  0
LINE
  5
36A
100
AcDbEntity
  8
Frei
  6
CONTINUOUS
 62
           2
100
AcDbLine
 10
193.903508353413
 20
602.652280653236
 30
0.0
 11
191.903508353413
 21
604.652280653236
 31
0.0
  0
LINE
  5
36B
100
AcDbEntity
  8
Frei
  6
CONTINUOUS
 62
           2
100
AcDbLine
 10
193.903508353413
 20
603.712940825016
 30
0.0
 11
191.903508353413
 21
605.712940825016
 31
0.0
  0
LINE
  5
36C
100
AcDbEntity
  8
Frei
  6
CONTINUOUS
 62
           2
100
AcDbLine
 10
193.903508353413
 20
604.773600996795
 30
0.0
 11
191.903508353413
 21
606.773600996795
 31
0.0
  0
LINE
  5
36D
100
AcDbEntity
  8
Frei
  6
CONTINUOUS
 62
           2
100
AcDbLine
 10
193.903508353413
 20
605.834261168575
 30
0.0
 11
191.903508353415
 21
607.834261168576
 31
0.0
  0
LINE
  5
36E
100
AcDbEntity
  8
Frei
  6
CONTINUOUS
 62
           2
100
AcDbLine
 10
193.903508353413
 20
606.894921340355
 30
0.0
 11
191.903508353413
 21
608.894921340355
 31
0.0
  0
LINE
  5
36F
100
AcDbEntity
  8
Frei
  6
CONTINUOUS
 62
           2
100
AcDbLine
 10
193.903508353413
 20
607.955581512136
 30
0.0
 11
191.903508353415
 21
609.955581512134
 31
0.0
  0
LINE
  5
370
100
AcDbEntity
  8
Frei
  6
CONTINUOUS
 62
           2
100
AcDbLine
 10
193.903508353413
 20
609.016241683915
 30
0.0
 11
191.903508353413
 21
611.016241683914
 31
0.0
  0
LINE
  5
371
100
AcDbEntity
  8
Frei
  6
CONTINUOUS
 62
           2
100
AcDbLine
 10
193.903508353413
 20
610.076901855694
 30
0.0
 11
191.903508353415
 21
612.076901855694
 31
0.0
  0
LINE
  5
372
100
AcDbEntity
  8
Frei
  6
CONTINUOUS
 62
           2
100
AcDbLine
 10
193.903508353415
 20
611.137562027474
 30
0.0
 11
191.903508353413
 21
613.137562027474
 31
0.0
  0
LINE
  5
373
100
AcDbEntity
  8
Frei
  6
CONTINUOUS
 62
           2
100
AcDbLine
 10
193.903508353413
 20
612.198222199254
 30
0.0
 11
191.903508353413
 21
614.198222199254
 31
0.0
  0
LINE
  5
374
100
AcDbEntity
  8
Frei
  6
CONTINUOUS
 62
           2
100
AcDbLine
 10
193.903508353413
 20
613.258882371033
 30
0.0
 11
191.903508353413
 21
615.258882371033
 31
0.0
  0
LINE
  5
375
100
AcDbEntity
  8
Frei
  6
CONTINUOUS
 62
           2
100
AcDbLine
 10
193.903508353411
 20
614.319542542813
 30
0.0
 11
192.726283875247
 21
615.496767020979
 31
0.0
  0
LINE
  5
376
100
AcDbEntity
  8
Frei
  6
CONTINUOUS
 62
           2
100
AcDbLine
 10
193.903508353413
 20
615.380202714593
 30
0.0
 11
193.786944047026
 21
615.496767020979
 31
0.0
  0
ENDBLK
  5
377
100
AcDbEntity
  8
0
  6
BYBLOCK
 62
           0
100
AcDbBlockEnd
  0
BLOCK
  5
378
100
AcDbEntity
  8
0
100
AcDbBlockBegin
  2
MAK2
 70
          64
 10
0.0
 20
0.0
 30
0.0
  3
MAK2
  1

  0
LINE
  5
379
100
AcDbEntity
  8
Frei
  6
CONTINUOUS
 62
           2
100
AcDbLine
 10
-32.096491646587
 20
614.906213139103
 30
0.0
 11
-31.505937764712
 21
615.496767020979
 31
0.0
  0
LINE
  5
37A
100
AcDbEntity
  8
Frei
  6
CONTINUOUS
 62
           2
100
AcDbLine
 10
-32.096491646589
 20
613.845552967323
 30
0.0
 11
-30.445277592931
 21
615.496767020979
 31
0.0
  0
LINE
  5
37B
100
AcDbEntity
  8
Frei
  6
CONTINUOUS
 62
           2
100
AcDbLine
 10
-32.096491646587
 20
612.784892795543
 30
0.0
 11
-30.096491646587
 21
614.784892795543
 31
0.0
  0
LINE
  5
37C
100
AcDbEntity
  8
Frei
  6
CONTINUOUS
 62
           2
100
AcDbLine
 10
-32.096491646589
 20
611.724232623763
 30
0.0
 11
-30.096491646589
 21
613.724232623763
 31
0.0
  0
LINE
  5
37D
100
AcDbEntity
  8
Frei
  6
CONTINUOUS
 62
           2
100
AcDbLine
 10
-32.096491646587
 20
610.663572451983
 30
0.0
 11
-30.096491646589
 21
612.663572451983
 31
0.0
  0
LINE
  5
37E
100
AcDbEntity
  8
Frei
  6
CONTINUOUS
 62
           2
100
AcDbLine
 10
-32.096491646589
 20
609.602912280204
 30
0.0
 11
-30.096491646587
 21
611.602912280204
 31
0.0
  0
LINE
  5
37F
100
AcDbEntity
  8
Frei
  6
CONTINUOUS
 62
           2
100
AcDbLine
 10
-32.096491646589
 20
608.542252108425
 30
0.0
 11
-30.096491646589
 21
610.542252108424
 31
0.0
  0
LINE
  5
380
100
AcDbEntity
  8
Frei
  6
CONTINUOUS
 62
           2
100
AcDbLine
 10
-32.096491646589
 20
607.481591936644
 30
0.0
 11
-30.096491646587
 21
609.481591936644
 31
0.0
  0
LINE
  5
381
100
AcDbEntity
  8
Frei
  6
CONTINUOUS
 62
           2
100
AcDbLine
 10
-32.096491646589
 20
606.420931764865
 30
0.0
 11
-30.096491646589
 21
608.420931764865
 31
0.0
  0
LINE
  5
382
100
AcDbEntity
  8
Frei
  6
CONTINUOUS
 62
           2
100
AcDbLine
 10
-32.096491646589
 20
605.360271593085
 30
0.0
 11
-30.096491646587
 21
607.360271593085
 31
0.0
  0
LINE
  5
383
100
AcDbEntity
  8
Frei
  6
CONTINUOUS
 62
           2
100
AcDbLine
 10
-32.096491646587
 20
604.299611421305
 30
0.0
 11
-30.096491646589
 21
606.299611421305
 31
0.0
  0
LINE
  5
384
100
AcDbEntity
  8
Frei
  6
CONTINUOUS
 62
           2
100
AcDbLine
 10
-32.096491646589
 20
603.238951249525
 30
0.0
 11
-30.096491646589
 21
605.238951249525
 31
0.0
  0
LINE
  5
385
100
AcDbEntity
  8
Frei
  6
CONTINUOUS
 62
           2
100
AcDbLine
 10
-32.096491646587
 20
602.178291077745
 30
0.0
 11
-30.096491646589
 21
604.178291077745
 31
0.0
  0
LINE
  5
386
100
AcDbEntity
  8
Frei
  6
CONTINUOUS
 62
           2
100
AcDbLine
 10
-32.096491646589
 20
601.117630905966
 30
0.0
 11
-30.096491646589
 21
603.117630905966
 31
0.0
  0
LINE
  5
387
100
AcDbEntity
  8
Frei
  6
CONTINUOUS
 62
           2
100
AcDbLine
 10
-32.096491646587
 20
600.056970734186
 30
0.0
 11
-30.096491646587
 21
602.056970734186
 31
0.0
  0
LINE
  5
388
100
AcDbEntity
  8
Frei
  6
CONTINUOUS
 62
           2
100
AcDbLine
 10
-32.096491646589
 20
598.996310562406
 30
0.0
 11
-30.096491646587
 21
600.996310562406
 31
0.0
  0
LINE
  5
389
100
AcDbEntity
  8
Frei
  6
CONTINUOUS
 62
           2
100
AcDbLine
 10
-32.096491646589
 20
597.935650390627
 30
0.0
 11
-30.096491646589
 21
599.935650390627
 31
0.0
  0
LINE
  5
38A
100
AcDbEntity
  8
Frei
  6
CONTINUOUS
 62
           2
100
AcDbLine
 10
-32.096491646589
 20
596.874990218847
 30
0.0
 11
-30.096491646587
 21
598.874990218847
 31
0.0
  0
LINE
  5
38B
100
AcDbEntity
  8
Frei
  6
CONTINUOUS
 62
           2
100
AcDbLine
 10
-32.096491646589
 20
595.814330047067
 30
0.0
 11
-30.096491646589
 21
597.814330047067
 31
0.0
  0
LINE
  5
38C
100
AcDbEntity
  8
Frei
  6
CONTINUOUS
 62
           2
100
AcDbLine
 10
-31.353394500897
 20
595.49676702098
 30
0.0
 11
-30.096491646587
 21
596.753669875287
 31
0.0
  0
LINE
  5
38D
100
AcDbEntity
  8
Frei
  6
CONTINUOUS
 62
           2
100
AcDbLine
 10
-30.292734329116
 20
595.496767020979
 30
0.0
 11
-30.096491646589
 21
595.693009703507
 31
0.0
  0
LINE
  5
38E
100
AcDbEntity
  8
Frei
  6
CONTINUOUS
 62
           2
100
AcDbLine
 10
-31.225555634113
 20
595.496767020979
 30
0.0
 11
-32.096491646589
 21
596.367703033456
 31
0.0
  0
LINE
  5
38F
100
AcDbEntity
  8
Frei
  6
CONTINUOUS
 62
           2
100
AcDbLine
 10
-30.164895462331
 20
595.49676702098
 30
0.0
 11
-32.096491646589
 21
597.428363205235
 31
0.0
  0
LINE
  5
390
100
AcDbEntity
  8
Frei
  6
CONTINUOUS
 62
           2
100
AcDbLine
 10
-30.096491646587
 20
596.489023377015
 30
0.0
 11
-32.096491646591
 21
598.489023377015
 31
0.0
  0
LINE
  5
391
100
AcDbEntity
  8
Frei
  6
CONTINUOUS
 62
           2
100
AcDbLine
 10
-30.096491646589
 20
597.549683548795
 30
0.0
 11
-32.096491646589
 21
599.549683548795
 31
0.0
  0
LINE
  5
392
100
AcDbEntity
  8
Frei
  6
CONTINUOUS
 62
           2
100
AcDbLine
 10
-30.096491646589
 20
598.610343720576
 30
0.0
 11
-32.096491646589
 21
600.610343720575
 31
0.0
  0
LINE
  5
393
100
AcDbEntity
  8
Frei
  6
CONTINUOUS
 62
           2
100
AcDbLine
 10
-30.096491646589
 20
599.671003892355
 30
0.0
 11
-32.096491646589
 21
601.671003892354
 31
0.0
  0
LINE
  5
394
100
AcDbEntity
  8
Frei
  6
CONTINUOUS
 62
           2
100
AcDbLine
 10
-30.096491646589
 20
600.731664064134
 30
0.0
 11
-32.096491646589
 21
602.731664064134
 31
0.0
  0
LINE
  5
395
100
AcDbEntity
  8
Frei
  6
CONTINUOUS
 62
           2
100
AcDbLine
 10
-30.096491646587
 20
601.792324235914
 30
0.0
 11
-32.096491646589
 21
603.792324235914
 31
0.0
  0
LINE
  5
396
100
AcDbEntity
  8
Frei
  6
CONTINUOUS
 62
           2
100
AcDbLine
 10
-30.096491646589
 20
602.852984407694
 30
0.0
 11
-32.096491646589
 21
604.852984407694
 31
0.0
  0
LINE
  5
397
100
AcDbEntity
  8
Frei
  6
CONTINUOUS
 62
           2
100
AcDbLine
 10
-30.096491646587
 20
603.913644579473
 30
0.0
 11
-32.096491646587
 21
605.913644579473
 31
0.0
  0
LINE
  5
398
100
AcDbEntity
  8
Frei
  6
CONTINUOUS
 62
           2
100
AcDbLine
 10
-30.096491646589
 20
604.974304751253
 30
0.0
 11
-32.096491646589
 21
606.974304751253
 31
0.0
  0
LINE
  5
399
100
AcDbEntity
  8
Frei
  6
CONTINUOUS
 62
           2
100
AcDbLine
 10
-30.096491646587
 20
606.034964923033
 30
0.0
 11
-32.096491646587
 21
608.034964923033
 31
0.0
  0
LINE
  5
39A
100
AcDbEntity
  8
Frei
  6
CONTINUOUS
 62
           2
100
AcDbLine
 10
-30.096491646589
 20
607.095625094813
 30
0.0
 11
-32.096491646591
 21
609.095625094813
 31
0.0
  0
LINE
  5
39B
100
AcDbEntity
  8
Frei
  6
CONTINUOUS
 62
           2
100
AcDbLine
 10
-30.096491646587
 20
608.156285266593
 30
0.0
 11
-32.096491646589
 21
610.156285266592
 31
0.0
  0
LINE
  5
39C
100
AcDbEntity
  8
Frei
  6
CONTINUOUS
 62
           2
100
AcDbLine
 10
-30.096491646587
 20
609.216945438372
 30
0.0
 11
-32.096491646589
 21
611.216945438372
 31
0.0
  0
LINE
  5
39D
100
AcDbEntity
  8
Frei
  6
CONTINUOUS
 62
           2
100
AcDbLine
 10
-30.096491646589
 20
610.277605610153
 30
0.0
 11
-32.096491646589
 21
612.277605610152
 31
0.0
  0
LINE
  5
39E
100
AcDbEntity
  8
Frei
  6
CONTINUOUS
 62
           2
100
AcDbLine
 10
-30.096491646589
 20
611.338265781932
 30
0.0
 11
-32.096491646589
 21
613.338265781932
 31
0.0
  0
LINE
  5
39F
100
AcDbEntity
  8
Frei
  6
CONTINUOUS
 62
           2
100
AcDbLine
 10
-30.096491646591
 20
612.398925953711
 30
0.0
 11
-32.096491646589
 21
614.398925953711
 31
0.0
  0
LINE
  5
3A0
100
AcDbEntity
  8
Frei
  6
CONTINUOUS
 62
           2
100
AcDbLine
 10
-30.096491646589
 20
613.459586125492
 30
0.0
 11
-32.096491646589
 21
615.45958612549
 31
0.0
  0
LINE
  5
3A1
100
AcDbEntity
  8
Frei
  6
CONTINUOUS
 62
           2
100
AcDbLine
 10
-30.096491646589
 20
614.520246297271
 30
0.0
 11
-31.073012370294
 21
615.496767020979
 31
0.0
  0
ENDBLK
  5
3A2
100
AcDbEntity
  8
0
  6
BYBLOCK
 62
           0
100
AcDbBlockEnd
  0
ENDSEC
  0
SECTION
  2
ENTITIES
  0
INSERT
  5
26
100
AcDbEntity
  8
FREI
  6
CONTINUOUS
 62
           7
100
AcDbBlockReference
  2
MAK1
 10
-14465.262879479591
 20
-3919.151082117892
 30
0.0
 50
354.103999999999
  0
INSERT
  5
27
100
AcDbEntity
  8
FREI
  6
CONTINUOUS
 62
           7
100
AcDbBlockReference
  2
MAK2
 10
-14465.262879479591
 20
-3919.151082117892
 30
0.0
 50
354.103999999999
  0
LINE
  5
28
100
AcDbEntity
  8
FREI
  6
STRICHPUNKT
 62
          15
100
AcDbLine
 10
-14649.810351261985
 20
-3180.18630279174
 30
0.0
 11
-14649.810351261985
 21
-3255.18630279174
 31
0.0
  0
LINE
  5
29
100
AcDbEntity
  8
FREI
  6
STRICHPUNKT
 62
          15
100
AcDbLine
 10
-14649.810351261985
 20
-3255.18630279174
 30
0.0
 11
-14784.810351261985
 21
-3489.013161813538
 31
0.0
  0
LINE
  5
2A
100
AcDbEntity
  8
FREI
  6
CONTINUOUS
 62
          15
100
AcDbLine
 10
-14794.725268828583
 20
-3255.18630279174
 30
0.0
 11
-14893.496539436932
 21
-3426.263161813538
 31
0.0
  0
LINE
  5
2B
100
AcDbEntity
  8
FREI
  6
CONTINUOUS
 62
          15
100
AcDbLine
 10
-14649.810351261985
 20
-3506.18630279174
 30
0.0
 11
-14676.124163087037
 21
-3551.763161813538
 31
0.0
  0
LINE
  5
2C
100
AcDbEntity
  8
FREI
  6
STRICHPUNKT
 62
          15
100
AcDbLine
 10
-14649.810351261985
 20
-3255.18630279174
 30
0.0
 11
-14514.810351261985
 21
-3489.013161813538
 31
0.0
  0
LINE
  5
2D
100
AcDbEntity
  8
FREI
  6
CONTINUOUS
 62
          15
100
AcDbLine
 10
-14436.383201751554
 20
-3373.852969458406
 30
0.0
 11
-14406.124163087039
 21
-3426.263161813538
 31
0.0
  0
LINE
  5
2E
100
AcDbEntity
  8
FREI
  6
GESTRICHELT
 62
          15
100
AcDbLine
 10
-14484.980325828952
 20
-3289.680281454624
 30
0.0
 11
-14436.383201751554
 21
-3373.852969458406
 31
0.0
  0
LINE
  5
2F
100
AcDbEntity
  8
FREI
  6
CONTINUOUS
 62
          15
100
AcDbLine
 10
-14504.895433695388
 20
-3255.18630279174
 30
0.0
 11
-14484.980325828952
 21
-3289.680281454624
 31
0.0
  0
LINE
  5
30
100
AcDbEntity
  8
FREI
  6
CONTINUOUS
 62
          15
100
AcDbLine
 10
-14649.810351261985
 20
-3506.18630279174
 30
0.0
 11
-14623.496539436932
 21
-3551.763161813538
 31
0.0
  0
LINE
  5
31
100
AcDbEntity
  8
FREI
  6
CONTINUOUS
 62
          15
100
AcDbLine
 10
-14794.725268828583
 20
-3255.18630279174
 30
0.0
 11
-14775.310351261985
 21
-3180.18630279174
 31
0.0
  0
LINE
  5
32
100
AcDbEntity
  8
FREI
  6
CONTINUOUS
 62
          15
100
AcDbLine
 10
-14775.310351261985
 20
-3180.18630279174
 30
0.0
 11
-14524.310351261985
 21
-3180.18630279174
 31
0.0
  0
LINE
  5
33
100
AcDbEntity
  8
FREI
  6
CONTINUOUS
 62
          15
100
AcDbLine
 10
-14524.310351261985
 20
-3180.18630279174
 30
0.0
 11
-14504.895433695388
 21
-3255.18630279174
 31
0.0
  0
LINE
  5
34
100
AcDbEntity
  8
FREI
  6
CONTINUOUS
 62
          15
100
AcDbLine
 10
-14504.895433695388
 20
-3255.18630279174
 30
0.0
 11
-14794.725268828583
 21
-3255.18630279174
 31
0.0
  0
LINE
  5
35
100
AcDbEntity
  8
FREI
  6
CONTINUOUS
 62
          15
100
AcDbLine
 10
-14649.810351261985
 20
-3373.852969458406
 30
0.0
 11
-14649.810351261985
 21
-3506.18630279174
 31
0.0
  0
LINE
  5
36
100
AcDbEntity
  8
FREI
  6
GESTRICHELT
 62
          15
100
AcDbLine
 10
-14649.810351261985
 20
-3346.100935782611
 30
0.0
 11
-14649.810351261985
 21
-3373.852969458406
 31
0.0
  0
LINE
  5
37
100
AcDbEntity
  8
FREI
  6
GESTRICHELT
 62
          15
100
AcDbLine
 10
-14649.810351261985
 20
-3293.852969458406
 30
0.0
 11
-14649.810351261985
 21
-3331.605003134202
 31
0.0
  0
LINE
  5
38
100
AcDbEntity
  8
FREI
  6
CONTINUOUS
 62
          15
100
AcDbLine
 10
-14649.810351261985
 20
-3255.18630279174
 30
0.0
 11
-14649.810351261985
 21
-3293.852969458406
 31
0.0
  0
LINE
  5
39
100
AcDbEntity
  8
FREI
  6
CONTINUOUS
 62
          15
100
AcDbLine
 10
-14893.496539436932
 20
-3426.263161813538
 30
0.0
 11
-14676.124163087037
 21
-3551.763161813538
 31
0.0
  0
LINE
  5
3A
100
AcDbEntity
  8
FREI
  6
CONTINUOUS
 62
          15
100
AcDbLine
 10
-14623.496539436932
 20
-3551.763161813538
 30
0.0
 11
-14406.124163087039
 21
-3426.263161813538
 31
0.0
  0
CIRCLE
  5
3B
100
AcDbEntity
  8
FREI
  6
CONTINUOUS
 62
          15
100
AcDbCircle
 10
-14649.810351261985
 20
-3338.852969458406
 30
0.0
 40
7.247966324205
  0
CIRCLE
  5
3C
100
AcDbEntity
  8
Frei
  6
CONTINUOUS
 62
           7
100
AcDbCircle
 10
-14158.921404261986
 20
-3338.852969458406
 30
0.0
 40
6.25
  0
CIRCLE
  5
3D
100
AcDbEntity
  8
FREI
  6
CONTINUOUS
 62
          15
100
AcDbCircle
 10
-14575.332166536524
 20
-3295.852969458406
 30
0.0
 40
8.25
  0
ARC
  5
3E
100
AcDbEntity
  8
FREI
  6
CONTINUOUS
 62
          15
100
AcDbCircle
 10
-14649.810351261985
 20
-3338.852969458406
 30
0.0
 40
20.25
100
AcDbArc
 50
118.385820858495
 51
327.117816039372
  0
ARC
  5
3F
100
AcDbEntity
  8
FREI
  6
GESTRICHELT
 62
          15
100
AcDbCircle
 10
-14575.332166536524
 20
-3295.852969458406
 30
0.0
 40
18.25
100
AcDbArc
 50
112.839580585602
 51
118.385820858496
  0
ARC
  5
40
100
AcDbEntity
  8
FREI
  6
CONTINUOUS
 62
          15
100
AcDbCircle
 10
-14575.332166536524
 20
-3295.852969458406
 30
0.0
 40
18.25
100
AcDbArc
 50
55.368419414393
 51
112.839580585602
  0
ARC
  5
41
100
AcDbEntity
  8
FREI
  6
GESTRICHELT
 62
          15
100
AcDbCircle
 10
-14575.332166536524
 20
-3295.852969458406
 30
0.0
 40
18.25
100
AcDbArc
 50
292.871848138221
 51
55.368419414393
  0
ARC
  5
42
100
AcDbEntity
  8
FREI
  6
CONTINUOUS
 62
          15
100
AcDbCircle
 10
-14575.332166536524
 20
-3295.852969458406
 30
0.0
 40
18.25
100
AcDbArc
 50
235.336151861781
 51
292.871848138221
  0
ARC
  5
43
100
AcDbEntity
  8
FREI
  6
GESTRICHELT
 62
          15
100
AcDbCircle
 10
-14575.332166536524
 20
-3295.852969458406
 30
0.0
 40
18.25
100
AcDbArc
 50
219.400297985065
 51
235.336151861781
  0
LINE
  5
44
100
AcDbEntity
  8
FREI
  6
GESTRICHELT
 62
          15
100
AcDbLine
 10
-14592.747485119417
 20
-3284.57532653565
 30
0.0
 11
-14584.008335261846
 21
-3279.797235397026
 31
0.0
  0
LINE
  5
45
100
AcDbEntity
  8
FREI
  6
CONTINUOUS
 62
          15
100
AcDbLine
 10
-14659.437332998301
 20
-3321.037702897149
 30
0.0
 11
-14592.747485119417
 21
-3284.57532653565
 31
0.0
  0
LINE
  5
46
100
AcDbEntity
  8
FREI
  6
CONTINUOUS
 62
          15
100
AcDbLine
 10
-14597.125871939499
 20
-3307.39363742881
 30
0.0
 11
-14632.804629616245
 21
-3349.84696469706
 31
0.0
  0
ARC
  5
47
100
AcDbEntity
  8
FREI
  6
CONTINUOUS
 62
          15
100
AcDbCircle
 10
-14593.298145369068
 20
-3310.610547328389
 30
0.0
 40
5.0
100
AcDbArc
 50
98.870845309048
 51
139.955529992632
  0
ARC
  5
48
100
AcDbEntity
  8
FREI
  6
GESTRICHELT
 62
          15
100
AcDbCircle
 10
-14593.298145369068
 20
-3310.610547328389
 30
0.0
 40
5.0
100
AcDbArc
 50
39.400297985059
 51
98.870845309048
  0
LINE
  5
49
100
AcDbEntity
  8
Frei
  6
GESTRICHELT
 62
           7
100
AcDbLine
 10
-14181.829122264029
 20
-3336.487116994142
 30
0.0
 11
-14179.774660400433
 21
-3316.592917174822
 31
0.0
  0
LINE
  5
4A
100
AcDbEntity
  8
Frei
  6
GESTRICHELT
 62
           7
100
AcDbLine
 10
-14179.774660400433
 20
-3316.592917174822
 30
0.0
 11
-14183.753500364297
 21
-3316.182024802102
 31
0.0
  0
LINE
  5
4B
100
AcDbEntity
  8
Frei
  6
CONTINUOUS
 62
           7
100
AcDbLine
 10
-14182.520823246139
 20
-3304.245504910511
 30
0.0
 11
-14211.964238978731
 21
-3301.204901352387
 31
0.0
  0
LINE
  5
4C
100
AcDbEntity
  8
Frei
  6
CONTINUOUS
 62
           7
100
AcDbLine
 10
-14211.964238978731
 20
-3301.204901352387
 30
0.0
 11
-14212.015600525321
 21
-3301.70225634787
 31
0.0
  0
LINE
  5
4D
100
AcDbEntity
  8
Frei
  6
CONTINUOUS
 62
           7
100
AcDbLine
 10
-14212.015600525321
 20
-3301.70225634787
 30
0.0
 11
-14426.033118002908
 21
-3279.600984462456
 31
0.0
  0
LINE
  5
4E
100
AcDbEntity
  8
Frei
  6
CONTINUOUS
 62
           7
100
AcDbLine
 10
-14426.033118002908
 20
-3279.600984462456
 30
0.0
 11
-14425.981756456318
 21
-3279.103629466973
 31
0.0
  0
LINE
  5
4F
100
AcDbEntity
  8
Frei
  6
CONTINUOUS
 62
           7
100
AcDbLine
 10
-14425.981756456318
 20
-3279.103629466973
 30
0.0
 11
-14455.425172188912
 21
-3276.063025908849
 31
0.0
  0
LINE
  5
50
100
AcDbEntity
  8
Frei
  6
CONTINUOUS
 62
           7
100
AcDbLine
 10
-14455.425172188912
 20
-3276.063025908849
 30
0.0
 11
-14456.65784930707
 21
-3287.999545800441
 31
0.0
  0
LINE
  5
51
100
AcDbEntity
  8
Frei
  6
CONTINUOUS
 62
           7
100
AcDbLine
 10
-14456.65784930707
 20
-3287.999545800441
 30
0.0
 11
-14468.097014203178
 21
-3286.818230228872
 31
0.0
  0
LINE
  5
52
100
AcDbEntity
  8
Frei
  6
CONTINUOUS
 62
           7
100
AcDbLine
 10
-14468.097014203178
 20
-3286.818230228872
 30
0.0
 11
-14468.199737296358
 21
-3287.812940219838
 31
0.0
  0
LINE
  5
53
100
AcDbEntity
  8
Frei
  6
CONTINUOUS
 62
           7
100
AcDbLine
 10
-14468.199737296358
 20
-3287.812940219838
 30
0.0
 11
-14484.612452147298
 21
-3286.118009182371
 31
0.0
  0
LINE
  5
54
100
AcDbEntity
  8
Frei
  6
CONTINUOUS
 62
           7
100
AcDbLine
 10
-14484.612452147298
 20
-3286.118009182371
 30
0.0
 11
-14488.515929688132
 21
-3323.916988839079
 31
0.0
  0
LINE
  5
55
100
AcDbEntity
  8
Frei
  6
CONTINUOUS
 62
           7
100
AcDbLine
 10
-14488.515929688132
 20
-3323.916988839079
 30
0.0
 11
-14472.103214837192
 21
-3325.611919876546
 31
0.0
  0
LINE
  5
56
100
AcDbEntity
  8
Frei
  6
CONTINUOUS
 62
           7
100
AcDbLine
 10
-14472.103214837192
 20
-3325.611919876546
 30
0.0
 11
-14472.205937930374
 21
-3326.606629867512
 31
0.0
  0
LINE
  5
57
100
AcDbEntity
  8
Frei
  6
CONTINUOUS
 62
           7
100
AcDbLine
 10
-14472.205937930374
 20
-3326.606629867512
 30
0.0
 11
-14460.766773034264
 21
-3327.78794543908
 31
0.0
  0
LINE
  5
58
100
AcDbEntity
  8
Frei
  6
CONTINUOUS
 62
           7
100
AcDbLine
 10
-14460.766773034264
 20
-3327.78794543908
 30
0.0
 11
-14461.999450152422
 21
-3339.724465330673
 31
0.0
  0
LINE
  5
59
100
AcDbEntity
  8
Frei
  6
GESTRICHELT
 62
           7
100
AcDbLine
 10
-14434.468029215912
 20
-3342.567618354086
 30
0.0
 11
-14432.556034419829
 21
-3342.765068888796
 31
0.0
  0
LINE
  5
5A
100
AcDbEntity
  8
Frei
  6
CONTINUOUS
 62
           7
100
AcDbLine
 10
-14461.999450152422
 20
-3339.724465330673
 30
0.0
 11
-14434.468029215912
 21
-3342.567618354086
 31
0.0
  0
LINE
  5
5B
100
AcDbEntity
  8
Frei
  6
CONTINUOUS
 62
           7
100
AcDbLine
 10
-14432.556034419829
 20
-3342.765068888796
 30
0.0
 11
-14432.50467287324
 21
-3342.267713893313
 31
0.0
  0
LINE
  5
5C
100
AcDbEntity
  8
Frei
  6
GESTRICHELT
 62
           7
100
AcDbLine
 10
-14244.427042655345
 20
-3361.690212060761
 30
0.0
 11
-14218.487155395653
 21
-3364.368985778728
 31
0.0
  0
LINE
  5
5D
100
AcDbEntity
  8
Frei
  6
CONTINUOUS
 62
           7
100
AcDbLine
 10
-14406.564785613547
 20
-3344.94648761128
 30
0.0
 11
-14244.427042655345
 21
-3361.690212060761
 31
0.0
  0
LINE
  5
5E
100
AcDbEntity
  8
Frei
  6
GESTRICHELT
 62
           7
100
AcDbLine
 10
-14432.50467287324
 20
-3342.267713893313
 30
0.0
 11
-14406.564785613547
 21
-3344.94648761128
 31
0.0
  0
LINE
  5
5F
100
AcDbEntity
  8
Frei
  6
CONTINUOUS
 62
           7
100
AcDbLine
 10
-14218.487155395653
 20
-3364.368985778728
 30
0.0
 11
-14218.538516942242
 21
-3364.866340774211
 31
0.0
  0
LINE
  5
60
100
AcDbEntity
  8
Frei
  6
CONTINUOUS
 62
           7
100
AcDbLine
 10
-14216.62652214616
 20
-3365.06379130892
 30
0.0
 11
-14189.095101209648
 21
-3367.906944332334
 31
0.0
  0
LINE
  5
61
100
AcDbEntity
  8
Frei
  6
GESTRICHELT
 62
           7
100
AcDbLine
 10
-14218.538516942242
 20
-3364.866340774211
 30
0.0
 11
-14216.62652214616
 21
-3365.06379130892
 31
0.0
  0
LINE
  5
62
100
AcDbEntity
  8
Frei
  6
GESTRICHELT
 62
           7
100
AcDbLine
 10
-14187.862424091491
 20
-3355.970424440742
 30
0.0
 11
-14183.883584127627
 21
-3356.381316813462
 31
0.0
  0
LINE
  5
63
100
AcDbEntity
  8
Frei
  6
GESTRICHELT
 62
           7
100
AcDbLine
 10
-14183.883584127627
 20
-3356.381316813462
 30
0.0
 11
-14181.829122264029
 21
-3336.487116994142
 31
0.0
  0
LINE
  5
64
100
AcDbEntity
  8
Frei
  6
GESTRICHELT
 62
           7
100
AcDbLine
 10
-14214.391401922971
 20
-3324.70811913526
 30
0.0
 11
-14218.487155395653
 21
-3364.368985778728
 31
0.0
  0
LINE
  5
65
100
AcDbEntity
  8
Frei
  6
CONTINUOUS
 62
           7
100
AcDbLine
 10
-14212.015600525321
 20
-3301.70225634787
 30
0.0
 11
-14214.391401922971
 21
-3324.70811913526
 31
0.0
  0
LINE
  5
66
100
AcDbEntity
  8
Frei
  6
GESTRICHELT
 62
           7
100
AcDbLine
 10
-14428.408900352357
 20
-3302.606662798291
 30
0.0
 11
-14432.50467287324
 21
-3342.267713893313
 31
0.0
  0
LINE
  5
67
100
AcDbEntity
  8
Frei
  6
CONTINUOUS
 62
           7
100
AcDbLine
 10
-14426.033118002908
 20
-3279.600984462456
 30
0.0
 11
-14428.408900352357
 21
-3302.606662798291
 31
0.0
  0
LINE
  5
68
100
AcDbEntity
  8
Frei
  6
CONTINUOUS
 62
           7
100
AcDbLine
 10
-14456.65784930707
 20
-3287.999545800441
 30
0.0
 11
-14460.766773034264
 21
-3327.78794543908
 31
0.0
  0
LINE
  5
69
100
AcDbEntity
  8
Frei
  6
CONTINUOUS
 62
           7
100
AcDbLine
 10
-14468.097014203178
 20
-3286.818230228872
 30
0.0
 11
-14472.205937930374
 21
-3326.606629867512
 31
0.0
  0
LINE
  5
6A
100
AcDbEntity
  8
Frei
  6
GESTRICHELT
 62
           7
100
AcDbLine
 10
-14502.901116177043
 20
-3295.287849581661
 30
0.0
 11
-14525.610283139195
 21
-3292.942687780658
 31
0.0
  0
LINE
  5
6B
100
AcDbEntity
  8
Frei
  6
CONTINUOUS
 62
           7
100
AcDbLine
 10
-14494.694796090969
 20
-3296.135311244379
 30
0.0
 11
-14502.901116177043
 21
-3295.287849581661
 31
0.0
  0
LINE
  5
6C
100
AcDbEntity
  8
Frei
  6
GESTRICHELT
 62
           7
100
AcDbLine
 10
-14504.544685667921
 20
-3311.203209437117
 30
0.0
 11
-14527.253852630072
 21
-3308.858047636114
 31
0.0
  0
LINE
  5
6D
100
AcDbEntity
  8
Frei
  6
CONTINUOUS
 62
           7
100
AcDbLine
 10
-14496.338365581847
 20
-3312.050671099834
 30
0.0
 11
-14504.544685667921
 21
-3311.203209437117
 31
0.0
  0
LINE
  5
6E
100
AcDbEntity
  8
Frei
  6
CONTINUOUS
 62
           7
100
AcDbLine
 10
-14526.620035428839
 20
-3293.76344471371
 30
0.0
 11
-14525.610283139195
 21
-3292.942687780658
 31
0.0
  0
LINE
  5
6F
100
AcDbEntity
  8
Frei
  6
CONTINUOUS
 62
           7
100
AcDbLine
 10
-14528.0745656658
 20
-3307.848259666992
 30
0.0
 11
-14527.253852630072
 21
-3308.858047636114
 31
0.0
  0
LINE
  5
70
100
AcDbEntity
  8
Frei
  6
GESTRICHELT
 62
           7
100
AcDbLine
 10
-14526.620035428839
 20
-3293.76344471371
 30
0.0
 11
-14528.0745656658
 21
-3307.848259666992
 31
0.0
  0
LINE
  5
71
100
AcDbEntity
  8
Frei
  6
CONTINUOUS
 62
           7
100
AcDbLine
 10
-14502.995635804002
 20
-3296.203122032748
 30
0.0
 11
-14494.789315717928
 21
-3297.050583695465
 31
0.0
  0
LINE
  5
72
100
AcDbEntity
  8
Frei
  6
GESTRICHELT
 62
           7
100
AcDbLine
 10
-14526.620035428839
 20
-3293.76344471371
 30
0.0
 11
-14502.995635804002
 21
-3296.203122032748
 31
0.0
  0
LINE
  5
73
100
AcDbEntity
  8
Frei
  6
CONTINUOUS
 62
           7
100
AcDbLine
 10
-14504.450166040962
 20
-3310.287936986029
 30
0.0
 11
-14496.243845954888
 21
-3311.135398648747
 31
0.0
  0
LINE
  5
74
100
AcDbEntity
  8
Frei
  6
GESTRICHELT
 62
           7
100
AcDbLine
 10
-14528.0745656658
 20
-3307.848259666992
 30
0.0
 11
-14504.450166040962
 21
-3310.287936986029
 31
0.0
  0
LINE
  5
75
100
AcDbEntity
  8
Frei
  6
GESTRICHELT
 62
           7
100
AcDbLine
 10
-14525.610283139195
 20
-3292.942687780658
 30
0.0
 11
-14527.253852630072
 21
-3308.858047636114
 31
0.0
  0
LINE
  5
76
100
AcDbEntity
  8
Frei
  6
CONTINUOUS
 62
           7
100
AcDbLine
 10
-14485.536959985917
 20
-3295.070399101065
 30
0.0
 11
-14494.48934990461
 21
-3294.145891262446
 31
0.0
  0
LINE
  5
77
100
AcDbEntity
  8
Frei
  6
CONTINUOUS
 62
           7
100
AcDbLine
 10
-14494.48934990461
 20
-3294.145891262446
 30
0.0
 11
-14496.543811768208
 21
-3314.040091081766
 31
0.0
  0
LINE
  5
78
100
AcDbEntity
  8
Frei
  6
CONTINUOUS
 62
           7
100
AcDbLine
 10
-14496.543811768208
 20
-3314.040091081766
 30
0.0
 11
-14487.591421849513
 21
-3314.964598920385
 31
0.0
  0
LINE
  5
79
100
AcDbEntity
  8
Frei
  6
CONTINUOUS
 62
           7
100
AcDbLine
 10
-14494.975453044462
 20
-3298.853028040396
 30
0.0
 11
-14488.34404978899
 21
-3299.537849004005
 31
0.0
  0
LINE
  5
7A
100
AcDbEntity
  8
Frei
  6
CONTINUOUS
 62
           7
100
AcDbLine
 10
-14496.057708628354
 20
-3309.332954303816
 30
0.0
 11
-14489.426305372881
 21
-3310.017775267425
 31
0.0
  0
LINE
  5
7B
100
AcDbEntity
  8
Frei
  6
CONTINUOUS
 62
           7
100
AcDbLine
 10
-14488.34404978899
 20
-3299.537849004005
 30
0.0
 11
-14489.426305372881
 21
-3310.017775267425
 31
0.0
  0
LINE
  5
7C
100
AcDbEntity
  8
Frei
  6
CONTINUOUS
 62
           7
100
AcDbLine
 10
-14494.975453044462
 20
-3298.853028040396
 30
0.0
 11
-14489.426305372881
 21
-3310.017775267425
 31
0.0
  0
LINE
  5
7D
100
AcDbEntity
  8
Frei
  6
CONTINUOUS
 62
           7
100
AcDbLine
 10
-14488.34404978899
 20
-3299.537849004005
 30
0.0
 11
-14496.057708628354
 21
-3309.332954303816
 31
0.0
  0
CIRCLE
  5
7E
100
AcDbEntity
  8
Frei
  6
CONTINUOUS
 62
           7
100
AcDbCircle
 10
-14445.659517589173
 20
-3317.786903847489
 30
0.0
 40
5.7225
  0
ARC
  5
7F
100
AcDbEntity
  8
Frei
  6
CONTINUOUS
 62
           7
100
AcDbCircle
 10
-14445.659517589173
 20
-3317.786903847489
 30
0.0
 40
6.5785
100
AcDbArc
 50
104.104
 51
14.104
  0
CIRCLE
  5
80
100
AcDbEntity
  8
Frei
  6
CONTINUOUS
 62
           7
100
AcDbCircle
 10
-14198.860755809388
 20
-3326.183066393694
 30
0.0
 40
5.7225
  0
ARC
  5
81
100
AcDbEntity
  8
Frei
  6
CONTINUOUS
 62
           7
100
AcDbCircle
 10
-14198.860755809388
 20
-3326.183066393694
 30
0.0
 40
6.57849
100
AcDbArc
 50
104.104
 51
14.104
  0
LINE
  5
82
100
AcDbEntity
  8
Frei
  6
CONTINUOUS
 62
           7
100
AcDbLine
 10
-14433.552484970156
 20
-3296.33811138143
 30
0.0
 11
-14442.791443848424
 21
-3303.847471530723
 31
0.0
  0
LINE
  5
83
100
AcDbEntity
  8
Frei
  6
CONTINUOUS
 62
           7
100
AcDbLine
 10
-14434.498615472638
 20
-3295.174064109077
 30
0.0
 11
-14443.73757948706
 21
-3302.683473993869
 31
0.0
  0
CIRCLE
  5
84
100
AcDbEntity
  8
Frei
  6
CONTINUOUS
 62
           7
100
AcDbCircle
 10
-14438.645030174146
 20
-3299.510772793449
 30
0.0
 40
6.0
  0
LINE
  5
85
100
AcDbEntity
  8
Frei
  6
CONTINUOUS
 62
           7
100
AcDbLine
 10
-14200.782395498503
 20
-3341.286527064242
 30
0.0
 11
-14210.021657925923
 21
-3348.795906132106
 31
0.0
  0
LINE
  5
86
100
AcDbEntity
  8
Frei
  6
CONTINUOUS
 62
           7
100
AcDbLine
 10
-14201.728829550137
 20
-3340.122498710461
 30
0.0
 11
-14210.968086841402
 21
-3347.631828042825
 31
0.0
  0
CIRCLE
  5
87
100
AcDbEntity
  8
Frei
  6
CONTINUOUS
 62
           7
100
AcDbCircle
 10
-14205.875243224415
 20
-3344.459197447734
 30
0.0
 40
6.0
  0
LINE
  5
88
100
AcDbEntity
  8
Frei
  6
CONTINUOUS
 62
           7
100
AcDbLine
 10
-14502.789282764459
 20
-3289.41145125549
 30
0.0
 11
-14506.273254507816
 21
-3289.051663621627
 31
0.0
  0
LINE
  5
89
100
AcDbEntity
  8
Frei
  6
CONTINUOUS
 62
           7
100
AcDbLine
 10
-14509.757226251175
 20
-3288.691875987764
 30
0.0
 11
-14506.273254507816
 21
-3289.051663621627
 31
0.0
  0
LINE
  5
8A
100
AcDbEntity
  8
Frei
  6
CONTINUOUS
 62
           7
100
AcDbLine
 10
-14512.604052966324
 20
-3316.2588707934
 30
0.0
 11
-14509.120081222965
 21
-3316.618658427262
 31
0.0
  0
LINE
  5
8B
100
AcDbEntity
  8
Frei
  6
CONTINUOUS
 62
           7
100
AcDbLine
 10
-14505.636109479608
 20
-3316.978446061125
 30
0.0
 11
-14509.120081222965
 21
-3316.618658427262
 31
0.0
  0
LINE
  5
8C
100
AcDbEntity
  8
Frei
  6
CONTINUOUS
 62
           7
100
AcDbLine
 10
-14503.500988416015
 20
-3296.303190009799
 30
0.0
 11
-14506.984960159372
 21
-3295.943402375936
 31
0.0
  0
LINE
  5
8D
100
AcDbEntity
  8
Frei
  6
CONTINUOUS
 62
           7
100
AcDbLine
 10
-14510.468931902731
 20
-3295.583614742074
 30
0.0
 11
-14506.984960159372
 21
-3295.943402375936
 31
0.0
  0
LINE
  5
8E
100
AcDbEntity
  8
Frei
  6
CONTINUOUS
 62
           7
100
AcDbLine
 10
-14511.892347314768
 20
-3309.367132039091
 30
0.0
 11
-14508.408375571409
 21
-3309.726919672953
 31
0.0
  0
LINE
  5
8F
100
AcDbEntity
  8
Frei
  6
CONTINUOUS
 62
           7
100
AcDbLine
 10
-14504.92440382805
 20
-3310.086707306816
 30
0.0
 11
-14508.408375571409
 21
-3309.726919672953
 31
0.0
  0
ARC
  5
90
100
AcDbEntity
  8
Frei
  6
CONTINUOUS
 62
           7
100
AcDbCircle
 10
-14552.445984641969
 20
-3298.213926414635
 30
0.0
 40
48.982199999993
100
AcDbArc
 50
354.963436999999
 51
2.235610000001
  0
ARC
  5
91
100
AcDbEntity
  8
Frei
  6
CONTINUOUS
 62
           7
100
AcDbCircle
 10
-14462.947351088804
 20
-3307.456395634255
 30
0.0
 40
48.982200000003
100
AcDbArc
 50
165.972
 51
173.245
  0
ARC
  5
92
100
AcDbEntity
  8
Frei
  6
CONTINUOUS
 62
           7
100
AcDbCircle
 10
-14462.947351088804
 20
-3307.456395634255
 30
0.0
 40
48.982200000003
100
AcDbArc
 50
174.962999999999
 51
182.235999999999
  0
ARC
  5
93
100
AcDbEntity
  8
Frei
  6
CONTINUOUS
 62
           7
100
AcDbCircle
 10
-14552.445984641969
 20
-3298.213926414636
 30
0.0
 40
48.982199999993
100
AcDbArc
 50
345.972389999999
 51
353.244563
  0
LINE
  5
94
100
AcDbEntity
  8
Frei
  6
CONTINUOUS
 62
           7
100
AcDbLine
 10
-14503.652900554534
 20
-3302.514145133754
 30
0.0
 11
-14503.722900922481
 21
-3303.245529509389
 31
0.0
  0
LINE
  5
95
100
AcDbEntity
  8
Frei
  6
CONTINUOUS
 62
           7
100
AcDbLine
 10
-14511.589492630454
 20
-3301.69453811789
 30
0.0
 11
-14511.670434808302
 21
-3302.4247925395
 31
0.0
  0
LINE
  5
96
100
AcDbEntity
  8
Frei
  6
CONTINUOUS
 62
           7
100
AcDbLine
 10
-14511.740435176249
 20
-3303.156176915136
 30
0.0
 11
-14511.670434808302
 21
-3302.4247925395
 31
0.0
  0
LINE
  5
97
100
AcDbEntity
  8
Frei
  6
CONTINUOUS
 62
           7
100
AcDbLine
 10
-14503.80384310033
 20
-3303.975783930999
 30
0.0
 11
-14503.722900922481
 21
-3303.245529509389
 31
0.0
  0
ARC
  5
98
100
AcDbEntity
  8
Frei
  6
CONTINUOUS
 62
           7
100
AcDbCircle
 10
-14515.389021382653
 20
-3291.592907052243
 30
0.0
 40
12.801500000001
100
AcDbArc
 50
338.385499999999
 51
354.103999999999
  0
ARC
  5
99
100
AcDbEntity
  8
Frei
  6
CONTINUOUS
 62
           7
100
AcDbCircle
 10
-14497.869154523369
 20
-3293.402173001344
 30
0.0
 40
12.787200000001
100
AcDbArc
 50
174.104000000001
 51
189.822999999999
  0
ARC
  5
9A
100
AcDbEntity
  8
Frei
  6
CONTINUOUS
 62
           7
100
AcDbCircle
 10
-14500.004274559731
 20
-3314.07741910557
 30
0.0
 40
12.8015
100
AcDbArc
 50
158.385
 51
174.104000000001
  0
ARC
  5
9B
100
AcDbEntity
  8
Frei
  6
CONTINUOUS
 62
           7
100
AcDbCircle
 10
-14517.524141419015
 20
-3312.26815315647
 30
0.0
 40
12.787200000001
100
AcDbArc
 50
354.103999999998
 51
9.822499999999
  0
ARC
  5
9C
100
AcDbEntity
  8
Frei
  6
CONTINUOUS
 62
           7
100
AcDbCircle
 10
-14515.389021382653
 20
-3291.592907052243
 30
0.0
 40
12.787200000001
100
AcDbArc
 50
354.103999999998
 51
9.822499999999
  0
ARC
  5
9D
100
AcDbEntity
  8
Frei
  6
CONTINUOUS
 62
           7
100
AcDbCircle
 10
-14497.869154523369
 20
-3293.402173001344
 30
0.0
 40
12.8015
100
AcDbArc
 50
158.385
 51
174.104000000001
  0
ARC
  5
9E
100
AcDbEntity
  8
Frei
  6
CONTINUOUS
 62
           7
100
AcDbCircle
 10
-14500.004274559729
 20
-3314.07741910557
 30
0.0
 40
12.787200000001
100
AcDbArc
 50
174.104000000001
 51
189.822999999999
  0
ARC
  5
9F
100
AcDbEntity
  8
Frei
  6
CONTINUOUS
 62
           7
100
AcDbCircle
 10
-14517.524141419015
 20
-3312.26815315647
 30
0.0
 40
12.801500000001
100
AcDbArc
 50
338.385499999999
 51
354.103999999999
  0
LINE
  5
A0
100
AcDbEntity
  8
Frei
  6
CONTINUOUS
 62
           7
100
AcDbLine
 10
-14502.655340904301
 20
-3292.907906457276
 30
0.0
 11
-14503.722900922481
 21
-3303.245529509389
 31
0.0
  0
LINE
  5
A1
100
AcDbEntity
  8
Frei
  6
CONTINUOUS
 62
           7
100
AcDbLine
 10
-14510.60287479012
 20
-3292.087169487388
 30
0.0
 11
-14511.670434808302
 21
-3302.4247925395
 31
0.0
  0
LINE
  5
A2
100
AcDbEntity
  8
Frei
  6
CONTINUOUS
 62
           7
100
AcDbLine
 10
-14512.737994826482
 20
-3312.762415591614
 30
0.0
 11
-14511.670434808302
 21
-3302.4247925395
 31
0.0
  0
LINE
  5
A3
100
AcDbEntity
  8
Frei
  6
CONTINUOUS
 62
           7
100
AcDbLine
 10
-14504.790460940663
 20
-3313.583152561502
 30
0.0
 11
-14503.722900922481
 21
-3303.245529509389
 31
0.0
  0
LINE
  5
A4
100
AcDbEntity
  8
Frei
  6
CONTINUOUS
 62
           7
100
AcDbLine
 10
-14512.49221955374
 20
-3310.382472467229
 30
0.0
 11
-14512.410041079196
 21
-3309.586704474456
 31
0.0
  0
LINE
  5
A5
100
AcDbEntity
  8
Frei
  6
CONTINUOUS
 62
           7
100
AcDbLine
 10
-14512.410041079196
 20
-3309.586704474456
 30
0.0
 11
-14510.930828537406
 21
-3295.262880604545
 31
0.0
  0
LINE
  5
A6
100
AcDbEntity
  8
Frei
  6
CONTINUOUS
 62
           7
100
AcDbLine
 10
-14510.930828537406
 20
-3295.262880604545
 30
0.0
 11
-14510.848650062862
 21
-3294.467112611773
 31
0.0
  0
LINE
  5
A7
100
AcDbEntity
  8
Frei
  6
CONTINUOUS
 62
           7
100
AcDbLine
 10
-14510.848650062862
 20
-3294.467112611773
 30
0.0
 11
-14510.396668452871
 21
-3290.090388651523
 31
0.0
  0
LINE
  5
A8
100
AcDbEntity
  8
Frei
  6
CONTINUOUS
 62
           7
100
AcDbLine
 10
-14545.144724010092
 20
-3315.053013413201
 30
0.0
 11
-14543.415026841454
 21
-3315.231638183275
 31
0.0
  0
LINE
  5
A9
100
AcDbEntity
  8
Frei
  6
CONTINUOUS
 62
           7
100
AcDbLine
 10
-14540.127887859699
 20
-3283.400918472364
 30
0.0
 11
-14541.857585028336
 21
-3283.22229370229
 31
0.0
  0
LINE
  5
AA
100
AcDbEntity
  8
Frei
  6
CONTINUOUS
 62
           7
100
AcDbLine
 10
-14543.415026841454
 20
-3315.231638183275
 30
0.0
 11
-14538.380696071523
 21
-3315.751530446824
 31
0.0
  0
LINE
  5
AB
100
AcDbEntity
  8
Frei
  6
CONTINUOUS
 62
           7
100
AcDbLine
 10
-14535.093557089767
 20
-3283.920810735913
 30
0.0
 11
-14540.127887859699
 21
-3283.400918472364
 31
0.0
  0
LINE
  5
AC
100
AcDbEntity
  8
Frei
  6
CONTINUOUS
 62
           7
100
AcDbLine
 10
-14588.988135910169
 20
-3278.355150500932
 30
0.0
 11
-14541.857585028336
 21
-3283.22229370229
 31
0.0
  0
LINE
  5
AD
100
AcDbEntity
  8
Frei
  6
CONTINUOUS
 62
           7
100
AcDbLine
 10
-14592.275274891925
 20
-3310.185870211843
 30
0.0
 11
-14545.144724010092
 21
-3315.053013413201
 31
0.0
  0
LINE
  5
AE
100
AcDbEntity
  8
Frei
  6
CONTINUOUS
 62
           7
100
AcDbLine
 10
-14534.146440524239
 20
-3286.431382426047
 30
0.0
 11
-14536.940508658732
 21
-3313.487494180322
 31
0.0
  0
LINE
  5
AF
100
AcDbEntity
  8
Frei
  6
CONTINUOUS
 62
           7
100
AcDbLine
 10
-14511.467052730215
 20
-3288.773468950547
 30
0.0
 11
-14515.075037684661
 21
-3288.400874548126
 31
0.0
  0
LINE
  5
B0
100
AcDbEntity
  8
Frei
  6
CONTINUOUS
 62
           7
100
AcDbLine
 10
-14512.944201163731
 20
-3314.759196427479
 30
0.0
 11
-14512.49221955374
 21
-3310.382472467229
 31
0.0
  0
LINE
  5
B1
100
AcDbEntity
  8
Frei
  6
CONTINUOUS
 62
           7
100
AcDbLine
 10
-14535.746856669572
 20
-3313.610761892138
 30
0.0
 11
-14533.305786782168
 21
-3313.862849688359
 31
0.0
  0
LINE
  5
B2
100
AcDbEntity
  8
Frei
  6
CONTINUOUS
 62
           7
100
AcDbLine
 10
-14530.347361698588
 20
-3285.215201948538
 30
0.0
 11
-14530.511718647676
 21
-3286.806737934085
 31
0.0
  0
LINE
  5
B3
100
AcDbEntity
  8
Frei
  6
CONTINUOUS
 62
           7
100
AcDbLine
 10
-14530.511718647676
 20
-3286.806737934085
 30
0.0
 11
-14532.95278853508
 21
-3286.554650137863
 31
0.0
  0
LINE
  5
B4
100
AcDbEntity
  8
Frei
  6
CONTINUOUS
 62
           7
100
AcDbLine
 10
-14530.511718647676
 20
-3286.806737934085
 30
0.0
 11
-14533.305786782168
 21
-3313.862849688359
 31
0.0
  0
LINE
  5
B5
100
AcDbEntity
  8
Frei
  6
CONTINUOUS
 62
           7
100
AcDbLine
 10
-14533.305786782168
 20
-3313.862849688359
 30
0.0
 11
-14533.470143731256
 21
-3315.454385673905
 31
0.0
  0
LINE
  5
B6
100
AcDbEntity
  8
Frei
  6
CONTINUOUS
 62
           7
100
AcDbLine
 10
-14518.03346276824
 20
-3317.048522287946
 30
0.0
 11
-14517.869105819153
 21
-3315.456986302401
 31
0.0
  0
LINE
  5
B7
100
AcDbEntity
  8
Frei
  6
CONTINUOUS
 62
           7
100
AcDbLine
 10
-14517.869105819153
 20
-3315.456986302401
 30
0.0
 11
-14514.261120864707
 21
-3315.829580704823
 31
0.0
  0
LINE
  5
B8
100
AcDbEntity
  8
Frei
  6
CONTINUOUS
 62
           7
100
AcDbLine
 10
-14517.869105819153
 20
-3315.456986302401
 30
0.0
 11
-14515.075037684661
 21
-3288.400874548126
 31
0.0
  0
LINE
  5
B9
100
AcDbEntity
  8
Frei
  6
CONTINUOUS
 62
           7
100
AcDbLine
 10
-14515.075037684661
 20
-3288.400874548126
 30
0.0
 11
-14514.910680735573
 21
-3286.80933856258
 31
0.0
  0
LINE
  5
BA
100
AcDbEntity
  8
Frei
  6
CONTINUOUS
 62
           7
100
AcDbLine
 10
-14530.347361698588
 20
-3285.215201948538
 30
0.0
 11
-14514.910680735573
 21
-3286.80933856258
 31
0.0
  0
LINE
  5
BB
100
AcDbEntity
  8
Frei
  6
CONTINUOUS
 62
           7
100
AcDbLine
 10
-14533.470143731256
 20
-3315.454385673905
 30
0.0
 11
-14518.03346276824
 21
-3317.048522287946
 31
0.0
  0
ARC
  5
BC
100
AcDbEntity
  8
Frei
  6
CONTINUOUS
 62
           7
100
AcDbCircle
 10
-14564.411427134553
 20
-3296.978262477139
 30
0.0
 40
27.821476415485
100
AcDbArc
 50
318.997694434247
 51
29.210305565753
  0
ARC
  5
BD
100
AcDbEntity
  8
Frei
  6
CONTINUOUS
 62
           7
100
AcDbCircle
 10
-14551.293904033002
 20
-3298.332901075411
 30
0.0
 40
39.547005383793
100
AcDbArc
 50
150.23907458395
 51
197.96892541605
  0
ARC
  5
BE
100
AcDbEntity
  8
Frei
  6
CONTINUOUS
 62
           7
100
AcDbCircle
 10
-14565.362677834855
 20
-3296.880027398361
 30
0.0
 40
30.02221399786
100
AcDbArc
 50
141.899772496028
 51
206.308227503973
  0
CIRCLE
  5
BF
100
AcDbEntity
  8
Frei
  6
CONTINUOUS
 62
           7
100
AcDbCircle
 10
-14575.331874230125
 20
-3295.85051457599
 30
0.0
 40
6.8
  0
ARC
  5
C0
100
AcDbEntity
  8
Frei
  6
CONTINUOUS
 62
           7
100
AcDbCircle
 10
-14535.216824801582
 20
-3285.114462725072
 30
0.0
 40
1.2
100
AcDbArc
 50
354.103999999999
 51
84.104
  0
ARC
  5
C1
100
AcDbEntity
  8
Frei
  6
CONTINUOUS
 62
           7
100
AcDbCircle
 10
-14532.829520823265
 20
-3285.360998148703
 30
0.0
 40
1.2
100
AcDbArc
 50
174.104
 51
264.103999999999
  0
ARC
  5
C2
100
AcDbEntity
  8
Frei
  6
CONTINUOUS
 62
           7
100
AcDbCircle
 10
-14511.59032044203
 20
-3289.967120939707
 30
0.0
 40
1.2
100
AcDbArc
 50
354.103999999999
 51
84.104
  0
ARC
  5
C3
100
AcDbEntity
  8
Frei
  6
CONTINUOUS
 62
           7
100
AcDbCircle
 10
-14514.137853152892
 20
-3314.635928715663
 30
0.0
 40
1.2
100
AcDbArc
 50
264.103999999999
 51
354.103999999999
  0
ARC
  5
C4
100
AcDbEntity
  8
Frei
  6
CONTINUOUS
 62
           7
100
AcDbCircle
 10
-14535.870124381388
 20
-3314.804413881297
 30
0.0
 40
1.2
100
AcDbArc
 50
84.104
 51
174.104
  0
ARC
  5
C5
100
AcDbEntity
  8
Frei
  6
CONTINUOUS
 62
           7
100
AcDbCircle
 10
-14538.257428359706
 20
-3314.557878457665
 30
0.0
 40
1.2
100
AcDbArc
 50
264.103999999999
 51
354.103999999999
  0
LINE
  5
C6
100
AcDbEntity
  8
FREI
  6
CONTINUOUS
 62
           7
100
AcDbLine
 10
-14182.520796042341
 20
-3304.24524148494
 30
0.0
 11
-14189.095128413446
 21
-3367.907207757904
 31
0.0
  0
LINE
  5
C7
100
AcDbEntity
  8
FREI
  6
CONTINUOUS
 62
           7
100
AcDbLine
 10
-14181.456674380703
 20
-3362.15989355981
 30
0.0
 11
-14181.900782381272
 21
-3366.460374119337
 31
0.0
  0
LINE
  5
C8
100
AcDbEntity
  8
FREI
  6
CONTINUOUS
 62
           7
100
AcDbLine
 10
-14175.773992089526
 20
-3307.132142004246
 30
0.0
 11
-14176.218100090095
 21
-3311.432622563774
 31
0.0
  0
LINE
  5
C9
100
AcDbEntity
  8
FREI
  6
CONTINUOUS
 62
           7
100
AcDbLine
 10
-14176.218100090095
 20
-3311.432622563774
 30
0.0
 11
-14177.144159006806
 21
-3320.400032210044
 31
0.0
  0
LINE
  5
CA
100
AcDbEntity
  8
FREI
  6
CONTINUOUS
 62
           7
100
AcDbLine
 10
-14180.530615463991
 20
-3353.192483913537
 30
0.0
 11
-14181.456674380703
 21
-3362.15989355981
 31
0.0
  0
LINE
  5
CB
100
AcDbEntity
  8
Frei
  6
CONTINUOUS
 62
           7
100
AcDbLine
 10
-14184.028420750763
 20
-3368.252265868405
 30
0.0
 11
-14189.095128413446
 21
-3367.907207757904
 31
0.0
  0
LINE
  5
CC
100
AcDbEntity
  8
Frei
  6
CONTINUOUS
 62
           7
100
AcDbLine
 10
-14177.490538758297
 20
-3304.943263614375
 30
0.0
 11
-14182.520834138739
 21
-3304.245610388048
 31
0.0
  0
LINE
  5
CD
100
AcDbEntity
  8
FREI
  6
CONTINUOUS
 62
           7
100
AcDbLine
 10
-14180.352649485028
 20
-3362.235080993112
 30
0.0
 11
-14181.456674380703
 21
-3362.15989355981
 31
0.0
  0
LINE
  5
CE
100
AcDbEntity
  8
Frei
  6
CONTINUOUS
 62
           7
100
AcDbLine
 10
-14172.54718935064
 20
-3314.867957312721
 30
0.0
 11
-14173.471311117388
 21
-3323.816608738583
 31
0.0
  0
LINE
  5
CF
100
AcDbEntity
  8
FREI
  6
CONTINUOUS
 62
           7
100
AcDbLine
 10
-14176.218100090095
 20
-3311.432622563774
 30
0.0
 11
-14175.122009353794
 21
-3311.584639727915
 31
0.0
  0
LINE
  5
D0
100
AcDbEntity
  8
Frei
  6
CONTINUOUS
 62
           7
100
AcDbLine
 10
-14176.218181713377
 20
-3350.415687301539
 30
0.0
 11
-14176.237070164045
 21
-3350.598591943646
 31
0.0
  0
LINE
  5
D1
100
AcDbEntity
  8
FREI
  6
CONTINUOUS
 62
           7
100
AcDbLine
 10
-14157.479016274612
 20
-3326.926736392692
 30
0.0
 11
-14172.614599418333
 21
-3325.096201705997
 31
0.0
  0
LINE
  5
D2
100
AcDbEntity
  8
FREI
  6
CONTINUOUS
 62
           7
100
AcDbLine
 10
-14159.946694054022
 20
-3350.822275999981
 30
0.0
 11
-14175.136941748702
 21
-3349.521080659572
 31
0.0
  0
LINE
  5
D3
100
AcDbEntity
  8
FREI
  6
CONTINUOUS
 62
           7
100
AcDbLine
 10
-14173.264899109641
 20
-3324.741506886584
 30
0.0
 11
-14175.846002682589
 21
-3349.735395137544
 31
0.0
  0
LINE
  5
D4
100
AcDbEntity
  8
Frei
  6
CONTINUOUS
 62
           7
100
AcDbLine
 10
-14175.39295870736
 20
-3322.593408860658
 30
0.0
 11
-14174.346911267112
 21
-3322.719920413275
 31
0.0
  0
LINE
  5
D5
100
AcDbEntity
  8
Frei
  6
CONTINUOUS
 62
           7
100
AcDbLine
 10
-14173.471311117388
 20
-3323.816608738583
 30
0.0
 11
-14173.490199568056
 21
-3323.99951338069
 31
0.0
  0
LINE
  5
D6
100
AcDbEntity
  8
Frei
  6
CONTINUOUS
 62
           7
100
AcDbLine
 10
-14176.237070164045
 20
-3350.598591943646
 30
0.0
 11
-14177.161191930792
 21
-3359.54724336951
 31
0.0
  0
LINE
  5
D7
100
AcDbEntity
  8
Frei
  6
CONTINUOUS
 62
           7
100
AcDbLine
 10
-14177.31831012872
 20
-3351.493198585612
 30
0.0
 11
-14178.368135534642
 21
-3351.403270629605
 31
0.0
  0
ARC
  5
D8
100
AcDbEntity
  8
FREI
  6
CONTINUOUS
 62
           7
100
AcDbCircle
 10
-14158.921404261986
 20
-3338.852969458406
 30
0.0
 40
12.0131394
100
AcDbArc
 50
265.103999999997
 51
83.104000000003
  0
ARC
  5
D9
100
AcDbEntity
  8
Frei
  6
CONTINUOUS
 62
           7
100
AcDbCircle
 10
-14177.765590386865
 20
-3306.926470864584
 30
0.0
 40
2.0021899
100
AcDbArc
 50
354.103999999993
 51
82.104000000031
  0
ARC
  5
DA
100
AcDbEntity
  8
Frei
  6
CONTINUOUS
 62
           7
100
AcDbCircle
 10
-14175.534586796652
 20
-3314.559450603229
 30
0.0
 40
3.00328485
100
AcDbArc
 50
354.103999999999
 51
82.103999999981
  0
ARC
  5
DB
100
AcDbEntity
  8
Frei
  6
CONTINUOUS
 62
           7
100
AcDbCircle
 10
-14180.148589376804
 20
-3359.238736660017
 30
0.0
 40
3.00328485
100
AcDbArc
 50
266.103999999994
 51
354.103999999999
  0
ARC
  5
DC
100
AcDbEntity
  8
Frei
  6
CONTINUOUS
 62
           7
100
AcDbCircle
 10
-14183.892380678613
 20
-3366.254702979675
 30
0.0
 40
2.0021899
100
AcDbArc
 50
266.103999999968
 51
354.104000000006
  0
ARC
  5
DD
100
AcDbEntity
  8
Frei
  6
CONTINUOUS
 62
           7
100
AcDbCircle
 10
-14174.467110266058
 20
-3323.713773168752
 30
0.0
 40
1.00109495
100
AcDbArc
 50
354.103999999999
 51
83.10400000007
  0
ARC
  5
DE
100
AcDbEntity
  8
Frei
  6
CONTINUOUS
 62
           7
100
AcDbCircle
 10
-14175.152560709465
 20
-3320.605703349705
 30
0.0
 40
2.0021899
100
AcDbArc
 50
174.104
 51
263.104000000015
  0
ARC
  5
DF
100
AcDbEntity
  8
Frei
  6
CONTINUOUS
 62
           7
100
AcDbCircle
 10
-14172.494400419386
 20
-3324.102348950521
 30
0.0
 40
1.001094950001
100
AcDbArc
 50
219.67699599927
 51
263.104000000022
  0
ARC
  5
E0
100
AcDbEntity
  8
Frei
  6
CONTINUOUS
 62
           7
100
AcDbCircle
 10
-14172.494400419386
 20
-3324.102348950521
 30
0.0
 40
1.001094949999
100
AcDbArc
 50
174.103999999987
 51
219.676995999281
  0
ARC
  5
E1
100
AcDbEntity
  8
Frei
  6
CONTINUOUS
 62
           7
100
AcDbCircle
 10
-14178.53901716665
 20
-3353.398155053199
 30
0.0
 40
2.002189899999
100
AcDbArc
 50
85.103999999931
 51
174.104
  0
ARC
  5
E2
100
AcDbEntity
  8
Frei
  6
CONTINUOUS
 62
           7
100
AcDbCircle
 10
-14177.232869312717
 20
-3350.495756373815
 30
0.0
 40
1.001094949999
100
AcDbArc
 50
265.103999999922
 51
354.104000000012
  0
ARC
  5
E3
100
AcDbEntity
  8
Frei
  6
CONTINUOUS
 62
           7
100
AcDbCircle
 10
-14175.222382564705
 20
-3350.518522871369
 30
0.0
 40
1.00109495
100
AcDbArc
 50
128.531004000815
 51
174.104
  0
ARC
  5
E4
100
AcDbEntity
  8
Frei
  6
CONTINUOUS
 62
           7
100
AcDbCircle
 10
-14175.222382564705
 20
-3350.518522871371
 30
0.0
 40
1.001094950001
100
AcDbArc
 50
85.104000000004
 51
128.531004000779
  0
LINE
  5
E5
100
AcDbEntity
  8
Frei
  6
CONTINUOUS
 62
           7
100
AcDbLine
 10
-14249.680532312474
 20
-3349.28500393111
 30
0.0
 11
-14246.199047344093
 21
-3349.644534757239
 31
0.0
  0
LINE
  5
E6
100
AcDbEntity
  8
Frei
  6
CONTINUOUS
 62
           7
100
AcDbLine
 10
-14249.475086126113
 20
-3347.295583949178
 30
0.0
 11
-14249.680532312474
 21
-3349.28500393111
 31
0.0
  0
LINE
  5
E7
100
AcDbEntity
  8
Frei
  6
CONTINUOUS
 62
           7
100
AcDbLine
 10
-14244.228467967918
 20
-3340.297512936242
 30
0.0
 11
-14245.101614259946
 21
-3348.752547859453
 31
0.0
  0
LINE
  5
E8
100
AcDbEntity
  8
Frei
  6
CONTINUOUS
 62
           7
100
AcDbLine
 10
-14248.704662927265
 20
-3339.835259016933
 30
0.0
 11
-14244.228467967918
 21
-3340.297512936242
 31
0.0
  0
LINE
  5
E9
100
AcDbEntity
  8
Frei
  6
CONTINUOUS
 62
           7
100
AcDbLine
 10
-14248.756024473854
 20
-3340.332614012416
 30
0.0
 11
-14248.704662927265
 21
-3339.835259016933
 31
0.0
  0
LINE
  5
EA
100
AcDbEntity
  8
Frei
  6
CONTINUOUS
 62
           7
100
AcDbLine
 10
-14245.272305026871
 20
-3341.139829146121
 30
0.0
 11
-14248.756024473854
 21
-3340.332614012416
 31
0.0
  0
LINE
  5
EB
100
AcDbEntity
  8
Frei
  6
CONTINUOUS
 62
           7
100
AcDbLine
 10
-14245.099301597929
 20
-3343.726195976381
 30
0.0
 11
-14244.887815146083
 21
-3341.678285617632
 31
0.0
  0
LINE
  5
EC
100
AcDbEntity
  8
Frei
  6
CONTINUOUS
 62
           7
100
AcDbLine
 10
-14249.475086126113
 20
-3347.295583949178
 30
0.0
 11
-14248.756024473854
 21
-3340.332614012416
 31
0.0
  0
LINE
  5
ED
100
AcDbEntity
  8
Frei
  6
CONTINUOUS
 62
           7
100
AcDbLine
 10
-14245.899925350792
 20
-3347.217335064337
 30
0.0
 11
-14249.475086126113
 21
-3347.295583949178
 31
0.0
  0
LINE
  5
EE
100
AcDbEntity
  8
Frei
  6
CONTINUOUS
 62
           7
100
AcDbLine
 10
-14245.202024691109
 20
-3344.720905967347
 30
0.0
 11
-14245.413511142955
 21
-3346.768816326094
 31
0.0
  0
LINE
  5
EF
100
AcDbEntity
  8
Frei
  6
CONTINUOUS
 62
           2
100
AcDbLine
 10
-14246.728588728663
 20
-3344.060599560614
 30
0.0
 11
-14243.966423987185
 21
-3344.345846626286
 31
0.0
  0
LINE
  5
F0
100
AcDbEntity
  8
Frei
  6
CONTINUOUS
 62
           7
100
AcDbLine
 10
-14246.677227182072
 20
-3343.563244565132
 30
0.0
 11
-14245.099301597929
 21
-3343.726195976381
 31
0.0
  0
LINE
  5
F1
100
AcDbEntity
  8
Frei
  6
CONTINUOUS
 62
           7
100
AcDbLine
 10
-14246.728588728663
 20
-3344.060599560614
 30
0.0
 11
-14246.677227182072
 21
-3343.563244565132
 31
0.0
  0
LINE
  5
F2
100
AcDbEntity
  8
Frei
  6
CONTINUOUS
 62
           7
100
AcDbLine
 10
-14246.779950275253
 20
-3344.557954556098
 30
0.0
 11
-14246.728588728663
 21
-3344.060599560614
 31
0.0
  0
LINE
  5
F3
100
AcDbEntity
  8
Frei
  6
CONTINUOUS
 62
           7
100
AcDbLine
 10
-14245.202024691109
 20
-3344.720905967347
 30
0.0
 11
-14246.779950275253
 21
-3344.557954556098
 31
0.0
  0
LINE
  5
F4
100
AcDbEntity
  8
Frei
  6
CONTINUOUS
 62
           7
100
AcDbLine
 10
-14388.44257605223
 20
-3334.95513243252
 30
0.0
 11
-14385.052713977295
 21
-3302.129702730643
 31
0.0
  0
LINE
  5
F5
100
AcDbEntity
  8
Frei
  6
CONTINUOUS
 62
           7
100
AcDbLine
 10
-14402.368515925755
 20
-3333.517009128002
 30
0.0
 11
-14388.44257605223
 21
-3334.95513243252
 31
0.0
  0
LINE
  5
F6
100
AcDbEntity
  8
Frei
  6
CONTINUOUS
 62
           7
100
AcDbLine
 10
-14394.999813886956
 20
-3301.102471798844
 30
0.0
 11
-14385.550068972778
 21
-3302.078341184053
 31
0.0
  0
LINE
  5
F7
100
AcDbEntity
  8
Frei
  6
CONTINUOUS
 62
           7
100
AcDbLine
 10
-14395.205260073315
 20
-3303.091891780776
 30
0.0
 11
-14394.999813886956
 21
-3301.102471798844
 31
0.0
  0
LINE
  5
F8
100
AcDbEntity
  8
Frei
  6
CONTINUOUS
 62
           7
100
AcDbLine
 10
-14395.924321725573
 20
-3310.054861717538
 30
0.0
 11
-14395.975683272163
 21
-3310.552216713021
 31
0.0
  0
LINE
  5
F9
100
AcDbEntity
  8
Frei
  6
CONTINUOUS
 62
           7
100
AcDbLine
 10
-14400.949233226995
 20
-3310.038601247122
 30
0.0
 11
-14400.076086934965
 21
-3301.58356632391
 31
0.0
  0
LINE
  5
FA
100
AcDbEntity
  8
Frei
  6
CONTINUOUS
 62
           7
100
AcDbLine
 10
-14395.975683272163
 20
-3310.552216713021
 30
0.0
 11
-14400.949233226995
 21
-3310.038601247122
 31
0.0
  0
LINE
  5
FB
100
AcDbEntity
  8
Frei
  6
CONTINUOUS
 62
           7
100
AcDbLine
 10
-14398.97865385082
 20
-3300.691579426125
 30
0.0
 11
-14394.999813886956
 21
-3301.102471798844
 31
0.0
  0
LINE
  5
FC
100
AcDbEntity
  8
Frei
  6
CONTINUOUS
 62
           7
100
AcDbLine
 10
-14399.408041172557
 20
-3309.247646583833
 30
0.0
 11
-14395.924321725573
 21
-3310.054861717538
 31
0.0
  0
LINE
  5
FD
100
AcDbEntity
  8
Frei
  6
CONTINUOUS
 62
           7
100
AcDbLine
 10
-14399.5810446015
 20
-3306.661279753574
 30
0.0
 11
-14399.792531053346
 21
-3308.709190112321
 31
0.0
  0
LINE
  5
FE
100
AcDbEntity
  8
Frei
  6
CONTINUOUS
 62
           7
100
AcDbLine
 10
-14395.205260073315
 20
-3303.091891780776
 30
0.0
 11
-14395.924321725573
 21
-3310.054861717538
 31
0.0
  0
LINE
  5
FF
100
AcDbEntity
  8
Frei
  6
CONTINUOUS
 62
           7
100
AcDbLine
 10
-14398.780420848636
 20
-3303.170140665617
 30
0.0
 11
-14395.205260073315
 21
-3303.091891780776
 31
0.0
  0
LINE
  5
100
100
AcDbEntity
  8
Frei
  6
CONTINUOUS
 62
           7
100
AcDbLine
 10
-14399.478321508319
 20
-3305.666569762607
 30
0.0
 11
-14399.266835056473
 21
-3303.61865940386
 31
0.0
  0
LINE
  5
101
100
AcDbEntity
  8
Frei
  6
CONTINUOUS
 62
           2
100
AcDbLine
 10
-14397.951757470766
 20
-3306.32687616934
 30
0.0
 11
-14400.713922212244
 21
-3306.041629103669
 31
0.0
  0
LINE
  5
102
100
AcDbEntity
  8
Frei
  6
CONTINUOUS
 62
           7
100
AcDbLine
 10
-14398.003119017356
 20
-3306.824231164822
 30
0.0
 11
-14399.5810446015
 21
-3306.661279753574
 31
0.0
  0
LINE
  5
103
100
AcDbEntity
  8
Frei
  6
CONTINUOUS
 62
           7
100
AcDbLine
 10
-14397.951757470766
 20
-3306.32687616934
 30
0.0
 11
-14398.003119017356
 21
-3306.824231164822
 31
0.0
  0
LINE
  5
104
100
AcDbEntity
  8
Frei
  6
CONTINUOUS
 62
           7
100
AcDbLine
 10
-14397.900395924176
 20
-3305.829521173856
 30
0.0
 11
-14397.951757470766
 21
-3306.32687616934
 31
0.0
  0
LINE
  5
105
100
AcDbEntity
  8
Frei
  6
CONTINUOUS
 62
           7
100
AcDbLine
 10
-14399.478321508319
 20
-3305.666569762607
 30
0.0
 11
-14397.900395924176
 21
-3305.829521173856
 31
0.0
  0
LINE
  5
106
100
AcDbEntity
  8
Frei
  6
CONTINUOUS
 62
           7
100
AcDbLine
 10
-14362.919102494609
 20
-3340.908475825384
 30
0.0
 11
-14362.970464041198
 21
-3341.405830820867
 31
0.0
  0
LINE
  5
107
100
AcDbEntity
  8
Frei
  6
CONTINUOUS
 62
           7
100
AcDbLine
 10
-14362.970464041198
 20
-3341.405830820867
 30
0.0
 11
-14286.377794736816
 21
-3349.315508995716
 31
0.0
  0
LINE
  5
108
100
AcDbEntity
  8
Frei
  6
CONTINUOUS
 62
           7
100
AcDbLine
 10
-14286.377794736816
 20
-3349.315508995716
 30
0.0
 11
-14281.549809357362
 21
-3302.564139420316
 31
0.0
  0
LINE
  5
109
100
AcDbEntity
  8
Frei
  6
CONTINUOUS
 62
           7
100
AcDbLine
 10
-14281.549809357362
 20
-3302.564139420316
 30
0.0
 11
-14358.142478661746
 21
-3294.654461245466
 31
0.0
  0
LINE
  5
10A
100
AcDbEntity
  8
Frei
  6
CONTINUOUS
 62
           7
100
AcDbLine
 10
-14385.550068972778
 20
-3302.078341184053
 30
0.0
 11
-14385.052713977295
 21
-3302.129702730643
 31
0.0
  0
LINE
  5
10B
100
AcDbEntity
  8
Frei
  6
CONTINUOUS
 62
           7
100
AcDbLine
 10
-14359.137188652712
 20
-3294.551738152287
 30
0.0
 11
-14384.502293422343
 21
-3291.9322992762
 31
0.0
  0
LINE
  5
10C
100
AcDbEntity
  8
Frei
  6
CONTINUOUS
 62
           7
100
AcDbLine
 10
-14388.832923806314
 20
-3338.735030398191
 30
0.0
 11
-14388.44257605223
 21
-3334.95513243252
 31
0.0
  0
LINE
  5
10D
100
AcDbEntity
  8
Frei
  6
CONTINUOUS
 62
           7
100
AcDbLine
 10
-14385.550068972778
 20
-3302.078341184053
 30
0.0
 11
-14384.502293422343
 21
-3291.9322992762
 31
0.0
  0
LINE
  5
10E
100
AcDbEntity
  8
Frei
  6
CONTINUOUS
 62
           7
100
AcDbLine
 10
-14362.919102494609
 20
-3340.908475825384
 30
0.0
 11
-14363.913812485574
 21
-3340.805752732204
 31
0.0
  0
LINE
  5
10F
100
AcDbEntity
  8
Frei
  6
CONTINUOUS
 62
           7
100
AcDbLine
 10
-14358.193840208336
 20
-3295.151816240949
 30
0.0
 11
-14362.919102494609
 21
-3340.908475825384
 31
0.0
  0
LINE
  5
110
100
AcDbEntity
  8
Frei
  6
CONTINUOUS
 62
           7
100
AcDbLine
 10
-14358.193840208336
 20
-3295.151816240949
 30
0.0
 11
-14359.188550199302
 21
-3295.049093147769
 31
0.0
  0
LINE
  5
111
100
AcDbEntity
  8
Frei
  6
CONTINUOUS
 62
           7
100
AcDbLine
 10
-14358.142478661746
 20
-3294.654461245466
 30
0.0
 11
-14358.193840208336
 21
-3295.151816240949
 31
0.0
  0
LINE
  5
112
100
AcDbEntity
  8
Frei
  6
CONTINUOUS
 62
           7
100
AcDbLine
 10
-14363.913812485574
 20
-3340.805752732204
 30
0.0
 11
-14359.137188652712
 21
-3294.551738152287
 31
0.0
  0
LINE
  5
113
100
AcDbEntity
  8
Frei
  6
CONTINUOUS
 62
           7
100
AcDbLine
 10
-14363.965174032164
 20
-3341.303107727687
 30
0.0
 11
-14363.913812485574
 21
-3340.805752732204
 31
0.0
  0
LINE
  5
114
100
AcDbEntity
  8
Frei
  6
CONTINUOUS
 62
           7
100
AcDbLine
 10
-14388.832923806314
 20
-3338.735030398191
 30
0.0
 11
-14363.965174032164
 21
-3341.303107727687
 31
0.0
  0
LINE
  5
115
100
AcDbEntity
  8
Frei
  6
CONTINUOUS
 62
           7
100
AcDbLine
 10
-14285.383084745848
 20
-3349.418232088896
 30
0.0
 11
-14260.5153349717
 21
-3351.986309418393
 31
0.0
  0
LINE
  5
116
100
AcDbEntity
  8
Frei
  6
CONTINUOUS
 62
           7
100
AcDbLine
 10
-14285.331723199259
 20
-3348.920877093413
 30
0.0
 11
-14285.383084745848
 21
-3349.418232088896
 31
0.0
  0
LINE
  5
117
100
AcDbEntity
  8
Frei
  6
CONTINUOUS
 62
           7
100
AcDbLine
 10
-14280.555099366396
 20
-3302.666862513495
 30
0.0
 11
-14285.331723199259
 21
-3348.920877093413
 31
0.0
  0
LINE
  5
118
100
AcDbEntity
  8
Frei
  6
CONTINUOUS
 62
           7
100
AcDbLine
 10
-14280.606460912986
 20
-3303.164217508977
 30
0.0
 11
-14281.601170903952
 21
-3303.061494415798
 31
0.0
  0
LINE
  5
119
100
AcDbEntity
  8
Frei
  6
CONTINUOUS
 62
           7
100
AcDbLine
 10
-14285.331723199259
 20
-3348.920877093413
 30
0.0
 11
-14286.326433190225
 21
-3348.818154000233
 31
0.0
  0
LINE
  5
11A
100
AcDbEntity
  8
Frei
  6
CONTINUOUS
 62
           7
100
AcDbLine
 10
-14255.189994596763
 20
-3305.286301389582
 30
0.0
 11
-14256.237770147198
 21
-3315.432343297434
 31
0.0
  0
LINE
  5
11B
100
AcDbEntity
  8
Frei
  6
CONTINUOUS
 62
           7
100
AcDbLine
 10
-14255.189994596763
 20
-3305.286301389582
 30
0.0
 11
-14280.555099366396
 21
-3302.666862513495
 31
0.0
  0
LINE
  5
11C
100
AcDbEntity
  8
Frei
  6
CONTINUOUS
 62
           7
100
AcDbLine
 10
-14256.735125142681
 20
-3315.380981750844
 30
0.0
 11
-14256.237770147198
 21
-3315.432343297434
 31
0.0
  0
LINE
  5
11D
100
AcDbEntity
  8
Frei
  6
CONTINUOUS
 62
           7
100
AcDbLine
 10
-14256.735125142681
 20
-3315.380981750844
 30
0.0
 11
-14260.5153349717
 21
-3351.986309418393
 31
0.0
  0
LINE
  5
11E
100
AcDbEntity
  8
Frei
  6
CONTINUOUS
 62
           7
100
AcDbLine
 10
-14431.974428662883
 20
-3303.818693839058
 30
0.0
 11
-14433.963848644815
 21
-3303.613247652699
 31
0.0
  0
LINE
  5
11F
100
AcDbEntity
  8
Frei
  6
CONTINUOUS
 62
           7
100
AcDbLine
 10
-14432.931457442335
 20
-3322.820906760592
 30
0.0
 11
-14431.082441765097
 21
-3304.916126923204
 31
0.0
  0
LINE
  5
120
100
AcDbEntity
  8
Frei
  6
CONTINUOUS
 62
           7
100
AcDbLine
 10
-14436.018310508412
 20
-3323.507447472019
 30
0.0
 11
-14434.028890526481
 21
-3323.712893658378
 31
0.0
  0
LINE
  5
121
100
AcDbEntity
  8
Frei
  6
CONTINUOUS
 62
           7
100
AcDbLine
 10
-14436.396681940299
 20
-3317.436464433043
 30
0.0
 11
-14436.910297406199
 21
-3322.410014387872
 31
0.0
  0
LINE
  5
122
100
AcDbEntity
  8
Frei
  6
CONTINUOUS
 62
           7
100
AcDbLine
 10
-14433.963848644815
 20
-3303.613247652699
 30
0.0
 11
-14435.06128172896
 21
-3304.505234550485
 31
0.0
  0
LINE
  5
123
100
AcDbEntity
  8
Frei
  6
CONTINUOUS
 62
           7
100
AcDbLine
 10
-14431.974428662883
 20
-3303.818693839058
 30
0.0
 11
-14431.082441765097
 21
-3304.916126923204
 31
0.0
  0
LINE
  5
124
100
AcDbEntity
  8
Frei
  6
CONTINUOUS
 62
           7
100
AcDbLine
 10
-14432.931457442335
 20
-3322.820906760592
 30
0.0
 11
-14434.028890526481
 21
-3323.712893658378
 31
0.0
  0
LINE
  5
125
100
AcDbEntity
  8
Frei
  6
CONTINUOUS
 62
           7
100
AcDbLine
 10
-14436.018310508412
 20
-3323.507447472019
 30
0.0
 11
-14436.910297406199
 21
-3322.410014387872
 31
0.0
  0
LINE
  5
126
100
AcDbEntity
  8
Frei
  6
CONTINUOUS
 62
           7
100
AcDbLine
 10
-14436.018310508412
 20
-3323.507447472019
 30
0.0
 11
-14433.963848644815
 21
-3303.613247652699
 31
0.0
  0
LINE
  5
127
100
AcDbEntity
  8
Frei
  6
CONTINUOUS
 62
           7
100
AcDbLine
 10
-14434.028890526481
 20
-3323.712893658378
 30
0.0
 11
-14431.974428662883
 21
-3303.818693839058
 31
0.0
  0
LINE
  5
128
100
AcDbEntity
  8
Frei
  6
CONTINUOUS
 62
           7
100
AcDbLine
 10
-14433.701880641183
 20
-3330.281231692837
 30
0.0
 11
-14432.931457442335
 21
-3322.820906760592
 31
0.0
  0
LINE
  5
129
100
AcDbEntity
  8
Frei
  6
CONTINUOUS
 62
           7
100
AcDbLine
 10
-14403.879421517961
 20
-3323.810456480876
 30
0.0
 11
-14404.85529090317
 21
-3333.260201395053
 31
0.0
  0
LINE
  5
12A
100
AcDbEntity
  8
Frei
  6
CONTINUOUS
 62
           7
100
AcDbLine
 10
-14436.672330279007
 20
-3310.370771403101
 30
0.0
 11
-14435.57489719486
 21
-3309.478784505314
 31
0.0
  0
LINE
  5
12B
100
AcDbEntity
  8
Frei
  6
CONTINUOUS
 62
           7
100
AcDbLine
 10
-14435.06128172896
 20
-3304.505234550485
 30
0.0
 11
-14435.57489719486
 21
-3309.478784505314
 31
0.0
  0
LINE
  5
12C
100
AcDbEntity
  8
Frei
  6
CONTINUOUS
 62
           7
100
AcDbLine
 10
-14436.723691825597
 20
-3310.868126398584
 30
0.0
 11
-14436.672330279007
 21
-3310.370771403101
 31
0.0
  0
LINE
  5
12D
100
AcDbEntity
  8
Frei
  6
CONTINUOUS
 62
           7
100
AcDbLine
 10
-14436.396681940299
 20
-3317.436464433043
 30
0.0
 11
-14437.288668838086
 21
-3316.339031348897
 31
0.0
  0
LINE
  5
12E
100
AcDbEntity
  8
Frei
  6
CONTINUOUS
 62
           7
100
AcDbLine
 10
-14436.29395884712
 20
-3316.441754442077
 30
0.0
 11
-14436.396681940299
 21
-3317.436464433043
 31
0.0
  0
LINE
  5
12F
100
AcDbEntity
  8
Frei
  6
CONTINUOUS
 62
           2
100
AcDbLine
 10
-14435.677620288041
 20
-3310.473494496281
 30
0.0
 11
-14436.672330279007
 21
-3310.370771403101
 31
0.0
  0
LINE
  5
130
100
AcDbEntity
  8
Frei
  6
CONTINUOUS
 62
           7
100
AcDbLine
 10
-14435.57489719486
 20
-3309.478784505314
 30
0.0
 11
-14435.677620288041
 21
-3310.473494496281
 31
0.0
  0
LINE
  5
131
100
AcDbEntity
  8
Frei
  6
CONTINUOUS
 62
           2
100
AcDbLine
 10
-14436.29395884712
 20
-3316.441754442077
 30
0.0
 11
-14437.288668838086
 21
-3316.339031348897
 31
0.0
  0
LINE
  5
132
100
AcDbEntity
  8
Frei
  6
CONTINUOUS
 62
           7
100
AcDbLine
 10
-14435.677620288041
 20
-3310.473494496281
 30
0.0
 11
-14436.29395884712
 21
-3316.441754442077
 31
0.0
  0
LINE
  5
133
100
AcDbEntity
  8
Frei
  6
CONTINUOUS
 62
           1
100
AcDbLine
 10
-14434.24850428165
 20
-3311.123737504357
 30
0.0
 11
-14436.723691825597
 21
-3310.868126398584
 31
0.0
  0
LINE
  5
134
100
AcDbEntity
  8
Frei
  6
CONTINUOUS
 62
           7
100
AcDbLine
 10
-14436.775053372186
 20
-3311.365481394067
 30
0.0
 11
-14436.723691825597
 21
-3310.868126398584
 31
0.0
  0
LINE
  5
135
100
AcDbEntity
  8
Frei
  6
CONTINUOUS
 62
           1
100
AcDbLine
 10
-14434.762119747549
 20
-3316.097287459187
 30
0.0
 11
-14437.237307291496
 21
-3315.841676353414
 31
0.0
  0
LINE
  5
136
100
AcDbEntity
  8
Frei
  6
CONTINUOUS
 62
           7
100
AcDbLine
 10
-14437.288668838086
 20
-3316.339031348897
 30
0.0
 11
-14437.237307291496
 21
-3315.841676353414
 31
0.0
  0
LINE
  5
137
100
AcDbEntity
  8
Frei
  6
CONTINUOUS
 62
           1
100
AcDbLine
 10
-14434.299865828239
 20
-3311.62109249984
 30
0.0
 11
-14436.775053372186
 21
-3311.365481394067
 31
0.0
  0
LINE
  5
138
100
AcDbEntity
  8
Frei
  6
CONTINUOUS
 62
           7
100
AcDbLine
 10
-14437.185945744905
 20
-3315.344321357931
 30
0.0
 11
-14436.775053372186
 21
-3311.365481394067
 31
0.0
  0
LINE
  5
139
100
AcDbEntity
  8
Frei
  6
CONTINUOUS
 62
           1
100
AcDbLine
 10
-14434.710758200959
 20
-3315.599932463704
 30
0.0
 11
-14437.185945744905
 21
-3315.344321357931
 31
0.0
  0
LINE
  5
13A
100
AcDbEntity
  8
Frei
  6
CONTINUOUS
 62
           7
100
AcDbLine
 10
-14437.237307291496
 20
-3315.841676353414
 30
0.0
 11
-14437.185945744905
 21
-3315.344321357931
 31
0.0
  0
LINE
  5
13B
100
AcDbEntity
  8
Frei
  6
CONTINUOUS
 62
           7
100
AcDbLine
 10
-14428.900024669329
 20
-3302.573215747441
 30
0.0
 11
-14401.876321200954
 21
-3304.413611657039
 31
0.0
  0
LINE
  5
13C
100
AcDbEntity
  8
Frei
  6
CONTINUOUS
 62
           7
100
AcDbLine
 10
-14431.025335929256
 20
-3304.363147610616
 30
0.0
 11
-14431.082441765097
 21
-3304.916126923204
 31
0.0
  0
LINE
  5
13D
100
AcDbEntity
  8
Frei
  6
CONTINUOUS
 62
           7
100
AcDbLine
 10
-14404.85529090317
 20
-3333.260201395053
 30
0.0
 11
-14433.701880641183
 21
-3330.281231692837
 31
0.0
  0
LINE
  5
13E
100
AcDbEntity
  8
Frei
  6
CONTINUOUS
 62
           7
100
AcDbLine
 10
-14433.804603734363
 20
-3331.275941683803
 30
0.0
 11
-14433.701880641183
 21
-3330.281231692837
 31
0.0
  0
LINE
  5
13F
100
AcDbEntity
  8
Frei
  6
CONTINUOUS
 62
           7
100
AcDbLine
 10
-14433.30724873888
 20
-3331.327303230393
 30
0.0
 11
-14433.804603734363
 21
-3331.275941683803
 31
0.0
  0
LINE
  5
140
100
AcDbEntity
  8
Frei
  6
CONTINUOUS
 62
           7
100
AcDbLine
 10
-14404.85529090317
 20
-3333.260201395053
 30
0.0
 11
-14404.958013996349
 21
-3334.254911386019
 31
0.0
  0
LINE
  5
141
100
AcDbEntity
  8
Frei
  6
CONTINUOUS
 62
           7
100
AcDbLine
 10
-14445.087103855361
 20
-3343.179940634562
 30
0.0
 11
-14434.642648950219
 21
-3344.258533112951
 31
0.0
  0
LINE
  5
142
100
AcDbEntity
  8
Frei
  6
CONTINUOUS
 62
           7
100
AcDbLine
 10
-14448.222738332688
 20
-3358.941215850248
 30
0.0
 11
-14448.274099879278
 21
-3359.438570845731
 31
0.0
  0
LINE
  5
143
100
AcDbEntity
  8
Frei
  6
CONTINUOUS
 62
           7
100
AcDbLine
 10
-14446.936119532598
 20
-3361.08472047195
 30
0.0
 11
-14436.491664627456
 21
-3362.163312950339
 31
0.0
  0
LINE
  5
144
100
AcDbEntity
  8
Frei
  6
CONTINUOUS
 62
           7
100
AcDbLine
 10
-14436.132133801326
 20
-3358.681827981958
 30
0.0
 11
-14433.30724873888
 21
-3331.327303230393
 31
0.0
  0
LINE
  5
145
100
AcDbEntity
  8
Frei
  6
CONTINUOUS
 62
           7
100
AcDbLine
 10
-14405.455368991832
 20
-3334.203549839429
 30
0.0
 11
-14433.30724873888
 21
-3331.327303230393
 31
0.0
  0
LINE
  5
146
100
AcDbEntity
  8
Frei
  6
CONTINUOUS
 62
           7
100
AcDbLine
 10
-14434.794153454646
 20
-3360.327977608176
 30
0.0
 11
-14428.861601990933
 21
-3360.940628574123
 31
0.0
  0
LINE
  5
147
100
AcDbEntity
  8
Frei
  6
CONTINUOUS
 62
           7
100
AcDbLine
 10
-14408.280254054278
 20
-3361.558074590994
 30
0.0
 11
-14405.455368991832
 21
-3334.203549839429
 31
0.0
  0
LINE
  5
148
100
AcDbEntity
  8
Frei
  6
CONTINUOUS
 62
           7
100
AcDbLine
 10
-14404.958013996349
 20
-3334.254911386019
 30
0.0
 11
-14405.455368991832
 21
-3334.203549839429
 31
0.0
  0
LINE
  5
149
100
AcDbEntity
  8
Frei
  6
CONTINUOUS
 62
           7
100
AcDbLine
 10
-14428.861601990933
 20
-3360.940628574123
 30
0.0
 11
-14436.491664627456
 21
-3362.163312950339
 31
0.0
  0
LINE
  5
14A
100
AcDbEntity
  8
Frei
  6
CONTINUOUS
 62
           7
100
AcDbLine
 10
-14409.926403680498
 20
-3362.896054937673
 30
0.0
 11
-14428.861601990933
 21
-3360.940628574123
 31
0.0
  0
LINE
  5
14B
100
AcDbEntity
  8
Frei
  6
CONTINUOUS
 62
           7
100
AcDbLine
 10
-14451.758164983001
 20
-3344.501660510825
 30
0.0
 11
-14446.784615028169
 21
-3345.015275976724
 31
0.0
  0
LINE
  5
14C
100
AcDbEntity
  8
Frei
  6
CONTINUOUS
 62
           7
100
AcDbLine
 10
-14446.73325348158
 20
-3344.517920981241
 30
0.0
 11
-14446.784615028169
 21
-3345.015275976724
 31
0.0
  0
LINE
  5
14D
100
AcDbEntity
  8
Frei
  6
CONTINUOUS
 62
           7
100
AcDbLine
 10
-14453.196288287518
 20
-3358.427600384349
 30
0.0
 11
-14448.222738332688
 21
-3358.941215850248
 31
0.0
  0
LINE
  5
14E
100
AcDbEntity
  8
Frei
  6
CONTINUOUS
 62
           7
100
AcDbLine
 10
-14448.120015239509
 20
-3357.946505859282
 30
0.0
 11
-14448.222738332688
 21
-3358.941215850248
 31
0.0
  0
LINE
  5
14F
100
AcDbEntity
  8
Frei
  6
CONTINUOUS
 62
           2
100
AcDbLine
 10
-14446.887338121351
 20
-3346.00998596769
 30
0.0
 11
-14451.86088807618
 21
-3345.496370501791
 31
0.0
  0
LINE
  5
150
100
AcDbEntity
  8
Frei
  6
CONTINUOUS
 62
           7
100
AcDbLine
 10
-14446.784615028169
 20
-3345.015275976724
 30
0.0
 11
-14446.887338121351
 21
-3346.00998596769
 31
0.0
  0
LINE
  5
151
100
AcDbEntity
  8
Frei
  6
CONTINUOUS
 62
           2
100
AcDbLine
 10
-14448.120015239509
 20
-3357.946505859282
 30
0.0
 11
-14453.093565194338
 21
-3357.432890393383
 31
0.0
  0
LINE
  5
152
100
AcDbEntity
  8
Frei
  6
CONTINUOUS
 62
           7
100
AcDbLine
 10
-14446.887338121351
 20
-3346.00998596769
 30
0.0
 11
-14448.120015239509
 21
-3357.946505859282
 31
0.0
  0
LINE
  5
153
100
AcDbEntity
  8
Frei
  6
CONTINUOUS
 62
           7
100
AcDbLine
 10
-14402.441298213444
 20
-3309.884516607352
 30
0.0
 11
-14401.6893087444
 21
-3309.962174100491
 31
0.0
  0
LINE
  5
154
100
AcDbEntity
  8
Frei
  6
CONTINUOUS
 62
           7
100
AcDbLine
 10
-14401.876321200954
 20
-3304.413611657039
 30
0.0
 11
-14402.441298213444
 21
-3309.884516607352
 31
0.0
  0
LINE
  5
155
100
AcDbEntity
  8
Frei
  6
CONTINUOUS
 62
           7
100
AcDbLine
 10
-14402.800829039572
 20
-3313.366001575733
 30
0.0
 11
-14402.048839570531
 21
-3313.443659068872
 31
0.0
  0
LINE
  5
156
100
AcDbEntity
  8
Frei
  6
CONTINUOUS
 62
           7
100
AcDbLine
 10
-14402.441298213444
 20
-3309.884516607352
 30
0.0
 11
-14402.800829039572
 21
-3313.366001575733
 31
0.0
  0
LINE
  5
157
100
AcDbEntity
  8
Frei
  6
CONTINUOUS
 62
           7
100
AcDbLine
 10
-14403.519890691832
 20
-3320.328971512495
 30
0.0
 11
-14402.767901222789
 21
-3320.406629005634
 31
0.0
  0
LINE
  5
158
100
AcDbEntity
  8
Frei
  6
CONTINUOUS
 62
           7
100
AcDbLine
 10
-14402.800829039572
 20
-3313.366001575733
 30
0.0
 11
-14403.519890691832
 21
-3320.328971512495
 31
0.0
  0
LINE
  5
159
100
AcDbEntity
  8
Frei
  6
CONTINUOUS
 62
           7
100
AcDbLine
 10
-14403.879421517961
 20
-3323.810456480876
 30
0.0
 11
-14403.127432048919
 21
-3323.888113974014
 31
0.0
  0
LINE
  5
15A
100
AcDbEntity
  8
Frei
  6
CONTINUOUS
 62
           7
100
AcDbLine
 10
-14403.519890691832
 20
-3320.328971512495
 30
0.0
 11
-14403.879421517961
 21
-3323.810456480876
 31
0.0
  0
LINE
  5
15B
100
AcDbEntity
  8
Frei
  6
CONTINUOUS
 62
           7
100
AcDbLine
 10
-14401.668294879253
 20
-3317.001571183883
 30
0.0
 11
-14401.128998640059
 21
-3311.779343731312
 31
0.0
  0
LINE
  5
15C
100
AcDbEntity
  8
Frei
  6
CONTINUOUS
 62
           7
100
AcDbLine
 10
-14451.662817076087
 20
-3343.578367484023
 30
0.0
 11
-14451.528311347269
 21
-3342.275893150791
 31
0.0
  0
LINE
  5
15D
100
AcDbEntity
  8
Frei
  6
CONTINUOUS
 62
           7
100
AcDbLine
 10
-14457.647707971173
 20
-3360.217409197226
 30
0.0
 11
-14453.42614192325
 21
-3360.653367744385
 31
0.0
  0
LINE
  5
15E
100
AcDbEntity
  8
Frei
  6
CONTINUOUS
 62
           7
100
AcDbLine
 10
-14456.636367030917
 20
-3343.064752018124
 30
0.0
 11
-14451.662817076087
 21
-3343.578367484023
 31
0.0
  0
LINE
  5
15F
100
AcDbEntity
  8
Frei
  6
CONTINUOUS
 62
           7
100
AcDbLine
 10
-14451.868263262446
 20
-3345.567787465955
 30
0.0
 11
-14451.662817076087
 21
-3343.578367484023
 31
0.0
  0
LINE
  5
160
100
AcDbEntity
  8
Frei
  6
CONTINUOUS
 62
           7
100
AcDbLine
 10
-14451.868263262446
 20
-3345.567787465955
 30
0.0
 11
-14456.841813217276
 21
-3345.054172000056
 31
0.0
  0
LINE
  5
161
100
AcDbEntity
  8
Frei
  6
CONTINUOUS
 62
           7
100
AcDbLine
 10
-14456.636367030917
 20
-3343.064752018124
 30
0.0
 11
-14456.841813217276
 21
-3345.054172000056
 31
0.0
  0
LINE
  5
162
100
AcDbEntity
  8
Frei
  6
CONTINUOUS
 62
           7
100
AcDbLine
 10
-14452.002768991264
 20
-3346.870261799189
 30
0.0
 11
-14451.868263262446
 21
-3345.567787465955
 31
0.0
  0
LINE
  5
163
100
AcDbEntity
  8
Frei
  6
CONTINUOUS
 62
           7
100
AcDbLine
 10
-14452.271780448898
 20
-3349.475210465655
 30
0.0
 11
-14452.002768991264
 21
-3346.870261799189
 31
0.0
  0
LINE
  5
164
100
AcDbEntity
  8
Frei
  6
CONTINUOUS
 62
           7
100
AcDbLine
 10
-14452.271780448898
 20
-3349.475210465655
 30
0.0
 11
-14457.24533040373
 21
-3348.961594999756
 31
0.0
  0
LINE
  5
165
100
AcDbEntity
  8
Frei
  6
CONTINUOUS
 62
           7
100
AcDbLine
 10
-14456.841813217276
 20
-3345.054172000056
 30
0.0
 11
-14457.24533040373
 21
-3348.961594999756
 31
0.0
  0
LINE
  5
166
100
AcDbEntity
  8
Frei
  6
CONTINUOUS
 62
           7
100
AcDbLine
 10
-14452.682672821618
 20
-3353.454050429519
 30
0.0
 11
-14452.271780448898
 21
-3349.475210465655
 31
0.0
  0
LINE
  5
167
100
AcDbEntity
  8
Frei
  6
CONTINUOUS
 62
           7
100
AcDbLine
 10
-14452.682672821618
 20
-3353.454050429519
 30
0.0
 11
-14457.656222776448
 21
-3352.94043496362
 31
0.0
  0
LINE
  5
168
100
AcDbEntity
  8
Frei
  6
CONTINUOUS
 62
           7
100
AcDbLine
 10
-14457.24533040373
 20
-3348.961594999756
 30
0.0
 11
-14457.656222776448
 21
-3352.94043496362
 31
0.0
  0
LINE
  5
169
100
AcDbEntity
  8
Frei
  6
CONTINUOUS
 62
           7
100
AcDbLine
 10
-14452.951684279255
 20
-3356.058999095986
 30
0.0
 11
-14452.682672821618
 21
-3353.454050429519
 31
0.0
  0
LINE
  5
16A
100
AcDbEntity
  8
Frei
  6
CONTINUOUS
 62
           7
100
AcDbLine
 10
-14453.086190008071
 20
-3357.36147342922
 30
0.0
 11
-14452.951684279255
 21
-3356.058999095986
 31
0.0
  0
LINE
  5
16B
100
AcDbEntity
  8
Frei
  6
CONTINUOUS
 62
           7
100
AcDbLine
 10
-14453.086190008071
 20
-3357.36147342922
 30
0.0
 11
-14458.059739962902
 21
-3356.847857963321
 31
0.0
  0
LINE
  5
16C
100
AcDbEntity
  8
Frei
  6
CONTINUOUS
 62
           7
100
AcDbLine
 10
-14457.656222776448
 20
-3352.94043496362
 30
0.0
 11
-14458.059739962902
 21
-3356.847857963321
 31
0.0
  0
LINE
  5
16D
100
AcDbEntity
  8
Frei
  6
CONTINUOUS
 62
           7
100
AcDbLine
 10
-14453.291636194432
 20
-3359.350893411151
 30
0.0
 11
-14453.086190008071
 21
-3357.36147342922
 31
0.0
  0
LINE
  5
16E
100
AcDbEntity
  8
Frei
  6
CONTINUOUS
 62
           7
100
AcDbLine
 10
-14453.291636194432
 20
-3359.350893411151
 30
0.0
 11
-14458.265186149261
 21
-3358.837277945253
 31
0.0
  0
LINE
  5
16F
100
AcDbEntity
  8
Frei
  6
CONTINUOUS
 62
           7
100
AcDbLine
 10
-14458.059739962902
 20
-3356.847857963321
 30
0.0
 11
-14458.265186149261
 21
-3358.837277945253
 31
0.0
  0
LINE
  5
170
100
AcDbEntity
  8
Frei
  6
CONTINUOUS
 62
           7
100
AcDbLine
 10
-14453.42614192325
 20
-3360.653367744385
 30
0.0
 11
-14453.291636194432
 21
-3359.350893411151
 31
0.0
  0
LINE
  5
171
100
AcDbEntity
  8
Frei
  6
CONTINUOUS
 62
           7
100
AcDbLine
 10
-14456.636367030917
 20
-3343.064752018124
 30
0.0
 11
-14455.749877395194
 21
-3341.839934603631
 31
0.0
  0
LINE
  5
172
100
AcDbEntity
  8
Frei
  6
CONTINUOUS
 62
           7
100
AcDbLine
 10
-14451.528311347269
 20
-3342.275893150791
 30
0.0
 11
-14455.749877395194
 21
-3341.839934603631
 31
0.0
  0
LINE
  5
173
100
AcDbEntity
  8
Frei
  6
CONTINUOUS
 62
           7
100
AcDbLine
 10
-14457.647707971173
 20
-3360.217409197226
 30
0.0
 11
-14458.265186149261
 21
-3358.837277945253
 31
0.0
  0
LINE
  5
174
100
AcDbEntity
  8
Frei
  6
CONTINUOUS
 62
           7
100
AcDbLine
 10
-14456.224335039189
 20
-3346.434303252029
 30
0.0
 11
-14456.841813217276
 21
-3345.054172000056
 31
0.0
  0
LINE
  5
175
100
AcDbEntity
  8
Frei
  6
CONTINUOUS
 62
           7
100
AcDbLine
 10
-14452.002768991264
 20
-3346.870261799189
 30
0.0
 11
-14456.224335039189
 21
-3346.434303252029
 31
0.0
  0
LINE
  5
176
100
AcDbEntity
  8
Frei
  6
CONTINUOUS
 62
           7
100
AcDbLine
 10
-14457.24533040373
 20
-3348.961594999756
 30
0.0
 11
-14456.224335039189
 21
-3346.434303252029
 31
0.0
  0
LINE
  5
177
100
AcDbEntity
  8
Frei
  6
CONTINUOUS
 62
           7
100
AcDbLine
 10
-14457.17325032718
 20
-3355.623040548827
 30
0.0
 11
-14457.656222776448
 21
-3352.94043496362
 31
0.0
  0
LINE
  5
178
100
AcDbEntity
  8
Frei
  6
CONTINUOUS
 62
           7
100
AcDbLine
 10
-14452.951684279255
 20
-3356.058999095986
 30
0.0
 11
-14457.17325032718
 21
-3355.623040548827
 31
0.0
  0
LINE
  5
179
100
AcDbEntity
  8
Frei
  6
CONTINUOUS
 62
           7
100
AcDbLine
 10
-14458.059739962902
 20
-3356.847857963321
 30
0.0
 11
-14457.17325032718
 21
-3355.623040548827
 31
0.0
  0
LINE
  5
17A
100
AcDbEntity
  8
Frei
  6
CONTINUOUS
 62
           3
100
AcDbLine
 10
-14412.678554687302
 20
-3355.474083175685
 30
0.0
 11
-14430.583334524688
 21
-3353.625067498448
 31
0.0
  0
LINE
  5
17B
100
AcDbEntity
  8
Frei
  6
CONTINUOUS
 62
           3
100
AcDbLine
 10
-14413.337014537787
 20
-3356.009275314356
 30
0.0
 11
-14412.678554687302
 21
-3355.474083175685
 31
0.0
  0
LINE
  5
17C
100
AcDbEntity
  8
Frei
  6
CONTINUOUS
 62
           3
100
AcDbLine
 10
-14412.801822399117
 20
-3356.667735164844
 30
0.0
 11
-14413.337014537787
 21
-3356.009275314356
 31
0.0
  0
LINE
  5
17D
100
AcDbEntity
  8
Frei
  6
CONTINUOUS
 62
           3
100
AcDbLine
 10
-14430.706602236505
 20
-3354.818719487607
 30
0.0
 11
-14412.801822399117
 21
-3356.667735164844
 31
0.0
  0
LINE
  5
17E
100
AcDbEntity
  8
Frei
  6
CONTINUOUS
 62
           3
100
AcDbLine
 10
-14430.048142386016
 20
-3354.283527348935
 30
0.0
 11
-14430.706602236505
 21
-3354.818719487607
 31
0.0
  0
LINE
  5
17F
100
AcDbEntity
  8
Frei
  6
CONTINUOUS
 62
           3
100
AcDbLine
 10
-14430.583334524688
 20
-3353.625067498448
 30
0.0
 11
-14430.048142386016
 21
-3354.283527348935
 31
0.0
  0
LINE
  5
180
100
AcDbEntity
  8
Frei
  6
CONTINUOUS
 62
           3
100
AcDbLine
 10
-14413.337014537787
 20
-3356.009275314356
 30
0.0
 11
-14430.048142386016
 21
-3354.283527348935
 31
0.0
  0
LINE
  5
181
100
AcDbEntity
  8
Frei
  6
CONTINUOUS
 62
           3
100
AcDbLine
 10
-14430.501156050146
 20
-3352.829299505675
 30
0.0
 11
-14429.842696199657
 21
-3352.294107367003
 31
0.0
  0
LINE
  5
182
100
AcDbEntity
  8
Frei
  6
CONTINUOUS
 62
           3
100
AcDbLine
 10
-14412.596376212758
 20
-3354.678315182912
 30
0.0
 11
-14430.501156050146
 21
-3352.829299505675
 31
0.0
  0
LINE
  5
183
100
AcDbEntity
  8
Frei
  6
CONTINUOUS
 62
           3
100
AcDbLine
 10
-14413.131568351428
 20
-3354.019855332424
 30
0.0
 11
-14412.596376212758
 21
-3354.678315182912
 31
0.0
  0
LINE
  5
184
100
AcDbEntity
  8
Frei
  6
CONTINUOUS
 62
           3
100
AcDbLine
 10
-14412.473108500941
 20
-3353.484663193754
 30
0.0
 11
-14413.131568351428
 21
-3354.019855332424
 31
0.0
  0
LINE
  5
185
100
AcDbEntity
  8
Frei
  6
CONTINUOUS
 62
           3
100
AcDbLine
 10
-14430.377888338329
 20
-3351.635647516516
 30
0.0
 11
-14412.473108500941
 21
-3353.484663193754
 31
0.0
  0
LINE
  5
186
100
AcDbEntity
  8
Frei
  6
CONTINUOUS
 62
           3
100
AcDbLine
 10
-14429.842696199657
 20
-3352.294107367003
 30
0.0
 11
-14430.377888338329
 21
-3351.635647516516
 31
0.0
  0
LINE
  5
187
100
AcDbEntity
  8
Frei
  6
CONTINUOUS
 62
           3
100
AcDbLine
 10
-14429.842696199657
 20
-3352.294107367003
 30
0.0
 11
-14413.131568351428
 21
-3354.019855332424
 31
0.0
  0
LINE
  5
188
100
AcDbEntity
  8
Frei
  6
CONTINUOUS
 62
           3
100
AcDbLine
 10
-14430.295709863785
 20
-3350.839879523743
 30
0.0
 11
-14429.637250013298
 21
-3350.304687385071
 31
0.0
  0
LINE
  5
189
100
AcDbEntity
  8
Frei
  6
CONTINUOUS
 62
           3
100
AcDbLine
 10
-14412.390930026397
 20
-3352.68889520098
 30
0.0
 11
-14430.295709863785
 21
-3350.839879523743
 31
0.0
  0
LINE
  5
18A
100
AcDbEntity
  8
Frei
  6
CONTINUOUS
 62
           3
100
AcDbLine
 10
-14412.926122165069
 20
-3352.030435350493
 30
0.0
 11
-14412.390930026397
 21
-3352.68889520098
 31
0.0
  0
LINE
  5
18B
100
AcDbEntity
  8
Frei
  6
CONTINUOUS
 62
           3
100
AcDbLine
 10
-14412.267662314582
 20
-3351.495243211822
 30
0.0
 11
-14412.926122165069
 21
-3352.030435350493
 31
0.0
  0
LINE
  5
18C
100
AcDbEntity
  8
Frei
  6
CONTINUOUS
 62
           3
100
AcDbLine
 10
-14430.17244215197
 20
-3349.646227534584
 30
0.0
 11
-14412.267662314582
 21
-3351.495243211822
 31
0.0
  0
LINE
  5
18D
100
AcDbEntity
  8
Frei
  6
CONTINUOUS
 62
           3
100
AcDbLine
 10
-14429.637250013298
 20
-3350.304687385071
 30
0.0
 11
-14430.17244215197
 21
-3349.646227534584
 31
0.0
  0
LINE
  5
18E
100
AcDbEntity
  8
Frei
  6
CONTINUOUS
 62
           3
100
AcDbLine
 10
-14430.090263677426
 20
-3348.850459541811
 30
0.0
 11
-14429.431803826938
 21
-3348.315267403139
 31
0.0
  0
LINE
  5
18F
100
AcDbEntity
  8
Frei
  6
CONTINUOUS
 62
           3
100
AcDbLine
 10
-14424.029575987495
 20
-3349.47634305757
 30
0.0
 11
-14430.090263677426
 21
-3348.850459541811
 31
0.0
  0
LINE
  5
190
100
AcDbEntity
  8
Frei
  6
CONTINUOUS
 62
           3
100
AcDbLine
 10
-14412.720675978708
 20
-3350.041015368561
 30
0.0
 11
-14412.185483840038
 21
-3350.699475219049
 31
0.0
  0
LINE
  5
191
100
AcDbEntity
  8
Frei
  6
CONTINUOUS
 62
           3
100
AcDbLine
 10
-14412.062216128223
 20
-3349.505823229889
 30
0.0
 11
-14412.720675978708
 21
-3350.041015368561
 31
0.0
  0
LINE
  5
192
100
AcDbEntity
  8
Frei
  6
CONTINUOUS
 62
           3
100
AcDbLine
 10
-14418.122903818152
 20
-3348.87993971413
 30
0.0
 11
-14412.062216128223
 21
-3349.505823229889
 31
0.0
  0
LINE
  5
193
100
AcDbEntity
  8
Frei
  6
CONTINUOUS
 62
           3
100
AcDbLine
 10
-14429.431803826938
 20
-3348.315267403139
 30
0.0
 11
-14429.966995965609
 21
-3347.656807552652
 31
0.0
  0
LINE
  5
194
100
AcDbEntity
  8
Frei
  6
CONTINUOUS
 62
           3
100
AcDbLine
 10
-14429.884817491065
 20
-3346.861039559879
 30
0.0
 11
-14429.226357640578
 21
-3346.325847421207
 31
0.0
  0
LINE
  5
195
100
AcDbEntity
  8
Frei
  6
CONTINUOUS
 62
           3
100
AcDbLine
 10
-14424.566398409519
 20
-3347.410269449842
 30
0.0
 11
-14429.884817491065
 21
-3346.861039559879
 31
0.0
  0
LINE
  5
196
100
AcDbEntity
  8
Frei
  6
CONTINUOUS
 62
           3
100
AcDbLine
 10
-14412.515229792349
 20
-3348.051595386629
 30
0.0
 11
-14411.980037653679
 21
-3348.710055237117
 31
0.0
  0
LINE
  5
197
100
AcDbEntity
  8
Frei
  6
CONTINUOUS
 62
           3
100
AcDbLine
 10
-14417.833648873897
 20
-3347.502365496665
 30
0.0
 11
-14412.515229792349
 21
-3348.051595386629
 31
0.0
  0
LINE
  5
198
100
AcDbEntity
  8
Frei
  6
CONTINUOUS
 62
           3
100
AcDbLine
 10
-14423.371116137008
 20
-3348.941150918898
 30
0.0
 11
-14429.431803826938
 21
-3348.315267403139
 31
0.0
  0
LINE
  5
199
100
AcDbEntity
  8
Frei
  6
CONTINUOUS
 62
           3
100
AcDbLine
 10
-14412.926122165069
 20
-3352.030435350493
 30
0.0
 11
-14429.637250013298
 21
-3350.304687385071
 31
0.0
  0
LINE
  5
19A
100
AcDbEntity
  8
Frei
  6
CONTINUOUS
 62
           3
100
AcDbLine
 10
-14423.371116137008
 20
-3348.941150918898
 30
0.0
 11
-14423.906308275678
 21
-3348.282691068411
 31
0.0
  0
LINE
  5
19B
100
AcDbEntity
  8
Frei
  6
CONTINUOUS
 62
           3
100
AcDbLine
 10
-14429.966995965609
 20
-3347.656807552652
 30
0.0
 11
-14423.906308275678
 21
-3348.282691068411
 31
0.0
  0
LINE
  5
19C
100
AcDbEntity
  8
Frei
  6
CONTINUOUS
 62
           3
100
AcDbLine
 10
-14424.029575987495
 20
-3349.47634305757
 30
0.0
 11
-14423.371116137008
 21
-3348.941150918898
 31
0.0
  0
LINE
  5
19D
100
AcDbEntity
  8
Frei
  6
CONTINUOUS
 62
           3
100
AcDbLine
 10
-14423.90793855903
 20
-3346.87507731117
 30
0.0
 11
-14424.566398409519
 21
-3347.410269449842
 31
0.0
  0
LINE
  5
19E
100
AcDbEntity
  8
Frei
  6
CONTINUOUS
 62
           3
100
AcDbLine
 10
-14429.226357640578
 20
-3346.325847421207
 30
0.0
 11
-14423.90793855903
 21
-3346.87507731117
 31
0.0
  0
LINE
  5
19F
100
AcDbEntity
  8
Frei
  6
CONTINUOUS
 62
           3
100
AcDbLine
 10
-14417.298456735223
 20
-3348.160825347154
 30
0.0
 11
-14417.833648873897
 21
-3347.502365496665
 31
0.0
  0
LINE
  5
1A0
100
AcDbEntity
  8
Frei
  6
CONTINUOUS
 62
           3
100
AcDbLine
 10
-14411.980037653679
 20
-3348.710055237117
 30
0.0
 11
-14417.298456735223
 21
-3348.160825347154
 31
0.0
  0
LINE
  5
1A1
100
AcDbEntity
  8
Frei
  6
CONTINUOUS
 62
           3
100
AcDbLine
 10
-14418.781363668639
 20
-3349.415131852801
 30
0.0
 11
-14418.122903818152
 21
-3348.87993971413
 31
0.0
  0
LINE
  5
1A2
100
AcDbEntity
  8
Frei
  6
CONTINUOUS
 62
           3
100
AcDbLine
 10
-14412.720675978708
 20
-3350.041015368561
 30
0.0
 11
-14418.781363668639
 21
-3349.415131852801
 31
0.0
  0
LINE
  5
1A3
100
AcDbEntity
  8
Frei
  6
CONTINUOUS
 62
           3
100
AcDbLine
 10
-14418.246171529967
 20
-3350.073591703289
 30
0.0
 11
-14418.781363668639
 21
-3349.415131852801
 31
0.0
  0
LINE
  5
1A4
100
AcDbEntity
  8
Frei
  6
CONTINUOUS
 62
           3
100
AcDbLine
 10
-14412.185483840038
 20
-3350.699475219049
 30
0.0
 11
-14418.246171529967
 21
-3350.073591703289
 31
0.0
  0
LINE
  5
1A5
100
AcDbEntity
  8
Frei
  6
CONTINUOUS
 62
           3
100
AcDbLine
 10
-14429.966995965609
 20
-3347.656807552652
 30
0.0
 11
-14430.090263677426
 21
-3348.850459541811
 31
0.0
  0
LINE
  5
1A6
100
AcDbEntity
  8
Frei
  6
CONTINUOUS
 62
           3
100
AcDbLine
 10
-14430.295709863785
 20
-3350.839879523743
 30
0.0
 11
-14430.17244215197
 21
-3349.646227534584
 31
0.0
  0
LINE
  5
1A7
100
AcDbEntity
  8
Frei
  6
CONTINUOUS
 62
           3
100
AcDbLine
 10
-14430.501156050146
 20
-3352.829299505675
 30
0.0
 11
-14430.377888338329
 21
-3351.635647516516
 31
0.0
  0
LINE
  5
1A8
100
AcDbEntity
  8
Frei
  6
CONTINUOUS
 62
           3
100
AcDbLine
 10
-14430.706602236505
 20
-3354.818719487607
 30
0.0
 11
-14430.583334524688
 21
-3353.625067498448
 31
0.0
  0
LINE
  5
1A9
100
AcDbEntity
  8
Frei
  6
CONTINUOUS
 62
           3
100
AcDbLine
 10
-14429.823183635159
 20
-3346.264213565299
 30
0.0
 11
-14429.884817491065
 21
-3346.861039559879
 31
0.0
  0
LINE
  5
1AA
100
AcDbEntity
  8
Frei
  6
CONTINUOUS
 62
           3
100
AcDbLine
 10
-14411.980037653679
 20
-3348.710055237117
 30
0.0
 11
-14411.91840379777
 21
-3348.113229242536
 31
0.0
  0
LINE
  5
1AB
100
AcDbEntity
  8
Frei
  6
CONTINUOUS
 62
           3
100
AcDbLine
 10
-14412.185483840038
 20
-3350.699475219049
 30
0.0
 11
-14412.062216128223
 21
-3349.505823229889
 31
0.0
  0
LINE
  5
1AC
100
AcDbEntity
  8
Frei
  6
CONTINUOUS
 62
           3
100
AcDbLine
 10
-14412.390930026397
 20
-3352.68889520098
 30
0.0
 11
-14412.267662314582
 21
-3351.495243211822
 31
0.0
  0
LINE
  5
1AD
100
AcDbEntity
  8
Frei
  6
CONTINUOUS
 62
           3
100
AcDbLine
 10
-14412.596376212758
 20
-3354.678315182912
 30
0.0
 11
-14412.473108500941
 21
-3353.484663193754
 31
0.0
  0
LINE
  5
1AE
100
AcDbEntity
  8
Frei
  6
CONTINUOUS
 62
           3
100
AcDbLine
 10
-14412.801822399117
 20
-3356.667735164844
 30
0.0
 11
-14412.678554687302
 21
-3355.474083175685
 31
0.0
  0
LINE
  5
1AF
100
AcDbEntity
  8
Frei
  6
CONTINUOUS
 62
           3
100
AcDbLine
 10
-14411.158252908239
 20
-3340.752375309388
 30
0.0
 11
-14411.034985196424
 21
-3339.55872332023
 31
0.0
  0
LINE
  5
1B0
100
AcDbEntity
  8
Frei
  6
CONTINUOUS
 62
           3
100
AcDbLine
 10
-14411.3636990946
 20
-3342.74179529132
 30
0.0
 11
-14411.240431382783
 21
-3341.548143302161
 31
0.0
  0
LINE
  5
1B1
100
AcDbEntity
  8
Frei
  6
CONTINUOUS
 62
           3
100
AcDbLine
 10
-14411.569145280959
 20
-3344.731215273253
 30
0.0
 11
-14411.445877569144
 21
-3343.537563284093
 31
0.0
  0
LINE
  5
1B2
100
AcDbEntity
  8
Frei
  6
CONTINUOUS
 62
           3
100
AcDbLine
 10
-14411.774591467318
 20
-3346.720635255184
 30
0.0
 11
-14411.651323755503
 21
-3345.526983266025
 31
0.0
  0
LINE
  5
1B3
100
AcDbEntity
  8
Frei
  6
CONTINUOUS
 62
           3
100
AcDbLine
 10
-14411.91840379777
 20
-3348.113229242536
 30
0.0
 11
-14411.856769941862
 21
-3347.516403247957
 31
0.0
  0
LINE
  5
1B4
100
AcDbEntity
  8
Frei
  6
CONTINUOUS
 62
           3
100
AcDbLine
 10
-14429.76154977925
 20
-3345.66738757072
 30
0.0
 11
-14429.823183635159
 21
-3346.264213565299
 31
0.0
  0
LINE
  5
1B5
100
AcDbEntity
  8
Frei
  6
CONTINUOUS
 62
           3
100
AcDbLine
 10
-14429.063032745627
 20
-3338.903359632151
 30
0.0
 11
-14428.939765033812
 21
-3337.709707642992
 31
0.0
  0
LINE
  5
1B6
100
AcDbEntity
  8
Frei
  6
CONTINUOUS
 62
           3
100
AcDbLine
 10
-14429.268478931986
 20
-3340.892779614083
 30
0.0
 11
-14429.145211220171
 21
-3339.699127624924
 31
0.0
  0
LINE
  5
1B7
100
AcDbEntity
  8
Frei
  6
CONTINUOUS
 62
           3
100
AcDbLine
 10
-14429.473925118347
 20
-3342.882199596015
 30
0.0
 11
-14429.35065740653
 21
-3341.688547606856
 31
0.0
  0
LINE
  5
1B8
100
AcDbEntity
  8
Frei
  6
CONTINUOUS
 62
           3
100
AcDbLine
 10
-14429.556103592891
 20
-3343.677967588788
 30
0.0
 11
-14429.679371304706
 21
-3344.871619577947
 31
0.0
  0
LINE
  5
1B9
100
AcDbEntity
  8
Frei
  6
CONTINUOUS
 62
           3
100
AcDbLine
 10
-14417.712011445432
 20
-3344.901099750266
 30
0.0
 11
-14411.651323755503
 21
-3345.526983266025
 31
0.0
  0
LINE
  5
1BA
100
AcDbEntity
  8
Frei
  6
CONTINUOUS
 62
           3
100
AcDbLine
 10
-14418.370471295921
 20
-3345.436291888937
 30
0.0
 11
-14417.712011445432
 21
-3344.901099750266
 31
0.0
  0
LINE
  5
1BB
100
AcDbEntity
  8
Frei
  6
CONTINUOUS
 62
           3
100
AcDbLine
 10
-14418.370471295921
 20
-3345.436291888937
 30
0.0
 11
-14412.309783605988
 21
-3346.062175404697
 31
0.0
  0
LINE
  5
1BC
100
AcDbEntity
  8
Frei
  6
CONTINUOUS
 62
           3
100
AcDbLine
 10
-14417.835279157249
 20
-3346.094751739425
 30
0.0
 11
-14418.370471295921
 21
-3345.436291888937
 31
0.0
  0
LINE
  5
1BD
100
AcDbEntity
  8
Frei
  6
CONTINUOUS
 62
           3
100
AcDbLine
 10
-14417.175189023408
 20
-3346.967173357994
 30
0.0
 11
-14411.856769941862
 21
-3347.516403247957
 31
0.0
  0
LINE
  5
1BE
100
AcDbEntity
  8
Frei
  6
CONTINUOUS
 62
           3
100
AcDbLine
 10
-14417.833648873897
 20
-3347.502365496665
 30
0.0
 11
-14417.175189023408
 21
-3346.967173357994
 31
0.0
  0
LINE
  5
1BF
100
AcDbEntity
  8
Frei
  6
CONTINUOUS
 62
           3
100
AcDbLine
 10
-14424.443130697702
 20
-3346.216617460683
 30
0.0
 11
-14423.90793855903
 21
-3346.87507731117
 31
0.0
  0
LINE
  5
1C0
100
AcDbEntity
  8
Frei
  6
CONTINUOUS
 62
           3
100
AcDbLine
 10
-14422.960223764288
 20
-3344.962310955034
 30
0.0
 11
-14423.495415902958
 21
-3344.303851104547
 31
0.0
  0
LINE
  5
1C1
100
AcDbEntity
  8
Frei
  6
CONTINUOUS
 62
           3
100
AcDbLine
 10
-14423.618683614775
 20
-3345.497503093706
 30
0.0
 11
-14429.679371304706
 21
-3344.871619577947
 31
0.0
  0
LINE
  5
1C2
100
AcDbEntity
  8
Frei
  6
CONTINUOUS
 62
           3
100
AcDbLine
 10
-14423.618683614775
 20
-3345.497503093706
 30
0.0
 11
-14422.960223764288
 21
-3344.962310955034
 31
0.0
  0
LINE
  5
1C3
100
AcDbEntity
  8
Frei
  6
CONTINUOUS
 62
           3
100
AcDbLine
 10
-14428.815465267859
 20
-3342.347007457343
 30
0.0
 11
-14412.104337419629
 21
-3344.072755422765
 31
0.0
  0
LINE
  5
1C4
100
AcDbEntity
  8
Frei
  6
CONTINUOUS
 62
           3
100
AcDbLine
 10
-14429.020911454218
 20
-3344.336427439275
 30
0.0
 11
-14422.960223764288
 21
-3344.962310955034
 31
0.0
  0
LINE
  5
1C5
100
AcDbEntity
  8
Frei
  6
CONTINUOUS
 62
           3
100
AcDbLine
 10
-14411.856769941862
 20
-3347.516403247957
 30
0.0
 11
-14412.515229792349
 21
-3348.051595386629
 31
0.0
  0
LINE
  5
1C6
100
AcDbEntity
  8
Frei
  6
CONTINUOUS
 62
           3
100
AcDbLine
 10
-14429.76154977925
 20
-3345.66738757072
 30
0.0
 11
-14424.443130697702
 21
-3346.216617460683
 31
0.0
  0
LINE
  5
1C7
100
AcDbEntity
  8
Frei
  6
CONTINUOUS
 62
           3
100
AcDbLine
 10
-14429.226357640578
 20
-3346.325847421207
 30
0.0
 11
-14429.76154977925
 21
-3345.66738757072
 31
0.0
  0
LINE
  5
1C8
100
AcDbEntity
  8
Frei
  6
CONTINUOUS
 62
           3
100
AcDbLine
 10
-14429.679371304706
 20
-3344.871619577947
 30
0.0
 11
-14429.020911454218
 21
-3344.336427439275
 31
0.0
  0
LINE
  5
1C9
100
AcDbEntity
  8
Frei
  6
CONTINUOUS
 62
           3
100
AcDbLine
 10
-14411.774591467318
 20
-3346.720635255184
 30
0.0
 11
-14417.835279157249
 21
-3346.094751739425
 31
0.0
  0
LINE
  5
1CA
100
AcDbEntity
  8
Frei
  6
CONTINUOUS
 62
           3
100
AcDbLine
 10
-14412.309783605988
 20
-3346.062175404697
 30
0.0
 11
-14411.774591467318
 21
-3346.720635255184
 31
0.0
  0
LINE
  5
1CB
100
AcDbEntity
  8
Frei
  6
CONTINUOUS
 62
           3
100
AcDbLine
 10
-14411.651323755503
 20
-3345.526983266025
 30
0.0
 11
-14412.309783605988
 21
-3346.062175404697
 31
0.0
  0
LINE
  5
1CC
100
AcDbEntity
  8
Frei
  6
CONTINUOUS
 62
           3
100
AcDbLine
 10
-14429.556103592891
 20
-3343.677967588788
 30
0.0
 11
-14423.495415902958
 21
-3344.303851104547
 31
0.0
  0
LINE
  5
1CD
100
AcDbEntity
  8
Frei
  6
CONTINUOUS
 62
           3
100
AcDbLine
 10
-14429.020911454218
 20
-3344.336427439275
 30
0.0
 11
-14429.556103592891
 21
-3343.677967588788
 31
0.0
  0
LINE
  5
1CE
100
AcDbEntity
  8
Frei
  6
CONTINUOUS
 62
           3
100
AcDbLine
 10
-14429.473925118347
 20
-3342.882199596015
 30
0.0
 11
-14428.815465267859
 21
-3342.347007457343
 31
0.0
  0
LINE
  5
1CF
100
AcDbEntity
  8
Frei
  6
CONTINUOUS
 62
           3
100
AcDbLine
 10
-14411.569145280959
 20
-3344.731215273253
 30
0.0
 11
-14429.473925118347
 21
-3342.882199596015
 31
0.0
  0
LINE
  5
1D0
100
AcDbEntity
  8
Frei
  6
CONTINUOUS
 62
           3
100
AcDbLine
 10
-14412.104337419629
 20
-3344.072755422765
 30
0.0
 11
-14411.569145280959
 21
-3344.731215273253
 31
0.0
  0
LINE
  5
1D1
100
AcDbEntity
  8
Frei
  6
CONTINUOUS
 62
           3
100
AcDbLine
 10
-14411.445877569144
 20
-3343.537563284093
 30
0.0
 11
-14412.104337419629
 21
-3344.072755422765
 31
0.0
  0
LINE
  5
1D2
100
AcDbEntity
  8
Frei
  6
CONTINUOUS
 62
           3
100
AcDbLine
 10
-14429.35065740653
 20
-3341.688547606856
 30
0.0
 11
-14411.445877569144
 21
-3343.537563284093
 31
0.0
  0
LINE
  5
1D3
100
AcDbEntity
  8
Frei
  6
CONTINUOUS
 62
           3
100
AcDbLine
 10
-14428.815465267859
 20
-3342.347007457343
 30
0.0
 11
-14429.35065740653
 21
-3341.688547606856
 31
0.0
  0
LINE
  5
1D4
100
AcDbEntity
  8
Frei
  6
CONTINUOUS
 62
           3
100
AcDbLine
 10
-14411.89889123327
 20
-3342.083335440833
 30
0.0
 11
-14428.6100190815
 21
-3340.357587475411
 31
0.0
  0
LINE
  5
1D5
100
AcDbEntity
  8
Frei
  6
CONTINUOUS
 62
           3
100
AcDbLine
 10
-14429.268478931986
 20
-3340.892779614083
 30
0.0
 11
-14428.6100190815
 21
-3340.357587475411
 31
0.0
  0
LINE
  5
1D6
100
AcDbEntity
  8
Frei
  6
CONTINUOUS
 62
           3
100
AcDbLine
 10
-14411.3636990946
 20
-3342.74179529132
 30
0.0
 11
-14429.268478931986
 21
-3340.892779614083
 31
0.0
  0
LINE
  5
1D7
100
AcDbEntity
  8
Frei
  6
CONTINUOUS
 62
           3
100
AcDbLine
 10
-14411.89889123327
 20
-3342.083335440833
 30
0.0
 11
-14411.3636990946
 21
-3342.74179529132
 31
0.0
  0
LINE
  5
1D8
100
AcDbEntity
  8
Frei
  6
CONTINUOUS
 62
           3
100
AcDbLine
 10
-14411.240431382783
 20
-3341.548143302161
 30
0.0
 11
-14411.89889123327
 21
-3342.083335440833
 31
0.0
  0
LINE
  5
1D9
100
AcDbEntity
  8
Frei
  6
CONTINUOUS
 62
           3
100
AcDbLine
 10
-14429.145211220171
 20
-3339.699127624924
 30
0.0
 11
-14411.240431382783
 21
-3341.548143302161
 31
0.0
  0
LINE
  5
1DA
100
AcDbEntity
  8
Frei
  6
CONTINUOUS
 62
           3
100
AcDbLine
 10
-14428.6100190815
 20
-3340.357587475411
 30
0.0
 11
-14429.145211220171
 21
-3339.699127624924
 31
0.0
  0
LINE
  5
1DB
100
AcDbEntity
  8
Frei
  6
CONTINUOUS
 62
           3
100
AcDbLine
 10
-14428.404572895139
 20
-3338.368167493479
 30
0.0
 11
-14411.693445046909
 21
-3340.093915458901
 31
0.0
  0
LINE
  5
1DC
100
AcDbEntity
  8
Frei
  6
CONTINUOUS
 62
           3
100
AcDbLine
 10
-14428.404572895139
 20
-3338.368167493479
 30
0.0
 11
-14429.063032745627
 21
-3338.903359632151
 31
0.0
  0
LINE
  5
1DD
100
AcDbEntity
  8
Frei
  6
CONTINUOUS
 62
           3
100
AcDbLine
 10
-14428.939765033812
 20
-3337.709707642992
 30
0.0
 11
-14428.404572895139
 21
-3338.368167493479
 31
0.0
  0
LINE
  5
1DE
100
AcDbEntity
  8
Frei
  6
CONTINUOUS
 62
           3
100
AcDbLine
 10
-14411.034985196424
 20
-3339.55872332023
 30
0.0
 11
-14428.939765033812
 21
-3337.709707642992
 31
0.0
  0
LINE
  5
1DF
100
AcDbEntity
  8
Frei
  6
CONTINUOUS
 62
           3
100
AcDbLine
 10
-14411.693445046909
 20
-3340.093915458901
 30
0.0
 11
-14411.034985196424
 21
-3339.55872332023
 31
0.0
  0
LINE
  5
1E0
100
AcDbEntity
  8
Frei
  6
CONTINUOUS
 62
           3
100
AcDbLine
 10
-14411.158252908239
 20
-3340.752375309388
 30
0.0
 11
-14411.693445046909
 21
-3340.093915458901
 31
0.0
  0
LINE
  5
1E1
100
AcDbEntity
  8
Frei
  6
CONTINUOUS
 62
           3
100
AcDbLine
 10
-14429.063032745627
 20
-3338.903359632151
 30
0.0
 11
-14411.158252908239
 21
-3340.752375309388
 31
0.0
  0
LINE
  5
1E2
100
AcDbEntity
  8
Frei
  6
CONTINUOUS
 62
           3
100
AcDbLine
 10
-14239.07342447112
 20
-3358.523470429504
 30
0.0
 11
-14221.168644633733
 21
-3360.372486106741
 31
0.0
  0
LINE
  5
1E3
100
AcDbEntity
  8
Frei
  6
CONTINUOUS
 62
           3
100
AcDbLine
 10
-14238.414964620635
 20
-3357.988278290831
 30
0.0
 11
-14239.07342447112
 21
-3358.523470429504
 31
0.0
  0
LINE
  5
1E4
100
AcDbEntity
  8
Frei
  6
CONTINUOUS
 62
           3
100
AcDbLine
 10
-14238.950156759305
 20
-3357.329818440344
 30
0.0
 11
-14238.414964620635
 21
-3357.988278290831
 31
0.0
  0
LINE
  5
1E5
100
AcDbEntity
  8
Frei
  6
CONTINUOUS
 62
           3
100
AcDbLine
 10
-14221.045376921917
 20
-3359.178834117582
 30
0.0
 11
-14238.950156759305
 21
-3357.329818440344
 31
0.0
  0
LINE
  5
1E6
100
AcDbEntity
  8
Frei
  6
CONTINUOUS
 62
           3
100
AcDbLine
 10
-14221.703836772405
 20
-3359.714026256253
 30
0.0
 11
-14221.045376921917
 21
-3359.178834117582
 31
0.0
  0
LINE
  5
1E7
100
AcDbEntity
  8
Frei
  6
CONTINUOUS
 62
           3
100
AcDbLine
 10
-14221.168644633733
 20
-3360.372486106741
 30
0.0
 11
-14221.703836772405
 21
-3359.714026256253
 31
0.0
  0
LINE
  5
1E8
100
AcDbEntity
  8
Frei
  6
CONTINUOUS
 62
           3
100
AcDbLine
 10
-14238.414964620635
 20
-3357.988278290831
 30
0.0
 11
-14221.703836772405
 21
-3359.714026256253
 31
0.0
  0
LINE
  5
1E9
100
AcDbEntity
  8
Frei
  6
CONTINUOUS
 62
           3
100
AcDbLine
 10
-14221.250823108277
 20
-3361.168254099513
 30
0.0
 11
-14221.909282958764
 21
-3361.703446238185
 31
0.0
  0
LINE
  5
1EA
100
AcDbEntity
  8
Frei
  6
CONTINUOUS
 62
           3
100
AcDbLine
 10
-14239.155602945664
 20
-3359.319238422276
 30
0.0
 11
-14221.250823108277
 21
-3361.168254099513
 31
0.0
  0
LINE
  5
1EB
100
AcDbEntity
  8
Frei
  6
CONTINUOUS
 62
           3
100
AcDbLine
 10
-14238.620410806994
 20
-3359.977698272763
 30
0.0
 11
-14239.155602945664
 21
-3359.319238422276
 31
0.0
  0
LINE
  5
1EC
100
AcDbEntity
  8
Frei
  6
CONTINUOUS
 62
           3
100
AcDbLine
 10
-14239.278870657481
 20
-3360.512890411435
 30
0.0
 11
-14238.620410806994
 21
-3359.977698272763
 31
0.0
  0
LINE
  5
1ED
100
AcDbEntity
  8
Frei
  6
CONTINUOUS
 62
           3
100
AcDbLine
 10
-14221.374090820093
 20
-3362.361906088673
 30
0.0
 11
-14239.278870657481
 21
-3360.512890411435
 31
0.0
  0
LINE
  5
1EE
100
AcDbEntity
  8
Frei
  6
CONTINUOUS
 62
           3
100
AcDbLine
 10
-14221.909282958764
 20
-3361.703446238185
 30
0.0
 11
-14221.374090820093
 21
-3362.361906088673
 31
0.0
  0
LINE
  5
1EF
100
AcDbEntity
  8
Frei
  6
CONTINUOUS
 62
           3
100
AcDbLine
 10
-14221.909282958764
 20
-3361.703446238185
 30
0.0
 11
-14238.620410806994
 21
-3359.977698272763
 31
0.0
  0
LINE
  5
1F0
100
AcDbEntity
  8
Frei
  6
CONTINUOUS
 62
           3
100
AcDbLine
 10
-14221.456269294637
 20
-3363.157674081445
 30
0.0
 11
-14222.114729145125
 21
-3363.692866220117
 31
0.0
  0
LINE
  5
1F1
100
AcDbEntity
  8
Frei
  6
CONTINUOUS
 62
           3
100
AcDbLine
 10
-14239.361049132025
 20
-3361.308658404208
 30
0.0
 11
-14221.456269294637
 21
-3363.157674081445
 31
0.0
  0
LINE
  5
1F2
100
AcDbEntity
  8
Frei
  6
CONTINUOUS
 62
           3
100
AcDbLine
 10
-14238.825856993355
 20
-3361.967118254695
 30
0.0
 11
-14239.361049132025
 21
-3361.308658404208
 31
0.0
  0
LINE
  5
1F3
100
AcDbEntity
  8
Frei
  6
CONTINUOUS
 62
           3
100
AcDbLine
 10
-14239.48431684384
 20
-3362.502310393367
 30
0.0
 11
-14238.825856993355
 21
-3361.967118254695
 31
0.0
  0
LINE
  5
1F4
100
AcDbEntity
  8
Frei
  6
CONTINUOUS
 62
           3
100
AcDbLine
 10
-14221.579537006453
 20
-3364.351326070605
 30
0.0
 11
-14239.48431684384
 21
-3362.502310393367
 31
0.0
  0
LINE
  5
1F5
100
AcDbEntity
  8
Frei
  6
CONTINUOUS
 62
           3
100
AcDbLine
 10
-14222.114729145125
 20
-3363.692866220117
 30
0.0
 11
-14221.579537006453
 21
-3364.351326070605
 31
0.0
  0
LINE
  5
1F6
100
AcDbEntity
  8
Frei
  6
CONTINUOUS
 62
           3
100
AcDbLine
 10
-14221.661715480997
 20
-3365.147094063378
 30
0.0
 11
-14222.320175331484
 21
-3365.682286202049
 31
0.0
  0
LINE
  5
1F7
100
AcDbEntity
  8
Frei
  6
CONTINUOUS
 62
           3
100
AcDbLine
 10
-14227.722403170928
 20
-3364.521210547618
 30
0.0
 11
-14221.661715480997
 21
-3365.147094063378
 31
0.0
  0
LINE
  5
1F8
100
AcDbEntity
  8
Frei
  6
CONTINUOUS
 62
           3
100
AcDbLine
 10
-14239.031303179714
 20
-3363.956538236627
 30
0.0
 11
-14239.566495318384
 21
-3363.29807838614
 31
0.0
  0
LINE
  5
1F9
100
AcDbEntity
  8
Frei
  6
CONTINUOUS
 62
           3
100
AcDbLine
 10
-14239.689763030201
 20
-3364.491730375299
 30
0.0
 11
-14239.031303179714
 21
-3363.956538236627
 31
0.0
  0
LINE
  5
1FA
100
AcDbEntity
  8
Frei
  6
CONTINUOUS
 62
           3
100
AcDbLine
 10
-14233.62907534027
 20
-3365.117613891059
 30
0.0
 11
-14239.689763030201
 21
-3364.491730375299
 31
0.0
  0
LINE
  5
1FB
100
AcDbEntity
  8
Frei
  6
CONTINUOUS
 62
           3
100
AcDbLine
 10
-14222.320175331484
 20
-3365.682286202049
 30
0.0
 11
-14221.784983192812
 21
-3366.340746052537
 31
0.0
  0
LINE
  5
1FC
100
AcDbEntity
  8
Frei
  6
CONTINUOUS
 62
           3
100
AcDbLine
 10
-14221.867161667356
 20
-3367.13651404531
 30
0.0
 11
-14222.525621517843
 21
-3367.671706183981
 31
0.0
  0
LINE
  5
1FD
100
AcDbEntity
  8
Frei
  6
CONTINUOUS
 62
           3
100
AcDbLine
 10
-14227.185580748905
 20
-3366.587284155346
 30
0.0
 11
-14221.867161667356
 21
-3367.13651404531
 31
0.0
  0
LINE
  5
1FE
100
AcDbEntity
  8
Frei
  6
CONTINUOUS
 62
           3
100
AcDbLine
 10
-14239.236749366073
 20
-3365.945958218559
 30
0.0
 11
-14239.771941504745
 21
-3365.287498368072
 31
0.0
  0
LINE
  5
1FF
100
AcDbEntity
  8
Frei
  6
CONTINUOUS
 62
           3
100
AcDbLine
 10
-14228.380863021413
 20
-3365.056402686289
 30
0.0
 11
-14222.320175331484
 21
-3365.682286202049
 31
0.0
  0
LINE
  5
200
100
AcDbEntity
  8
Frei
  6
CONTINUOUS
 62
           3
100
AcDbLine
 10
-14238.825856993355
 20
-3361.967118254695
 30
0.0
 11
-14222.114729145125
 21
-3363.692866220117
 31
0.0
  0
LINE
  5
201
100
AcDbEntity
  8
Frei
  6
CONTINUOUS
 62
           3
100
AcDbLine
 10
-14228.380863021413
 20
-3365.056402686289
 30
0.0
 11
-14227.845670882743
 21
-3365.714862536777
 31
0.0
  0
LINE
  5
202
100
AcDbEntity
  8
Frei
  6
CONTINUOUS
 62
           3
100
AcDbLine
 10
-14221.784983192812
 20
-3366.340746052537
 30
0.0
 11
-14227.845670882743
 21
-3365.714862536777
 31
0.0
  0
LINE
  5
203
100
AcDbEntity
  8
Frei
  6
CONTINUOUS
 62
           3
100
AcDbLine
 10
-14227.722403170928
 20
-3364.521210547618
 30
0.0
 11
-14228.380863021413
 21
-3365.056402686289
 31
0.0
  0
LINE
  5
204
100
AcDbEntity
  8
Frei
  6
CONTINUOUS
 62
           3
100
AcDbLine
 10
-14227.844040599392
 20
-3367.122476294017
 30
0.0
 11
-14227.185580748905
 21
-3366.587284155346
 31
0.0
  0
LINE
  5
205
100
AcDbEntity
  8
Frei
  6
CONTINUOUS
 62
           3
100
AcDbLine
 10
-14234.453522423199
 20
-3365.836728258035
 30
0.0
 11
-14233.918330284527
 21
-3366.495188108522
 31
0.0
  0
LINE
  5
206
100
AcDbEntity
  8
Frei
  6
CONTINUOUS
 62
           3
100
AcDbLine
 10
-14239.771941504745
 20
-3365.287498368072
 30
0.0
 11
-14234.453522423199
 21
-3365.836728258035
 31
0.0
  0
LINE
  5
207
100
AcDbEntity
  8
Frei
  6
CONTINUOUS
 62
           3
100
AcDbLine
 10
-14232.970615489783
 20
-3364.582421752386
 30
0.0
 11
-14233.62907534027
 21
-3365.117613891059
 31
0.0
  0
LINE
  5
208
100
AcDbEntity
  8
Frei
  6
CONTINUOUS
 62
           3
100
AcDbLine
 10
-14239.031303179714
 20
-3363.956538236627
 30
0.0
 11
-14232.970615489783
 21
-3364.582421752386
 31
0.0
  0
LINE
  5
209
100
AcDbEntity
  8
Frei
  6
CONTINUOUS
 62
           3
100
AcDbLine
 10
-14233.505807628455
 20
-3363.9239619019
 30
0.0
 11
-14232.970615489783
 21
-3364.582421752386
 31
0.0
  0
LINE
  5
20A
100
AcDbEntity
  8
Frei
  6
CONTINUOUS
 62
           3
100
AcDbLine
 10
-14239.566495318384
 20
-3363.29807838614
 30
0.0
 11
-14233.505807628455
 21
-3363.9239619019
 31
0.0
  0
LINE
  5
20B
100
AcDbEntity
  8
Frei
  6
CONTINUOUS
 62
           3
100
AcDbLine
 10
-14221.784983192812
 20
-3366.340746052537
 30
0.0
 11
-14221.661715480997
 21
-3365.147094063378
 31
0.0
  0
LINE
  5
20C
100
AcDbEntity
  8
Frei
  6
CONTINUOUS
 62
           3
100
AcDbLine
 10
-14221.456269294637
 20
-3363.157674081445
 30
0.0
 11
-14221.579537006453
 21
-3364.351326070605
 31
0.0
  0
LINE
  5
20D
100
AcDbEntity
  8
Frei
  6
CONTINUOUS
 62
           3
100
AcDbLine
 10
-14221.250823108277
 20
-3361.168254099513
 30
0.0
 11
-14221.374090820093
 21
-3362.361906088673
 31
0.0
  0
LINE
  5
20E
100
AcDbEntity
  8
Frei
  6
CONTINUOUS
 62
           3
100
AcDbLine
 10
-14221.045376921917
 20
-3359.178834117582
 30
0.0
 11
-14221.168644633733
 21
-3360.372486106741
 31
0.0
  0
LINE
  5
20F
100
AcDbEntity
  8
Frei
  6
CONTINUOUS
 62
           3
100
AcDbLine
 10
-14221.928795523265
 20
-3367.733340039888
 30
0.0
 11
-14221.867161667356
 21
-3367.13651404531
 31
0.0
  0
LINE
  5
210
100
AcDbEntity
  8
Frei
  6
CONTINUOUS
 62
           3
100
AcDbLine
 10
-14239.771941504745
 20
-3365.287498368072
 30
0.0
 11
-14239.833575360652
 21
-3365.884324362651
 31
0.0
  0
LINE
  5
211
100
AcDbEntity
  8
Frei
  6
CONTINUOUS
 62
           3
100
AcDbLine
 10
-14239.566495318384
 20
-3363.29807838614
 30
0.0
 11
-14239.689763030201
 21
-3364.491730375299
 31
0.0
  0
LINE
  5
212
100
AcDbEntity
  8
Frei
  6
CONTINUOUS
 62
           3
100
AcDbLine
 10
-14239.361049132025
 20
-3361.308658404208
 30
0.0
 11
-14239.48431684384
 21
-3362.502310393367
 31
0.0
  0
LINE
  5
213
100
AcDbEntity
  8
Frei
  6
CONTINUOUS
 62
           3
100
AcDbLine
 10
-14239.155602945664
 20
-3359.319238422276
 30
0.0
 11
-14239.278870657481
 21
-3360.512890411435
 31
0.0
  0
LINE
  5
214
100
AcDbEntity
  8
Frei
  6
CONTINUOUS
 62
           3
100
AcDbLine
 10
-14238.950156759305
 20
-3357.329818440344
 30
0.0
 11
-14239.07342447112
 21
-3358.523470429504
 31
0.0
  0
LINE
  5
215
100
AcDbEntity
  8
Frei
  6
CONTINUOUS
 62
           3
100
AcDbLine
 10
-14240.593726250183
 20
-3373.2451782958
 30
0.0
 11
-14240.716993961998
 21
-3374.438830284959
 31
0.0
  0
LINE
  5
216
100
AcDbEntity
  8
Frei
  6
CONTINUOUS
 62
           3
100
AcDbLine
 10
-14240.388280063824
 20
-3371.255758313868
 30
0.0
 11
-14240.511547775639
 21
-3372.449410303027
 31
0.0
  0
LINE
  5
217
100
AcDbEntity
  8
Frei
  6
CONTINUOUS
 62
           3
100
AcDbLine
 10
-14240.182833877463
 20
-3369.266338331936
 30
0.0
 11
-14240.30610158928
 21
-3370.459990321095
 31
0.0
  0
LINE
  5
218
100
AcDbEntity
  8
Frei
  6
CONTINUOUS
 62
           3
100
AcDbLine
 10
-14239.977387691104
 20
-3367.276918350004
 30
0.0
 11
-14240.100655402919
 21
-3368.470570339163
 31
0.0
  0
LINE
  5
219
100
AcDbEntity
  8
Frei
  6
CONTINUOUS
 62
           3
100
AcDbLine
 10
-14239.833575360652
 20
-3365.884324362651
 30
0.0
 11
-14239.89520921656
 21
-3366.481150357231
 31
0.0
  0
LINE
  5
21A
100
AcDbEntity
  8
Frei
  6
CONTINUOUS
 62
           3
100
AcDbLine
 10
-14221.990429379171
 20
-3368.330166034469
 30
0.0
 11
-14221.928795523265
 21
-3367.733340039888
 31
0.0
  0
LINE
  5
21B
100
AcDbEntity
  8
Frei
  6
CONTINUOUS
 62
           3
100
AcDbLine
 10
-14222.688946412794
 20
-3375.094193973037
 30
0.0
 11
-14222.812214124611
 21
-3376.287845962197
 31
0.0
  0
LINE
  5
21C
100
AcDbEntity
  8
Frei
  6
CONTINUOUS
 62
           3
100
AcDbLine
 10
-14222.483500226435
 20
-3373.104773991106
 30
0.0
 11
-14222.60676793825
 21
-3374.298425980264
 31
0.0
  0
LINE
  5
21D
100
AcDbEntity
  8
Frei
  6
CONTINUOUS
 62
           3
100
AcDbLine
 10
-14222.278054040076
 20
-3371.115354009174
 30
0.0
 11
-14222.401321751891
 21
-3372.309005998332
 31
0.0
  0
LINE
  5
21E
100
AcDbEntity
  8
Frei
  6
CONTINUOUS
 62
           3
100
AcDbLine
 10
-14222.195875565532
 20
-3370.319586016401
 30
0.0
 11
-14222.072607853715
 21
-3369.125934027242
 31
0.0
  0
LINE
  5
21F
100
AcDbEntity
  8
Frei
  6
CONTINUOUS
 62
           3
100
AcDbLine
 10
-14234.03996771299
 20
-3369.096453854922
 30
0.0
 11
-14240.100655402919
 21
-3368.470570339163
 31
0.0
  0
LINE
  5
220
100
AcDbEntity
  8
Frei
  6
CONTINUOUS
 62
           3
100
AcDbLine
 10
-14233.381507862503
 20
-3368.561261716251
 30
0.0
 11
-14234.03996771299
 21
-3369.096453854922
 31
0.0
  0
LINE
  5
221
100
AcDbEntity
  8
Frei
  6
CONTINUOUS
 62
           3
100
AcDbLine
 10
-14233.381507862503
 20
-3368.561261716251
 30
0.0
 11
-14239.442195552434
 21
-3367.935378200491
 31
0.0
  0
LINE
  5
222
100
AcDbEntity
  8
Frei
  6
CONTINUOUS
 62
           3
100
AcDbLine
 10
-14233.916700001175
 20
-3367.902801865764
 30
0.0
 11
-14233.381507862503
 21
-3368.561261716251
 31
0.0
  0
LINE
  5
223
100
AcDbEntity
  8
Frei
  6
CONTINUOUS
 62
           3
100
AcDbLine
 10
-14234.576790135014
 20
-3367.030380247194
 30
0.0
 11
-14239.89520921656
 21
-3366.481150357231
 31
0.0
  0
LINE
  5
224
100
AcDbEntity
  8
Frei
  6
CONTINUOUS
 62
           3
100
AcDbLine
 10
-14233.918330284527
 20
-3366.495188108522
 30
0.0
 11
-14234.576790135014
 21
-3367.030380247194
 31
0.0
  0
LINE
  5
225
100
AcDbEntity
  8
Frei
  6
CONTINUOUS
 62
           3
100
AcDbLine
 10
-14227.844040599392
 20
-3367.122476294017
 30
0.0
 11
-14222.525621517843
 21
-3367.671706183981
 31
0.0
  0
LINE
  5
226
100
AcDbEntity
  8
Frei
  6
CONTINUOUS
 62
           3
100
AcDbLine
 10
-14227.30884846072
 20
-3367.780936144506
 30
0.0
 11
-14227.844040599392
 21
-3367.122476294017
 31
0.0
  0
LINE
  5
227
100
AcDbEntity
  8
Frei
  6
CONTINUOUS
 62
           3
100
AcDbLine
 10
-14228.791755394133
 20
-3369.035242650153
 30
0.0
 11
-14228.256563255463
 21
-3369.693702500641
 31
0.0
  0
LINE
  5
228
100
AcDbEntity
  8
Frei
  6
CONTINUOUS
 62
           3
100
AcDbLine
 10
-14228.133295543648
 20
-3368.500050511482
 30
0.0
 11
-14222.072607853715
 21
-3369.125934027242
 31
0.0
  0
LINE
  5
229
100
AcDbEntity
  8
Frei
  6
CONTINUOUS
 62
           3
100
AcDbLine
 10
-14228.133295543648
 20
-3368.500050511482
 30
0.0
 11
-14228.791755394133
 21
-3369.035242650153
 31
0.0
  0
LINE
  5
22A
100
AcDbEntity
  8
Frei
  6
CONTINUOUS
 62
           3
100
AcDbLine
 10
-14222.936513890563
 20
-3371.650546147845
 30
0.0
 11
-14239.647641738793
 21
-3369.924798182423
 31
0.0
  0
LINE
  5
22B
100
AcDbEntity
  8
Frei
  6
CONTINUOUS
 62
           3
100
AcDbLine
 10
-14222.731067704204
 20
-3369.661126165913
 30
0.0
 11
-14228.791755394133
 21
-3369.035242650153
 31
0.0
  0
LINE
  5
22C
100
AcDbEntity
  8
Frei
  6
CONTINUOUS
 62
           3
100
AcDbLine
 10
-14239.236749366073
 20
-3365.945958218559
 30
0.0
 11
-14233.918330284527
 21
-3366.495188108522
 31
0.0
  0
LINE
  5
22D
100
AcDbEntity
  8
Frei
  6
CONTINUOUS
 62
           3
100
AcDbLine
 10
-14239.89520921656
 20
-3366.481150357231
 30
0.0
 11
-14239.236749366073
 21
-3365.945958218559
 31
0.0
  0
LINE
  5
22E
100
AcDbEntity
  8
Frei
  6
CONTINUOUS
 62
           3
100
AcDbLine
 10
-14221.990429379171
 20
-3368.330166034469
 30
0.0
 11
-14227.30884846072
 21
-3367.780936144506
 31
0.0
  0
LINE
  5
22F
100
AcDbEntity
  8
Frei
  6
CONTINUOUS
 62
           3
100
AcDbLine
 10
-14222.525621517843
 20
-3367.671706183981
 30
0.0
 11
-14221.990429379171
 21
-3368.330166034469
 31
0.0
  0
LINE
  5
230
100
AcDbEntity
  8
Frei
  6
CONTINUOUS
 62
           3
100
AcDbLine
 10
-14222.072607853715
 20
-3369.125934027242
 30
0.0
 11
-14222.731067704204
 21
-3369.661126165913
 31
0.0
  0
LINE
  5
231
100
AcDbEntity
  8
Frei
  6
CONTINUOUS
 62
           3
100
AcDbLine
 10
-14239.977387691104
 20
-3367.276918350004
 30
0.0
 11
-14233.916700001175
 21
-3367.902801865764
 31
0.0
  0
LINE
  5
232
100
AcDbEntity
  8
Frei
  6
CONTINUOUS
 62
           3
100
AcDbLine
 10
-14239.442195552434
 20
-3367.935378200491
 30
0.0
 11
-14239.977387691104
 21
-3367.276918350004
 31
0.0
  0
LINE
  5
233
100
AcDbEntity
  8
Frei
  6
CONTINUOUS
 62
           3
100
AcDbLine
 10
-14240.100655402919
 20
-3368.470570339163
 30
0.0
 11
-14239.442195552434
 21
-3367.935378200491
 31
0.0
  0
LINE
  5
234
100
AcDbEntity
  8
Frei
  6
CONTINUOUS
 62
           3
100
AcDbLine
 10
-14222.195875565532
 20
-3370.319586016401
 30
0.0
 11
-14228.256563255463
 21
-3369.693702500641
 31
0.0
  0
LINE
  5
235
100
AcDbEntity
  8
Frei
  6
CONTINUOUS
 62
           3
100
AcDbLine
 10
-14222.731067704204
 20
-3369.661126165913
 30
0.0
 11
-14222.195875565532
 21
-3370.319586016401
 31
0.0
  0
LINE
  5
236
100
AcDbEntity
  8
Frei
  6
CONTINUOUS
 62
           3
100
AcDbLine
 10
-14222.278054040076
 20
-3371.115354009174
 30
0.0
 11
-14222.936513890563
 21
-3371.650546147845
 31
0.0
  0
LINE
  5
237
100
AcDbEntity
  8
Frei
  6
CONTINUOUS
 62
           3
100
AcDbLine
 10
-14240.182833877463
 20
-3369.266338331936
 30
0.0
 11
-14222.278054040076
 21
-3371.115354009174
 31
0.0
  0
LINE
  5
238
100
AcDbEntity
  8
Frei
  6
CONTINUOUS
 62
           3
100
AcDbLine
 10
-14239.647641738793
 20
-3369.924798182423
 30
0.0
 11
-14240.182833877463
 21
-3369.266338331936
 31
0.0
  0
LINE
  5
239
100
AcDbEntity
  8
Frei
  6
CONTINUOUS
 62
           3
100
AcDbLine
 10
-14240.30610158928
 20
-3370.459990321095
 30
0.0
 11
-14239.647641738793
 21
-3369.924798182423
 31
0.0
  0
LINE
  5
23A
100
AcDbEntity
  8
Frei
  6
CONTINUOUS
 62
           3
100
AcDbLine
 10
-14222.401321751891
 20
-3372.309005998332
 30
0.0
 11
-14240.30610158928
 21
-3370.459990321095
 31
0.0
  0
LINE
  5
23B
100
AcDbEntity
  8
Frei
  6
CONTINUOUS
 62
           3
100
AcDbLine
 10
-14222.936513890563
 20
-3371.650546147845
 30
0.0
 11
-14222.401321751891
 21
-3372.309005998332
 31
0.0
  0
LINE
  5
23C
100
AcDbEntity
  8
Frei
  6
CONTINUOUS
 62
           3
100
AcDbLine
 10
-14239.853087925152
 20
-3371.914218164355
 30
0.0
 11
-14223.141960076924
 21
-3373.639966129776
 31
0.0
  0
LINE
  5
23D
100
AcDbEntity
  8
Frei
  6
CONTINUOUS
 62
           3
100
AcDbLine
 10
-14222.483500226435
 20
-3373.104773991106
 30
0.0
 11
-14223.141960076924
 21
-3373.639966129776
 31
0.0
  0
LINE
  5
23E
100
AcDbEntity
  8
Frei
  6
CONTINUOUS
 62
           3
100
AcDbLine
 10
-14240.388280063824
 20
-3371.255758313868
 30
0.0
 11
-14222.483500226435
 21
-3373.104773991106
 31
0.0
  0
LINE
  5
23F
100
AcDbEntity
  8
Frei
  6
CONTINUOUS
 62
           3
100
AcDbLine
 10
-14239.853087925152
 20
-3371.914218164355
 30
0.0
 11
-14240.388280063824
 21
-3371.255758313868
 31
0.0
  0
LINE
  5
240
100
AcDbEntity
  8
Frei
  6
CONTINUOUS
 62
           3
100
AcDbLine
 10
-14240.511547775639
 20
-3372.449410303027
 30
0.0
 11
-14239.853087925152
 21
-3371.914218164355
 31
0.0
  0
LINE
  5
241
100
AcDbEntity
  8
Frei
  6
CONTINUOUS
 62
           3
100
AcDbLine
 10
-14222.60676793825
 20
-3374.298425980264
 30
0.0
 11
-14240.511547775639
 21
-3372.449410303027
 31
0.0
  0
LINE
  5
242
100
AcDbEntity
  8
Frei
  6
CONTINUOUS
 62
           3
100
AcDbLine
 10
-14223.141960076924
 20
-3373.639966129776
 30
0.0
 11
-14222.60676793825
 21
-3374.298425980264
 31
0.0
  0
LINE
  5
243
100
AcDbEntity
  8
Frei
  6
CONTINUOUS
 62
           3
100
AcDbLine
 10
-14223.347406263283
 20
-3375.629386111708
 30
0.0
 11
-14240.058534111513
 21
-3373.903638146287
 31
0.0
  0
LINE
  5
244
100
AcDbEntity
  8
Frei
  6
CONTINUOUS
 62
           3
100
AcDbLine
 10
-14223.347406263283
 20
-3375.629386111708
 30
0.0
 11
-14222.688946412794
 21
-3375.094193973037
 31
0.0
  0
LINE
  5
245
100
AcDbEntity
  8
Frei
  6
CONTINUOUS
 62
           3
100
AcDbLine
 10
-14222.812214124611
 20
-3376.287845962197
 30
0.0
 11
-14223.347406263283
 21
-3375.629386111708
 31
0.0
  0
LINE
  5
246
100
AcDbEntity
  8
Frei
  6
CONTINUOUS
 62
           3
100
AcDbLine
 10
-14240.716993961998
 20
-3374.438830284959
 30
0.0
 11
-14222.812214124611
 21
-3376.287845962197
 31
0.0
  0
LINE
  5
247
100
AcDbEntity
  8
Frei
  6
CONTINUOUS
 62
           3
100
AcDbLine
 10
-14240.058534111513
 20
-3373.903638146287
 30
0.0
 11
-14240.716993961998
 21
-3374.438830284959
 31
0.0
  0
LINE
  5
248
100
AcDbEntity
  8
Frei
  6
CONTINUOUS
 62
           3
100
AcDbLine
 10
-14240.593726250183
 20
-3373.2451782958
 30
0.0
 11
-14240.058534111513
 21
-3373.903638146287
 31
0.0
  0
LINE
  5
249
100
AcDbEntity
  8
Frei
  6
CONTINUOUS
 62
           3
100
AcDbLine
 10
-14222.688946412794
 20
-3375.094193973037
 30
0.0
 11
-14240.593726250183
 21
-3373.2451782958
 31
0.0
  0
LINE
  5
24A
100
AcDbEntity
  8
Frei
  6
CONTINUOUS
 62
           7
100
AcDbLine
 10
-14197.068490516931
 20
-3382.483900217648
 30
0.0
 11
-14196.451012338845
 21
-3383.864031469622
 31
0.0
  0
LINE
  5
24B
100
AcDbEntity
  8
Frei
  6
CONTINUOUS
 62
           7
100
AcDbLine
 10
-14197.068490516931
 20
-3382.483900217648
 30
0.0
 11
-14201.290056564856
 21
-3382.047941670489
 31
0.0
  0
LINE
  5
24C
100
AcDbEntity
  8
Frei
  6
CONTINUOUS
 62
           7
100
AcDbLine
 10
-14196.04749515239
 20
-3379.956608469922
 30
0.0
 11
-14197.068490516931
 21
-3382.483900217648
 31
0.0
  0
LINE
  5
24D
100
AcDbEntity
  8
Frei
  6
CONTINUOUS
 62
           7
100
AcDbLine
 10
-14196.11957522894
 20
-3373.29516292085
 30
0.0
 11
-14195.636602779672
 21
-3375.977768506058
 31
0.0
  0
LINE
  5
24E
100
AcDbEntity
  8
Frei
  6
CONTINUOUS
 62
           7
100
AcDbLine
 10
-14196.11957522894
 20
-3373.29516292085
 30
0.0
 11
-14200.341141276866
 21
-3372.859204373692
 31
0.0
  0
LINE
  5
24F
100
AcDbEntity
  8
Frei
  6
CONTINUOUS
 62
           7
100
AcDbLine
 10
-14195.233085593218
 20
-3372.070345506358
 30
0.0
 11
-14196.11957522894
 21
-3373.29516292085
 31
0.0
  0
LINE
  5
250
100
AcDbEntity
  8
Frei
  6
CONTINUOUS
 62
           7
100
AcDbLine
 10
-14196.656458525204
 20
-3385.853451451554
 30
0.0
 11
-14197.542948160926
 21
-3387.078268866047
 31
0.0
  0
LINE
  5
251
100
AcDbEntity
  8
Frei
  6
CONTINUOUS
 62
           7
100
AcDbLine
 10
-14195.645117584947
 20
-3368.700794272452
 30
0.0
 11
-14199.866683632872
 21
-3368.264835725294
 31
0.0
  0
LINE
  5
252
100
AcDbEntity
  8
Frei
  6
CONTINUOUS
 62
           7
100
AcDbLine
 10
-14195.645117584947
 20
-3368.700794272452
 30
0.0
 11
-14195.027639406859
 21
-3370.080925524426
 31
0.0
  0
LINE
  5
253
100
AcDbEntity
  8
Frei
  6
CONTINUOUS
 62
           7
100
AcDbLine
 10
-14201.630008480033
 20
-3385.339835985655
 30
0.0
 11
-14201.764514208851
 21
-3386.642310318888
 31
0.0
  0
LINE
  5
254
100
AcDbEntity
  8
Frei
  6
CONTINUOUS
 62
           7
100
AcDbLine
 10
-14196.656458525204
 20
-3385.853451451554
 30
0.0
 11
-14196.451012338845
 21
-3383.864031469622
 31
0.0
  0
LINE
  5
255
100
AcDbEntity
  8
Frei
  6
CONTINUOUS
 62
           7
100
AcDbLine
 10
-14196.656458525204
 20
-3385.853451451554
 30
0.0
 11
-14201.630008480033
 21
-3385.339835985655
 31
0.0
  0
LINE
  5
256
100
AcDbEntity
  8
Frei
  6
CONTINUOUS
 62
           7
100
AcDbLine
 10
-14201.424562293674
 20
-3383.350416003723
 30
0.0
 11
-14201.630008480033
 21
-3385.339835985655
 31
0.0
  0
LINE
  5
257
100
AcDbEntity
  8
Frei
  6
CONTINUOUS
 62
           7
100
AcDbLine
 10
-14196.451012338845
 20
-3383.864031469622
 30
0.0
 11
-14196.04749515239
 21
-3379.956608469922
 31
0.0
  0
LINE
  5
258
100
AcDbEntity
  8
Frei
  6
CONTINUOUS
 62
           7
100
AcDbLine
 10
-14196.451012338845
 20
-3383.864031469622
 30
0.0
 11
-14201.424562293674
 21
-3383.350416003723
 31
0.0
  0
LINE
  5
259
100
AcDbEntity
  8
Frei
  6
CONTINUOUS
 62
           7
100
AcDbLine
 10
-14201.290056564856
 20
-3382.047941670489
 30
0.0
 11
-14201.424562293674
 21
-3383.350416003723
 31
0.0
  0
LINE
  5
25A
100
AcDbEntity
  8
Frei
  6
CONTINUOUS
 62
           7
100
AcDbLine
 10
-14201.021045107222
 20
-3379.442993004022
 30
0.0
 11
-14201.290056564856
 21
-3382.047941670489
 31
0.0
  0
LINE
  5
25B
100
AcDbEntity
  8
Frei
  6
CONTINUOUS
 62
           7
100
AcDbLine
 10
-14196.04749515239
 20
-3379.956608469922
 30
0.0
 11
-14195.636602779672
 21
-3375.977768506058
 31
0.0
  0
LINE
  5
25C
100
AcDbEntity
  8
Frei
  6
CONTINUOUS
 62
           7
100
AcDbLine
 10
-14196.04749515239
 20
-3379.956608469922
 30
0.0
 11
-14201.021045107222
 21
-3379.442993004022
 31
0.0
  0
LINE
  5
25D
100
AcDbEntity
  8
Frei
  6
CONTINUOUS
 62
           7
100
AcDbLine
 10
-14200.610152734502
 20
-3375.464153040159
 30
0.0
 11
-14201.021045107222
 21
-3379.442993004022
 31
0.0
  0
LINE
  5
25E
100
AcDbEntity
  8
Frei
  6
CONTINUOUS
 62
           7
100
AcDbLine
 10
-14195.636602779672
 20
-3375.977768506058
 30
0.0
 11
-14195.233085593218
 21
-3372.070345506358
 31
0.0
  0
LINE
  5
25F
100
AcDbEntity
  8
Frei
  6
CONTINUOUS
 62
           7
100
AcDbLine
 10
-14195.636602779672
 20
-3375.977768506058
 30
0.0
 11
-14200.610152734502
 21
-3375.464153040159
 31
0.0
  0
LINE
  5
260
100
AcDbEntity
  8
Frei
  6
CONTINUOUS
 62
           7
100
AcDbLine
 10
-14200.341141276866
 20
-3372.859204373692
 30
0.0
 11
-14200.610152734502
 21
-3375.464153040159
 31
0.0
  0
LINE
  5
261
100
AcDbEntity
  8
Frei
  6
CONTINUOUS
 62
           7
100
AcDbLine
 10
-14200.206635548049
 20
-3371.556730040458
 30
0.0
 11
-14200.341141276866
 21
-3372.859204373692
 31
0.0
  0
LINE
  5
262
100
AcDbEntity
  8
Frei
  6
CONTINUOUS
 62
           7
100
AcDbLine
 10
-14195.233085593218
 20
-3372.070345506358
 30
0.0
 11
-14195.027639406859
 21
-3370.080925524426
 31
0.0
  0
LINE
  5
263
100
AcDbEntity
  8
Frei
  6
CONTINUOUS
 62
           7
100
AcDbLine
 10
-14195.233085593218
 20
-3372.070345506358
 30
0.0
 11
-14200.206635548049
 21
-3371.556730040458
 31
0.0
  0
LINE
  5
264
100
AcDbEntity
  8
Frei
  6
CONTINUOUS
 62
           7
100
AcDbLine
 10
-14200.001189361688
 20
-3369.567310058526
 30
0.0
 11
-14200.206635548049
 21
-3371.556730040458
 31
0.0
  0
LINE
  5
265
100
AcDbEntity
  8
Frei
  6
CONTINUOUS
 62
           7
100
AcDbLine
 10
-14200.001189361688
 20
-3369.567310058526
 30
0.0
 11
-14195.027639406859
 21
-3370.080925524426
 31
0.0
  0
LINE
  5
266
100
AcDbEntity
  8
Frei
  6
CONTINUOUS
 62
           7
100
AcDbLine
 10
-14201.764514208851
 20
-3386.642310318888
 30
0.0
 11
-14197.542948160926
 21
-3387.078268866047
 31
0.0
  0
LINE
  5
267
100
AcDbEntity
  8
Frei
  6
CONTINUOUS
 62
           7
100
AcDbLine
 10
-14199.866683632872
 20
-3368.264835725294
 30
0.0
 11
-14200.001189361688
 21
-3369.567310058526
 31
0.0
  0
LINE
  5
268
100
AcDbEntity
  8
Frei
  6
CONTINUOUS
 62
           7
100
AcDbLine
 10
-14243.509406315659
 20
-3333.334542999481
 30
0.0
 11
-14244.048702554854
 21
-3338.556770452052
 31
0.0
  0
LINE
  5
269
100
AcDbEntity
  8
Frei
  6
CONTINUOUS
 62
           7
100
AcDbLine
 10
-14242.736402981469
 20
-3340.451597576012
 30
0.0
 11
-14242.376872155339
 21
-3336.970112607631
 31
0.0
  0
LINE
  5
26A
100
AcDbEntity
  8
Frei
  6
CONTINUOUS
 62
           7
100
AcDbLine
 10
-14243.488392450508
 20
-3340.373940082874
 30
0.0
 11
-14242.736402981469
 21
-3340.451597576012
 31
0.0
  0
LINE
  5
26B
100
AcDbEntity
  8
Frei
  6
CONTINUOUS
 62
           7
100
AcDbLine
 10
-14242.376872155339
 20
-3336.970112607631
 30
0.0
 11
-14241.65781050308
 21
-3330.007142670869
 31
0.0
  0
LINE
  5
26C
100
AcDbEntity
  8
Frei
  6
CONTINUOUS
 62
           7
100
AcDbLine
 10
-14243.12886162438
 20
-3336.892455114492
 30
0.0
 11
-14242.376872155339
 21
-3336.970112607631
 31
0.0
  0
LINE
  5
26D
100
AcDbEntity
  8
Frei
  6
CONTINUOUS
 62
           7
100
AcDbLine
 10
-14241.65781050308
 20
-3330.007142670869
 30
0.0
 11
-14241.29827967695
 21
-3326.525657702488
 31
0.0
  0
LINE
  5
26E
100
AcDbEntity
  8
Frei
  6
CONTINUOUS
 62
           7
100
AcDbLine
 10
-14242.40979997212
 20
-3329.92948517773
 30
0.0
 11
-14241.65781050308
 21
-3330.007142670869
 31
0.0
  0
LINE
  5
26F
100
AcDbEntity
  8
Frei
  6
CONTINUOUS
 62
           7
100
AcDbLine
 10
-14241.29827967695
 20
-3326.525657702488
 30
0.0
 11
-14240.733302664461
 21
-3321.054752752175
 31
0.0
  0
LINE
  5
270
100
AcDbEntity
  8
Frei
  6
CONTINUOUS
 62
           7
100
AcDbLine
 10
-14242.050269145991
 20
-3326.44800020935
 30
0.0
 11
-14241.29827967695
 21
-3326.525657702488
 31
0.0
  0
LINE
  5
271
100
AcDbEntity
  8
Frei
  6
CONTINUOUS
 62
           7
100
AcDbLine
 10
-14206.405487434769
 20
-3382.908217501987
 30
0.0
 11
-14205.172810316612
 21
-3370.971697610396
 31
0.0
  0
LINE
  5
272
100
AcDbEntity
  8
Frei
  6
CONTINUOUS
 62
           2
100
AcDbLine
 10
-14201.43193747994
 20
-3383.421832967886
 30
0.0
 11
-14206.405487434769
 21
-3382.908217501987
 31
0.0
  0
LINE
  5
273
100
AcDbEntity
  8
Frei
  6
CONTINUOUS
 62
           7
100
AcDbLine
 10
-14205.172810316612
 20
-3370.971697610396
 30
0.0
 11
-14205.070087223432
 21
-3369.976987619429
 31
0.0
  0
LINE
  5
274
100
AcDbEntity
  8
Frei
  6
CONTINUOUS
 62
           2
100
AcDbLine
 10
-14200.199260361782
 20
-3371.485313076295
 30
0.0
 11
-14205.172810316612
 21
-3370.971697610396
 31
0.0
  0
LINE
  5
275
100
AcDbEntity
  8
Frei
  6
CONTINUOUS
 62
           7
100
AcDbLine
 10
-14206.508210527951
 20
-3383.902927492953
 30
0.0
 11
-14206.405487434769
 21
-3382.908217501987
 31
0.0
  0
LINE
  5
276
100
AcDbEntity
  8
Frei
  6
CONTINUOUS
 62
           7
100
AcDbLine
 10
-14206.508210527951
 20
-3383.902927492953
 30
0.0
 11
-14201.534660573121
 21
-3384.416542958852
 31
0.0
  0
LINE
  5
277
100
AcDbEntity
  8
Frei
  6
CONTINUOUS
 62
           7
100
AcDbLine
 10
-14205.070087223432
 20
-3369.976987619429
 30
0.0
 11
-14205.018725676842
 21
-3369.479632623946
 31
0.0
  0
LINE
  5
278
100
AcDbEntity
  8
Frei
  6
CONTINUOUS
 62
           7
100
AcDbLine
 10
-14205.070087223432
 20
-3369.976987619429
 30
0.0
 11
-14200.096537268602
 21
-3370.490603085328
 31
0.0
  0
LINE
  5
279
100
AcDbEntity
  8
Frei
  6
CONTINUOUS
 62
           7
100
AcDbLine
 10
-14225.869346869706
 20
-3381.903514769079
 30
0.0
 11
-14244.804545180141
 21
-3379.948088405528
 31
0.0
  0
LINE
  5
27A
100
AcDbEntity
  8
Frei
  6
CONTINUOUS
 62
           7
100
AcDbLine
 10
-14218.650176605901
 20
-3384.659670356727
 30
0.0
 11
-14225.869346869706
 21
-3381.903514769079
 31
0.0
  0
LINE
  5
27B
100
AcDbEntity
  8
Frei
  6
CONTINUOUS
 62
           7
100
AcDbLine
 10
-14243.317640464375
 20
-3350.947414027745
 30
0.0
 11
-14243.814995459858
 21
-3350.896052481155
 31
0.0
  0
LINE
  5
27C
100
AcDbEntity
  8
Frei
  6
CONTINUOUS
 62
           7
100
AcDbLine
 10
-14243.317640464375
 20
-3350.947414027745
 30
0.0
 11
-14246.14252552682
 21
-3378.30193877931
 31
0.0
  0
LINE
  5
27D
100
AcDbEntity
  8
Frei
  6
CONTINUOUS
 62
           7
100
AcDbLine
 10
-14225.869346869706
 20
-3381.903514769079
 30
0.0
 11
-14219.936795405991
 21
-3382.516165735025
 31
0.0
  0
LINE
  5
27E
100
AcDbEntity
  8
Frei
  6
CONTINUOUS
 62
           7
100
AcDbLine
 10
-14215.465760717327
 20
-3353.823660636781
 30
0.0
 11
-14243.317640464375
 21
-3350.947414027745
 31
0.0
  0
LINE
  5
27F
100
AcDbEntity
  8
Frei
  6
CONTINUOUS
 62
           7
100
AcDbLine
 10
-14215.465760717327
 20
-3353.823660636781
 30
0.0
 11
-14218.290645779773
 21
-3381.178185388346
 31
0.0
  0
LINE
  5
280
100
AcDbEntity
  8
Frei
  6
CONTINUOUS
 62
           7
100
AcDbLine
 10
-14218.650176605901
 20
-3384.659670356727
 30
0.0
 11
-14208.205721700759
 21
-3385.738262835115
 31
0.0
  0
LINE
  5
281
100
AcDbEntity
  8
Frei
  6
CONTINUOUS
 62
           7
100
AcDbLine
 10
-14206.55957207454
 20
-3384.400282488436
 30
0.0
 11
-14206.508210527951
 21
-3383.902927492953
 31
0.0
  0
LINE
  5
282
100
AcDbEntity
  8
Frei
  6
CONTINUOUS
 62
           7
100
AcDbLine
 10
-14216.801160928664
 20
-3366.754890519339
 30
0.0
 11
-14206.356706023522
 21
-3367.833482997728
 31
0.0
  0
LINE
  5
283
100
AcDbEntity
  8
Frei
  6
CONTINUOUS
 62
           7
100
AcDbLine
 10
-14243.814995459858
 20
-3350.896052481155
 30
0.0
 11
-14243.712272366678
 21
-3349.901342490189
 31
0.0
  0
LINE
  5
284
100
AcDbEntity
  8
Frei
  6
CONTINUOUS
 62
           7
100
AcDbLine
 10
-14214.968405721844
 20
-3353.875022183371
 30
0.0
 11
-14215.465760717327
 21
-3353.823660636781
 31
0.0
  0
LINE
  5
285
100
AcDbEntity
  8
Frei
  6
CONTINUOUS
 62
           7
100
AcDbLine
 10
-14214.865682628664
 20
-3352.880312192405
 30
0.0
 11
-14214.968405721844
 21
-3353.875022183371
 31
0.0
  0
LINE
  5
286
100
AcDbEntity
  8
Frei
  6
CONTINUOUS
 62
           7
100
AcDbLine
 10
-14214.865682628664
 20
-3352.880312192405
 30
0.0
 11
-14243.712272366678
 21
-3349.901342490189
 31
0.0
  0
LINE
  5
287
100
AcDbEntity
  8
Frei
  6
CONTINUOUS
 62
           7
100
AcDbLine
 10
-14212.246243752577
 20
-3327.515207422772
 30
0.0
 11
-14212.189137916735
 21
-3326.962228110184
 31
0.0
  0
LINE
  5
288
100
AcDbEntity
  8
Frei
  6
CONTINUOUS
 62
           7
100
AcDbLine
 10
-14240.733302664461
 20
-3321.054752752175
 30
0.0
 11
-14213.903807108474
 21
-3324.775743811297
 31
0.0
  0
LINE
  5
289
100
AcDbEntity
  8
Frei
  6
CONTINUOUS
 62
           7
100
AcDbLine
 10
-14208.402647822726
 20
-3338.970632789297
 30
0.0
 11
-14208.454009369316
 21
-3339.46798778478
 31
0.0
  0
LINE
  5
28A
100
AcDbEntity
  8
Frei
  6
CONTINUOUS
 62
           1
100
AcDbLine
 10
-14208.402647822726
 20
-3338.970632789297
 30
0.0
 11
-14210.877835366673
 21
-3338.715021683524
 31
0.0
  0
LINE
  5
28B
100
AcDbEntity
  8
Frei
  6
CONTINUOUS
 62
           7
100
AcDbLine
 10
-14207.991755450006
 20
-3334.991792825434
 30
0.0
 11
-14208.402647822726
 21
-3338.970632789297
 31
0.0
  0
LINE
  5
28C
100
AcDbEntity
  8
Frei
  6
CONTINUOUS
 62
           1
100
AcDbLine
 10
-14207.991755450006
 20
-3334.991792825434
 30
0.0
 11
-14210.466942993953
 21
-3334.73618171966
 31
0.0
  0
LINE
  5
28D
100
AcDbEntity
  8
Frei
  6
CONTINUOUS
 62
           7
100
AcDbLine
 10
-14208.454009369316
 20
-3339.46798778478
 30
0.0
 11
-14208.505370915906
 21
-3339.965342780263
 31
0.0
  0
LINE
  5
28E
100
AcDbEntity
  8
Frei
  6
CONTINUOUS
 62
           1
100
AcDbLine
 10
-14208.454009369316
 20
-3339.46798778478
 30
0.0
 11
-14210.929196913263
 21
-3339.212376679007
 31
0.0
  0
LINE
  5
28F
100
AcDbEntity
  8
Frei
  6
CONTINUOUS
 62
           7
100
AcDbLine
 10
-14207.940393903416
 20
-3334.494437829951
 30
0.0
 11
-14207.991755450006
 21
-3334.991792825434
 31
0.0
  0
LINE
  5
290
100
AcDbEntity
  8
Frei
  6
CONTINUOUS
 62
           1
100
AcDbLine
 10
-14207.940393903416
 20
-3334.494437829951
 30
0.0
 11
-14210.415581447363
 21
-3334.238826724177
 31
0.0
  0
LINE
  5
291
100
AcDbEntity
  8
Frei
  6
CONTINUOUS
 62
           7
100
AcDbLine
 10
-14209.500080906872
 20
-3339.862619687084
 30
0.0
 11
-14208.883742347793
 21
-3333.894359741288
 31
0.0
  0
LINE
  5
292
100
AcDbEntity
  8
Frei
  6
CONTINUOUS
 62
           2
100
AcDbLine
 10
-14208.505370915906
 20
-3339.965342780263
 30
0.0
 11
-14209.500080906872
 21
-3339.862619687084
 31
0.0
  0
LINE
  5
293
100
AcDbEntity
  8
Frei
  6
CONTINUOUS
 62
           7
100
AcDbLine
 10
-14208.883742347793
 20
-3333.894359741288
 30
0.0
 11
-14208.781019254613
 21
-3332.899649750321
 31
0.0
  0
LINE
  5
294
100
AcDbEntity
  8
Frei
  6
CONTINUOUS
 62
           2
100
AcDbLine
 10
-14207.889032356827
 20
-3333.997082834468
 30
0.0
 11
-14208.883742347793
 21
-3333.894359741288
 31
0.0
  0
LINE
  5
295
100
AcDbEntity
  8
Frei
  6
CONTINUOUS
 62
           7
100
AcDbLine
 10
-14209.602804000051
 20
-3340.85732967805
 30
0.0
 11
-14209.500080906872
 21
-3339.862619687084
 31
0.0
  0
LINE
  5
296
100
AcDbEntity
  8
Frei
  6
CONTINUOUS
 62
           7
100
AcDbLine
 10
-14208.505370915906
 20
-3339.965342780263
 30
0.0
 11
-14209.602804000051
 21
-3340.85732967805
 31
0.0
  0
LINE
  5
297
100
AcDbEntity
  8
Frei
  6
CONTINUOUS
 62
           7
100
AcDbLine
 10
-14207.889032356827
 20
-3333.997082834468
 30
0.0
 11
-14207.940393903416
 21
-3334.494437829951
 31
0.0
  0
LINE
  5
298
100
AcDbEntity
  8
Frei
  6
CONTINUOUS
 62
           7
100
AcDbLine
 10
-14208.781019254613
 20
-3332.899649750321
 30
0.0
 11
-14208.267403788714
 21
-3327.926099795492
 31
0.0
  0
LINE
  5
299
100
AcDbEntity
  8
Frei
  6
CONTINUOUS
 62
           7
100
AcDbLine
 10
-14208.781019254613
 20
-3332.899649750321
 30
0.0
 11
-14207.889032356827
 21
-3333.997082834468
 31
0.0
  0
LINE
  5
29A
100
AcDbEntity
  8
Frei
  6
CONTINUOUS
 62
           7
100
AcDbLine
 10
-14243.712272366678
 20
-3349.901342490189
 30
0.0
 11
-14242.736402981469
 21
-3340.451597576012
 31
0.0
  0
LINE
  5
29B
100
AcDbEntity
  8
Frei
  6
CONTINUOUS
 62
           7
100
AcDbLine
 10
-14214.095259429814
 20
-3345.41998726016
 30
0.0
 11
-14214.865682628664
 21
-3352.880312192405
 31
0.0
  0
LINE
  5
29C
100
AcDbEntity
  8
Frei
  6
CONTINUOUS
 62
           7
100
AcDbLine
 10
-14211.148810668432
 20
-3326.623220524986
 30
0.0
 11
-14213.203272532028
 21
-3346.517420344306
 31
0.0
  0
LINE
  5
29D
100
AcDbEntity
  8
Frei
  6
CONTINUOUS
 62
           7
100
AcDbLine
 10
-14209.1593906865
 20
-3326.828666711346
 30
0.0
 11
-14211.213852550096
 21
-3346.722866530666
 31
0.0
  0
LINE
  5
29E
100
AcDbEntity
  8
Frei
  6
CONTINUOUS
 62
           7
100
AcDbLine
 10
-14210.11641946595
 20
-3345.830879632879
 30
0.0
 11
-14211.213852550096
 21
-3346.722866530666
 31
0.0
  0
LINE
  5
29F
100
AcDbEntity
  8
Frei
  6
CONTINUOUS
 62
           7
100
AcDbLine
 10
-14213.203272532028
 20
-3346.517420344306
 30
0.0
 11
-14214.095259429814
 21
-3345.41998726016
 31
0.0
  0
LINE
  5
2A0
100
AcDbEntity
  8
Frei
  6
CONTINUOUS
 62
           7
100
AcDbLine
 10
-14212.246243752577
 20
-3327.515207422772
 30
0.0
 11
-14211.148810668432
 21
-3326.623220524986
 31
0.0
  0
LINE
  5
2A1
100
AcDbEntity
  8
Frei
  6
CONTINUOUS
 62
           7
100
AcDbLine
 10
-14208.267403788714
 20
-3327.926099795492
 30
0.0
 11
-14209.1593906865
 21
-3326.828666711346
 31
0.0
  0
LINE
  5
2A2
100
AcDbEntity
  8
Frei
  6
CONTINUOUS
 62
           7
100
AcDbLine
 10
-14210.11641946595
 20
-3345.830879632879
 30
0.0
 11
-14209.602804000051
 21
-3340.85732967805
 31
0.0
  0
LINE
  5
2A3
100
AcDbEntity
  8
Frei
  6
CONTINUOUS
 62
           7
100
AcDbLine
 10
-14213.203272532028
 20
-3346.517420344306
 30
0.0
 11
-14211.213852550096
 21
-3346.722866530666
 31
0.0
  0
LINE
  5
2A4
100
AcDbEntity
  8
Frei
  6
CONTINUOUS
 62
           7
100
AcDbLine
 10
-14212.246243752577
 20
-3327.515207422772
 30
0.0
 11
-14214.095259429814
 21
-3345.41998726016
 31
0.0
  0
LINE
  5
2A5
100
AcDbEntity
  8
Frei
  6
CONTINUOUS
 62
           7
100
AcDbLine
 10
-14209.1593906865
 20
-3326.828666711346
 30
0.0
 11
-14211.148810668432
 21
-3326.623220524986
 31
0.0
  0
LINE
  5
2A6
100
AcDbEntity
  8
Frei
  6
CONTINUOUS
 62
           7
100
AcDbLine
 10
-14260.124987217616
 20
-3348.206411452722
 30
0.0
 11
-14249.680532312474
 21
-3349.28500393111
 31
0.0
  0
LINE
  5
2A7
100
AcDbEntity
  8
Frei
  6
CONTINUOUS
 62
           7
100
AcDbLine
 10
-14242.809185269158
 20
-3316.819105055361
 30
0.0
 11
-14256.735125142681
 21
-3315.380981750844
 31
0.0
  0
LINE
  5
2A8
100
AcDbEntity
  8
Frei
  6
CONTINUOUS
 62
           7
100
AcDbLine
 10
-14241.917198371371
 20
-3317.916538139508
 30
0.0
 11
-14244.228467967918
 21
-3340.297512936242
 31
0.0
  0
LINE
  5
2A9
100
AcDbEntity
  8
Frei
  6
CONTINUOUS
 62
           7
100
AcDbLine
 10
-14403.260502823541
 20
-3332.419576043857
 30
0.0
 11
-14400.949233226995
 21
-3310.038601247122
 31
0.0
  0
LINE
  5
2AA
100
AcDbEntity
  8
Frei
  6
CONTINUOUS
 62
           7
100
AcDbLine
 10
-14402.207591118447
 20
-3322.223798636455
 30
0.0
 11
-14401.668294879253
 21
-3317.001571183883
 31
0.0
  0
LINE
  5
2AB
100
AcDbEntity
  8
Frei
  6
CONTINUOUS
 62
           7
100
AcDbLine
 10
-14242.970110076465
 20
-3328.112315546909
 30
0.0
 11
-14243.509406315659
 21
-3333.334542999481
 31
0.0
  0
ARC
  5
2AC
100
AcDbEntity
  8
Frei
  6
CONTINUOUS
 62
           7
100
AcDbCircle
 10
-14410.227184518573
 20
-3316.117699878759
 30
0.0
 40
8.604407030244
100
AcDbArc
 50
330.102014671726
 51
354.103999999999
  0
ARC
  5
2AD
100
AcDbEntity
  8
Frei
  6
CONTINUOUS
 62
           7
100
AcDbCircle
 10
-14403.546249368916
 20
-3311.529715725044
 30
0.0
 40
2.430106011614
100
AcDbArc
 50
308.038521857266
 51
354.103999999999
  0
ARC
  5
2AE
100
AcDbEntity
  8
Frei
  6
CONTINUOUS
 62
           7
100
AcDbCircle
 10
-14404.624841847304
 20
-3321.974170630188
 30
0.0
 40
2.430106011614
100
AcDbArc
 50
308.038521857266
 51
354.103999999999
  0
ARC
  5
2AF
100
AcDbEntity
  8
Frei
  6
CONTINUOUS
 62
           7
100
AcDbCircle
 10
-14403.546249368916
 20
-3311.529715725044
 30
0.0
 40
2.430106011614
100
AcDbArc
 50
354.103999999999
 51
40.169478142733
  0
ARC
  5
2B0
100
AcDbEntity
  8
Frei
  6
CONTINUOUS
 62
           7
100
AcDbCircle
 10
-14404.624841847304
 20
-3321.974170630188
 30
0.0
 40
2.430106011614
100
AcDbArc
 50
354.103999999999
 51
40.169478142733
  0
ARC
  5
2B1
100
AcDbEntity
  8
Frei
  6
CONTINUOUS
 62
           7
100
AcDbCircle
 10
-14241.631451825993
 20
-3338.80639845832
 30
0.0
 40
2.430106011614
100
AcDbArc
 50
128.038521857263
 51
174.104
  0
ARC
  5
2B2
100
AcDbEntity
  8
Frei
  6
CONTINUOUS
 62
           7
100
AcDbCircle
 10
-14240.552859347605
 20
-3328.361943553177
 30
0.0
 40
2.430106011614
100
AcDbArc
 50
128.038521857263
 51
174.104
  0
ARC
  5
2B3
100
AcDbEntity
  8
Frei
  6
CONTINUOUS
 62
           7
100
AcDbCircle
 10
-14241.631451825993
 20
-3338.80639845832
 30
0.0
 40
2.430106011614
100
AcDbArc
 50
174.104
 51
220.169478142737
  0
ARC
  5
2B4
100
AcDbEntity
  8
Frei
  6
CONTINUOUS
 62
           7
100
AcDbCircle
 10
-14240.552859347605
 20
-3328.361943553177
 30
0.0
 40
2.430106011614
100
AcDbArc
 50
174.104
 51
220.169478142737
  0
ARC
  5
2B5
100
AcDbEntity
  8
Frei
  6
CONTINUOUS
 62
           7
100
AcDbCircle
 10
-14234.950516676337
 20
-3334.218414304605
 30
0.0
 40
8.604407030244
100
AcDbArc
 50
150.102014671724
 51
174.104
  0
ARC
  5
2B6
100
AcDbEntity
  8
Frei
  6
CONTINUOUS
 62
           7
100
AcDbCircle
 10
-14379.241117845062
 20
-3327.12181260525
 30
0.0
 40
4.481959213903
100
AcDbArc
 50
182.482955885586
 51
345.725044114414
  0
ARC
  5
2B7
100
AcDbEntity
  8
Frei
  6
CONTINUOUS
 62
           7
100
AcDbCircle
 10
-14410.227184518573
 20
-3316.117699878759
 30
0.0
 40
8.604407030244
100
AcDbArc
 50
354.103999999999
 51
18.105985328274
  0
ARC
  5
2B8
100
AcDbEntity
  8
Frei
  6
CONTINUOUS
 62
           7
100
AcDbCircle
 10
-14234.950516676337
 20
-3334.218414304605
 30
0.0
 40
8.604407030244
100
AcDbArc
 50
174.104
 51
198.105985328276
  0
POLYLINE
  5
2B9
100
AcDbEntity
  8
Frei
  6
CONTINUOUS
 62
           7
100
AcDb2dPolyline
 66
           1
 10
0.0
 20
0.0
 30
0.0
  0
VERTEX
  5
2BA
100
AcDbEntity
  8
Frei
  6
CONTINUOUS
 62
           7
100
AcDbVertex
100
AcDb2dVertex
 10
-14383.400014831252
 20
-3326.994250087111
 30
0.0
 42
0.046286845788
  0
VERTEX
  5
2BB
100
AcDbEntity
  8
Frei
  6
CONTINUOUS
 62
           7
100
AcDbVertex
100
AcDb2dVertex
 10
-14383.406862557276
 20
-3327.674324297571
 30
0.0
  0
VERTEX
  5
2BC
100
AcDbEntity
  8
Frei
  6
CONTINUOUS
 62
           7
100
AcDbVertex
100
AcDb2dVertex
 10
-14383.362936368183
 20
-3328.013237100089
 30
0.0
  0
VERTEX
  5
2BD
100
AcDbEntity
  8
Frei
  6
CONTINUOUS
 62
           7
100
AcDbVertex
100
AcDb2dVertex
 10
-14383.28807361574
 20
-3328.346687732485
 30
0.0
 42
0.045273723548
  0
VERTEX
  5
2BE
100
AcDbEntity
  8
Frei
  6
CONTINUOUS
 62
           7
100
AcDbVertex
100
AcDb2dVertex
 10
-14383.047257348519
 20
-3328.990910969114
 30
0.0
  0
VERTEX
  5
2BF
100
AcDbEntity
  8
Frei
  6
CONTINUOUS
 62
           7
100
AcDbVertex
100
AcDb2dVertex
 10
-14382.882765117367
 20
-3329.297071659467
 30
0.0
  0
VERTEX
  5
2C0
100
AcDbEntity
  8
Frei
  6
CONTINUOUS
 62
           7
100
AcDbVertex
100
AcDb2dVertex
 10
-14382.691730836035
 20
-3329.587419610408
 30
0.0
 42
0.04348253534
  0
VERTEX
  5
2C1
100
AcDbEntity
  8
Frei
  6
CONTINUOUS
 62
           7
100
AcDbVertex
100
AcDb2dVertex
 10
-14382.232296571468
 20
-3330.118089043148
 30
0.0
  0
VERTEX
  5
2C2
100
AcDbEntity
  8
Frei
  6
CONTINUOUS
 62
           7
100
AcDbVertex
100
AcDb2dVertex
 10
-14381.967175798316
 20
-3330.354155931345
 30
0.0
  0
VERTEX
  5
2C3
100
AcDbEntity
  8
Frei
  6
CONTINUOUS
 62
           7
100
AcDbVertex
100
AcDb2dVertex
 10
-14381.68291423246
 20
-3330.566795145151
 30
0.0
 42
0.041825507476
  0
VERTEX
  5
2C4
100
AcDbEntity
  8
Frei
  6
CONTINUOUS
 62
           7
100
AcDbVertex
100
AcDb2dVertex
 10
-14381.060276523378
 20
-3330.919904208567
 30
0.0
  0
VERTEX
  5
2C5
100
AcDbEntity
  8
Frei
  6
CONTINUOUS
 62
           7
100
AcDbVertex
100
AcDb2dVertex
 10
-14380.726891023633
 20
-3331.057287467679
 30
0.0
  0
VERTEX
  5
2C6
100
AcDbEntity
  8
Frei
  6
CONTINUOUS
 62
           7
100
AcDbVertex
100
AcDb2dVertex
 10
-14380.383301975946
 20
-3331.166687193181
 30
0.0
 42
0.040993490696
  0
VERTEX
  5
2C7
100
AcDbEntity
  8
Frei
  6
CONTINUOUS
 62
           7
100
AcDbVertex
100
AcDb2dVertex
 10
-14379.672560119223
 20
-3331.299645722889
 30
0.0
  0
VERTEX
  5
2C8
100
AcDbEntity
  8
Frei
  6
CONTINUOUS
 62
           7
100
AcDbVertex
100
AcDb2dVertex
 10
-14379.311412722001
 20
-3331.322030982527
 30
0.0
  0
VERTEX
  5
2C9
100
AcDbEntity
  8
Frei
  6
CONTINUOUS
 62
           7
100
AcDbVertex
100
AcDb2dVertex
 10
-14378.949646484869
 20
-3331.314739920042
 30
0.0
 42
0.041278481646
  0
VERTEX
  5
2CA
100
AcDbEntity
  8
Frei
  6
CONTINUOUS
 62
           7
100
AcDbVertex
100
AcDb2dVertex
 10
-14378.236526437855
 20
-3331.2115111551
 30
0.0
  0
VERTEX
  5
2CB
100
AcDbEntity
  8
Frei
  6
CONTINUOUS
 62
           7
100
AcDbVertex
100
AcDb2dVertex
 10
-14377.891121009055
 20
-3331.116579108006
 30
0.0
  0
VERTEX
  5
2CC
100
AcDbEntity
  8
Frei
  6
CONTINUOUS
 62
           7
100
AcDbVertex
100
AcDb2dVertex
 10
-14377.55486776995
 20
-3330.993095981848
 30
0.0
 42
0.042584509173
  0
VERTEX
  5
2CD
100
AcDbEntity
  8
Frei
  6
CONTINUOUS
 62
           7
100
AcDbVertex
100
AcDb2dVertex
 10
-14376.925382334846
 20
-3330.666130834802
 30
0.0
  0
VERTEX
  5
2CE
100
AcDbEntity
  8
Frei
  6
CONTINUOUS
 62
           7
100
AcDbVertex
100
AcDb2dVertex
 10
-14376.637020101567
 20
-3330.46549363665
 30
0.0
  0
VERTEX
  5
2CF
100
AcDbEntity
  8
Frei
  6
CONTINUOUS
 62
           7
100
AcDbVertex
100
AcDb2dVertex
 10
-14376.367196728952
 20
-3330.240550384504
 30
0.0
 42
0.044417198743
  0
VERTEX
  5
2D0
100
AcDbEntity
  8
Frei
  6
CONTINUOUS
 62
           7
100
AcDbVertex
100
AcDb2dVertex
 10
-14375.897271139447
 20
-3329.729285677582
 30
0.0
  0
VERTEX
  5
2D1
100
AcDbEntity
  8
Frei
  6
CONTINUOUS
 62
           7
100
AcDbVertex
100
AcDb2dVertex
 10
-14375.700392402319
 20
-3329.44690701121
 30
0.0
  0
VERTEX
  5
2D2
100
AcDbEntity
  8
Frei
  6
CONTINUOUS
 62
           7
100
AcDbVertex
100
AcDb2dVertex
 10
-14375.529884017578
 20
-3329.147871233442
 30
0.0
 42
0.045929593742
  0
VERTEX
  5
2D3
100
AcDbEntity
  8
Frei
  6
CONTINUOUS
 62
           7
100
AcDbVertex
100
AcDb2dVertex
 10
-14375.276198235129
 20
-3328.513973035759
 30
0.0
  0
VERTEX
  5
2D4
100
AcDbEntity
  8
Frei
  6
CONTINUOUS
 62
           7
100
AcDbVertex
100
AcDb2dVertex
 10
-14375.194592871581
 20
-3328.183478593109
 30
0.0
  0
VERTEX
  5
2D5
100
AcDbEntity
  8
Frei
  6
CONTINUOUS
 62
           7
100
AcDbVertex
100
AcDb2dVertex
 10
-14375.143921906236
 20
-3327.846851760504
 30
0.0
 42
0.046286845788
  0
VERTEX
  5
2D6
100
AcDbEntity
  8
Frei
  6
CONTINUOUS
 62
           7
100
AcDbVertex
100
AcDb2dVertex
 10
-14375.137074180211
 20
-3327.166777550044
 30
0.0
  0
VERTEX
  5
2D7
100
AcDbEntity
  8
Frei
  6
CONTINUOUS
 62
           7
100
AcDbVertex
100
AcDb2dVertex
 10
-14375.181000369306
 20
-3326.827864747527
 30
0.0
  0
VERTEX
  5
2D8
100
AcDbEntity
  8
Frei
  6
CONTINUOUS
 62
           7
100
AcDbVertex
100
AcDb2dVertex
 10
-14375.255863121751
 20
-3326.49441411513
 30
0.0
 42
0.045273723548
  0
VERTEX
  5
2D9
100
AcDbEntity
  8
Frei
  6
CONTINUOUS
 62
           7
100
AcDbVertex
100
AcDb2dVertex
 10
-14375.496679388969
 20
-3325.8501908785
 30
0.0
  0
VERTEX
  5
2DA
100
AcDbEntity
  8
Frei
  6
CONTINUOUS
 62
           7
100
AcDbVertex
100
AcDb2dVertex
 10
-14375.661171620122
 20
-3325.544030188148
 30
0.0
  0
VERTEX
  5
2DB
100
AcDbEntity
  8
Frei
  6
CONTINUOUS
 62
           7
100
AcDbVertex
100
AcDb2dVertex
 10
-14375.852205901452
 20
-3325.253682237207
 30
0.0
 42
0.04348253534
  0
VERTEX
  5
2DC
100
AcDbEntity
  8
Frei
  6
CONTINUOUS
 62
           7
100
AcDbVertex
100
AcDb2dVertex
 10
-14376.311640166021
 20
-3324.723012804468
 30
0.0
  0
VERTEX
  5
2DD
100
AcDbEntity
  8
Frei
  6
CONTINUOUS
 62
           7
100
AcDbVertex
100
AcDb2dVertex
 10
-14376.576760939173
 20
-3324.486945916269
 30
0.0
  0
VERTEX
  5
2DE
100
AcDbEntity
  8
Frei
  6
CONTINUOUS
 62
           7
100
AcDbVertex
100
AcDb2dVertex
 10
-14376.861022505029
 20
-3324.274306702464
 30
0.0
 42
0.041825507476
  0
VERTEX
  5
2DF
100
AcDbEntity
  8
Frei
  6
CONTINUOUS
 62
           7
100
AcDbVertex
100
AcDb2dVertex
 10
-14377.483660214109
 20
-3323.921197639048
 30
0.0
  0
VERTEX
  5
2E0
100
AcDbEntity
  8
Frei
  6
CONTINUOUS
 62
           7
100
AcDbVertex
100
AcDb2dVertex
 10
-14377.817045713855
 20
-3323.783814379935
 30
0.0
  0
VERTEX
  5
2E1
100
AcDbEntity
  8
Frei
  6
CONTINUOUS
 62
           7
100
AcDbVertex
100
AcDb2dVertex
 10
-14378.160634761542
 20
-3323.674414654434
 30
0.0
 42
0.040993490695
  0
VERTEX
  5
2E2
100
AcDbEntity
  8
Frei
  6
CONTINUOUS
 62
           7
100
AcDbVertex
100
AcDb2dVertex
 10
-14378.871376618266
 20
-3323.541456124727
 30
0.0
  0
VERTEX
  5
2E3
100
AcDbEntity
  8
Frei
  6
CONTINUOUS
 62
           7
100
AcDbVertex
100
AcDb2dVertex
 10
-14379.232524015488
 20
-3323.519070865089
 30
0.0
  0
VERTEX
  5
2E4
100
AcDbEntity
  8
Frei
  6
CONTINUOUS
 62
           7
100
AcDbVertex
100
AcDb2dVertex
 10
-14379.594290252619
 20
-3323.526361927573
 30
0.0
 42
0.041278481646
  0
VERTEX
  5
2E5
100
AcDbEntity
  8
Frei
  6
CONTINUOUS
 62
           7
100
AcDbVertex
100
AcDb2dVertex
 10
-14380.307410299632
 20
-3323.629590692515
 30
0.0
  0
VERTEX
  5
2E6
100
AcDbEntity
  8
Frei
  6
CONTINUOUS
 62
           7
100
AcDbVertex
100
AcDb2dVertex
 10
-14380.652815728432
 20
-3323.724522739609
 30
0.0
  0
VERTEX
  5
2E7
100
AcDbEntity
  8
Frei
  6
CONTINUOUS
 62
           7
100
AcDbVertex
100
AcDb2dVertex
 10
-14380.989068967538
 20
-3323.848005865767
 30
0.0
 42
0.042584509172
  0
VERTEX
  5
2E8
100
AcDbEntity
  8
Frei
  6
CONTINUOUS
 62
           7
100
AcDbVertex
100
AcDb2dVertex
 10
-14381.618554402641
 20
-3324.174971012813
 30
0.0
  0
VERTEX
  5
2E9
100
AcDbEntity
  8
Frei
  6
CONTINUOUS
 62
           7
100
AcDbVertex
100
AcDb2dVertex
 10
-14381.90691663592
 20
-3324.375608210966
 30
0.0
  0
VERTEX
  5
2EA
100
AcDbEntity
  8
Frei
  6
CONTINUOUS
 62
           7
100
AcDbVertex
100
AcDb2dVertex
 10
-14382.176740008535
 20
-3324.600551463111
 30
0.0
 42
0.044417198743
  0
VERTEX
  5
2EB
100
AcDbEntity
  8
Frei
  6
CONTINUOUS
 62
           7
100
AcDbVertex
100
AcDb2dVertex
 10
-14382.64666559804
 20
-3325.111816170033
 30
0.0
  0
VERTEX
  5
2EC
100
AcDbEntity
  8
Frei
  6
CONTINUOUS
 62
           7
100
AcDbVertex
100
AcDb2dVertex
 10
-14382.843544335168
 20
-3325.394194836405
 30
0.0
  0
VERTEX
  5
2ED
100
AcDbEntity
  8
Frei
  6
CONTINUOUS
 62
           7
100
AcDbVertex
100
AcDb2dVertex
 10
-14383.014052719913
 20
-3325.693230614173
 30
0.0
 42
0.045929593741
  0
VERTEX
  5
2EE
100
AcDbEntity
  8
Frei
  6
CONTINUOUS
 62
           7
100
AcDbVertex
100
AcDb2dVertex
 10
-14383.267738502358
 20
-3326.327128811856
 30
0.0
  0
VERTEX
  5
2EF
100
AcDbEntity
  8
Frei
  6
CONTINUOUS
 62
           7
100
AcDbVertex
100
AcDb2dVertex
 10
-14383.349343865906
 20
-3326.657623254507
 30
0.0
  0
VERTEX
  5
2F0
100
AcDbEntity
  8
Frei
  6
CONTINUOUS
 62
           7
100
AcDbVertex
100
AcDb2dVertex
 10
-14383.400014831252
 20
-3326.994250087111
 30
0.0
  0
SEQEND
  5
2F1
100
AcDbEntity
  8
Frei
  6
CONTINUOUS
 62
           7
  0
POLYLINE
  5
2F2
100
AcDbEntity
  8
Frei
  6
CONTINUOUS
 62
           7
100
AcDb2dPolyline
 66
           1
 10
0.0
 20
0.0
 30
0.0
  0
VERTEX
  5
2F3
100
AcDbEntity
  8
Frei
  6
CONTINUOUS
 62
           7
100
AcDbVertex
100
AcDb2dVertex
 10
-14378.862807211714
 20
-3323.458475034015
 30
0.0
 42
0.046286845788
  0
VERTEX
  5
2F4
100
AcDbEntity
  8
Frei
  6
CONTINUOUS
 62
           7
100
AcDbVertex
100
AcDb2dVertex
 10
-14379.638844168318
 20
-3323.450661050804
 30
0.0
  0
VERTEX
  5
2F5
100
AcDbEntity
  8
Frei
  6
CONTINUOUS
 62
           7
100
AcDbVertex
100
AcDb2dVertex
 10
-14380.025579697725
 20
-3323.500785501306
 30
0.0
  0
VERTEX
  5
2F6
100
AcDbEntity
  8
Frei
  6
CONTINUOUS
 62
           7
100
AcDbVertex
100
AcDb2dVertex
 10
-14380.406082310474
 20
-3323.586211858718
 30
0.0
 42
0.045273723548
  0
VERTEX
  5
2F7
100
AcDbEntity
  8
Frei
  6
CONTINUOUS
 62
           7
100
AcDbVertex
100
AcDb2dVertex
 10
-14381.141209495476
 20
-3323.86100881505
 30
0.0
  0
VERTEX
  5
2F8
100
AcDbEntity
  8
Frei
  6
CONTINUOUS
 62
           7
100
AcDbVertex
100
AcDb2dVertex
 10
-14381.490571383809
 20
-3324.048711934039
 30
0.0
  0
VERTEX
  5
2F9
100
AcDbEntity
  8
Frei
  6
CONTINUOUS
 62
           7
100
AcDbVertex
100
AcDb2dVertex
 10
-14381.821889255798
 20
-3324.266702353335
 30
0.0
 42
0.04348253534
  0
VERTEX
  5
2FA
100
AcDbEntity
  8
Frei
  6
CONTINUOUS
 62
           7
100
AcDbVertex
100
AcDb2dVertex
 10
-14382.427439481366
 20
-3324.790965680706
 30
0.0
  0
VERTEX
  5
2FB
100
AcDbEntity
  8
Frei
  6
CONTINUOUS
 62
           7
100
AcDbVertex
100
AcDb2dVertex
 10
-14382.696816891437
 20
-3325.093496661541
 30
0.0
  0
VERTEX
  5
2FC
100
AcDbEntity
  8
Frei
  6
CONTINUOUS
 62
           7
100
AcDbVertex
100
AcDb2dVertex
 10
-14382.939460834994
 20
-3325.417869321249
 30
0.0
 42
0.041825507476
  0
VERTEX
  5
2FD
100
AcDbEntity
  8
Frei
  6
CONTINUOUS
 62
           7
100
AcDbVertex
100
AcDb2dVertex
 10
-14383.342395806952
 20
-3326.128365125073
 30
0.0
  0
VERTEX
  5
2FE
100
AcDbEntity
  8
Frei
  6
CONTINUOUS
 62
           7
100
AcDbVertex
100
AcDb2dVertex
 10
-14383.49916470754
 20
-3326.508793414543
 30
0.0
  0
VERTEX
  5
2FF
100
AcDbEntity
  8
Frei
  6
CONTINUOUS
 62
           7
100
AcDbVertex
100
AcDb2dVertex
 10
-14383.624001422011
 20
-3326.90086503671
 30
0.0
 42
0.040993490695
  0
VERTEX
  5
300
100
AcDbEntity
  8
Frei
  6
CONTINUOUS
 62
           7
100
AcDbVertex
100
AcDb2dVertex
 10
-14383.775721236058
 20
-3327.711897037249
 30
0.0
  0
VERTEX
  5
301
100
AcDbEntity
  8
Frei
  6
CONTINUOUS
 62
           7
100
AcDbVertex
100
AcDb2dVertex
 10
-14383.801265196547
 20
-3328.124004602445
 30
0.0
  0
VERTEX
  5
302
100
AcDbEntity
  8
Frei
  6
CONTINUOUS
 62
           7
100
AcDbVertex
100
AcDb2dVertex
 10
-14383.792945319314
 20
-3328.536818329751
 30
0.0
 42
0.041278481646
  0
VERTEX
  5
303
100
AcDbEntity
  8
Frei
  6
CONTINUOUS
 62
           7
100
AcDbVertex
100
AcDb2dVertex
 10
-14383.675150326726
 20
-3329.350564098179
 30
0.0
  0
VERTEX
  5
304
100
AcDbEntity
  8
Frei
  6
CONTINUOUS
 62
           7
100
AcDbVertex
100
AcDb2dVertex
 10
-14383.566822771032
 20
-3329.744708404252
 30
0.0
  0
VERTEX
  5
305
100
AcDbEntity
  8
Frei
  6
CONTINUOUS
 62
           7
100
AcDbVertex
100
AcDb2dVertex
 10
-14383.425915399539
 20
-3330.128409089132
 30
0.0
 42
0.042584509173
  0
VERTEX
  5
306
100
AcDbEntity
  8
Frei
  6
CONTINUOUS
 62
           7
100
AcDbVertex
100
AcDb2dVertex
 10
-14383.052813414895
 20
-3330.846718876168
 30
0.0
  0
VERTEX
  5
307
100
AcDbEntity
  8
Frei
  6
CONTINUOUS
 62
           7
100
AcDbVertex
100
AcDb2dVertex
 10
-14382.823865046847
 20
-3331.17577083325
 30
0.0
  0
VERTEX
  5
308
100
AcDbEntity
  8
Frei
  6
CONTINUOUS
 62
           7
100
AcDbVertex
100
AcDb2dVertex
 10
-14382.567180887798
 20
-3331.483667979891
 30
0.0
 42
0.044417198743
  0
VERTEX
  5
309
100
AcDbEntity
  8
Frei
  6
CONTINUOUS
 62
           7
100
AcDbVertex
100
AcDb2dVertex
 10
-14381.98377351684
 20
-3332.019903024097
 30
0.0
  0
VERTEX
  5
30A
100
AcDbEntity
  8
Frei
  6
CONTINUOUS
 62
           7
100
AcDbVertex
100
AcDb2dVertex
 10
-14381.661549445569
 20
-3332.244562588644
 30
0.0
  0
VERTEX
  5
30B
100
AcDbEntity
  8
Frei
  6
CONTINUOUS
 62
           7
100
AcDbVertex
100
AcDb2dVertex
 10
-14381.320317839774
 20
-3332.439130778315
 30
0.0
 42
0.045929593742
  0
VERTEX
  5
30C
100
AcDbEntity
  8
Frei
  6
CONTINUOUS
 62
           7
100
AcDbVertex
100
AcDb2dVertex
 10
-14380.596972621621
 20
-3332.728613219372
 30
0.0
  0
VERTEX
  5
30D
100
AcDbEntity
  8
Frei
  6
CONTINUOUS
 62
           7
100
AcDbVertex
100
AcDb2dVertex
 10
-14380.219843335575
 20
-3332.821733612699
 30
0.0
  0
VERTEX
  5
30E
100
AcDbEntity
  8
Frei
  6
CONTINUOUS
 62
           7
100
AcDbVertex
100
AcDb2dVertex
 10
-14379.835716340804
 20
-3332.879554569781
 30
0.0
 42
0.046286845788
  0
VERTEX
  5
30F
100
AcDbEntity
  8
Frei
  6
CONTINUOUS
 62
           7
100
AcDbVertex
100
AcDb2dVertex
 10
-14379.059679384201
 20
-3332.887368552993
 30
0.0
  0
VERTEX
  5
310
100
AcDbEntity
  8
Frei
  6
CONTINUOUS
 62
           7
100
AcDbVertex
100
AcDb2dVertex
 10
-14378.672943854792
 20
-3332.837244102492
 30
0.0
  0
VERTEX
  5
311
100
AcDbEntity
  8
Frei
  6
CONTINUOUS
 62
           7
100
AcDbVertex
100
AcDb2dVertex
 10
-14378.292441242045
 20
-3332.75181774508
 30
0.0
 42
0.045273723548
  0
VERTEX
  5
312
100
AcDbEntity
  8
Frei
  6
CONTINUOUS
 62
           7
100
AcDbVertex
100
AcDb2dVertex
 10
-14377.557314057041
 20
-3332.477020788747
 30
0.0
  0
VERTEX
  5
313
100
AcDbEntity
  8
Frei
  6
CONTINUOUS
 62
           7
100
AcDbVertex
100
AcDb2dVertex
 10
-14377.207952168708
 20
-3332.289317669757
 30
0.0
  0
VERTEX
  5
314
100
AcDbEntity
  8
Frei
  6
CONTINUOUS
 62
           7
100
AcDbVertex
100
AcDb2dVertex
 10
-14376.876634296721
 20
-3332.071327250461
 30
0.0
 42
0.04348253534
  0
VERTEX
  5
315
100
AcDbEntity
  8
Frei
  6
CONTINUOUS
 62
           7
100
AcDbVertex
100
AcDb2dVertex
 10
-14376.271084071153
 20
-3331.547063923091
 30
0.0
  0
VERTEX
  5
316
100
AcDbEntity
  8
Frei
  6
CONTINUOUS
 62
           7
100
AcDbVertex
100
AcDb2dVertex
 10
-14376.00170666108
 20
-3331.244532942257
 30
0.0
  0
VERTEX
  5
317
100
AcDbEntity
  8
Frei
  6
CONTINUOUS
 62
           7
100
AcDbVertex
100
AcDb2dVertex
 10
-14375.759062717523
 20
-3330.920160282549
 30
0.0
 42
0.041825507476
  0
VERTEX
  5
318
100
AcDbEntity
  8
Frei
  6
CONTINUOUS
 62
           7
100
AcDbVertex
100
AcDb2dVertex
 10
-14375.356127745565
 20
-3330.209664478723
 30
0.0
  0
VERTEX
  5
319
100
AcDbEntity
  8
Frei
  6
CONTINUOUS
 62
           7
100
AcDbVertex
100
AcDb2dVertex
 10
-14375.19935884498
 20
-3329.829236189254
 30
0.0
  0
VERTEX
  5
31A
100
AcDbEntity
  8
Frei
  6
CONTINUOUS
 62
           7
100
AcDbVertex
100
AcDb2dVertex
 10
-14375.074522130506
 20
-3329.437164567086
 30
0.0
 42
0.040993490695
  0
VERTEX
  5
31B
100
AcDbEntity
  8
Frei
  6
CONTINUOUS
 62
           7
100
AcDbVertex
100
AcDb2dVertex
 10
-14374.92280231646
 20
-3328.626132566549
 30
0.0
  0
VERTEX
  5
31C
100
AcDbEntity
  8
Frei
  6
CONTINUOUS
 62
           7
100
AcDbVertex
100
AcDb2dVertex
 10
-14374.89725835597
 20
-3328.214025001352
 30
0.0
  0
VERTEX
  5
31D
100
AcDbEntity
  8
Frei
  6
CONTINUOUS
 62
           7
100
AcDbVertex
100
AcDb2dVertex
 10
-14374.905578233203
 20
-3327.801211274044
 30
0.0
 42
0.041278481646
  0
VERTEX
  5
31E
100
AcDbEntity
  8
Frei
  6
CONTINUOUS
 62
           7
100
AcDbVertex
100
AcDb2dVertex
 10
-14375.023373225791
 20
-3326.987465505617
 30
0.0
  0
VERTEX
  5
31F
100
AcDbEntity
  8
Frei
  6
CONTINUOUS
 62
           7
100
AcDbVertex
100
AcDb2dVertex
 10
-14375.131700781487
 20
-3326.593321199546
 30
0.0
  0
VERTEX
  5
320
100
AcDbEntity
  8
Frei
  6
CONTINUOUS
 62
           7
100
AcDbVertex
100
AcDb2dVertex
 10
-14375.27260815298
 20
-3326.209620514665
 30
0.0
 42
0.042584509173
  0
VERTEX
  5
321
100
AcDbEntity
  8
Frei
  6
CONTINUOUS
 62
           7
100
AcDbVertex
100
AcDb2dVertex
 10
-14375.645710137624
 20
-3325.491310727629
 30
0.0
  0
VERTEX
  5
322
100
AcDbEntity
  8
Frei
  6
CONTINUOUS
 62
           7
100
AcDbVertex
100
AcDb2dVertex
 10
-14375.874658505671
 20
-3325.162258770545
 30
0.0
  0
VERTEX
  5
323
100
AcDbEntity
  8
Frei
  6
CONTINUOUS
 62
           7
100
AcDbVertex
100
AcDb2dVertex
 10
-14376.131342664723
 20
-3324.854361623905
 30
0.0
 42
0.044417198743
  0
VERTEX
  5
324
100
AcDbEntity
  8
Frei
  6
CONTINUOUS
 62
           7
100
AcDbVertex
100
AcDb2dVertex
 10
-14376.714750035677
 20
-3324.3181265797
 30
0.0
  0
VERTEX
  5
325
100
AcDbEntity
  8
Frei
  6
CONTINUOUS
 62
           7
100
AcDbVertex
100
AcDb2dVertex
 10
-14377.036974106948
 20
-3324.093467015153
 30
0.0
  0
VERTEX
  5
326
100
AcDbEntity
  8
Frei
  6
CONTINUOUS
 62
           7
100
AcDbVertex
100
AcDb2dVertex
 10
-14377.378205712745
 20
-3323.898898825483
 30
0.0
 42
0.045929593742
  0
VERTEX
  5
327
100
AcDbEntity
  8
Frei
  6
CONTINUOUS
 62
           7
100
AcDbVertex
100
AcDb2dVertex
 10
-14378.101550930896
 20
-3323.609416384426
 30
0.0
  0
VERTEX
  5
328
100
AcDbEntity
  8
Frei
  6
CONTINUOUS
 62
           7
100
AcDbVertex
100
AcDb2dVertex
 10
-14378.478680216942
 20
-3323.516295991098
 30
0.0
  0
VERTEX
  5
329
100
AcDbEntity
  8
Frei
  6
CONTINUOUS
 62
           7
100
AcDbVertex
100
AcDb2dVertex
 10
-14378.862807211714
 20
-3323.458475034015
 30
0.0
  0
SEQEND
  5
32A
100
AcDbEntity
  8
Frei
  6
CONTINUOUS
 62
           7
  0
ARC
  5
32B
100
AcDbEntity
  8
Frei
  6
CONTINUOUS
 62
           7
100
AcDbCircle
 10
-14245.910866138438
 20
-3346.717454779504
 30
0.0
 40
0.5
100
AcDbArc
 50
271.253821982568
 51
354.103999999999
  0
ARC
  5
32C
100
AcDbEntity
  8
Frei
  6
CONTINUOUS
 62
           7
100
AcDbCircle
 10
-14245.385170141566
 20
-3341.626924071043
 30
0.0
 40
0.5
100
AcDbArc
 50
354.103999999999
 51
76.954178017423
  0
ARC
  5
32D
100
AcDbEntity
  8
Frei
  6
CONTINUOUS
 62
           7
100
AcDbCircle
 10
-14398.76948006099
 20
-3303.67002095045
 30
0.0
 40
0.5
100
AcDbArc
 50
91.253821982565
 51
174.104
  0
ARC
  5
32E
100
AcDbEntity
  8
Frei
  6
CONTINUOUS
 62
           7
100
AcDbCircle
 10
-14399.295176057864
 20
-3308.760551658911
 30
0.0
 40
0.5
100
AcDbArc
 50
174.104
 51
256.954178017419
  0
ARC
  5
32F
100
AcDbEntity
  8
Frei
  6
CONTINUOUS
 62
           7
100
AcDbCircle
 10
-14429.035915947325
 20
-3304.568593796976
 30
0.0
 40
2.0
100
AcDbArc
 50
86.104
 51
174.104
  0
ARC
  5
330
100
AcDbEntity
  8
Frei
  6
CONTINUOUS
 62
           7
100
AcDbCircle
 10
-14446.782034892829
 20
-3359.592655485501
 30
0.0
 40
1.5
100
AcDbArc
 50
174.104
 51
264.104
  0
ARC
  5
331
100
AcDbEntity
  8
Frei
  6
CONTINUOUS
 62
           7
100
AcDbCircle
 10
-14445.241188495131
 20
-3344.672005621011
 30
0.0
 40
1.5
100
AcDbArc
 50
84.104
 51
174.104
  0
ARC
  5
332
100
AcDbEntity
  8
Frei
  6
CONTINUOUS
 62
           7
100
AcDbCircle
 10
-14434.640068814877
 20
-3358.835912621727
 30
0.0
 40
1.5
100
AcDbArc
 50
174.104
 51
264.104
  0
ARC
  5
333
100
AcDbEntity
  8
Frei
  6
CONTINUOUS
 62
           7
100
AcDbCircle
 10
-14409.772319040727
 20
-3361.403989951224
 30
0.0
 40
1.5
100
AcDbArc
 50
264.104
 51
354.103999999999
  0
ARC
  5
334
100
AcDbEntity
  8
Frei
  6
CONTINUOUS
 62
           7
100
AcDbCircle
 10
-14244.650460540372
 20
-3378.456023419079
 30
0.0
 40
1.5
100
AcDbArc
 50
174.104
 51
264.104000000001
  0
ARC
  5
335
100
AcDbEntity
  8
Frei
  6
CONTINUOUS
 62
           7
100
AcDbCircle
 10
-14219.782710766221
 20
-3381.024100748576
 30
0.0
 40
1.5
100
AcDbArc
 50
264.104000000001
 51
354.103999999999
  0
ARC
  5
336
100
AcDbEntity
  8
Frei
  6
CONTINUOUS
 62
           7
100
AcDbCircle
 10
-14206.510790663291
 20
-3369.325547984176
 30
0.0
 40
1.5
100
AcDbArc
 50
354.103999999999
 51
84.104
  0
ARC
  5
337
100
AcDbEntity
  8
Frei
  6
CONTINUOUS
 62
           7
100
AcDbCircle
 10
-14208.051637060989
 20
-3384.246197848666
 30
0.0
 40
1.5
100
AcDbArc
 50
264.104000000001
 51
354.103999999999
  0
ARC
  5
338
100
AcDbEntity
  8
Frei
  6
CONTINUOUS
 62
           7
100
AcDbCircle
 10
-14214.178557898667
 20
-3326.756781923824
 30
0.0
 40
2.0
100
AcDbArc
 50
354.103999999999
 51
82.104
  0
ARC
  5
339
100
AcDbEntity
  8
Frei
  6
CONTINUOUS
 62
           7
100
AcDbCircle
 10
-14242.911908362337
 20
-3317.813815046327
 30
0.0
 40
1.0
100
AcDbArc
 50
354.103999999999
 51
84.104
  0
ARC
  5
33A
100
AcDbEntity
  8
Frei
  6
CONTINUOUS
 62
           7
100
AcDbCircle
 10
-14246.096324250911
 20
-3348.649824766274
 30
0.0
 40
1.0
100
AcDbArc
 50
264.103999999999
 51
354.103999999999
  0
ARC
  5
33B
100
AcDbEntity
  8
Frei
  6
CONTINUOUS
 62
           7
100
AcDbCircle
 10
-14402.265792832575
 20
-3332.522299137037
 30
0.0
 40
1.0
100
AcDbArc
 50
174.104
 51
264.104
  0
ARC
  5
33C
100
AcDbEntity
  8
Frei
  6
CONTINUOUS
 62
           7
100
AcDbCircle
 10
-14399.081376943999
 20
-3301.68628941709
 30
0.0
 40
1.0
100
AcDbArc
 50
84.104
 51
174.104
  0
LINE
  5
33D
100
AcDbEntity
  8
Frei
  6
CONTINUOUS
 62
           7
100
AcDbLine
 10
-14684.810351261987
 20
-3293.852969458406
 30
0.0
 11
-14684.810351261987
 21
-3373.852969458406
 31
0.0
  0
LINE
  5
33E
100
AcDbEntity
  8
Frei
  6
CONTINUOUS
 62
           7
100
AcDbLine
 10
-14138.921466261987
 20
-3373.852969458406
 30
0.0
 11
-14138.921466261987
 21
-3293.852969458406
 31
0.0
  0
LINE
  5
33F
100
AcDbEntity
  8
Frei
  6
CONTINUOUS
 62
          15
100
AcDbLine
 10
-14609.716335121375
 20
-3293.852969458406
 30
0.0
 11
-14684.810351261987
 21
-3293.852969458406
 31
0.0
  0
LINE
  5
340
100
AcDbEntity
  8
Frei
  6
GESTRICHELT
 62
          15
100
AcDbLine
 10
-14502.752936983166
 20
-3293.852969458406
 30
0.0
 11
-14609.716335121375
 21
-3293.852969458406
 31
0.0
  0
LINE
  5
341
100
AcDbEntity
  8
Frei
  6
CONTINUOUS
 62
          15
100
AcDbLine
 10
-14485.411236770347
 20
-3293.852969458406
 30
0.0
 11
-14502.752936983166
 21
-3293.852969458406
 31
0.0
  0
LINE
  5
342
100
AcDbEntity
  8
Frei
  6
GESTRICHELT
 62
          15
100
AcDbLine
 10
-14288.024117264171
 20
-3293.852969458406
 30
0.0
 11
-14485.411236770347
 21
-3293.852969458406
 31
0.0
  0
LINE
  5
343
100
AcDbEntity
  8
Frei
  6
CONTINUOUS
 62
          15
100
AcDbLine
 10
-14138.921466261987
 20
-3293.852969458406
 30
0.0
 11
-14288.024117264171
 21
-3293.852969458406
 31
0.0
  0
LINE
  5
344
100
AcDbEntity
  8
Frei
  6
CONTINUOUS
 62
          15
100
AcDbLine
 10
-14649.810351261985
 20
-3373.852969458406
 30
0.0
 11
-14684.810351261987
 21
-3373.852969458406
 31
0.0
  0
LINE
  5
345
100
AcDbEntity
  8
Frei
  6
CONTINUOUS
 62
          15
100
AcDbLine
 10
-14245.683083182563
 20
-3373.852969458406
 30
0.0
 11
-14649.810351261985
 21
-3373.852969458406
 31
0.0
  0
LINE
  5
346
100
AcDbEntity
  8
Frei
  6
GESTRICHELT
 62
          15
100
AcDbLine
 10
-14195.417176079887
 20
-3373.852969458406
 30
0.0
 11
-14245.683083182563
 21
-3373.852969458406
 31
0.0
  0
LINE
  5
347
100
AcDbEntity
  8
Frei
  6
CONTINUOUS
 62
          15
100
AcDbLine
 10
-14138.921466261987
 20
-3373.852969458406
 30
0.0
 11
-14195.417176079887
 21
-3373.852969458406
 31
0.0
  0
TEXT
  5
348
100
AcDbEntity
  8
FREI
  6
CONTINUOUS
 62
          15
100
AcDbText
 10
-14857.506619543374
 20
-3415.461554692359
 30
0.0
 40
3.527777671814
  1
250-700
 41
0.899999979725
  7
GOTHICG
100
AcDbText
  0
ENDSEC
  0
SECTION
  2
OBJECTS
  0
DICTIONARY
  5
19
100
AcDbDictionary
  3
ACAD_GROUP
350
1A
  3
ACAD_MLINESTYLE
350
1B
  0
DICTIONARY
  5
1A
102
{ACAD_REACTORS
330
19
102
}
100
AcDbDictionary
  0
DICTIONARY
  5
1B
102
{ACAD_REACTORS
330
19
102
}
100
AcDbDictionary
  3
STANDARD
350
1C
  0
MLINESTYLE
  5
1C
102
{ACAD_REACTORS
330
1B
102
}
100
AcDbMlineStyle
  2
STANDARD
 70
           0
  3

 62
           0
 51
90.0
 52
90.0
 71
           2
 49
0.5
 62
         256
  6
BYLAYER
 49
-0.5
 62
         256
  6
BYLAYER
  0
ENDSEC
  0
EOF
