  0
SECTION
  2
HEADER
  9
$ACADVER
  1
AC1012
  9
$DWGCODEPAGE
  3
dos850
  9
$INSBASE
 10
0.0
 20
0.0
 30
0.0
  9
$EXTMIN
 10
-14942.03582100098
 20
-4655.285810764614
 30
0.0
  9
$EXTMAX
 10
-14140.810112731424
 20
-4212.907681553595
 30
0.0
  9
$LIMMIN
 10
-14942.03582100098
 20
-4655.285810764614
  9
$LIMMAX
 10
-14140.810112731424
 20
-4212.907681553595
  9
$ORTHOMODE
 70
           0
  9
$REGENMODE
 70
           1
  9
$FILLMODE
 70
           1
  9
$QTEXTMODE
 70
           0
  9
$MIRRTEXT
 70
           1
  9
$DRAGMODE
 70
           2
  9
$LTSCALE
 40
5.0
  9
$OSMODE
 70
           0
  9
$ATTMODE
 70
           1
  9
$TEXTSIZE
 40
0.2
  9
$TRACEWID
 40
0.05
  9
$TEXTSTYLE
  7
TXT
  9
$CLAYER
  8
0
  9
$CELTYPE
  6
CONTINUOUS
  9
$CECOLOR
 62
         256
  9
$CELTSCALE
 40
1.0
  9
$DELOBJ
 70
           1
  9
$DISPSILH
 70
           0
  9
$DIMSCALE
 40
1.0
  9
$DIMASZ
 40
3.5
  9
$DIMEXO
 40
0.0625
  9
$DIMDLI
 40
0.38
  9
$DIMRND
 40
0.0
  9
$DIMDLE
 40
0.0
  9
$DIMEXE
 40
0.18
  9
$DIMTP
 40
0.0
  9
$DIMTM
 40
0.0
  9
$DIMTXT
 40
3.5
  9
$DIMCEN
 40
0.09
  9
$DIMTSZ
 40
0.0
  9
$DIMTOL
 70
           0
  9
$DIMLIM
 70
           0
  9
$DIMTIH
 70
           1
  9
$DIMTOH
 70
           1
  9
$DIMSE1
 70
           0
  9
$DIMSE2
 70
           0
  9
$DIMTAD
 70
           0
  9
$DIMZIN
 70
           0
  9
$DIMBLK
  1

  9
$DIMASO
 70
           1
  9
$DIMSHO
 70
           1
  9
$DIMPOST
  1

  9
$DIMAPOST
  1

  9
$DIMALT
 70
           0
  9
$DIMALTD
 70
           2
  9
$DIMALTF
 40
25.4
  9
$DIMLFAC
 40
1.0
  9
$DIMTOFL
 70
           0
  9
$DIMTVP
 40
0.0
  9
$DIMTIX
 70
           0
  9
$DIMSOXD
 70
           0
  9
$DIMSAH
 70
           0
  9
$DIMBLK1
  1

  9
$DIMBLK2
  1

  9
$DIMSTYLE
  2
STANDARD
  9
$DIMCLRD
 70
           0
  9
$DIMCLRE
 70
           0
  9
$DIMCLRT
 70
           0
  9
$DIMTFAC
 40
1.0
  9
$DIMGAP
 40
0.09
  9
$DIMJUST
 70
           0
  9
$DIMSD1
 70
           0
  9
$DIMSD2
 70
           0
  9
$DIMTOLJ
 70
           1
  9
$DIMTZIN
 70
           0
  9
$DIMALTZ
 70
           0
  9
$DIMALTTZ
 70
           0
  9
$DIMFIT
 70
           3
  9
$DIMUPT
 70
           0
  9
$DIMUNIT
 70
           2
  9
$DIMDEC
 70
           4
  9
$DIMTDEC
 70
           4
  9
$DIMALTU
 70
           2
  9
$DIMALTTD
 70
           2
  9
$DIMTXSTY
  7
TXT
  9
$DIMAUNIT
 70
           0
  9
$LUNITS
 70
           2
  9
$LUPREC
 70
           3
  9
$SKETCHINC
 40
0.1
  9
$FILLETRAD
 40
0.0
  9
$AUNITS
 70
           0
  9
$AUPREC
 70
           3
  9
$MENU
  1
acad
  9
$ELEVATION
 40
0.0
  9
$PELEVATION
 40
0.0
  9
$THICKNESS
 40
0.0
  9
$LIMCHECK
 70
           0
  9
$BLIPMODE
 70
           1
  9
$CHAMFERA
 40
0.0
  9
$CHAMFERB
 40
0.0
  9
$CHAMFERC
 40
0.0
  9
$CHAMFERD
 40
0.0
  9
$SKPOLY
 70
           0
  9
$TDCREATE
 40
0.000000000
  9
$TDUPDATE
 40
0.000000000
  9
$TDINDWG
 40
0.0000000000
  9
$TDUSRTIMER
 40
0.0000000000
  9
$USRTIMER
 70
           1
  9
$ANGBASE
 50
0.0
  9
$ANGDIR
 70
           0
  9
$PDMODE
 70
           2
  9
$PDSIZE
 40
0.5
  9
$PLINEWID
 40
0.0
  9
$COORDS
 70
           0
  9
$SPLFRAME
 70
           0
  9
$SPLINETYPE
 70
           6
  9
$SPLINESEGS
 70
           8
  9
$ATTDIA
 70
           0
  9
$ATTREQ
 70
           1
  9
$HANDLING
 70
           1
  9
$HANDSEED
  5
3A4
  9
$SURFTAB1
 70
           6
  9
$SURFTAB2
 70
           6
  9
$SURFTYPE
 70
           6
  9
$SURFU
 70
           6
  9
$SURFV
 70
           6
  9
$UCSNAME
  2

  9
$UCSORG
 10
0.0
 20
0.0
 30
0.0
  9
$UCSXDIR
 10
1.0
 20
0.0
 30
0.0
  9
$UCSYDIR
 10
0.0
 20
1.0
 30
0.0
  9
$PUCSNAME
  2

  9
$PUCSORG
 10
0.0
 20
0.0
 30
0.0
  9
$PUCSXDIR
 10
1.0
 20
0.0
 30
0.0
  9
$PUCSYDIR
 10
0.0
 20
1.0
 30
0.0
  9
$USERI1
 70
           0
  9
$USERI2
 70
           0
  9
$USERI3
 70
           0
  9
$USERI4
 70
           0
  9
$USERI5
 70
           0
  9
$USERR1
 40
0.0
  9
$USERR2
 40
0.0
  9
$USERR3
 40
0.0
  9
$USERR4
 40
0.0
  9
$USERR5
 40
0.0
  9
$WORLDVIEW
 70
           1
  9
$SHADEDGE
 70
           3
  9
$SHADEDIF
 70
          70
  9
$TILEMODE
 70
           1
  9
$MAXACTVP
 70
          16
  9
$PINSBASE
 10
0.0
 20
0.0
 30
0.0
  9
$PLIMCHECK
 70
           0
  9
$PEXTMIN
 10
1.000000000000E+20
 20
1.000000000000E+20
 30
1.000000000000E+20
  9
$PEXTMAX
 10
-1.000000000000E+20
 20
-1.000000000000E+20
 30
-1.000000000000E+20
  9
$PLIMMIN
 10
0.0
 20
0.0
  9
$PLIMMAX
 10
12.0
 20
9.0
  9
$UNITMODE
 70
           0
  9
$VISRETAIN
 70
           0
  9
$PLINEGEN
 70
           1
  9
$PSLTSCALE
 70
           0
  9
$TREEDEPTH
 70
        3020
  9
$PICKSTYLE
 70
           1
  9
$CMLSTYLE
  2
STANDARD
  9
$CMLJUST
 70
           0
  9
$CMLSCALE
 40
1.0
  9
$SAVEIMAGES
 70
           0
  0
ENDSEC
  0
SECTION
  2
CLASSES
  0
CLASS
  1
LWPOLYLINE
  2
AcDbPolyline
  3
"AutoCAD"
 90
        0
280
           0
281
           1
  0
CLASS
  1
IMAGE
  2
AcDbRasterImage
  3
ISM
 90
      127
280
           0
281
           1
  0
CLASS
  1
OLE2FRAME
  2
AcDbOle2Frame
  3
""
 90
        0
280
           0
281
           1
  0
CLASS
  1
HATCH
  2
AcDbHatch
  3
"ACAD_SEDONA"
 90
        0
280
           0
281
           1
  0
CLASS
  1
DICTIONARYVAR
  2
AcDbDictionaryVar
  3
"AutoCAD"
 90
        0
280
           0
281
           0
  0
CLASS
  1
RASTERVARIABLES
  2
AcDbRasterVariables
  3
ISM
 90
        0
280
           0
281
           0
  0
CLASS
  1
IMAGEDEF
  2
AcDbRasterImageDef
  3
ISM
 90
        0
280
           0
281
           0
  0
CLASS
  1
IMAGEDEF_REACTOR
  2
AcDbRasterImageDefReactor
  3
ISM
 90
        1
280
           0
281
           0
  0
CLASS
  1
IDBUFFER
  2
AcDbIdBuffer
  3
"Acad"
 90
        0
280
           0
281
           0
  0
CLASS
  1
SPATIAL_FILTER
  2
AcDbSpatialFilter
  3
"Acad"
 90
        0
280
           0
281
           0
  0
CLASS
  1
XRECORD
  2
AcDbXrecord
  3
"<Built In>"
 90
        0
280
           0
281
           0
  0
ENDSEC
  0
SECTION
  2
TABLES
  0
TABLE
  2
VPORT
  5
7
100
AcDbSymbolTable
 70
           1
  0
VPORT
  5
15
100
AcDbSymbolTableRecord
100
AcDbViewportTableRecord
  2
*ACTIVE
 70
           0
 10
0.0
 20
0.0
 11
1.0
 21
1.0
 12
6.591288
 22
4.579184
 13
0.0
 23
0.0
 14
1.0
 24
1.0
 15
0.0
 25
0.0
 16
0.0
 26
0.0
 36
1.0
 17
0.0
 27
0.0
 37
0.0
 40
9.158369
 41
0.688564
 42
50.0
 43
0.0
 44
0.0
 50
0.0
 51
0.0
 71
           0
 72
         100
 73
           1
 74
           1
 75
           0
 76
           0
 77
           0
 78
           0
  0
ENDTAB
  0
TABLE
  2
LTYPE
  5
4
100
AcDbSymbolTable
 70
           5
  0
LTYPE
  5
11
100
AcDbSymbolTableRecord
100
AcDbLinetypeTableRecord
  2
BYBLOCK
 70
           0
  3

 72
          65
 73
           0
 40
0.0
  0
LTYPE
  5
12
100
AcDbSymbolTableRecord
100
AcDbLinetypeTableRecord
  2
BYLAYER
 70
           0
  3

 72
          65
 73
           0
 40
0.0
  0
LTYPE
  5
13
100
AcDbSymbolTableRecord
100
AcDbLinetypeTableRecord
  2
CONTINUOUS
 70
           0
  3
Solid line
 72
          65
 73
           0
 40
0.0
  0
LTYPE
  5
1D
100
AcDbSymbolTableRecord
100
AcDbLinetypeTableRecord
  2
GESTRICHELT
 70
           0
  3

 72
          65
 73
           2
 40
0.75
 49
0.5
 74
           0
 49
-0.25
 74
           0
  0
LTYPE
  5
1E
100
AcDbSymbolTableRecord
100
AcDbLinetypeTableRecord
  2
STRICHPUNKT
 70
           0
  3

 72
          65
 73
           4
 40
1.0
 49
0.5
 74
           0
 49
-0.25
 74
           0
 49
0.0
 74
           0
 49
-0.25
 74
           0
  0
ENDTAB
  0
TABLE
  2
LAYER
  5
2
100
AcDbSymbolTable
 70
           3
  0
LAYER
  5
14
100
AcDbSymbolTableRecord
100
AcDbLayerTableRecord
  2
0
 70
           0
 62
           7
  6
CONTINUOUS
  0
LAYER
  5
20
100
AcDbSymbolTableRecord
100
AcDbLayerTableRecord
  2
FREI
 70
           0
 62
           7
  6
CONTINUOUS
  0
LAYER
  5
21
100
AcDbSymbolTableRecord
100
AcDbLayerTableRecord
  2
Frei
 70
           0
 62
           7
  6
CONTINUOUS
  0
ENDTAB
  0
TABLE
  2
STYLE
  5
3
100
AcDbSymbolTable
 70
           2
  0
STYLE
  5
17
100
AcDbSymbolTableRecord
100
AcDbTextStyleTableRecord
  2
TXT
 70
           0
 40
3.5
 41
1.0
 50
0.0
 71
           0
 42
3.5
  3
TXT
  4

  0
STYLE
  5
1F
100
AcDbSymbolTableRecord
100
AcDbTextStyleTableRecord
  2
GOTHICG
 70
           0
 40
3.5
 41
1.0
 50
0.0
 71
           0
 42
3.5
  3
GOTHICG
  4

  0
ENDTAB
  0
TABLE
  2
VIEW
  5
5
100
AcDbSymbolTable
 70
           0
  0
ENDTAB
  0
TABLE
  2
UCS
  5
6
100
AcDbSymbolTable
 70
           0
  0
ENDTAB
  0
TABLE
  2
APPID
  5
8
100
AcDbSymbolTable
 70
           2
  0
APPID
  5
16
100
AcDbSymbolTableRecord
100
AcDbRegAppTableRecord
  2
ACAD
 70
           0
  0
APPID
  5
22
100
AcDbSymbolTableRecord
100
AcDbRegAppTableRecord
  2
MegaCADPntStyle
 70
           0
  0
ENDTAB
  0
TABLE
  2
DIMSTYLE
  5
9
100
AcDbSymbolTable
 70
           1
  0
DIMSTYLE
105
18
100
AcDbSymbolTableRecord
100
AcDbDimStyleTableRecord
  2
STANDARD
 70
           0
  3

  4

  5

  6

  7

 40
1.0
 41
0.18
 42
0.0625
 43
0.38
 44
0.18
 45
0.0
 46
0.0
 47
0.0
 48
0.0
140
0.18
141
0.09
142
0.0
143
25.4
144
1.0
145
0.0
146
1.0
147
0.09
 71
           0
 72
           0
 73
           1
 74
           1
 75
           0
 76
           0
 77
           0
 78
           0
170
           0
171
           2
172
           0
173
           0
174
           0
175
           0
176
           0
177
           0
178
           0
270
           2
271
           4
272
           4
273
           2
274
           2
340
17
275
           0
280
           0
281
           0
282
           0
283
           1
284
           0
285
           0
286
           0
287
           0
288
           0
  0
ENDTAB
  0
TABLE
  2
BLOCK_RECORD
  5
1
100
AcDbSymbolTable
 70
           3
  0
BLOCK_RECORD
  5
A
100
AcDbSymbolTableRecord
100
AcDbBlockTableRecord
  2
*MODEL_SPACE
  0
BLOCK_RECORD
  5
B
100
AcDbSymbolTableRecord
100
AcDbBlockTableRecord
  2
*PAPER_SPACE
  0
BLOCK_RECORD
  5
23
100
AcDbSymbolTableRecord
100
AcDbBlockTableRecord
  2
ELIPPSE
  0
BLOCK_RECORD
  5
24
100
AcDbSymbolTableRecord
100
AcDbBlockTableRecord
  2
MAK1
  0
BLOCK_RECORD
  5
25
100
AcDbSymbolTableRecord
100
AcDbBlockTableRecord
  2
MAK2
  0
ENDTAB
  0
ENDSEC
  0
SECTION
  2
BLOCKS
  0
BLOCK
  5
D
100
AcDbEntity
  8
0
100
AcDbBlockBegin
  2
*MODEL_SPACE
 70
           0
 10
0.0
 20
0.0
 30
0.0
  3
*MODEL_SPACE
  1

  0
ENDBLK
  5
E
100
AcDbEntity
  8
0
100
AcDbBlockEnd
  0
BLOCK
  5
F
100
AcDbEntity
 67
           1
  8
0
100
AcDbBlockBegin
  2
*PAPER_SPACE
 70
           0
 10
0.0
 20
0.0
 30
0.0
  3
*PAPER_SPACE
  1

  0
ENDBLK
  5
10
100
AcDbEntity
 67
           1
  8
0
100
AcDbBlockEnd
  0
BLOCK
  5
348
100
AcDbEntity
  8
0
100
AcDbBlockBegin
  2
ELIPPSE
 70
          64
 10
0.0
 20
0.0
 30
0.0
  3
ELIPPSE
  1

  0
CIRCLE
  5
349
100
AcDbEntity
  8
0
  6
BYBLOCK
 62
           0
100
AcDbCircle
 10
0.0
 20
0.0
 30
0.0
 40
1.0
  0
ENDBLK
  5
34A
100
AcDbEntity
  8
0
  6
BYBLOCK
 62
           0
100
AcDbBlockEnd
  0
BLOCK
  5
34B
100
AcDbEntity
  8
0
100
AcDbBlockBegin
  2
MAK1
 70
          64
 10
0.0
 20
0.0
 30
0.0
  3
MAK1
  1

  0
LINE
  5
34C
100
AcDbEntity
  8
Frei
  6
CONTINUOUS
 62
           2
100
AcDbLine
 10
191.903508353415
 20
615.106916893559
 30
0.0
 11
192.293358480829
 21
615.496767020978
 31
0.0
  0
LINE
  5
34D
100
AcDbEntity
  8
Frei
  6
CONTINUOUS
 62
           2
100
AcDbLine
 10
191.903508353413
 20
614.04625672178
 30
0.0
 11
193.354018652612
 21
615.496767020978
 31
0.0
  0
LINE
  5
34E
100
AcDbEntity
  8
Frei
  6
CONTINUOUS
 62
           2
100
AcDbLine
 10
191.903508353413
 20
612.98559655
 30
0.0
 11
193.903508353411
 21
614.98559655
 31
0.0
  0
LINE
  5
34F
100
AcDbEntity
  8
Frei
  6
CONTINUOUS
 62
           2
100
AcDbLine
 10
191.903508353413
 20
611.924936378219
 30
0.0
 11
193.903508353415
 21
613.92493637822
 31
0.0
  0
LINE
  5
350
100
AcDbEntity
  8
Frei
  6
CONTINUOUS
 62
           2
100
AcDbLine
 10
191.903508353413
 20
610.864276206442
 30
0.0
 11
193.903508353413
 21
612.86427620644
 31
0.0
  0
LINE
  5
351
100
AcDbEntity
  8
Frei
  6
CONTINUOUS
 62
           2
100
AcDbLine
 10
191.903508353413
 20
609.803616034661
 30
0.0
 11
193.903508353413
 21
611.80361603466
 31
0.0
  0
LINE
  5
352
100
AcDbEntity
  8
Frei
  6
CONTINUOUS
 62
           2
100
AcDbLine
 10
191.903508353413
 20
608.742955862881
 30
0.0
 11
193.903508353413
 21
610.742955862882
 31
0.0
  0
LINE
  5
353
100
AcDbEntity
  8
Frei
  6
CONTINUOUS
 62
           2
100
AcDbLine
 10
191.903508353411
 20
607.682295691101
 30
0.0
 11
193.903508353413
 21
609.682295691101
 31
0.0
  0
LINE
  5
354
100
AcDbEntity
  8
Frei
  6
CONTINUOUS
 62
           2
100
AcDbLine
 10
191.903508353413
 20
606.621635519321
 30
0.0
 11
193.903508353413
 21
608.621635519321
 31
0.0
  0
LINE
  5
355
100
AcDbEntity
  8
Frei
  6
CONTINUOUS
 62
           2
100
AcDbLine
 10
191.903508353411
 20
605.560975347542
 30
0.0
 11
193.903508353413
 21
607.560975347542
 31
0.0
  0
LINE
  5
356
100
AcDbEntity
  8
Frei
  6
CONTINUOUS
 62
           2
100
AcDbLine
 10
191.903508353413
 20
604.500315175762
 30
0.0
 11
193.903508353413
 21
606.500315175763
 31
0.0
  0
LINE
  5
357
100
AcDbEntity
  8
Frei
  6
CONTINUOUS
 62
           2
100
AcDbLine
 10
191.903508353411
 20
603.439655003982
 30
0.0
 11
193.903508353413
 21
605.439655003983
 31
0.0
  0
LINE
  5
358
100
AcDbEntity
  8
Frei
  6
CONTINUOUS
 62
           2
100
AcDbLine
 10
191.903508353413
 20
602.378994832203
 30
0.0
 11
193.903508353411
 21
604.378994832202
 31
0.0
  0
LINE
  5
359
100
AcDbEntity
  8
Frei
  6
CONTINUOUS
 62
           2
100
AcDbLine
 10
191.903508353413
 20
601.318334660423
 30
0.0
 11
193.903508353413
 21
603.318334660422
 31
0.0
  0
LINE
  5
35A
100
AcDbEntity
  8
Frei
  6
CONTINUOUS
 62
           2
100
AcDbLine
 10
191.903508353413
 20
600.257674488644
 30
0.0
 11
193.903508353411
 21
602.257674488642
 31
0.0
  0
LINE
  5
35B
100
AcDbEntity
  8
Frei
  6
CONTINUOUS
 62
           2
100
AcDbLine
 10
191.903508353413
 20
599.197014316863
 30
0.0
 11
193.903508353413
 21
601.197014316863
 31
0.0
  0
LINE
  5
35C
100
AcDbEntity
  8
Frei
  6
CONTINUOUS
 62
           2
100
AcDbLine
 10
191.903508353413
 20
598.136354145083
 30
0.0
 11
193.903508353413
 21
600.136354145084
 31
0.0
  0
LINE
  5
35D
100
AcDbEntity
  8
Frei
  6
CONTINUOUS
 62
           2
100
AcDbLine
 10
191.903508353413
 20
597.075693973304
 30
0.0
 11
193.903508353413
 21
599.075693973303
 31
0.0
  0
LINE
  5
35E
100
AcDbEntity
  8
Frei
  6
CONTINUOUS
 62
           2
100
AcDbLine
 10
191.903508353413
 20
596.015033801524
 30
0.0
 11
193.903508353413
 21
598.015033801524
 31
0.0
  0
LINE
  5
35F
100
AcDbEntity
  8
Frei
  6
CONTINUOUS
 62
           2
100
AcDbLine
 10
192.445901744646
 20
595.496767020978
 30
0.0
 11
193.903508353413
 21
596.954373629744
 31
0.0
  0
LINE
  5
360
100
AcDbEntity
  8
Frei
  6
CONTINUOUS
 62
           2
100
AcDbLine
 10
193.506561916423
 20
595.496767020979
 30
0.0
 11
193.903508353413
 21
595.893713457964
 31
0.0
  0
LINE
  5
361
100
AcDbEntity
  8
Frei
  6
CONTINUOUS
 62
           2
100
AcDbLine
 10
192.573740611429
 20
595.496767020979
 30
0.0
 11
191.903508353411
 21
596.166999278998
 31
0.0
  0
LINE
  5
362
100
AcDbEntity
  8
Frei
  6
CONTINUOUS
 62
           2
100
AcDbLine
 10
193.63440078321
 20
595.496767020978
 30
0.0
 11
191.903508353413
 21
597.227659450778
 31
0.0
  0
LINE
  5
363
100
AcDbEntity
  8
Frei
  6
CONTINUOUS
 62
           2
100
AcDbLine
 10
193.903508353413
 20
596.288319622556
 30
0.0
 11
191.903508353411
 21
598.288319622557
 31
0.0
  0
LINE
  5
364
100
AcDbEntity
  8
Frei
  6
CONTINUOUS
 62
           2
100
AcDbLine
 10
193.903508353413
 20
597.348979794336
 30
0.0
 11
191.903508353413
 21
599.348979794336
 31
0.0
  0
LINE
  5
365
100
AcDbEntity
  8
Frei
  6
CONTINUOUS
 62
           2
100
AcDbLine
 10
193.903508353413
 20
598.409639966116
 30
0.0
 11
191.903508353413
 21
600.409639966116
 31
0.0
  0
LINE
  5
366
100
AcDbEntity
  8
Frei
  6
CONTINUOUS
 62
           2
100
AcDbLine
 10
193.903508353413
 20
599.470300137896
 30
0.0
 11
191.903508353413
 21
601.470300137894
 31
0.0
  0
LINE
  5
367
100
AcDbEntity
  8
Frei
  6
CONTINUOUS
 62
           2
100
AcDbLine
 10
193.903508353413
 20
600.530960309676
 30
0.0
 11
191.903508353413
 21
602.530960309674
 31
0.0
  0
LINE
  5
368
100
AcDbEntity
  8
Frei
  6
CONTINUOUS
 62
           2
100
AcDbLine
 10
193.903508353411
 20
601.591620481455
 30
0.0
 11
191.903508353413
 21
603.591620481455
 31
0.0
  0
LINE
  5
369
100
AcDbEntity
  8
Frei
  6
CONTINUOUS
 62
           2
100
AcDbLine
 10
193.903508353413
 20
602.652280653235
 30
0.0
 11
191.903508353413
 21
604.652280653235
 31
0.0
  0
LINE
  5
36A
100
AcDbEntity
  8
Frei
  6
CONTINUOUS
 62
           2
100
AcDbLine
 10
193.903508353413
 20
603.712940825014
 30
0.0
 11
191.903508353413
 21
605.712940825015
 31
0.0
  0
LINE
  5
36B
100
AcDbEntity
  8
Frei
  6
CONTINUOUS
 62
           2
100
AcDbLine
 10
193.903508353413
 20
604.773600996794
 30
0.0
 11
191.903508353413
 21
606.773600996793
 31
0.0
  0
LINE
  5
36C
100
AcDbEntity
  8
Frei
  6
CONTINUOUS
 62
           2
100
AcDbLine
 10
193.903508353413
 20
605.834261168574
 30
0.0
 11
191.903508353415
 21
607.834261168574
 31
0.0
  0
LINE
  5
36D
100
AcDbEntity
  8
Frei
  6
CONTINUOUS
 62
           2
100
AcDbLine
 10
193.903508353413
 20
606.894921340354
 30
0.0
 11
191.903508353411
 21
608.894921340353
 31
0.0
  0
LINE
  5
36E
100
AcDbEntity
  8
Frei
  6
CONTINUOUS
 62
           2
100
AcDbLine
 10
193.903508353413
 20
607.955581512134
 30
0.0
 11
191.903508353413
 21
609.955581512134
 31
0.0
  0
LINE
  5
36F
100
AcDbEntity
  8
Frei
  6
CONTINUOUS
 62
           2
100
AcDbLine
 10
193.903508353415
 20
609.016241683913
 30
0.0
 11
191.903508353411
 21
611.016241683913
 31
0.0
  0
LINE
  5
370
100
AcDbEntity
  8
Frei
  6
CONTINUOUS
 62
           2
100
AcDbLine
 10
193.903508353411
 20
610.076901855693
 30
0.0
 11
191.903508353413
 21
612.076901855692
 31
0.0
  0
LINE
  5
371
100
AcDbEntity
  8
Frei
  6
CONTINUOUS
 62
           2
100
AcDbLine
 10
193.903508353413
 20
611.137562027473
 30
0.0
 11
191.903508353413
 21
613.137562027472
 31
0.0
  0
LINE
  5
372
100
AcDbEntity
  8
Frei
  6
CONTINUOUS
 62
           2
100
AcDbLine
 10
193.903508353411
 20
612.198222199253
 30
0.0
 11
191.903508353413
 21
614.198222199253
 31
0.0
  0
LINE
  5
373
100
AcDbEntity
  8
Frei
  6
CONTINUOUS
 62
           2
100
AcDbLine
 10
193.903508353413
 20
613.258882371031
 30
0.0
 11
191.903508353413
 21
615.258882371033
 31
0.0
  0
LINE
  5
374
100
AcDbEntity
  8
Frei
  6
CONTINUOUS
 62
           2
100
AcDbLine
 10
193.903508353411
 20
614.319542542812
 30
0.0
 11
192.726283875247
 21
615.496767020978
 31
0.0
  0
LINE
  5
375
100
AcDbEntity
  8
Frei
  6
CONTINUOUS
 62
           2
100
AcDbLine
 10
193.903508353413
 20
615.380202714592
 30
0.0
 11
193.786944047026
 21
615.496767020978
 31
0.0
  0
ENDBLK
  5
376
100
AcDbEntity
  8
0
  6
BYBLOCK
 62
           0
100
AcDbBlockEnd
  0
BLOCK
  5
377
100
AcDbEntity
  8
0
100
AcDbBlockBegin
  2
MAK2
 70
          64
 10
0.0
 20
0.0
 30
0.0
  3
MAK2
  1

  0
LINE
  5
378
100
AcDbEntity
  8
Frei
  6
CONTINUOUS
 62
           2
100
AcDbLine
 10
-32.096491646589
 20
614.906213139102
 30
0.0
 11
-31.505937764712
 21
615.496767020979
 31
0.0
  0
LINE
  5
379
100
AcDbEntity
  8
Frei
  6
CONTINUOUS
 62
           2
100
AcDbLine
 10
-32.096491646589
 20
613.845552967322
 30
0.0
 11
-30.445277592931
 21
615.496767020977
 31
0.0
  0
LINE
  5
37A
100
AcDbEntity
  8
Frei
  6
CONTINUOUS
 62
           2
100
AcDbLine
 10
-32.096491646587
 20
612.784892795542
 30
0.0
 11
-30.096491646589
 21
614.784892795542
 31
0.0
  0
LINE
  5
37B
100
AcDbEntity
  8
Frei
  6
CONTINUOUS
 62
           2
100
AcDbLine
 10
-32.096491646589
 20
611.724232623762
 30
0.0
 11
-30.096491646591
 21
613.724232623762
 31
0.0
  0
LINE
  5
37C
100
AcDbEntity
  8
Frei
  6
CONTINUOUS
 62
           2
100
AcDbLine
 10
-32.096491646587
 20
610.663572451981
 30
0.0
 11
-30.096491646589
 21
612.663572451982
 31
0.0
  0
LINE
  5
37D
100
AcDbEntity
  8
Frei
  6
CONTINUOUS
 62
           2
100
AcDbLine
 10
-32.096491646589
 20
609.602912280203
 30
0.0
 11
-30.096491646589
 21
611.602912280204
 31
0.0
  0
LINE
  5
37E
100
AcDbEntity
  8
Frei
  6
CONTINUOUS
 62
           2
100
AcDbLine
 10
-32.096491646589
 20
608.542252108423
 30
0.0
 11
-30.096491646589
 21
610.542252108423
 31
0.0
  0
LINE
  5
37F
100
AcDbEntity
  8
Frei
  6
CONTINUOUS
 62
           2
100
AcDbLine
 10
-32.096491646589
 20
607.481591936643
 30
0.0
 11
-30.096491646587
 21
609.481591936644
 31
0.0
  0
LINE
  5
380
100
AcDbEntity
  8
Frei
  6
CONTINUOUS
 62
           2
100
AcDbLine
 10
-32.096491646589
 20
606.420931764865
 30
0.0
 11
-30.096491646589
 21
608.420931764863
 31
0.0
  0
LINE
  5
381
100
AcDbEntity
  8
Frei
  6
CONTINUOUS
 62
           2
100
AcDbLine
 10
-32.096491646589
 20
605.360271593084
 30
0.0
 11
-30.096491646587
 21
607.360271593084
 31
0.0
  0
LINE
  5
382
100
AcDbEntity
  8
Frei
  6
CONTINUOUS
 62
           2
100
AcDbLine
 10
-32.096491646589
 20
604.299611421304
 30
0.0
 11
-30.096491646589
 21
606.299611421305
 31
0.0
  0
LINE
  5
383
100
AcDbEntity
  8
Frei
  6
CONTINUOUS
 62
           2
100
AcDbLine
 10
-32.096491646591
 20
603.238951249524
 30
0.0
 11
-30.096491646589
 21
605.238951249524
 31
0.0
  0
LINE
  5
384
100
AcDbEntity
  8
Frei
  6
CONTINUOUS
 62
           2
100
AcDbLine
 10
-32.096491646589
 20
602.178291077744
 30
0.0
 11
-30.096491646589
 21
604.178291077744
 31
0.0
  0
LINE
  5
385
100
AcDbEntity
  8
Frei
  6
CONTINUOUS
 62
           2
100
AcDbLine
 10
-32.096491646591
 20
601.117630905966
 30
0.0
 11
-30.096491646589
 21
603.117630905964
 31
0.0
  0
LINE
  5
386
100
AcDbEntity
  8
Frei
  6
CONTINUOUS
 62
           2
100
AcDbLine
 10
-32.096491646587
 20
600.056970734185
 30
0.0
 11
-30.096491646589
 21
602.056970734184
 31
0.0
  0
LINE
  5
387
100
AcDbEntity
  8
Frei
  6
CONTINUOUS
 62
           2
100
AcDbLine
 10
-32.096491646589
 20
598.996310562405
 30
0.0
 11
-30.096491646589
 21
600.996310562405
 31
0.0
  0
LINE
  5
388
100
AcDbEntity
  8
Frei
  6
CONTINUOUS
 62
           2
100
AcDbLine
 10
-32.096491646589
 20
597.935650390625
 30
0.0
 11
-30.096491646591
 21
599.935650390625
 31
0.0
  0
LINE
  5
389
100
AcDbEntity
  8
Frei
  6
CONTINUOUS
 62
           2
100
AcDbLine
 10
-32.096491646589
 20
596.874990218846
 30
0.0
 11
-30.096491646589
 21
598.874990218845
 31
0.0
  0
LINE
  5
38A
100
AcDbEntity
  8
Frei
  6
CONTINUOUS
 62
           2
100
AcDbLine
 10
-32.096491646589
 20
595.814330047067
 30
0.0
 11
-30.096491646589
 21
597.814330047065
 31
0.0
  0
LINE
  5
38B
100
AcDbEntity
  8
Frei
  6
CONTINUOUS
 62
           2
100
AcDbLine
 10
-31.353394500897
 20
595.49676702098
 30
0.0
 11
-30.096491646587
 21
596.753669875285
 31
0.0
  0
LINE
  5
38C
100
AcDbEntity
  8
Frei
  6
CONTINUOUS
 62
           2
100
AcDbLine
 10
-30.292734329116
 20
595.496767020978
 30
0.0
 11
-30.096491646589
 21
595.693009703505
 31
0.0
  0
LINE
  5
38D
100
AcDbEntity
  8
Frei
  6
CONTINUOUS
 62
           2
100
AcDbLine
 10
-31.225555634113
 20
595.496767020978
 30
0.0
 11
-32.096491646589
 21
596.367703033456
 31
0.0
  0
LINE
  5
38E
100
AcDbEntity
  8
Frei
  6
CONTINUOUS
 62
           2
100
AcDbLine
 10
-30.164895462331
 20
595.496767020978
 30
0.0
 11
-32.096491646589
 21
597.428363205234
 31
0.0
  0
LINE
  5
38F
100
AcDbEntity
  8
Frei
  6
CONTINUOUS
 62
           2
100
AcDbLine
 10
-30.096491646589
 20
596.489023377015
 30
0.0
 11
-32.096491646589
 21
598.489023377014
 31
0.0
  0
LINE
  5
390
100
AcDbEntity
  8
Frei
  6
CONTINUOUS
 62
           2
100
AcDbLine
 10
-30.096491646589
 20
597.549683548795
 30
0.0
 11
-32.096491646589
 21
599.549683548794
 31
0.0
  0
LINE
  5
391
100
AcDbEntity
  8
Frei
  6
CONTINUOUS
 62
           2
100
AcDbLine
 10
-30.096491646589
 20
598.610343720575
 30
0.0
 11
-32.096491646589
 21
600.610343720574
 31
0.0
  0
LINE
  5
392
100
AcDbEntity
  8
Frei
  6
CONTINUOUS
 62
           2
100
AcDbLine
 10
-30.096491646589
 20
599.671003892354
 30
0.0
 11
-32.096491646589
 21
601.671003892353
 31
0.0
  0
LINE
  5
393
100
AcDbEntity
  8
Frei
  6
CONTINUOUS
 62
           2
100
AcDbLine
 10
-30.096491646589
 20
600.731664064134
 30
0.0
 11
-32.096491646589
 21
602.731664064132
 31
0.0
  0
LINE
  5
394
100
AcDbEntity
  8
Frei
  6
CONTINUOUS
 62
           2
100
AcDbLine
 10
-30.096491646587
 20
601.792324235914
 30
0.0
 11
-32.096491646589
 21
603.792324235912
 31
0.0
  0
LINE
  5
395
100
AcDbEntity
  8
Frei
  6
CONTINUOUS
 62
           2
100
AcDbLine
 10
-30.096491646589
 20
602.852984407694
 30
0.0
 11
-32.096491646589
 21
604.852984407692
 31
0.0
  0
LINE
  5
396
100
AcDbEntity
  8
Frei
  6
CONTINUOUS
 62
           2
100
AcDbLine
 10
-30.096491646587
 20
603.913644579472
 30
0.0
 11
-32.096491646589
 21
605.913644579472
 31
0.0
  0
LINE
  5
397
100
AcDbEntity
  8
Frei
  6
CONTINUOUS
 62
           2
100
AcDbLine
 10
-30.096491646589
 20
604.974304751251
 30
0.0
 11
-32.096491646591
 21
606.974304751252
 31
0.0
  0
LINE
  5
398
100
AcDbEntity
  8
Frei
  6
CONTINUOUS
 62
           2
100
AcDbLine
 10
-30.096491646589
 20
606.034964923031
 30
0.0
 11
-32.096491646589
 21
608.034964923032
 31
0.0
  0
LINE
  5
399
100
AcDbEntity
  8
Frei
  6
CONTINUOUS
 62
           2
100
AcDbLine
 10
-30.096491646589
 20
607.095625094812
 30
0.0
 11
-32.096491646591
 21
609.095625094811
 31
0.0
  0
LINE
  5
39A
100
AcDbEntity
  8
Frei
  6
CONTINUOUS
 62
           2
100
AcDbLine
 10
-30.096491646589
 20
608.156285266592
 30
0.0
 11
-32.096491646589
 21
610.156285266591
 31
0.0
  0
LINE
  5
39B
100
AcDbEntity
  8
Frei
  6
CONTINUOUS
 62
           2
100
AcDbLine
 10
-30.096491646589
 20
609.21694543837
 30
0.0
 11
-32.096491646589
 21
611.216945438371
 31
0.0
  0
LINE
  5
39C
100
AcDbEntity
  8
Frei
  6
CONTINUOUS
 62
           2
100
AcDbLine
 10
-30.096491646589
 20
610.27760561015
 30
0.0
 11
-32.096491646589
 21
612.277605610151
 31
0.0
  0
LINE
  5
39D
100
AcDbEntity
  8
Frei
  6
CONTINUOUS
 62
           2
100
AcDbLine
 10
-30.096491646589
 20
611.33826578193
 30
0.0
 11
-32.096491646589
 21
613.338265781931
 31
0.0
  0
LINE
  5
39E
100
AcDbEntity
  8
Frei
  6
CONTINUOUS
 62
           2
100
AcDbLine
 10
-30.096491646591
 20
612.398925953709
 30
0.0
 11
-32.096491646589
 21
614.39892595371
 31
0.0
  0
LINE
  5
39F
100
AcDbEntity
  8
Frei
  6
CONTINUOUS
 62
           2
100
AcDbLine
 10
-30.096491646589
 20
613.45958612549
 30
0.0
 11
-32.096491646589
 21
615.45958612549
 31
0.0
  0
LINE
  5
3A0
100
AcDbEntity
  8
Frei
  6
CONTINUOUS
 62
           2
100
AcDbLine
 10
-30.096491646589
 20
614.520246297269
 30
0.0
 11
-31.073012370296
 21
615.496767020978
 31
0.0
  0
ENDBLK
  5
3A1
100
AcDbEntity
  8
0
  6
BYBLOCK
 62
           0
100
AcDbBlockEnd
  0
ENDSEC
  0
SECTION
  2
ENTITIES
  0
INSERT
  5
26
100
AcDbEntity
  8
FREI
  6
CONTINUOUS
 62
           7
100
AcDbBlockReference
  2
MAK1
 10
-14467.151525949028
 20
-4983.539127546413
 30
0.0
 50
354.103999999999
  0
INSERT
  5
27
100
AcDbEntity
  8
FREI
  6
CONTINUOUS
 62
           7
100
AcDbBlockReference
  2
MAK2
 10
-14467.151525949028
 20
-4983.539127546413
 30
0.0
 50
354.103999999999
  0
LINE
  5
28
100
AcDbEntity
  8
FREI
  6
STRICHPUNKT
 62
          15
100
AcDbLine
 10
-14651.698997731422
 20
-4212.907681553595
 30
0.0
 11
-14651.698997731422
 21
-4302.907681553595
 31
0.0
  0
LINE
  5
29
100
AcDbEntity
  8
FREI
  6
STRICHPUNKT
 62
          15
100
AcDbLine
 10
-14651.698997731422
 20
-4302.907681553595
 30
0.0
 11
-14491.698997731422
 21
-4580.035810764614
 31
0.0
  0
LINE
  5
2A
100
AcDbEntity
  8
FREI
  6
CONTINUOUS
 62
          15
100
AcDbLine
 10
-14399.781830275017
 20
-4438.241014886927
 30
0.0
 11
-14361.362174461865
 21
-4504.785810764614
 31
0.0
  0
LINE
  5
2B
100
AcDbEntity
  8
FREI
  6
GESTRICHELT
 62
          15
100
AcDbLine
 10
-14456.172853167303
 20
-4340.568898146707
 30
0.0
 11
-14399.781830275017
 21
-4438.241014886927
 31
0.0
  0
LINE
  5
2C
100
AcDbEntity
  8
FREI
  6
CONTINUOUS
 62
          15
100
AcDbLine
 10
-14477.916566705346
 20
-4302.907681553593
 30
0.0
 11
-14456.172853167303
 21
-4340.568898146707
 31
0.0
  0
LINE
  5
2D
100
AcDbEntity
  8
FREI
  6
CONTINUOUS
 62
          15
100
AcDbLine
 10
-14651.698997731422
 20
-4603.907681553595
 30
0.0
 11
-14622.03582100098
 21
-4655.285810764614
 31
0.0
  0
LINE
  5
2E
100
AcDbEntity
  8
FREI
  6
STRICHPUNKT
 62
          15
100
AcDbLine
 10
-14651.698997731422
 20
-4302.907681553595
 30
0.0
 11
-14811.698997731422
 21
-4580.035810764614
 31
0.0
  0
LINE
  5
2F
100
AcDbEntity
  8
FREI
  6
CONTINUOUS
 62
          15
100
AcDbLine
 10
-14825.481428757499
 20
-4302.907681553595
 30
0.0
 11
-14942.03582100098
 21
-4504.785810764614
 31
0.0
  0
LINE
  5
30
100
AcDbEntity
  8
FREI
  6
CONTINUOUS
 62
          15
100
AcDbLine
 10
-14651.698997731422
 20
-4603.907681553595
 30
0.0
 11
-14681.362174461863
 21
-4655.285810764614
 31
0.0
  0
LINE
  5
31
100
AcDbEntity
  8
FREI
  6
CONTINUOUS
 62
          15
100
AcDbLine
 10
-14942.03582100098
 20
-4504.785810764614
 30
0.0
 11
-14681.362174461863
 21
-4655.285810764614
 31
0.0
  0
LINE
  5
32
100
AcDbEntity
  8
FREI
  6
CONTINUOUS
 62
          15
100
AcDbLine
 10
-14622.03582100098
 20
-4655.285810764614
 30
0.0
 11
-14361.362174461865
 21
-4504.785810764614
 31
0.0
  0
LINE
  5
33
100
AcDbEntity
  8
FREI
  6
CONTINUOUS
 62
          15
100
AcDbLine
 10
-14477.916566705346
 20
-4302.907681553591
 30
0.0
 11
-14825.481428757499
 21
-4302.907681553595
 31
0.0
  0
LINE
  5
34
100
AcDbEntity
  8
FREI
  6
CONTINUOUS
 62
          15
100
AcDbLine
 10
-14825.481428757499
 20
-4302.907681553595
 30
0.0
 11
-14802.198997731422
 21
-4212.907681553595
 31
0.0
  0
LINE
  5
35
100
AcDbEntity
  8
FREI
  6
CONTINUOUS
 62
          15
100
AcDbLine
 10
-14802.198997731422
 20
-4212.907681553595
 30
0.0
 11
-14501.198997731422
 21
-4212.907681553595
 31
0.0
  0
LINE
  5
36
100
AcDbEntity
  8
FREI
  6
CONTINUOUS
 62
          15
100
AcDbLine
 10
-14501.198997731422
 20
-4212.907681553595
 30
0.0
 11
-14477.916566705346
 21
-4302.907681553593
 31
0.0
  0
LINE
  5
37
100
AcDbEntity
  8
FREI
  6
CONTINUOUS
 62
          15
100
AcDbLine
 10
-14651.698997731422
 20
-4438.241014886927
 30
0.0
 11
-14651.698997731422
 21
-4603.907681553595
 31
0.0
  0
LINE
  5
38
100
AcDbEntity
  8
FREI
  6
GESTRICHELT
 62
          15
100
AcDbLine
 10
-14651.698997731422
 20
-4410.488981211131
 30
0.0
 11
-14651.698997731422
 21
-4438.241014886927
 31
0.0
  0
LINE
  5
39
100
AcDbEntity
  8
FREI
  6
GESTRICHELT
 62
          15
100
AcDbLine
 10
-14651.698997731422
 20
-4358.241014886927
 30
0.0
 11
-14651.698997731422
 21
-4395.993048562722
 31
0.0
  0
LINE
  5
3A
100
AcDbEntity
  8
FREI
  6
CONTINUOUS
 62
          15
100
AcDbLine
 10
-14651.698997731422
 20
-4302.907681553593
 30
0.0
 11
-14651.698997731422
 21
-4358.241014886927
 31
0.0
  0
CIRCLE
  5
3B
100
AcDbEntity
  8
FREI
  6
CONTINUOUS
 62
          15
100
AcDbCircle
 10
-14651.698997731422
 20
-4403.241014886927
 30
0.0
 40
7.247966324205
  0
CIRCLE
  5
3C
100
AcDbEntity
  8
Frei
  6
CONTINUOUS
 62
           7
100
AcDbCircle
 10
-14160.810050731423
 20
-4403.241014886927
 30
0.0
 40
6.25
  0
CIRCLE
  5
3D
100
AcDbEntity
  8
FREI
  6
CONTINUOUS
 62
          15
100
AcDbCircle
 10
-14577.220813005961
 20
-4360.241014886927
 30
0.0
 40
8.25
  0
ARC
  5
3E
100
AcDbEntity
  8
FREI
  6
CONTINUOUS
 62
          15
100
AcDbCircle
 10
-14651.698997731422
 20
-4403.241014886927
 30
0.0
 40
20.25
100
AcDbArc
 50
118.385820858495
 51
327.117816039372
  0
ARC
  5
3F
100
AcDbEntity
  8
FREI
  6
GESTRICHELT
 62
          15
100
AcDbCircle
 10
-14577.220813005961
 20
-4360.241014886927
 30
0.0
 40
18.25
100
AcDbArc
 50
112.839580585602
 51
118.385820858496
  0
ARC
  5
40
100
AcDbEntity
  8
FREI
  6
CONTINUOUS
 62
          15
100
AcDbCircle
 10
-14577.220813005961
 20
-4360.241014886927
 30
0.0
 40
18.25
100
AcDbArc
 50
55.368419414393
 51
112.839580585602
  0
ARC
  5
41
100
AcDbEntity
  8
FREI
  6
GESTRICHELT
 62
          15
100
AcDbCircle
 10
-14577.220813005961
 20
-4360.241014886927
 30
0.0
 40
18.25
100
AcDbArc
 50
292.871848138221
 51
55.368419414393
  0
ARC
  5
42
100
AcDbEntity
  8
FREI
  6
CONTINUOUS
 62
          15
100
AcDbCircle
 10
-14577.220813005961
 20
-4360.241014886927
 30
0.0
 40
18.25
100
AcDbArc
 50
235.336151861781
 51
292.871848138221
  0
ARC
  5
43
100
AcDbEntity
  8
FREI
  6
GESTRICHELT
 62
          15
100
AcDbCircle
 10
-14577.220813005961
 20
-4360.241014886927
 30
0.0
 40
18.25
100
AcDbArc
 50
219.400297985065
 51
235.336151861781
  0
LINE
  5
44
100
AcDbEntity
  8
FREI
  6
GESTRICHELT
 62
          15
100
AcDbLine
 10
-14594.636131588853
 20
-4348.96337196417
 30
0.0
 11
-14585.896981731283
 21
-4344.185280825546
 31
0.0
  0
LINE
  5
45
100
AcDbEntity
  8
FREI
  6
CONTINUOUS
 62
          15
100
AcDbLine
 10
-14661.325979467738
 20
-4385.42574832567
 30
0.0
 11
-14594.636131588853
 21
-4348.96337196417
 31
0.0
  0
LINE
  5
46
100
AcDbEntity
  8
FREI
  6
CONTINUOUS
 62
          15
100
AcDbLine
 10
-14599.014518408936
 20
-4371.781682857331
 30
0.0
 11
-14634.693276085682
 21
-4414.235010125581
 31
0.0
  0
ARC
  5
47
100
AcDbEntity
  8
FREI
  6
CONTINUOUS
 62
          15
100
AcDbCircle
 10
-14595.186791838505
 20
-4374.99859275691
 30
0.0
 40
5.0
100
AcDbArc
 50
98.870845309048
 51
139.955529992632
  0
ARC
  5
48
100
AcDbEntity
  8
FREI
  6
GESTRICHELT
 62
          15
100
AcDbCircle
 10
-14595.186791838505
 20
-4374.99859275691
 30
0.0
 40
5.0
100
AcDbArc
 50
39.400297985059
 51
98.870845309048
  0
LINE
  5
49
100
AcDbEntity
  8
Frei
  6
GESTRICHELT
 62
           7
100
AcDbLine
 10
-14183.717768733466
 20
-4400.875162422663
 30
0.0
 11
-14181.66330686987
 21
-4380.980962603342
 31
0.0
  0
LINE
  5
4A
100
AcDbEntity
  8
Frei
  6
GESTRICHELT
 62
           7
100
AcDbLine
 10
-14181.66330686987
 20
-4380.980962603342
 30
0.0
 11
-14185.642146833734
 21
-4380.570070230622
 31
0.0
  0
LINE
  5
4B
100
AcDbEntity
  8
Frei
  6
CONTINUOUS
 62
           7
100
AcDbLine
 10
-14184.409469715576
 20
-4368.633550339031
 30
0.0
 11
-14213.852885448168
 21
-4365.592946780907
 31
0.0
  0
LINE
  5
4C
100
AcDbEntity
  8
Frei
  6
CONTINUOUS
 62
           7
100
AcDbLine
 10
-14213.852885448168
 20
-4365.592946780907
 30
0.0
 11
-14213.904246994758
 21
-4366.09030177639
 31
0.0
  0
LINE
  5
4D
100
AcDbEntity
  8
Frei
  6
CONTINUOUS
 62
           7
100
AcDbLine
 10
-14213.904246994758
 20
-4366.09030177639
 30
0.0
 11
-14427.921764472345
 21
-4343.989029890976
 31
0.0
  0
LINE
  5
4E
100
AcDbEntity
  8
Frei
  6
CONTINUOUS
 62
           7
100
AcDbLine
 10
-14427.921764472345
 20
-4343.989029890976
 30
0.0
 11
-14427.870402925755
 21
-4343.491674895493
 31
0.0
  0
LINE
  5
4F
100
AcDbEntity
  8
Frei
  6
CONTINUOUS
 62
           7
100
AcDbLine
 10
-14427.870402925755
 20
-4343.491674895493
 30
0.0
 11
-14457.313818658349
 21
-4340.451071337369
 31
0.0
  0
LINE
  5
50
100
AcDbEntity
  8
Frei
  6
CONTINUOUS
 62
           7
100
AcDbLine
 10
-14457.313818658349
 20
-4340.451071337369
 30
0.0
 11
-14458.546495776507
 21
-4352.38759122896
 31
0.0
  0
LINE
  5
51
100
AcDbEntity
  8
Frei
  6
CONTINUOUS
 62
           7
100
AcDbLine
 10
-14458.546495776507
 20
-4352.38759122896
 30
0.0
 11
-14469.985660672615
 21
-4351.206275657392
 31
0.0
  0
LINE
  5
52
100
AcDbEntity
  8
Frei
  6
CONTINUOUS
 62
           7
100
AcDbLine
 10
-14469.985660672615
 20
-4351.206275657392
 30
0.0
 11
-14470.088383765795
 21
-4352.200985648358
 31
0.0
  0
LINE
  5
53
100
AcDbEntity
  8
Frei
  6
CONTINUOUS
 62
           7
100
AcDbLine
 10
-14470.088383765795
 20
-4352.200985648358
 30
0.0
 11
-14486.501098616734
 21
-4350.506054610891
 31
0.0
  0
LINE
  5
54
100
AcDbEntity
  8
Frei
  6
CONTINUOUS
 62
           7
100
AcDbLine
 10
-14486.501098616734
 20
-4350.506054610891
 30
0.0
 11
-14490.404576157569
 21
-4388.3050342676
 31
0.0
  0
LINE
  5
55
100
AcDbEntity
  8
Frei
  6
CONTINUOUS
 62
           7
100
AcDbLine
 10
-14490.404576157569
 20
-4388.3050342676
 30
0.0
 11
-14473.991861306629
 21
-4389.999965305067
 31
0.0
  0
LINE
  5
56
100
AcDbEntity
  8
Frei
  6
CONTINUOUS
 62
           7
100
AcDbLine
 10
-14473.991861306629
 20
-4389.999965305067
 30
0.0
 11
-14474.094584399811
 21
-4390.994675296033
 31
0.0
  0
LINE
  5
57
100
AcDbEntity
  8
Frei
  6
CONTINUOUS
 62
           7
100
AcDbLine
 10
-14474.094584399811
 20
-4390.994675296033
 30
0.0
 11
-14462.655419503701
 21
-4392.175990867601
 31
0.0
  0
LINE
  5
58
100
AcDbEntity
  8
Frei
  6
CONTINUOUS
 62
           7
100
AcDbLine
 10
-14462.655419503701
 20
-4392.175990867601
 30
0.0
 11
-14463.888096621858
 21
-4404.112510759192
 31
0.0
  0
LINE
  5
59
100
AcDbEntity
  8
Frei
  6
GESTRICHELT
 62
           7
100
AcDbLine
 10
-14436.356675685349
 20
-4406.955663782606
 30
0.0
 11
-14434.444680889266
 21
-4407.153114317316
 31
0.0
  0
LINE
  5
5A
100
AcDbEntity
  8
Frei
  6
CONTINUOUS
 62
           7
100
AcDbLine
 10
-14463.888096621858
 20
-4404.112510759192
 30
0.0
 11
-14436.356675685349
 21
-4406.955663782606
 31
0.0
  0
LINE
  5
5B
100
AcDbEntity
  8
Frei
  6
CONTINUOUS
 62
           7
100
AcDbLine
 10
-14434.444680889266
 20
-4407.153114317316
 30
0.0
 11
-14434.393319342676
 21
-4406.655759321833
 31
0.0
  0
LINE
  5
5C
100
AcDbEntity
  8
Frei
  6
GESTRICHELT
 62
           7
100
AcDbLine
 10
-14246.315689124782
 20
-4426.078257489282
 30
0.0
 11
-14220.37580186509
 21
-4428.757031207248
 31
0.0
  0
LINE
  5
5D
100
AcDbEntity
  8
Frei
  6
CONTINUOUS
 62
           7
100
AcDbLine
 10
-14408.453432082984
 20
-4409.334533039801
 30
0.0
 11
-14246.315689124782
 21
-4426.078257489282
 31
0.0
  0
LINE
  5
5E
100
AcDbEntity
  8
Frei
  6
GESTRICHELT
 62
           7
100
AcDbLine
 10
-14434.393319342676
 20
-4406.655759321833
 30
0.0
 11
-14408.453432082984
 21
-4409.334533039801
 31
0.0
  0
LINE
  5
5F
100
AcDbEntity
  8
Frei
  6
CONTINUOUS
 62
           7
100
AcDbLine
 10
-14220.37580186509
 20
-4428.757031207248
 30
0.0
 11
-14220.427163411679
 21
-4429.254386202731
 31
0.0
  0
LINE
  5
60
100
AcDbEntity
  8
Frei
  6
CONTINUOUS
 62
           7
100
AcDbLine
 10
-14218.515168615597
 20
-4429.45183673744
 30
0.0
 11
-14190.983747679085
 21
-4432.294989760854
 31
0.0
  0
LINE
  5
61
100
AcDbEntity
  8
Frei
  6
GESTRICHELT
 62
           7
100
AcDbLine
 10
-14220.427163411679
 20
-4429.254386202731
 30
0.0
 11
-14218.515168615597
 21
-4429.45183673744
 31
0.0
  0
LINE
  5
62
100
AcDbEntity
  8
Frei
  6
GESTRICHELT
 62
           7
100
AcDbLine
 10
-14189.751070560927
 20
-4420.358469869263
 30
0.0
 11
-14185.772230597064
 21
-4420.769362241982
 31
0.0
  0
LINE
  5
63
100
AcDbEntity
  8
Frei
  6
GESTRICHELT
 62
           7
100
AcDbLine
 10
-14185.772230597064
 20
-4420.769362241982
 30
0.0
 11
-14183.717768733466
 21
-4400.875162422663
 31
0.0
  0
LINE
  5
64
100
AcDbEntity
  8
Frei
  6
GESTRICHELT
 62
           7
100
AcDbLine
 10
-14216.280048392407
 20
-4389.09616456378
 30
0.0
 11
-14220.37580186509
 21
-4428.757031207248
 31
0.0
  0
LINE
  5
65
100
AcDbEntity
  8
Frei
  6
CONTINUOUS
 62
           7
100
AcDbLine
 10
-14213.904246994758
 20
-4366.09030177639
 30
0.0
 11
-14216.280048392407
 21
-4389.09616456378
 31
0.0
  0
LINE
  5
66
100
AcDbEntity
  8
Frei
  6
GESTRICHELT
 62
           7
100
AcDbLine
 10
-14430.297546821794
 20
-4366.994708226812
 30
0.0
 11
-14434.393319342676
 21
-4406.655759321833
 31
0.0
  0
LINE
  5
67
100
AcDbEntity
  8
Frei
  6
CONTINUOUS
 62
           7
100
AcDbLine
 10
-14427.921764472345
 20
-4343.989029890976
 30
0.0
 11
-14430.297546821794
 21
-4366.994708226812
 31
0.0
  0
LINE
  5
68
100
AcDbEntity
  8
Frei
  6
CONTINUOUS
 62
           7
100
AcDbLine
 10
-14458.546495776507
 20
-4352.38759122896
 30
0.0
 11
-14462.655419503701
 21
-4392.175990867601
 31
0.0
  0
LINE
  5
69
100
AcDbEntity
  8
Frei
  6
CONTINUOUS
 62
           7
100
AcDbLine
 10
-14469.985660672615
 20
-4351.206275657392
 30
0.0
 11
-14474.094584399811
 21
-4390.994675296033
 31
0.0
  0
LINE
  5
6A
100
AcDbEntity
  8
Frei
  6
GESTRICHELT
 62
           7
100
AcDbLine
 10
-14504.78976264648
 20
-4359.675895010181
 30
0.0
 11
-14527.498929608631
 21
-4357.330733209178
 31
0.0
  0
LINE
  5
6B
100
AcDbEntity
  8
Frei
  6
CONTINUOUS
 62
           7
100
AcDbLine
 10
-14496.583442560406
 20
-4360.523356672898
 30
0.0
 11
-14504.78976264648
 21
-4359.675895010181
 31
0.0
  0
LINE
  5
6C
100
AcDbEntity
  8
Frei
  6
GESTRICHELT
 62
           7
100
AcDbLine
 10
-14506.433332137358
 20
-4375.591254865638
 30
0.0
 11
-14529.142499099509
 21
-4373.246093064634
 31
0.0
  0
LINE
  5
6D
100
AcDbEntity
  8
Frei
  6
CONTINUOUS
 62
           7
100
AcDbLine
 10
-14498.227012051284
 20
-4376.438716528355
 30
0.0
 11
-14506.433332137358
 21
-4375.591254865638
 31
0.0
  0
LINE
  5
6E
100
AcDbEntity
  8
Frei
  6
CONTINUOUS
 62
           7
100
AcDbLine
 10
-14528.508681898276
 20
-4358.151490142231
 30
0.0
 11
-14527.498929608631
 21
-4357.330733209178
 31
0.0
  0
LINE
  5
6F
100
AcDbEntity
  8
Frei
  6
CONTINUOUS
 62
           7
100
AcDbLine
 10
-14529.963212135237
 20
-4372.236305095512
 30
0.0
 11
-14529.142499099509
 21
-4373.246093064634
 31
0.0
  0
LINE
  5
70
100
AcDbEntity
  8
Frei
  6
GESTRICHELT
 62
           7
100
AcDbLine
 10
-14528.508681898276
 20
-4358.151490142231
 30
0.0
 11
-14529.963212135237
 21
-4372.236305095512
 31
0.0
  0
LINE
  5
71
100
AcDbEntity
  8
Frei
  6
CONTINUOUS
 62
           7
100
AcDbLine
 10
-14504.884282273439
 20
-4360.591167461269
 30
0.0
 11
-14496.677962187365
 21
-4361.438629123986
 31
0.0
  0
LINE
  5
72
100
AcDbEntity
  8
Frei
  6
GESTRICHELT
 62
           7
100
AcDbLine
 10
-14528.508681898276
 20
-4358.151490142231
 30
0.0
 11
-14504.884282273439
 21
-4360.591167461269
 31
0.0
  0
LINE
  5
73
100
AcDbEntity
  8
Frei
  6
CONTINUOUS
 62
           7
100
AcDbLine
 10
-14506.338812510399
 20
-4374.67598241455
 30
0.0
 11
-14498.132492424325
 21
-4375.523444077267
 31
0.0
  0
LINE
  5
74
100
AcDbEntity
  8
Frei
  6
GESTRICHELT
 62
           7
100
AcDbLine
 10
-14529.963212135237
 20
-4372.236305095512
 30
0.0
 11
-14506.338812510399
 21
-4374.67598241455
 31
0.0
  0
LINE
  5
75
100
AcDbEntity
  8
Frei
  6
GESTRICHELT
 62
           7
100
AcDbLine
 10
-14527.498929608631
 20
-4357.330733209178
 30
0.0
 11
-14529.142499099509
 21
-4373.246093064634
 31
0.0
  0
LINE
  5
76
100
AcDbEntity
  8
Frei
  6
CONTINUOUS
 62
           7
100
AcDbLine
 10
-14487.425606455354
 20
-4359.458444529586
 30
0.0
 11
-14496.377996374047
 21
-4358.533936690967
 31
0.0
  0
LINE
  5
77
100
AcDbEntity
  8
Frei
  6
CONTINUOUS
 62
           7
100
AcDbLine
 10
-14496.377996374047
 20
-4358.533936690967
 30
0.0
 11
-14498.432458237645
 21
-4378.428136510287
 31
0.0
  0
LINE
  5
78
100
AcDbEntity
  8
Frei
  6
CONTINUOUS
 62
           7
100
AcDbLine
 10
-14498.432458237645
 20
-4378.428136510287
 30
0.0
 11
-14489.48006831895
 21
-4379.352644348905
 31
0.0
  0
LINE
  5
79
100
AcDbEntity
  8
Frei
  6
CONTINUOUS
 62
           7
100
AcDbLine
 10
-14496.864099513899
 20
-4363.241073468917
 30
0.0
 11
-14490.232696258427
 21
-4363.925894432525
 31
0.0
  0
LINE
  5
7A
100
AcDbEntity
  8
Frei
  6
CONTINUOUS
 62
           7
100
AcDbLine
 10
-14497.946355097791
 20
-4373.720999732337
 30
0.0
 11
-14491.314951842318
 21
-4374.405820695945
 31
0.0
  0
LINE
  5
7B
100
AcDbEntity
  8
Frei
  6
CONTINUOUS
 62
           7
100
AcDbLine
 10
-14490.232696258427
 20
-4363.925894432525
 30
0.0
 11
-14491.314951842318
 21
-4374.405820695945
 31
0.0
  0
LINE
  5
7C
100
AcDbEntity
  8
Frei
  6
CONTINUOUS
 62
           7
100
AcDbLine
 10
-14496.864099513899
 20
-4363.241073468917
 30
0.0
 11
-14491.314951842318
 21
-4374.405820695945
 31
0.0
  0
LINE
  5
7D
100
AcDbEntity
  8
Frei
  6
CONTINUOUS
 62
           7
100
AcDbLine
 10
-14490.232696258427
 20
-4363.925894432525
 30
0.0
 11
-14497.946355097791
 21
-4373.720999732337
 31
0.0
  0
CIRCLE
  5
7E
100
AcDbEntity
  8
Frei
  6
CONTINUOUS
 62
           7
100
AcDbCircle
 10
-14447.548164058609
 20
-4382.17494927601
 30
0.0
 40
5.7225
  0
ARC
  5
7F
100
AcDbEntity
  8
Frei
  6
CONTINUOUS
 62
           7
100
AcDbCircle
 10
-14447.548164058609
 20
-4382.17494927601
 30
0.0
 40
6.5785
100
AcDbArc
 50
104.104
 51
14.104
  0
CIRCLE
  5
80
100
AcDbEntity
  8
Frei
  6
CONTINUOUS
 62
           7
100
AcDbCircle
 10
-14200.749402278825
 20
-4390.571111822213
 30
0.0
 40
5.7225
  0
ARC
  5
81
100
AcDbEntity
  8
Frei
  6
CONTINUOUS
 62
           7
100
AcDbCircle
 10
-14200.749402278825
 20
-4390.571111822213
 30
0.0
 40
6.57849
100
AcDbArc
 50
104.104
 51
14.104
  0
LINE
  5
82
100
AcDbEntity
  8
Frei
  6
CONTINUOUS
 62
           7
100
AcDbLine
 10
-14435.441131439593
 20
-4360.726156809951
 30
0.0
 11
-14444.680090317861
 21
-4368.235516959243
 31
0.0
  0
LINE
  5
83
100
AcDbEntity
  8
Frei
  6
CONTINUOUS
 62
           7
100
AcDbLine
 10
-14436.387261942074
 20
-4359.562109537597
 30
0.0
 11
-14445.626225956497
 21
-4367.071519422389
 31
0.0
  0
CIRCLE
  5
84
100
AcDbEntity
  8
Frei
  6
CONTINUOUS
 62
           7
100
AcDbCircle
 10
-14440.533676643583
 20
-4363.898818221969
 30
0.0
 40
6.0
  0
LINE
  5
85
100
AcDbEntity
  8
Frei
  6
CONTINUOUS
 62
           7
100
AcDbLine
 10
-14202.67104196794
 20
-4405.674572492762
 30
0.0
 11
-14211.91030439536
 21
-4413.183951560626
 31
0.0
  0
LINE
  5
86
100
AcDbEntity
  8
Frei
  6
CONTINUOUS
 62
           7
100
AcDbLine
 10
-14203.617476019574
 20
-4404.510544138981
 30
0.0
 11
-14212.856733310839
 21
-4412.019873471345
 31
0.0
  0
CIRCLE
  5
87
100
AcDbEntity
  8
Frei
  6
CONTINUOUS
 62
           7
100
AcDbCircle
 10
-14207.763889693852
 20
-4408.847242876254
 30
0.0
 40
6.0
  0
LINE
  5
88
100
AcDbEntity
  8
Frei
  6
CONTINUOUS
 62
           7
100
AcDbLine
 10
-14504.677929233896
 20
-4353.799496684011
 30
0.0
 11
-14508.161900977253
 21
-4353.439709050148
 31
0.0
  0
LINE
  5
89
100
AcDbEntity
  8
Frei
  6
CONTINUOUS
 62
           7
100
AcDbLine
 10
-14511.645872720612
 20
-4353.079921416285
 30
0.0
 11
-14508.161900977253
 21
-4353.439709050148
 31
0.0
  0
LINE
  5
8A
100
AcDbEntity
  8
Frei
  6
CONTINUOUS
 62
           7
100
AcDbLine
 10
-14514.492699435761
 20
-4380.64691622192
 30
0.0
 11
-14511.008727692402
 21
-4381.006703855783
 31
0.0
  0
LINE
  5
8B
100
AcDbEntity
  8
Frei
  6
CONTINUOUS
 62
           7
100
AcDbLine
 10
-14507.524755949045
 20
-4381.366491489645
 30
0.0
 11
-14511.008727692402
 21
-4381.006703855783
 31
0.0
  0
LINE
  5
8C
100
AcDbEntity
  8
Frei
  6
CONTINUOUS
 62
           7
100
AcDbLine
 10
-14505.389634885452
 20
-4360.691235438319
 30
0.0
 11
-14508.873606628809
 21
-4360.331447804456
 31
0.0
  0
LINE
  5
8D
100
AcDbEntity
  8
Frei
  6
CONTINUOUS
 62
           7
100
AcDbLine
 10
-14512.357578372168
 20
-4359.971660170594
 30
0.0
 11
-14508.873606628809
 21
-4360.331447804456
 31
0.0
  0
LINE
  5
8E
100
AcDbEntity
  8
Frei
  6
CONTINUOUS
 62
           7
100
AcDbLine
 10
-14513.780993784205
 20
-4373.755177467611
 30
0.0
 11
-14510.297022040846
 21
-4374.114965101473
 31
0.0
  0
LINE
  5
8F
100
AcDbEntity
  8
Frei
  6
CONTINUOUS
 62
           7
100
AcDbLine
 10
-14506.813050297487
 20
-4374.474752735336
 30
0.0
 11
-14510.297022040846
 21
-4374.114965101473
 31
0.0
  0
ARC
  5
90
100
AcDbEntity
  8
Frei
  6
CONTINUOUS
 62
           7
100
AcDbCircle
 10
-14554.334631111406
 20
-4362.601971843155
 30
0.0
 40
48.982199999993
100
AcDbArc
 50
354.963436999999
 51
2.235610000001
  0
ARC
  5
91
100
AcDbEntity
  8
Frei
  6
CONTINUOUS
 62
           7
100
AcDbCircle
 10
-14464.835997558241
 20
-4371.844441062776
 30
0.0
 40
48.982200000003
100
AcDbArc
 50
165.972
 51
173.245
  0
ARC
  5
92
100
AcDbEntity
  8
Frei
  6
CONTINUOUS
 62
           7
100
AcDbCircle
 10
-14464.835997558241
 20
-4371.844441062776
 30
0.0
 40
48.982200000003
100
AcDbArc
 50
174.962999999999
 51
182.235999999999
  0
ARC
  5
93
100
AcDbEntity
  8
Frei
  6
CONTINUOUS
 62
           7
100
AcDbCircle
 10
-14554.334631111406
 20
-4362.601971843156
 30
0.0
 40
48.982199999993
100
AcDbArc
 50
345.972389999999
 51
353.244563
  0
LINE
  5
94
100
AcDbEntity
  8
Frei
  6
CONTINUOUS
 62
           7
100
AcDbLine
 10
-14505.541547023971
 20
-4366.902190562274
 30
0.0
 11
-14505.611547391918
 21
-4367.633574937909
 31
0.0
  0
LINE
  5
95
100
AcDbEntity
  8
Frei
  6
CONTINUOUS
 62
           7
100
AcDbLine
 10
-14513.478139099891
 20
-4366.082583546411
 30
0.0
 11
-14513.559081277739
 21
-4366.81283796802
 31
0.0
  0
LINE
  5
96
100
AcDbEntity
  8
Frei
  6
CONTINUOUS
 62
           7
100
AcDbLine
 10
-14513.629081645686
 20
-4367.544222343657
 30
0.0
 11
-14513.559081277739
 21
-4366.81283796802
 31
0.0
  0
LINE
  5
97
100
AcDbEntity
  8
Frei
  6
CONTINUOUS
 62
           7
100
AcDbLine
 10
-14505.692489569767
 20
-4368.36382935952
 30
0.0
 11
-14505.611547391918
 21
-4367.633574937909
 31
0.0
  0
ARC
  5
98
100
AcDbEntity
  8
Frei
  6
CONTINUOUS
 62
           7
100
AcDbCircle
 10
-14517.27766785209
 20
-4355.980952480764
 30
0.0
 40
12.801500000001
100
AcDbArc
 50
338.385499999999
 51
354.103999999999
  0
ARC
  5
99
100
AcDbEntity
  8
Frei
  6
CONTINUOUS
 62
           7
100
AcDbCircle
 10
-14499.757800992806
 20
-4357.790218429864
 30
0.0
 40
12.787200000001
100
AcDbArc
 50
174.104000000001
 51
189.822999999999
  0
ARC
  5
9A
100
AcDbEntity
  8
Frei
  6
CONTINUOUS
 62
           7
100
AcDbCircle
 10
-14501.892921029168
 20
-4378.465464534091
 30
0.0
 40
12.8015
100
AcDbArc
 50
158.385
 51
174.104000000001
  0
ARC
  5
9B
100
AcDbEntity
  8
Frei
  6
CONTINUOUS
 62
           7
100
AcDbCircle
 10
-14519.412787888452
 20
-4376.656198584989
 30
0.0
 40
12.787200000001
100
AcDbArc
 50
354.103999999998
 51
9.822499999999
  0
ARC
  5
9C
100
AcDbEntity
  8
Frei
  6
CONTINUOUS
 62
           7
100
AcDbCircle
 10
-14517.27766785209
 20
-4355.980952480764
 30
0.0
 40
12.787200000001
100
AcDbArc
 50
354.103999999998
 51
9.822499999999
  0
ARC
  5
9D
100
AcDbEntity
  8
Frei
  6
CONTINUOUS
 62
           7
100
AcDbCircle
 10
-14499.757800992806
 20
-4357.790218429864
 30
0.0
 40
12.8015
100
AcDbArc
 50
158.385
 51
174.104000000001
  0
ARC
  5
9E
100
AcDbEntity
  8
Frei
  6
CONTINUOUS
 62
           7
100
AcDbCircle
 10
-14501.892921029166
 20
-4378.465464534091
 30
0.0
 40
12.787200000001
100
AcDbArc
 50
174.104000000001
 51
189.822999999999
  0
ARC
  5
9F
100
AcDbEntity
  8
Frei
  6
CONTINUOUS
 62
           7
100
AcDbCircle
 10
-14519.412787888452
 20
-4376.656198584989
 30
0.0
 40
12.801500000001
100
AcDbArc
 50
338.385499999999
 51
354.103999999999
  0
LINE
  5
A0
100
AcDbEntity
  8
Frei
  6
CONTINUOUS
 62
           7
100
AcDbLine
 10
-14504.543987373738
 20
-4357.295951885797
 30
0.0
 11
-14505.611547391918
 21
-4367.633574937909
 31
0.0
  0
LINE
  5
A1
100
AcDbEntity
  8
Frei
  6
CONTINUOUS
 62
           7
100
AcDbLine
 10
-14512.491521259557
 20
-4356.475214915909
 30
0.0
 11
-14513.559081277739
 21
-4366.81283796802
 31
0.0
  0
LINE
  5
A2
100
AcDbEntity
  8
Frei
  6
CONTINUOUS
 62
           7
100
AcDbLine
 10
-14514.626641295919
 20
-4377.150461020134
 30
0.0
 11
-14513.559081277739
 21
-4366.81283796802
 31
0.0
  0
LINE
  5
A3
100
AcDbEntity
  8
Frei
  6
CONTINUOUS
 62
           7
100
AcDbLine
 10
-14506.6791074101
 20
-4377.971197990022
 30
0.0
 11
-14505.611547391918
 21
-4367.633574937909
 31
0.0
  0
LINE
  5
A4
100
AcDbEntity
  8
Frei
  6
CONTINUOUS
 62
           7
100
AcDbLine
 10
-14514.380866023177
 20
-4374.770517895749
 30
0.0
 11
-14514.298687548633
 21
-4373.974749902976
 31
0.0
  0
LINE
  5
A5
100
AcDbEntity
  8
Frei
  6
CONTINUOUS
 62
           7
100
AcDbLine
 10
-14514.298687548633
 20
-4373.974749902976
 30
0.0
 11
-14512.819475006843
 21
-4359.650926033066
 31
0.0
  0
LINE
  5
A6
100
AcDbEntity
  8
Frei
  6
CONTINUOUS
 62
           7
100
AcDbLine
 10
-14512.819475006843
 20
-4359.650926033066
 30
0.0
 11
-14512.737296532299
 21
-4358.855158040293
 31
0.0
  0
LINE
  5
A7
100
AcDbEntity
  8
Frei
  6
CONTINUOUS
 62
           7
100
AcDbLine
 10
-14512.737296532299
 20
-4358.855158040293
 30
0.0
 11
-14512.285314922308
 21
-4354.478434080043
 31
0.0
  0
LINE
  5
A8
100
AcDbEntity
  8
Frei
  6
CONTINUOUS
 62
           7
100
AcDbLine
 10
-14547.033370479528
 20
-4379.441058841721
 30
0.0
 11
-14545.303673310891
 21
-4379.619683611796
 31
0.0
  0
LINE
  5
A9
100
AcDbEntity
  8
Frei
  6
CONTINUOUS
 62
           7
100
AcDbLine
 10
-14542.016534329136
 20
-4347.788963900885
 30
0.0
 11
-14543.746231497773
 21
-4347.61033913081
 31
0.0
  0
LINE
  5
AA
100
AcDbEntity
  8
Frei
  6
CONTINUOUS
 62
           7
100
AcDbLine
 10
-14545.303673310891
 20
-4379.619683611796
 30
0.0
 11
-14540.26934254096
 21
-4380.139575875344
 31
0.0
  0
LINE
  5
AB
100
AcDbEntity
  8
Frei
  6
CONTINUOUS
 62
           7
100
AcDbLine
 10
-14536.982203559204
 20
-4348.308856164433
 30
0.0
 11
-14542.016534329136
 21
-4347.788963900885
 31
0.0
  0
LINE
  5
AC
100
AcDbEntity
  8
Frei
  6
CONTINUOUS
 62
           7
100
AcDbLine
 10
-14590.876782379606
 20
-4342.743195929452
 30
0.0
 11
-14543.746231497773
 21
-4347.61033913081
 31
0.0
  0
LINE
  5
AD
100
AcDbEntity
  8
Frei
  6
CONTINUOUS
 62
           7
100
AcDbLine
 10
-14594.163921361362
 20
-4374.573915640363
 30
0.0
 11
-14547.033370479528
 21
-4379.441058841721
 31
0.0
  0
LINE
  5
AE
100
AcDbEntity
  8
Frei
  6
CONTINUOUS
 62
           7
100
AcDbLine
 10
-14536.035086993676
 20
-4350.819427854567
 30
0.0
 11
-14538.829155128169
 21
-4377.875539608842
 31
0.0
  0
LINE
  5
AF
100
AcDbEntity
  8
Frei
  6
CONTINUOUS
 62
           7
100
AcDbLine
 10
-14513.355699199652
 20
-4353.161514379068
 30
0.0
 11
-14516.963684154098
 21
-4352.788919976646
 31
0.0
  0
LINE
  5
B0
100
AcDbEntity
  8
Frei
  6
CONTINUOUS
 62
           7
100
AcDbLine
 10
-14514.832847633168
 20
-4379.147241855999
 30
0.0
 11
-14514.380866023177
 21
-4374.770517895749
 31
0.0
  0
LINE
  5
B1
100
AcDbEntity
  8
Frei
  6
CONTINUOUS
 62
           7
100
AcDbLine
 10
-14537.635503139009
 20
-4377.998807320659
 30
0.0
 11
-14535.194433251605
 21
-4378.25089511688
 31
0.0
  0
LINE
  5
B2
100
AcDbEntity
  8
Frei
  6
CONTINUOUS
 62
           7
100
AcDbLine
 10
-14532.236008168025
 20
-4349.603247377059
 30
0.0
 11
-14532.400365117113
 21
-4351.194783362605
 31
0.0
  0
LINE
  5
B3
100
AcDbEntity
  8
Frei
  6
CONTINUOUS
 62
           7
100
AcDbLine
 10
-14532.400365117113
 20
-4351.194783362605
 30
0.0
 11
-14534.841435004517
 21
-4350.942695566383
 31
0.0
  0
LINE
  5
B4
100
AcDbEntity
  8
Frei
  6
CONTINUOUS
 62
           7
100
AcDbLine
 10
-14532.400365117113
 20
-4351.194783362605
 30
0.0
 11
-14535.194433251605
 21
-4378.25089511688
 31
0.0
  0
LINE
  5
B5
100
AcDbEntity
  8
Frei
  6
CONTINUOUS
 62
           7
100
AcDbLine
 10
-14535.194433251605
 20
-4378.25089511688
 30
0.0
 11
-14535.358790200693
 21
-4379.842431102425
 31
0.0
  0
LINE
  5
B6
100
AcDbEntity
  8
Frei
  6
CONTINUOUS
 62
           7
100
AcDbLine
 10
-14519.922109237677
 20
-4381.436567716466
 30
0.0
 11
-14519.757752288589
 21
-4379.845031730922
 31
0.0
  0
LINE
  5
B7
100
AcDbEntity
  8
Frei
  6
CONTINUOUS
 62
           7
100
AcDbLine
 10
-14519.757752288589
 20
-4379.845031730922
 30
0.0
 11
-14516.149767334144
 21
-4380.217626133343
 31
0.0
  0
LINE
  5
B8
100
AcDbEntity
  8
Frei
  6
CONTINUOUS
 62
           7
100
AcDbLine
 10
-14519.757752288589
 20
-4379.845031730922
 30
0.0
 11
-14516.963684154098
 21
-4352.788919976646
 31
0.0
  0
LINE
  5
B9
100
AcDbEntity
  8
Frei
  6
CONTINUOUS
 62
           7
100
AcDbLine
 10
-14516.963684154098
 20
-4352.788919976646
 30
0.0
 11
-14516.79932720501
 21
-4351.197383991101
 31
0.0
  0
LINE
  5
BA
100
AcDbEntity
  8
Frei
  6
CONTINUOUS
 62
           7
100
AcDbLine
 10
-14532.236008168025
 20
-4349.603247377059
 30
0.0
 11
-14516.79932720501
 21
-4351.197383991101
 31
0.0
  0
LINE
  5
BB
100
AcDbEntity
  8
Frei
  6
CONTINUOUS
 62
           7
100
AcDbLine
 10
-14535.358790200693
 20
-4379.842431102425
 30
0.0
 11
-14519.922109237677
 21
-4381.436567716466
 31
0.0
  0
ARC
  5
BC
100
AcDbEntity
  8
Frei
  6
CONTINUOUS
 62
           7
100
AcDbCircle
 10
-14566.30007360399
 20
-4361.36630790566
 30
0.0
 40
27.821476415485
100
AcDbArc
 50
318.997694434247
 51
29.210305565753
  0
ARC
  5
BD
100
AcDbEntity
  8
Frei
  6
CONTINUOUS
 62
           7
100
AcDbCircle
 10
-14553.182550502439
 20
-4362.720946503932
 30
0.0
 40
39.547005383793
100
AcDbArc
 50
150.23907458395
 51
197.96892541605
  0
ARC
  5
BE
100
AcDbEntity
  8
Frei
  6
CONTINUOUS
 62
           7
100
AcDbCircle
 10
-14567.251324304292
 20
-4361.268072826881
 30
0.0
 40
30.02221399786
100
AcDbArc
 50
141.899772496028
 51
206.308227503973
  0
CIRCLE
  5
BF
100
AcDbEntity
  8
Frei
  6
CONTINUOUS
 62
           7
100
AcDbCircle
 10
-14577.220520699562
 20
-4360.238560004511
 30
0.0
 40
6.8
  0
ARC
  5
C0
100
AcDbEntity
  8
Frei
  6
CONTINUOUS
 62
           7
100
AcDbCircle
 10
-14537.105471271019
 20
-4349.502508153591
 30
0.0
 40
1.2
100
AcDbArc
 50
354.103999999999
 51
84.104
  0
ARC
  5
C1
100
AcDbEntity
  8
Frei
  6
CONTINUOUS
 62
           7
100
AcDbCircle
 10
-14534.718167292702
 20
-4349.749043577223
 30
0.0
 40
1.2
100
AcDbArc
 50
174.104
 51
264.103999999999
  0
ARC
  5
C2
100
AcDbEntity
  8
Frei
  6
CONTINUOUS
 62
           7
100
AcDbCircle
 10
-14513.478966911467
 20
-4354.355166368227
 30
0.0
 40
1.2
100
AcDbArc
 50
354.103999999999
 51
84.104
  0
ARC
  5
C3
100
AcDbEntity
  8
Frei
  6
CONTINUOUS
 62
           7
100
AcDbCircle
 10
-14516.026499622329
 20
-4379.023974144184
 30
0.0
 40
1.2
100
AcDbArc
 50
264.103999999999
 51
354.103999999999
  0
ARC
  5
C4
100
AcDbEntity
  8
Frei
  6
CONTINUOUS
 62
           7
100
AcDbCircle
 10
-14537.758770850825
 20
-4379.192459309817
 30
0.0
 40
1.2
100
AcDbArc
 50
84.104
 51
174.104
  0
ARC
  5
C5
100
AcDbEntity
  8
Frei
  6
CONTINUOUS
 62
           7
100
AcDbCircle
 10
-14540.146074829143
 20
-4378.945923886186
 30
0.0
 40
1.2
100
AcDbArc
 50
264.103999999999
 51
354.103999999999
  0
LINE
  5
C6
100
AcDbEntity
  8
FREI
  6
CONTINUOUS
 62
           7
100
AcDbLine
 10
-14184.409442511778
 20
-4368.63328691346
 30
0.0
 11
-14190.983774882883
 21
-4432.295253186425
 31
0.0
  0
LINE
  5
C7
100
AcDbEntity
  8
FREI
  6
CONTINUOUS
 62
           7
100
AcDbLine
 10
-14183.34532085014
 20
-4426.547938988331
 30
0.0
 11
-14183.789428850709
 21
-4430.848419547858
 31
0.0
  0
LINE
  5
C8
100
AcDbEntity
  8
FREI
  6
CONTINUOUS
 62
           7
100
AcDbLine
 10
-14177.662638558962
 20
-4371.520187432767
 30
0.0
 11
-14178.106746559532
 21
-4375.820667992295
 31
0.0
  0
LINE
  5
C9
100
AcDbEntity
  8
FREI
  6
CONTINUOUS
 62
           7
100
AcDbLine
 10
-14178.106746559532
 20
-4375.820667992295
 30
0.0
 11
-14179.032805476243
 21
-4384.788077638565
 31
0.0
  0
LINE
  5
CA
100
AcDbEntity
  8
FREI
  6
CONTINUOUS
 62
           7
100
AcDbLine
 10
-14182.419261933428
 20
-4417.580529342058
 30
0.0
 11
-14183.34532085014
 21
-4426.547938988331
 31
0.0
  0
LINE
  5
CB
100
AcDbEntity
  8
Frei
  6
CONTINUOUS
 62
           7
100
AcDbLine
 10
-14185.9170672202
 20
-4432.640311296926
 30
0.0
 11
-14190.983774882883
 21
-4432.295253186425
 31
0.0
  0
LINE
  5
CC
100
AcDbEntity
  8
Frei
  6
CONTINUOUS
 62
           7
100
AcDbLine
 10
-14179.379185227734
 20
-4369.331309042896
 30
0.0
 11
-14184.409480608176
 21
-4368.633655816568
 31
0.0
  0
LINE
  5
CD
100
AcDbEntity
  8
FREI
  6
CONTINUOUS
 62
           7
100
AcDbLine
 10
-14182.241295954465
 20
-4426.623126421633
 30
0.0
 11
-14183.34532085014
 21
-4426.547938988331
 31
0.0
  0
LINE
  5
CE
100
AcDbEntity
  8
Frei
  6
CONTINUOUS
 62
           7
100
AcDbLine
 10
-14174.435835820077
 20
-4379.256002741241
 30
0.0
 11
-14175.359957586825
 21
-4388.204654167103
 31
0.0
  0
LINE
  5
CF
100
AcDbEntity
  8
FREI
  6
CONTINUOUS
 62
           7
100
AcDbLine
 10
-14178.106746559532
 20
-4375.820667992295
 30
0.0
 11
-14177.010655823231
 21
-4375.972685156436
 31
0.0
  0
LINE
  5
D0
100
AcDbEntity
  8
Frei
  6
CONTINUOUS
 62
           7
100
AcDbLine
 10
-14178.106828182814
 20
-4414.803732730059
 30
0.0
 11
-14178.125716633482
 21
-4414.986637372166
 31
0.0
  0
LINE
  5
D1
100
AcDbEntity
  8
FREI
  6
CONTINUOUS
 62
           7
100
AcDbLine
 10
-14159.367662744049
 20
-4391.314781821213
 30
0.0
 11
-14174.50324588777
 21
-4389.484247134516
 31
0.0
  0
LINE
  5
D2
100
AcDbEntity
  8
FREI
  6
CONTINUOUS
 62
           7
100
AcDbLine
 10
-14161.835340523459
 20
-4415.210321428502
 30
0.0
 11
-14177.025588218139
 21
-4413.909126088092
 31
0.0
  0
LINE
  5
D3
100
AcDbEntity
  8
FREI
  6
CONTINUOUS
 62
           7
100
AcDbLine
 10
-14175.153545579078
 20
-4389.129552315105
 30
0.0
 11
-14177.734649152026
 21
-4414.123440566065
 31
0.0
  0
LINE
  5
D4
100
AcDbEntity
  8
Frei
  6
CONTINUOUS
 62
           7
100
AcDbLine
 10
-14177.281605176797
 20
-4386.981454289178
 30
0.0
 11
-14176.235557736549
 21
-4387.107965841795
 31
0.0
  0
LINE
  5
D5
100
AcDbEntity
  8
Frei
  6
CONTINUOUS
 62
           7
100
AcDbLine
 10
-14175.359957586825
 20
-4388.204654167103
 30
0.0
 11
-14175.378846037493
 21
-4388.387558809211
 31
0.0
  0
LINE
  5
D6
100
AcDbEntity
  8
Frei
  6
CONTINUOUS
 62
           7
100
AcDbLine
 10
-14178.125716633482
 20
-4414.986637372166
 30
0.0
 11
-14179.049838400229
 21
-4423.935288798029
 31
0.0
  0
LINE
  5
D7
100
AcDbEntity
  8
Frei
  6
CONTINUOUS
 62
           7
100
AcDbLine
 10
-14179.206956598156
 20
-4415.881244014132
 30
0.0
 11
-14180.256782004079
 21
-4415.791316058125
 31
0.0
  0
ARC
  5
D8
100
AcDbEntity
  8
FREI
  6
CONTINUOUS
 62
           7
100
AcDbCircle
 10
-14160.810050731423
 20
-4403.241014886927
 30
0.0
 40
12.0131394
100
AcDbArc
 50
265.103999999997
 51
83.104000000003
  0
ARC
  5
D9
100
AcDbEntity
  8
Frei
  6
CONTINUOUS
 62
           7
100
AcDbCircle
 10
-14179.654236856302
 20
-4371.314516293105
 30
0.0
 40
2.0021899
100
AcDbArc
 50
354.103999999993
 51
82.104000000031
  0
ARC
  5
DA
100
AcDbEntity
  8
Frei
  6
CONTINUOUS
 62
           7
100
AcDbCircle
 10
-14177.423233266089
 20
-4378.947496031749
 30
0.0
 40
3.00328485
100
AcDbArc
 50
354.103999999999
 51
82.103999999981
  0
ARC
  5
DB
100
AcDbEntity
  8
Frei
  6
CONTINUOUS
 62
           7
100
AcDbCircle
 10
-14182.037235846241
 20
-4423.626782088537
 30
0.0
 40
3.00328485
100
AcDbArc
 50
266.103999999994
 51
354.103999999999
  0
ARC
  5
DC
100
AcDbEntity
  8
Frei
  6
CONTINUOUS
 62
           7
100
AcDbCircle
 10
-14185.78102714805
 20
-4430.642748408196
 30
0.0
 40
2.0021899
100
AcDbArc
 50
266.103999999968
 51
354.104000000006
  0
ARC
  5
DD
100
AcDbEntity
  8
Frei
  6
CONTINUOUS
 62
           7
100
AcDbCircle
 10
-14176.355756735495
 20
-4388.101818597272
 30
0.0
 40
1.00109495
100
AcDbArc
 50
354.103999999999
 51
83.10400000007
  0
ARC
  5
DE
100
AcDbEntity
  8
Frei
  6
CONTINUOUS
 62
           7
100
AcDbCircle
 10
-14177.041207178901
 20
-4384.993748778226
 30
0.0
 40
2.0021899
100
AcDbArc
 50
174.104
 51
263.104000000015
  0
ARC
  5
DF
100
AcDbEntity
  8
Frei
  6
CONTINUOUS
 62
           7
100
AcDbCircle
 10
-14174.383046888823
 20
-4388.490394379041
 30
0.0
 40
1.001094950001
100
AcDbArc
 50
219.67699599927
 51
263.104000000022
  0
ARC
  5
E0
100
AcDbEntity
  8
Frei
  6
CONTINUOUS
 62
           7
100
AcDbCircle
 10
-14174.383046888823
 20
-4388.490394379041
 30
0.0
 40
1.001094949999
100
AcDbArc
 50
174.103999999987
 51
219.676995999281
  0
ARC
  5
E1
100
AcDbEntity
  8
Frei
  6
CONTINUOUS
 62
           7
100
AcDbCircle
 10
-14180.427663636086
 20
-4417.78620048172
 30
0.0
 40
2.002189899999
100
AcDbArc
 50
85.103999999931
 51
174.104
  0
ARC
  5
E2
100
AcDbEntity
  8
Frei
  6
CONTINUOUS
 62
           7
100
AcDbCircle
 10
-14179.121515782153
 20
-4414.883801802336
 30
0.0
 40
1.001094949999
100
AcDbArc
 50
265.103999999922
 51
354.104000000012
  0
ARC
  5
E3
100
AcDbEntity
  8
Frei
  6
CONTINUOUS
 62
           7
100
AcDbCircle
 10
-14177.111029034142
 20
-4414.90656829989
 30
0.0
 40
1.00109495
100
AcDbArc
 50
128.531004000815
 51
174.104
  0
ARC
  5
E4
100
AcDbEntity
  8
Frei
  6
CONTINUOUS
 62
           7
100
AcDbCircle
 10
-14177.111029034142
 20
-4414.906568299892
 30
0.0
 40
1.001094950001
100
AcDbArc
 50
85.104000000004
 51
128.531004000779
  0
LINE
  5
E5
100
AcDbEntity
  8
Frei
  6
CONTINUOUS
 62
           7
100
AcDbLine
 10
-14251.569178781911
 20
-4413.67304935963
 30
0.0
 11
-14248.08769381353
 21
-4414.03258018576
 31
0.0
  0
LINE
  5
E6
100
AcDbEntity
  8
Frei
  6
CONTINUOUS
 62
           7
100
AcDbLine
 10
-14251.36373259555
 20
-4411.683629377698
 30
0.0
 11
-14251.569178781911
 21
-4413.67304935963
 31
0.0
  0
LINE
  5
E7
100
AcDbEntity
  8
Frei
  6
CONTINUOUS
 62
           7
100
AcDbLine
 10
-14246.117114437355
 20
-4404.685558364763
 30
0.0
 11
-14246.990260729382
 21
-4413.140593287973
 31
0.0
  0
LINE
  5
E8
100
AcDbEntity
  8
Frei
  6
CONTINUOUS
 62
           7
100
AcDbLine
 10
-14250.593309396701
 20
-4404.223304445453
 30
0.0
 11
-14246.117114437355
 21
-4404.685558364763
 31
0.0
  0
LINE
  5
E9
100
AcDbEntity
  8
Frei
  6
CONTINUOUS
 62
           7
100
AcDbLine
 10
-14250.644670943291
 20
-4404.720659440936
 30
0.0
 11
-14250.593309396701
 21
-4404.223304445453
 31
0.0
  0
LINE
  5
EA
100
AcDbEntity
  8
Frei
  6
CONTINUOUS
 62
           7
100
AcDbLine
 10
-14247.160951496307
 20
-4405.527874574642
 30
0.0
 11
-14250.644670943291
 21
-4404.720659440936
 31
0.0
  0
LINE
  5
EB
100
AcDbEntity
  8
Frei
  6
CONTINUOUS
 62
           7
100
AcDbLine
 10
-14246.987948067366
 20
-4408.114241404901
 30
0.0
 11
-14246.77646161552
 21
-4406.066331046153
 31
0.0
  0
LINE
  5
EC
100
AcDbEntity
  8
Frei
  6
CONTINUOUS
 62
           7
100
AcDbLine
 10
-14251.36373259555
 20
-4411.683629377698
 30
0.0
 11
-14250.644670943291
 21
-4404.720659440936
 31
0.0
  0
LINE
  5
ED
100
AcDbEntity
  8
Frei
  6
CONTINUOUS
 62
           7
100
AcDbLine
 10
-14247.788571820229
 20
-4411.605380492858
 30
0.0
 11
-14251.36373259555
 21
-4411.683629377698
 31
0.0
  0
LINE
  5
EE
100
AcDbEntity
  8
Frei
  6
CONTINUOUS
 62
           7
100
AcDbLine
 10
-14247.090671160546
 20
-4409.108951395867
 30
0.0
 11
-14247.302157612392
 21
-4411.156861754615
 31
0.0
  0
LINE
  5
EF
100
AcDbEntity
  8
Frei
  6
CONTINUOUS
 62
           2
100
AcDbLine
 10
-14248.6172351981
 20
-4408.448644989134
 30
0.0
 11
-14245.855070456622
 21
-4408.733892054806
 31
0.0
  0
LINE
  5
F0
100
AcDbEntity
  8
Frei
  6
CONTINUOUS
 62
           7
100
AcDbLine
 10
-14248.565873651509
 20
-4407.951289993653
 30
0.0
 11
-14246.987948067366
 21
-4408.114241404901
 31
0.0
  0
LINE
  5
F1
100
AcDbEntity
  8
Frei
  6
CONTINUOUS
 62
           7
100
AcDbLine
 10
-14248.6172351981
 20
-4408.448644989134
 30
0.0
 11
-14248.565873651509
 21
-4407.951289993653
 31
0.0
  0
LINE
  5
F2
100
AcDbEntity
  8
Frei
  6
CONTINUOUS
 62
           7
100
AcDbLine
 10
-14248.66859674469
 20
-4408.945999984619
 30
0.0
 11
-14248.6172351981
 21
-4408.448644989134
 31
0.0
  0
LINE
  5
F3
100
AcDbEntity
  8
Frei
  6
CONTINUOUS
 62
           7
100
AcDbLine
 10
-14247.090671160546
 20
-4409.108951395867
 30
0.0
 11
-14248.66859674469
 21
-4408.945999984619
 31
0.0
  0
LINE
  5
F4
100
AcDbEntity
  8
Frei
  6
CONTINUOUS
 62
           7
100
AcDbLine
 10
-14390.331222521667
 20
-4399.343177861041
 30
0.0
 11
-14386.941360446732
 21
-4366.517748159164
 31
0.0
  0
LINE
  5
F5
100
AcDbEntity
  8
Frei
  6
CONTINUOUS
 62
           7
100
AcDbLine
 10
-14404.257162395192
 20
-4397.905054556522
 30
0.0
 11
-14390.331222521667
 21
-4399.343177861041
 31
0.0
  0
LINE
  5
F6
100
AcDbEntity
  8
Frei
  6
CONTINUOUS
 62
           7
100
AcDbLine
 10
-14396.888460356393
 20
-4365.490517227365
 30
0.0
 11
-14387.438715442215
 21
-4366.466386612573
 31
0.0
  0
LINE
  5
F7
100
AcDbEntity
  8
Frei
  6
CONTINUOUS
 62
           7
100
AcDbLine
 10
-14397.093906542752
 20
-4367.479937209297
 30
0.0
 11
-14396.888460356393
 21
-4365.490517227365
 31
0.0
  0
LINE
  5
F8
100
AcDbEntity
  8
Frei
  6
CONTINUOUS
 62
           7
100
AcDbLine
 10
-14397.81296819501
 20
-4374.442907146058
 30
0.0
 11
-14397.8643297416
 21
-4374.940262141541
 31
0.0
  0
LINE
  5
F9
100
AcDbEntity
  8
Frei
  6
CONTINUOUS
 62
           7
100
AcDbLine
 10
-14402.837879696432
 20
-4374.426646675642
 30
0.0
 11
-14401.964733404402
 21
-4365.971611752431
 31
0.0
  0
LINE
  5
FA
100
AcDbEntity
  8
Frei
  6
CONTINUOUS
 62
           7
100
AcDbLine
 10
-14397.8643297416
 20
-4374.940262141541
 30
0.0
 11
-14402.837879696432
 21
-4374.426646675642
 31
0.0
  0
LINE
  5
FB
100
AcDbEntity
  8
Frei
  6
CONTINUOUS
 62
           7
100
AcDbLine
 10
-14400.867300320257
 20
-4365.079624854645
 30
0.0
 11
-14396.888460356393
 21
-4365.490517227365
 31
0.0
  0
LINE
  5
FC
100
AcDbEntity
  8
Frei
  6
CONTINUOUS
 62
           7
100
AcDbLine
 10
-14401.296687641994
 20
-4373.635692012354
 30
0.0
 11
-14397.81296819501
 21
-4374.442907146058
 31
0.0
  0
LINE
  5
FD
100
AcDbEntity
  8
Frei
  6
CONTINUOUS
 62
           7
100
AcDbLine
 10
-14401.469691070937
 20
-4371.049325182094
 30
0.0
 11
-14401.681177522783
 21
-4373.097235540841
 31
0.0
  0
LINE
  5
FE
100
AcDbEntity
  8
Frei
  6
CONTINUOUS
 62
           7
100
AcDbLine
 10
-14397.093906542752
 20
-4367.479937209297
 30
0.0
 11
-14397.81296819501
 21
-4374.442907146058
 31
0.0
  0
LINE
  5
FF
100
AcDbEntity
  8
Frei
  6
CONTINUOUS
 62
           7
100
AcDbLine
 10
-14400.669067318073
 20
-4367.558186094137
 30
0.0
 11
-14397.093906542752
 21
-4367.479937209297
 31
0.0
  0
LINE
  5
100
100
AcDbEntity
  8
Frei
  6
CONTINUOUS
 62
           7
100
AcDbLine
 10
-14401.366967977756
 20
-4370.054615191128
 30
0.0
 11
-14401.15548152591
 21
-4368.00670483238
 31
0.0
  0
LINE
  5
101
100
AcDbEntity
  8
Frei
  6
CONTINUOUS
 62
           2
100
AcDbLine
 10
-14399.840403940203
 20
-4370.714921597861
 30
0.0
 11
-14402.602568681681
 21
-4370.429674532189
 31
0.0
  0
LINE
  5
102
100
AcDbEntity
  8
Frei
  6
CONTINUOUS
 62
           7
100
AcDbLine
 10
-14399.891765486793
 20
-4371.212276593342
 30
0.0
 11
-14401.469691070937
 21
-4371.049325182094
 31
0.0
  0
LINE
  5
103
100
AcDbEntity
  8
Frei
  6
CONTINUOUS
 62
           7
100
AcDbLine
 10
-14399.840403940203
 20
-4370.714921597861
 30
0.0
 11
-14399.891765486793
 21
-4371.212276593342
 31
0.0
  0
LINE
  5
104
100
AcDbEntity
  8
Frei
  6
CONTINUOUS
 62
           7
100
AcDbLine
 10
-14399.789042393613
 20
-4370.217566602376
 30
0.0
 11
-14399.840403940203
 21
-4370.714921597861
 31
0.0
  0
LINE
  5
105
100
AcDbEntity
  8
Frei
  6
CONTINUOUS
 62
           7
100
AcDbLine
 10
-14401.366967977756
 20
-4370.054615191128
 30
0.0
 11
-14399.789042393613
 21
-4370.217566602376
 31
0.0
  0
LINE
  5
106
100
AcDbEntity
  8
Frei
  6
CONTINUOUS
 62
           7
100
AcDbLine
 10
-14364.807748964045
 20
-4405.296521253905
 30
0.0
 11
-14364.859110510635
 21
-4405.793876249388
 31
0.0
  0
LINE
  5
107
100
AcDbEntity
  8
Frei
  6
CONTINUOUS
 62
           7
100
AcDbLine
 10
-14364.859110510635
 20
-4405.793876249388
 30
0.0
 11
-14288.266441206253
 21
-4413.703554424237
 31
0.0
  0
LINE
  5
108
100
AcDbEntity
  8
Frei
  6
CONTINUOUS
 62
           7
100
AcDbLine
 10
-14288.266441206253
 20
-4413.703554424237
 30
0.0
 11
-14283.438455826799
 21
-4366.952184848837
 31
0.0
  0
LINE
  5
109
100
AcDbEntity
  8
Frei
  6
CONTINUOUS
 62
           7
100
AcDbLine
 10
-14283.438455826799
 20
-4366.952184848837
 30
0.0
 11
-14360.031125131183
 21
-4359.042506673986
 31
0.0
  0
LINE
  5
10A
100
AcDbEntity
  8
Frei
  6
CONTINUOUS
 62
           7
100
AcDbLine
 10
-14387.438715442215
 20
-4366.466386612573
 30
0.0
 11
-14386.941360446732
 21
-4366.517748159164
 31
0.0
  0
LINE
  5
10B
100
AcDbEntity
  8
Frei
  6
CONTINUOUS
 62
           7
100
AcDbLine
 10
-14361.025835122149
 20
-4358.939783580807
 30
0.0
 11
-14386.39093989178
 21
-4356.320344704721
 31
0.0
  0
LINE
  5
10C
100
AcDbEntity
  8
Frei
  6
CONTINUOUS
 62
           7
100
AcDbLine
 10
-14390.721570275751
 20
-4403.123075826712
 30
0.0
 11
-14390.331222521667
 21
-4399.343177861041
 31
0.0
  0
LINE
  5
10D
100
AcDbEntity
  8
Frei
  6
CONTINUOUS
 62
           7
100
AcDbLine
 10
-14387.438715442215
 20
-4366.466386612573
 30
0.0
 11
-14386.39093989178
 21
-4356.320344704721
 31
0.0
  0
LINE
  5
10E
100
AcDbEntity
  8
Frei
  6
CONTINUOUS
 62
           7
100
AcDbLine
 10
-14364.807748964045
 20
-4405.296521253905
 30
0.0
 11
-14365.802458955011
 21
-4405.193798160724
 31
0.0
  0
LINE
  5
10F
100
AcDbEntity
  8
Frei
  6
CONTINUOUS
 62
           7
100
AcDbLine
 10
-14360.082486677773
 20
-4359.539861669469
 30
0.0
 11
-14364.807748964045
 21
-4405.296521253905
 31
0.0
  0
LINE
  5
110
100
AcDbEntity
  8
Frei
  6
CONTINUOUS
 62
           7
100
AcDbLine
 10
-14360.082486677773
 20
-4359.539861669469
 30
0.0
 11
-14361.077196668739
 21
-4359.43713857629
 31
0.0
  0
LINE
  5
111
100
AcDbEntity
  8
Frei
  6
CONTINUOUS
 62
           7
100
AcDbLine
 10
-14360.031125131183
 20
-4359.042506673986
 30
0.0
 11
-14360.082486677773
 21
-4359.539861669469
 31
0.0
  0
LINE
  5
112
100
AcDbEntity
  8
Frei
  6
CONTINUOUS
 62
           7
100
AcDbLine
 10
-14365.802458955011
 20
-4405.193798160724
 30
0.0
 11
-14361.025835122149
 21
-4358.939783580807
 31
0.0
  0
LINE
  5
113
100
AcDbEntity
  8
Frei
  6
CONTINUOUS
 62
           7
100
AcDbLine
 10
-14365.853820501601
 20
-4405.691153156207
 30
0.0
 11
-14365.802458955011
 21
-4405.193798160724
 31
0.0
  0
LINE
  5
114
100
AcDbEntity
  8
Frei
  6
CONTINUOUS
 62
           7
100
AcDbLine
 10
-14390.721570275751
 20
-4403.123075826712
 30
0.0
 11
-14365.853820501601
 21
-4405.691153156207
 31
0.0
  0
LINE
  5
115
100
AcDbEntity
  8
Frei
  6
CONTINUOUS
 62
           7
100
AcDbLine
 10
-14287.271731215285
 20
-4413.806277517417
 30
0.0
 11
-14262.403981441137
 21
-4416.374354846913
 31
0.0
  0
LINE
  5
116
100
AcDbEntity
  8
Frei
  6
CONTINUOUS
 62
           7
100
AcDbLine
 10
-14287.220369668696
 20
-4413.308922521934
 30
0.0
 11
-14287.271731215285
 21
-4413.806277517417
 31
0.0
  0
LINE
  5
117
100
AcDbEntity
  8
Frei
  6
CONTINUOUS
 62
           7
100
AcDbLine
 10
-14282.443745835833
 20
-4367.054907942016
 30
0.0
 11
-14287.220369668696
 21
-4413.308922521934
 31
0.0
  0
LINE
  5
118
100
AcDbEntity
  8
Frei
  6
CONTINUOUS
 62
           7
100
AcDbLine
 10
-14282.495107382423
 20
-4367.552262937497
 30
0.0
 11
-14283.489817373389
 21
-4367.449539844318
 31
0.0
  0
LINE
  5
119
100
AcDbEntity
  8
Frei
  6
CONTINUOUS
 62
           7
100
AcDbLine
 10
-14287.220369668696
 20
-4413.308922521934
 30
0.0
 11
-14288.215079659662
 21
-4413.206199428754
 31
0.0
  0
LINE
  5
11A
100
AcDbEntity
  8
Frei
  6
CONTINUOUS
 62
           7
100
AcDbLine
 10
-14257.0786410662
 20
-4369.674346818102
 30
0.0
 11
-14258.126416616635
 21
-4379.820388725954
 31
0.0
  0
LINE
  5
11B
100
AcDbEntity
  8
Frei
  6
CONTINUOUS
 62
           7
100
AcDbLine
 10
-14257.0786410662
 20
-4369.674346818102
 30
0.0
 11
-14282.443745835833
 21
-4367.054907942016
 31
0.0
  0
LINE
  5
11C
100
AcDbEntity
  8
Frei
  6
CONTINUOUS
 62
           7
100
AcDbLine
 10
-14258.623771612118
 20
-4379.769027179364
 30
0.0
 11
-14258.126416616635
 21
-4379.820388725954
 31
0.0
  0
LINE
  5
11D
100
AcDbEntity
  8
Frei
  6
CONTINUOUS
 62
           7
100
AcDbLine
 10
-14258.623771612118
 20
-4379.769027179364
 30
0.0
 11
-14262.403981441137
 21
-4416.374354846913
 31
0.0
  0
LINE
  5
11E
100
AcDbEntity
  8
Frei
  6
CONTINUOUS
 62
           7
100
AcDbLine
 10
-14433.86307513232
 20
-4368.206739267578
 30
0.0
 11
-14435.852495114252
 21
-4368.001293081219
 31
0.0
  0
LINE
  5
11F
100
AcDbEntity
  8
Frei
  6
CONTINUOUS
 62
           7
100
AcDbLine
 10
-14434.820103911772
 20
-4387.208952189112
 30
0.0
 11
-14432.971088234533
 21
-4369.304172351724
 31
0.0
  0
LINE
  5
120
100
AcDbEntity
  8
Frei
  6
CONTINUOUS
 62
           7
100
AcDbLine
 10
-14437.906956977849
 20
-4387.89549290054
 30
0.0
 11
-14435.917536995918
 21
-4388.100939086899
 31
0.0
  0
LINE
  5
121
100
AcDbEntity
  8
Frei
  6
CONTINUOUS
 62
           7
100
AcDbLine
 10
-14438.285328409736
 20
-4381.824509861563
 30
0.0
 11
-14438.798943875636
 21
-4386.798059816392
 31
0.0
  0
LINE
  5
122
100
AcDbEntity
  8
Frei
  6
CONTINUOUS
 62
           7
100
AcDbLine
 10
-14435.852495114252
 20
-4368.001293081219
 30
0.0
 11
-14436.949928198397
 21
-4368.893279979006
 31
0.0
  0
LINE
  5
123
100
AcDbEntity
  8
Frei
  6
CONTINUOUS
 62
           7
100
AcDbLine
 10
-14433.86307513232
 20
-4368.206739267578
 30
0.0
 11
-14432.971088234533
 21
-4369.304172351724
 31
0.0
  0
LINE
  5
124
100
AcDbEntity
  8
Frei
  6
CONTINUOUS
 62
           7
100
AcDbLine
 10
-14434.820103911772
 20
-4387.208952189112
 30
0.0
 11
-14435.917536995918
 21
-4388.100939086899
 31
0.0
  0
LINE
  5
125
100
AcDbEntity
  8
Frei
  6
CONTINUOUS
 62
           7
100
AcDbLine
 10
-14437.906956977849
 20
-4387.89549290054
 30
0.0
 11
-14438.798943875636
 21
-4386.798059816392
 31
0.0
  0
LINE
  5
126
100
AcDbEntity
  8
Frei
  6
CONTINUOUS
 62
           7
100
AcDbLine
 10
-14437.906956977849
 20
-4387.89549290054
 30
0.0
 11
-14435.852495114252
 21
-4368.001293081219
 31
0.0
  0
LINE
  5
127
100
AcDbEntity
  8
Frei
  6
CONTINUOUS
 62
           7
100
AcDbLine
 10
-14435.917536995918
 20
-4388.100939086899
 30
0.0
 11
-14433.86307513232
 21
-4368.206739267578
 31
0.0
  0
LINE
  5
128
100
AcDbEntity
  8
Frei
  6
CONTINUOUS
 62
           7
100
AcDbLine
 10
-14435.59052711062
 20
-4394.669277121357
 30
0.0
 11
-14434.820103911772
 21
-4387.208952189112
 31
0.0
  0
LINE
  5
129
100
AcDbEntity
  8
Frei
  6
CONTINUOUS
 62
           7
100
AcDbLine
 10
-14405.768067987397
 20
-4388.198501909395
 30
0.0
 11
-14406.743937372607
 21
-4397.648246823574
 31
0.0
  0
LINE
  5
12A
100
AcDbEntity
  8
Frei
  6
CONTINUOUS
 62
           7
100
AcDbLine
 10
-14438.560976748444
 20
-4374.758816831622
 30
0.0
 11
-14437.463543664297
 21
-4373.866829933835
 31
0.0
  0
LINE
  5
12B
100
AcDbEntity
  8
Frei
  6
CONTINUOUS
 62
           7
100
AcDbLine
 10
-14436.949928198397
 20
-4368.893279979006
 30
0.0
 11
-14437.463543664297
 21
-4373.866829933835
 31
0.0
  0
LINE
  5
12C
100
AcDbEntity
  8
Frei
  6
CONTINUOUS
 62
           7
100
AcDbLine
 10
-14438.612338295034
 20
-4375.256171827105
 30
0.0
 11
-14438.560976748444
 21
-4374.758816831622
 31
0.0
  0
LINE
  5
12D
100
AcDbEntity
  8
Frei
  6
CONTINUOUS
 62
           7
100
AcDbLine
 10
-14438.285328409736
 20
-4381.824509861563
 30
0.0
 11
-14439.177315307523
 21
-4380.727076777417
 31
0.0
  0
LINE
  5
12E
100
AcDbEntity
  8
Frei
  6
CONTINUOUS
 62
           7
100
AcDbLine
 10
-14438.182605316557
 20
-4380.829799870597
 30
0.0
 11
-14438.285328409736
 21
-4381.824509861563
 31
0.0
  0
LINE
  5
12F
100
AcDbEntity
  8
Frei
  6
CONTINUOUS
 62
           2
100
AcDbLine
 10
-14437.566266757478
 20
-4374.861539924801
 30
0.0
 11
-14438.560976748444
 21
-4374.758816831622
 31
0.0
  0
LINE
  5
130
100
AcDbEntity
  8
Frei
  6
CONTINUOUS
 62
           7
100
AcDbLine
 10
-14437.463543664297
 20
-4373.866829933835
 30
0.0
 11
-14437.566266757478
 21
-4374.861539924801
 31
0.0
  0
LINE
  5
131
100
AcDbEntity
  8
Frei
  6
CONTINUOUS
 62
           2
100
AcDbLine
 10
-14438.182605316557
 20
-4380.829799870597
 30
0.0
 11
-14439.177315307523
 21
-4380.727076777417
 31
0.0
  0
LINE
  5
132
100
AcDbEntity
  8
Frei
  6
CONTINUOUS
 62
           7
100
AcDbLine
 10
-14437.566266757478
 20
-4374.861539924801
 30
0.0
 11
-14438.182605316557
 21
-4380.829799870597
 31
0.0
  0
LINE
  5
133
100
AcDbEntity
  8
Frei
  6
CONTINUOUS
 62
           1
100
AcDbLine
 10
-14436.137150751087
 20
-4375.511782932877
 30
0.0
 11
-14438.612338295034
 21
-4375.256171827105
 31
0.0
  0
LINE
  5
134
100
AcDbEntity
  8
Frei
  6
CONTINUOUS
 62
           7
100
AcDbLine
 10
-14438.663699841623
 20
-4375.753526822587
 30
0.0
 11
-14438.612338295034
 21
-4375.256171827105
 31
0.0
  0
LINE
  5
135
100
AcDbEntity
  8
Frei
  6
CONTINUOUS
 62
           1
100
AcDbLine
 10
-14436.650766216986
 20
-4380.485332887707
 30
0.0
 11
-14439.125953760933
 21
-4380.229721781934
 31
0.0
  0
LINE
  5
136
100
AcDbEntity
  8
Frei
  6
CONTINUOUS
 62
           7
100
AcDbLine
 10
-14439.177315307523
 20
-4380.727076777417
 30
0.0
 11
-14439.125953760933
 21
-4380.229721781934
 31
0.0
  0
LINE
  5
137
100
AcDbEntity
  8
Frei
  6
CONTINUOUS
 62
           1
100
AcDbLine
 10
-14436.188512297676
 20
-4376.00913792836
 30
0.0
 11
-14438.663699841623
 21
-4375.753526822587
 31
0.0
  0
LINE
  5
138
100
AcDbEntity
  8
Frei
  6
CONTINUOUS
 62
           7
100
AcDbLine
 10
-14439.074592214341
 20
-4379.732366786451
 30
0.0
 11
-14438.663699841623
 21
-4375.753526822587
 31
0.0
  0
LINE
  5
139
100
AcDbEntity
  8
Frei
  6
CONTINUOUS
 62
           1
100
AcDbLine
 10
-14436.599404670396
 20
-4379.987977892224
 30
0.0
 11
-14439.074592214341
 21
-4379.732366786451
 31
0.0
  0
LINE
  5
13A
100
AcDbEntity
  8
Frei
  6
CONTINUOUS
 62
           7
100
AcDbLine
 10
-14439.125953760933
 20
-4380.229721781934
 30
0.0
 11
-14439.074592214341
 21
-4379.732366786451
 31
0.0
  0
LINE
  5
13B
100
AcDbEntity
  8
Frei
  6
CONTINUOUS
 62
           7
100
AcDbLine
 10
-14430.788671138765
 20
-4366.961261175962
 30
0.0
 11
-14403.764967670391
 21
-4368.80165708556
 31
0.0
  0
LINE
  5
13C
100
AcDbEntity
  8
Frei
  6
CONTINUOUS
 62
           7
100
AcDbLine
 10
-14432.913982398693
 20
-4368.751193039136
 30
0.0
 11
-14432.971088234533
 21
-4369.304172351724
 31
0.0
  0
LINE
  5
13D
100
AcDbEntity
  8
Frei
  6
CONTINUOUS
 62
           7
100
AcDbLine
 10
-14406.743937372607
 20
-4397.648246823574
 30
0.0
 11
-14435.59052711062
 21
-4394.669277121357
 31
0.0
  0
LINE
  5
13E
100
AcDbEntity
  8
Frei
  6
CONTINUOUS
 62
           7
100
AcDbLine
 10
-14435.6932502038
 20
-4395.663987112323
 30
0.0
 11
-14435.59052711062
 21
-4394.669277121357
 31
0.0
  0
LINE
  5
13F
100
AcDbEntity
  8
Frei
  6
CONTINUOUS
 62
           7
100
AcDbLine
 10
-14435.195895208317
 20
-4395.715348658913
 30
0.0
 11
-14435.6932502038
 21
-4395.663987112323
 31
0.0
  0
LINE
  5
140
100
AcDbEntity
  8
Frei
  6
CONTINUOUS
 62
           7
100
AcDbLine
 10
-14406.743937372607
 20
-4397.648246823574
 30
0.0
 11
-14406.846660465786
 21
-4398.64295681454
 31
0.0
  0
LINE
  5
141
100
AcDbEntity
  8
Frei
  6
CONTINUOUS
 62
           7
100
AcDbLine
 10
-14446.975750324798
 20
-4407.567986063083
 30
0.0
 11
-14436.531295419656
 21
-4408.646578541471
 31
0.0
  0
LINE
  5
142
100
AcDbEntity
  8
Frei
  6
CONTINUOUS
 62
           7
100
AcDbLine
 10
-14450.111384802125
 20
-4423.329261278768
 30
0.0
 11
-14450.162746348715
 21
-4423.826616274251
 31
0.0
  0
LINE
  5
143
100
AcDbEntity
  8
Frei
  6
CONTINUOUS
 62
           7
100
AcDbLine
 10
-14448.824766002035
 20
-4425.472765900471
 30
0.0
 11
-14438.380311096893
 21
-4426.55135837886
 31
0.0
  0
LINE
  5
144
100
AcDbEntity
  8
Frei
  6
CONTINUOUS
 62
           7
100
AcDbLine
 10
-14438.020780270763
 20
-4423.069873410478
 30
0.0
 11
-14435.195895208317
 21
-4395.715348658913
 31
0.0
  0
LINE
  5
145
100
AcDbEntity
  8
Frei
  6
CONTINUOUS
 62
           7
100
AcDbLine
 10
-14407.344015461269
 20
-4398.59159526795
 30
0.0
 11
-14435.195895208317
 21
-4395.715348658913
 31
0.0
  0
LINE
  5
146
100
AcDbEntity
  8
Frei
  6
CONTINUOUS
 62
           7
100
AcDbLine
 10
-14436.682799924083
 20
-4424.716023036697
 30
0.0
 11
-14430.75024846037
 21
-4425.328674002643
 31
0.0
  0
LINE
  5
147
100
AcDbEntity
  8
Frei
  6
CONTINUOUS
 62
           7
100
AcDbLine
 10
-14410.168900523715
 20
-4425.946120019515
 30
0.0
 11
-14407.344015461269
 21
-4398.59159526795
 31
0.0
  0
LINE
  5
148
100
AcDbEntity
  8
Frei
  6
CONTINUOUS
 62
           7
100
AcDbLine
 10
-14406.846660465786
 20
-4398.64295681454
 30
0.0
 11
-14407.344015461269
 21
-4398.59159526795
 31
0.0
  0
LINE
  5
149
100
AcDbEntity
  8
Frei
  6
CONTINUOUS
 62
           7
100
AcDbLine
 10
-14430.75024846037
 20
-4425.328674002643
 30
0.0
 11
-14438.380311096893
 21
-4426.55135837886
 31
0.0
  0
LINE
  5
14A
100
AcDbEntity
  8
Frei
  6
CONTINUOUS
 62
           7
100
AcDbLine
 10
-14411.815050149935
 20
-4427.284100366192
 30
0.0
 11
-14430.75024846037
 21
-4425.328674002643
 31
0.0
  0
LINE
  5
14B
100
AcDbEntity
  8
Frei
  6
CONTINUOUS
 62
           7
100
AcDbLine
 10
-14453.646811452438
 20
-4408.889705939346
 30
0.0
 11
-14448.673261497606
 21
-4409.403321405245
 31
0.0
  0
LINE
  5
14C
100
AcDbEntity
  8
Frei
  6
CONTINUOUS
 62
           7
100
AcDbLine
 10
-14448.621899951017
 20
-4408.905966409762
 30
0.0
 11
-14448.673261497606
 21
-4409.403321405245
 31
0.0
  0
LINE
  5
14D
100
AcDbEntity
  8
Frei
  6
CONTINUOUS
 62
           7
100
AcDbLine
 10
-14455.084934756955
 20
-4422.815645812869
 30
0.0
 11
-14450.111384802125
 21
-4423.329261278768
 31
0.0
  0
LINE
  5
14E
100
AcDbEntity
  8
Frei
  6
CONTINUOUS
 62
           7
100
AcDbLine
 10
-14450.008661708946
 20
-4422.334551287802
 30
0.0
 11
-14450.111384802125
 21
-4423.329261278768
 31
0.0
  0
LINE
  5
14F
100
AcDbEntity
  8
Frei
  6
CONTINUOUS
 62
           2
100
AcDbLine
 10
-14448.775984590788
 20
-4410.398031396211
 30
0.0
 11
-14453.749534545617
 21
-4409.884415930312
 31
0.0
  0
LINE
  5
150
100
AcDbEntity
  8
Frei
  6
CONTINUOUS
 62
           7
100
AcDbLine
 10
-14448.673261497606
 20
-4409.403321405245
 30
0.0
 11
-14448.775984590788
 21
-4410.398031396211
 31
0.0
  0
LINE
  5
151
100
AcDbEntity
  8
Frei
  6
CONTINUOUS
 62
           2
100
AcDbLine
 10
-14450.008661708946
 20
-4422.334551287802
 30
0.0
 11
-14454.982211663775
 21
-4421.820935821903
 31
0.0
  0
LINE
  5
152
100
AcDbEntity
  8
Frei
  6
CONTINUOUS
 62
           7
100
AcDbLine
 10
-14448.775984590788
 20
-4410.398031396211
 30
0.0
 11
-14450.008661708946
 21
-4422.334551287802
 31
0.0
  0
LINE
  5
153
100
AcDbEntity
  8
Frei
  6
CONTINUOUS
 62
           7
100
AcDbLine
 10
-14404.329944682881
 20
-4374.272562035872
 30
0.0
 11
-14403.577955213837
 21
-4374.350219529011
 31
0.0
  0
LINE
  5
154
100
AcDbEntity
  8
Frei
  6
CONTINUOUS
 62
           7
100
AcDbLine
 10
-14403.764967670391
 20
-4368.80165708556
 30
0.0
 11
-14404.329944682881
 21
-4374.272562035872
 31
0.0
  0
LINE
  5
155
100
AcDbEntity
  8
Frei
  6
CONTINUOUS
 62
           7
100
AcDbLine
 10
-14404.689475509009
 20
-4377.754047004253
 30
0.0
 11
-14403.937486039968
 21
-4377.831704497392
 31
0.0
  0
LINE
  5
156
100
AcDbEntity
  8
Frei
  6
CONTINUOUS
 62
           7
100
AcDbLine
 10
-14404.329944682881
 20
-4374.272562035872
 30
0.0
 11
-14404.689475509009
 21
-4377.754047004253
 31
0.0
  0
LINE
  5
157
100
AcDbEntity
  8
Frei
  6
CONTINUOUS
 62
           7
100
AcDbLine
 10
-14405.408537161269
 20
-4384.717016941015
 30
0.0
 11
-14404.656547692226
 21
-4384.794674434153
 31
0.0
  0
LINE
  5
158
100
AcDbEntity
  8
Frei
  6
CONTINUOUS
 62
           7
100
AcDbLine
 10
-14404.689475509009
 20
-4377.754047004253
 30
0.0
 11
-14405.408537161269
 21
-4384.717016941015
 31
0.0
  0
LINE
  5
159
100
AcDbEntity
  8
Frei
  6
CONTINUOUS
 62
           7
100
AcDbLine
 10
-14405.768067987397
 20
-4388.198501909395
 30
0.0
 11
-14405.016078518356
 21
-4388.276159402534
 31
0.0
  0
LINE
  5
15A
100
AcDbEntity
  8
Frei
  6
CONTINUOUS
 62
           7
100
AcDbLine
 10
-14405.408537161269
 20
-4384.717016941015
 30
0.0
 11
-14405.768067987397
 21
-4388.198501909395
 31
0.0
  0
LINE
  5
15B
100
AcDbEntity
  8
Frei
  6
CONTINUOUS
 62
           7
100
AcDbLine
 10
-14403.55694134869
 20
-4381.389616612403
 30
0.0
 11
-14403.017645109496
 21
-4376.167389159833
 31
0.0
  0
LINE
  5
15C
100
AcDbEntity
  8
Frei
  6
CONTINUOUS
 62
           7
100
AcDbLine
 10
-14453.551463545524
 20
-4407.966412912543
 30
0.0
 11
-14453.416957816706
 21
-4406.663938579311
 31
0.0
  0
LINE
  5
15D
100
AcDbEntity
  8
Frei
  6
CONTINUOUS
 62
           7
100
AcDbLine
 10
-14459.53635444061
 20
-4424.605454625746
 30
0.0
 11
-14455.314788392687
 21
-4425.041413172905
 31
0.0
  0
LINE
  5
15E
100
AcDbEntity
  8
Frei
  6
CONTINUOUS
 62
           7
100
AcDbLine
 10
-14458.525013500353
 20
-4407.452797446645
 30
0.0
 11
-14453.551463545524
 21
-4407.966412912543
 31
0.0
  0
LINE
  5
15F
100
AcDbEntity
  8
Frei
  6
CONTINUOUS
 62
           7
100
AcDbLine
 10
-14453.756909731883
 20
-4409.955832894475
 30
0.0
 11
-14453.551463545524
 21
-4407.966412912543
 31
0.0
  0
LINE
  5
160
100
AcDbEntity
  8
Frei
  6
CONTINUOUS
 62
           7
100
AcDbLine
 10
-14453.756909731883
 20
-4409.955832894475
 30
0.0
 11
-14458.730459686712
 21
-4409.442217428576
 31
0.0
  0
LINE
  5
161
100
AcDbEntity
  8
Frei
  6
CONTINUOUS
 62
           7
100
AcDbLine
 10
-14458.525013500353
 20
-4407.452797446645
 30
0.0
 11
-14458.730459686712
 21
-4409.442217428576
 31
0.0
  0
LINE
  5
162
100
AcDbEntity
  8
Frei
  6
CONTINUOUS
 62
           7
100
AcDbLine
 10
-14453.891415460701
 20
-4411.258307227708
 30
0.0
 11
-14453.756909731883
 21
-4409.955832894475
 31
0.0
  0
LINE
  5
163
100
AcDbEntity
  8
Frei
  6
CONTINUOUS
 62
           7
100
AcDbLine
 10
-14454.160426918335
 20
-4413.863255894175
 30
0.0
 11
-14453.891415460701
 21
-4411.258307227708
 31
0.0
  0
LINE
  5
164
100
AcDbEntity
  8
Frei
  6
CONTINUOUS
 62
           7
100
AcDbLine
 10
-14454.160426918335
 20
-4413.863255894175
 30
0.0
 11
-14459.133976873167
 21
-4413.349640428276
 31
0.0
  0
LINE
  5
165
100
AcDbEntity
  8
Frei
  6
CONTINUOUS
 62
           7
100
AcDbLine
 10
-14458.730459686712
 20
-4409.442217428576
 30
0.0
 11
-14459.133976873167
 21
-4413.349640428276
 31
0.0
  0
LINE
  5
166
100
AcDbEntity
  8
Frei
  6
CONTINUOUS
 62
           7
100
AcDbLine
 10
-14454.571319291055
 20
-4417.842095858039
 30
0.0
 11
-14454.160426918335
 21
-4413.863255894175
 31
0.0
  0
LINE
  5
167
100
AcDbEntity
  8
Frei
  6
CONTINUOUS
 62
           7
100
AcDbLine
 10
-14454.571319291055
 20
-4417.842095858039
 30
0.0
 11
-14459.544869245885
 21
-4417.32848039214
 31
0.0
  0
LINE
  5
168
100
AcDbEntity
  8
Frei
  6
CONTINUOUS
 62
           7
100
AcDbLine
 10
-14459.133976873167
 20
-4413.349640428276
 30
0.0
 11
-14459.544869245885
 21
-4417.32848039214
 31
0.0
  0
LINE
  5
169
100
AcDbEntity
  8
Frei
  6
CONTINUOUS
 62
           7
100
AcDbLine
 10
-14454.840330748691
 20
-4420.447044524506
 30
0.0
 11
-14454.571319291055
 21
-4417.842095858039
 31
0.0
  0
LINE
  5
16A
100
AcDbEntity
  8
Frei
  6
CONTINUOUS
 62
           7
100
AcDbLine
 10
-14454.974836477508
 20
-4421.74951885774
 30
0.0
 11
-14454.840330748691
 21
-4420.447044524506
 31
0.0
  0
LINE
  5
16B
100
AcDbEntity
  8
Frei
  6
CONTINUOUS
 62
           7
100
AcDbLine
 10
-14454.974836477508
 20
-4421.74951885774
 30
0.0
 11
-14459.948386432339
 21
-4421.235903391841
 31
0.0
  0
LINE
  5
16C
100
AcDbEntity
  8
Frei
  6
CONTINUOUS
 62
           7
100
AcDbLine
 10
-14459.544869245885
 20
-4417.32848039214
 30
0.0
 11
-14459.948386432339
 21
-4421.235903391841
 31
0.0
  0
LINE
  5
16D
100
AcDbEntity
  8
Frei
  6
CONTINUOUS
 62
           7
100
AcDbLine
 10
-14455.180282663869
 20
-4423.738938839671
 30
0.0
 11
-14454.974836477508
 21
-4421.74951885774
 31
0.0
  0
LINE
  5
16E
100
AcDbEntity
  8
Frei
  6
CONTINUOUS
 62
           7
100
AcDbLine
 10
-14455.180282663869
 20
-4423.738938839671
 30
0.0
 11
-14460.153832618698
 21
-4423.225323373773
 31
0.0
  0
LINE
  5
16F
100
AcDbEntity
  8
Frei
  6
CONTINUOUS
 62
           7
100
AcDbLine
 10
-14459.948386432339
 20
-4421.235903391841
 30
0.0
 11
-14460.153832618698
 21
-4423.225323373773
 31
0.0
  0
LINE
  5
170
100
AcDbEntity
  8
Frei
  6
CONTINUOUS
 62
           7
100
AcDbLine
 10
-14455.314788392687
 20
-4425.041413172905
 30
0.0
 11
-14455.180282663869
 21
-4423.738938839671
 31
0.0
  0
LINE
  5
171
100
AcDbEntity
  8
Frei
  6
CONTINUOUS
 62
           7
100
AcDbLine
 10
-14458.525013500353
 20
-4407.452797446645
 30
0.0
 11
-14457.638523864631
 21
-4406.227980032152
 31
0.0
  0
LINE
  5
172
100
AcDbEntity
  8
Frei
  6
CONTINUOUS
 62
           7
100
AcDbLine
 10
-14453.416957816706
 20
-4406.663938579311
 30
0.0
 11
-14457.638523864631
 21
-4406.227980032152
 31
0.0
  0
LINE
  5
173
100
AcDbEntity
  8
Frei
  6
CONTINUOUS
 62
           7
100
AcDbLine
 10
-14459.53635444061
 20
-4424.605454625746
 30
0.0
 11
-14460.153832618698
 21
-4423.225323373773
 31
0.0
  0
LINE
  5
174
100
AcDbEntity
  8
Frei
  6
CONTINUOUS
 62
           7
100
AcDbLine
 10
-14458.112981508626
 20
-4410.822348680549
 30
0.0
 11
-14458.730459686712
 21
-4409.442217428576
 31
0.0
  0
LINE
  5
175
100
AcDbEntity
  8
Frei
  6
CONTINUOUS
 62
           7
100
AcDbLine
 10
-14453.891415460701
 20
-4411.258307227708
 30
0.0
 11
-14458.112981508626
 21
-4410.822348680549
 31
0.0
  0
LINE
  5
176
100
AcDbEntity
  8
Frei
  6
CONTINUOUS
 62
           7
100
AcDbLine
 10
-14459.133976873167
 20
-4413.349640428276
 30
0.0
 11
-14458.112981508626
 21
-4410.822348680549
 31
0.0
  0
LINE
  5
177
100
AcDbEntity
  8
Frei
  6
CONTINUOUS
 62
           7
100
AcDbLine
 10
-14459.061896796617
 20
-4420.011085977347
 30
0.0
 11
-14459.544869245885
 21
-4417.32848039214
 31
0.0
  0
LINE
  5
178
100
AcDbEntity
  8
Frei
  6
CONTINUOUS
 62
           7
100
AcDbLine
 10
-14454.840330748691
 20
-4420.447044524506
 30
0.0
 11
-14459.061896796617
 21
-4420.011085977347
 31
0.0
  0
LINE
  5
179
100
AcDbEntity
  8
Frei
  6
CONTINUOUS
 62
           7
100
AcDbLine
 10
-14459.948386432339
 20
-4421.235903391841
 30
0.0
 11
-14459.061896796617
 21
-4420.011085977347
 31
0.0
  0
LINE
  5
17A
100
AcDbEntity
  8
Frei
  6
CONTINUOUS
 62
           3
100
AcDbLine
 10
-14414.567201156739
 20
-4419.862128604205
 30
0.0
 11
-14432.471980994125
 21
-4418.013112926969
 31
0.0
  0
LINE
  5
17B
100
AcDbEntity
  8
Frei
  6
CONTINUOUS
 62
           3
100
AcDbLine
 10
-14415.225661007224
 20
-4420.397320742877
 30
0.0
 11
-14414.567201156739
 21
-4419.862128604205
 31
0.0
  0
LINE
  5
17C
100
AcDbEntity
  8
Frei
  6
CONTINUOUS
 62
           3
100
AcDbLine
 10
-14414.690468868554
 20
-4421.055780593364
 30
0.0
 11
-14415.225661007224
 21
-4420.397320742877
 31
0.0
  0
LINE
  5
17D
100
AcDbEntity
  8
Frei
  6
CONTINUOUS
 62
           3
100
AcDbLine
 10
-14432.595248705942
 20
-4419.206764916127
 30
0.0
 11
-14414.690468868554
 21
-4421.055780593364
 31
0.0
  0
LINE
  5
17E
100
AcDbEntity
  8
Frei
  6
CONTINUOUS
 62
           3
100
AcDbLine
 10
-14431.936788855453
 20
-4418.671572777455
 30
0.0
 11
-14432.595248705942
 21
-4419.206764916127
 31
0.0
  0
LINE
  5
17F
100
AcDbEntity
  8
Frei
  6
CONTINUOUS
 62
           3
100
AcDbLine
 10
-14432.471980994125
 20
-4418.013112926969
 30
0.0
 11
-14431.936788855453
 21
-4418.671572777455
 31
0.0
  0
LINE
  5
180
100
AcDbEntity
  8
Frei
  6
CONTINUOUS
 62
           3
100
AcDbLine
 10
-14415.225661007224
 20
-4420.397320742877
 30
0.0
 11
-14431.936788855453
 21
-4418.671572777455
 31
0.0
  0
LINE
  5
181
100
AcDbEntity
  8
Frei
  6
CONTINUOUS
 62
           3
100
AcDbLine
 10
-14432.389802519583
 20
-4417.217344934195
 30
0.0
 11
-14431.731342669094
 21
-4416.682152795524
 31
0.0
  0
LINE
  5
182
100
AcDbEntity
  8
Frei
  6
CONTINUOUS
 62
           3
100
AcDbLine
 10
-14414.485022682195
 20
-4419.066360611432
 30
0.0
 11
-14432.389802519583
 21
-4417.217344934195
 31
0.0
  0
LINE
  5
183
100
AcDbEntity
  8
Frei
  6
CONTINUOUS
 62
           3
100
AcDbLine
 10
-14415.020214820865
 20
-4418.407900760945
 30
0.0
 11
-14414.485022682195
 21
-4419.066360611432
 31
0.0
  0
LINE
  5
184
100
AcDbEntity
  8
Frei
  6
CONTINUOUS
 62
           3
100
AcDbLine
 10
-14414.361754970378
 20
-4417.872708622273
 30
0.0
 11
-14415.020214820865
 21
-4418.407900760945
 31
0.0
  0
LINE
  5
185
100
AcDbEntity
  8
Frei
  6
CONTINUOUS
 62
           3
100
AcDbLine
 10
-14432.266534807766
 20
-4416.023692945037
 30
0.0
 11
-14414.361754970378
 21
-4417.872708622273
 31
0.0
  0
LINE
  5
186
100
AcDbEntity
  8
Frei
  6
CONTINUOUS
 62
           3
100
AcDbLine
 10
-14431.731342669094
 20
-4416.682152795524
 30
0.0
 11
-14432.266534807766
 21
-4416.023692945037
 31
0.0
  0
LINE
  5
187
100
AcDbEntity
  8
Frei
  6
CONTINUOUS
 62
           3
100
AcDbLine
 10
-14431.731342669094
 20
-4416.682152795524
 30
0.0
 11
-14415.020214820865
 21
-4418.407900760945
 31
0.0
  0
LINE
  5
188
100
AcDbEntity
  8
Frei
  6
CONTINUOUS
 62
           3
100
AcDbLine
 10
-14432.184356333222
 20
-4415.227924952264
 30
0.0
 11
-14431.525896482735
 21
-4414.692732813592
 31
0.0
  0
LINE
  5
189
100
AcDbEntity
  8
Frei
  6
CONTINUOUS
 62
           3
100
AcDbLine
 10
-14414.279576495834
 20
-4417.0769406295
 30
0.0
 11
-14432.184356333222
 21
-4415.227924952264
 31
0.0
  0
LINE
  5
18A
100
AcDbEntity
  8
Frei
  6
CONTINUOUS
 62
           3
100
AcDbLine
 10
-14414.814768634506
 20
-4416.418480779013
 30
0.0
 11
-14414.279576495834
 21
-4417.0769406295
 31
0.0
  0
LINE
  5
18B
100
AcDbEntity
  8
Frei
  6
CONTINUOUS
 62
           3
100
AcDbLine
 10
-14414.156308784019
 20
-4415.883288640342
 30
0.0
 11
-14414.814768634506
 21
-4416.418480779013
 31
0.0
  0
LINE
  5
18C
100
AcDbEntity
  8
Frei
  6
CONTINUOUS
 62
           3
100
AcDbLine
 10
-14432.061088621407
 20
-4414.034272963105
 30
0.0
 11
-14414.156308784019
 21
-4415.883288640342
 31
0.0
  0
LINE
  5
18D
100
AcDbEntity
  8
Frei
  6
CONTINUOUS
 62
           3
100
AcDbLine
 10
-14431.525896482735
 20
-4414.692732813592
 30
0.0
 11
-14432.061088621407
 21
-4414.034272963105
 31
0.0
  0
LINE
  5
18E
100
AcDbEntity
  8
Frei
  6
CONTINUOUS
 62
           3
100
AcDbLine
 10
-14431.978910146863
 20
-4413.238504970332
 30
0.0
 11
-14431.320450296374
 21
-4412.70331283166
 31
0.0
  0
LINE
  5
18F
100
AcDbEntity
  8
Frei
  6
CONTINUOUS
 62
           3
100
AcDbLine
 10
-14425.918222456932
 20
-4413.86438848609
 30
0.0
 11
-14431.978910146863
 21
-4413.238504970332
 31
0.0
  0
LINE
  5
190
100
AcDbEntity
  8
Frei
  6
CONTINUOUS
 62
           3
100
AcDbLine
 10
-14414.609322448145
 20
-4414.429060797082
 30
0.0
 11
-14414.074130309475
 21
-4415.087520647569
 31
0.0
  0
LINE
  5
191
100
AcDbEntity
  8
Frei
  6
CONTINUOUS
 62
           3
100
AcDbLine
 10
-14413.95086259766
 20
-4413.89386865841
 30
0.0
 11
-14414.609322448145
 21
-4414.429060797082
 31
0.0
  0
LINE
  5
192
100
AcDbEntity
  8
Frei
  6
CONTINUOUS
 62
           3
100
AcDbLine
 10
-14420.011550287589
 20
-4413.267985142651
 30
0.0
 11
-14413.95086259766
 21
-4413.89386865841
 31
0.0
  0
LINE
  5
193
100
AcDbEntity
  8
Frei
  6
CONTINUOUS
 62
           3
100
AcDbLine
 10
-14431.320450296374
 20
-4412.70331283166
 30
0.0
 11
-14431.855642435046
 21
-4412.044852981173
 31
0.0
  0
LINE
  5
194
100
AcDbEntity
  8
Frei
  6
CONTINUOUS
 62
           3
100
AcDbLine
 10
-14431.773463960502
 20
-4411.2490849884
 30
0.0
 11
-14431.115004110015
 21
-4410.713892849728
 31
0.0
  0
LINE
  5
195
100
AcDbEntity
  8
Frei
  6
CONTINUOUS
 62
           3
100
AcDbLine
 10
-14426.455044878956
 20
-4411.798314878362
 30
0.0
 11
-14431.773463960502
 21
-4411.2490849884
 31
0.0
  0
LINE
  5
196
100
AcDbEntity
  8
Frei
  6
CONTINUOUS
 62
           3
100
AcDbLine
 10
-14414.403876261786
 20
-4412.43964081515
 30
0.0
 11
-14413.868684123116
 21
-4413.098100665637
 31
0.0
  0
LINE
  5
197
100
AcDbEntity
  8
Frei
  6
CONTINUOUS
 62
           3
100
AcDbLine
 10
-14419.722295343334
 20
-4411.890410925185
 30
0.0
 11
-14414.403876261786
 21
-4412.43964081515
 31
0.0
  0
LINE
  5
198
100
AcDbEntity
  8
Frei
  6
CONTINUOUS
 62
           3
100
AcDbLine
 10
-14425.259762606445
 20
-4413.329196347419
 30
0.0
 11
-14431.320450296374
 21
-4412.70331283166
 31
0.0
  0
LINE
  5
199
100
AcDbEntity
  8
Frei
  6
CONTINUOUS
 62
           3
100
AcDbLine
 10
-14414.814768634506
 20
-4416.418480779013
 30
0.0
 11
-14431.525896482735
 21
-4414.692732813592
 31
0.0
  0
LINE
  5
19A
100
AcDbEntity
  8
Frei
  6
CONTINUOUS
 62
           3
100
AcDbLine
 10
-14425.259762606445
 20
-4413.329196347419
 30
0.0
 11
-14425.794954745115
 21
-4412.670736496932
 31
0.0
  0
LINE
  5
19B
100
AcDbEntity
  8
Frei
  6
CONTINUOUS
 62
           3
100
AcDbLine
 10
-14431.855642435046
 20
-4412.044852981173
 30
0.0
 11
-14425.794954745115
 21
-4412.670736496932
 31
0.0
  0
LINE
  5
19C
100
AcDbEntity
  8
Frei
  6
CONTINUOUS
 62
           3
100
AcDbLine
 10
-14425.918222456932
 20
-4413.86438848609
 30
0.0
 11
-14425.259762606445
 21
-4413.329196347419
 31
0.0
  0
LINE
  5
19D
100
AcDbEntity
  8
Frei
  6
CONTINUOUS
 62
           3
100
AcDbLine
 10
-14425.796585028467
 20
-4411.263122739691
 30
0.0
 11
-14426.455044878956
 21
-4411.798314878362
 31
0.0
  0
LINE
  5
19E
100
AcDbEntity
  8
Frei
  6
CONTINUOUS
 62
           3
100
AcDbLine
 10
-14431.115004110015
 20
-4410.713892849728
 30
0.0
 11
-14425.796585028467
 21
-4411.263122739691
 31
0.0
  0
LINE
  5
19F
100
AcDbEntity
  8
Frei
  6
CONTINUOUS
 62
           3
100
AcDbLine
 10
-14419.18710320466
 20
-4412.548870775674
 30
0.0
 11
-14419.722295343334
 21
-4411.890410925185
 31
0.0
  0
LINE
  5
1A0
100
AcDbEntity
  8
Frei
  6
CONTINUOUS
 62
           3
100
AcDbLine
 10
-14413.868684123116
 20
-4413.098100665637
 30
0.0
 11
-14419.18710320466
 21
-4412.548870775674
 31
0.0
  0
LINE
  5
1A1
100
AcDbEntity
  8
Frei
  6
CONTINUOUS
 62
           3
100
AcDbLine
 10
-14420.670010138076
 20
-4413.803177281321
 30
0.0
 11
-14420.011550287589
 21
-4413.267985142651
 31
0.0
  0
LINE
  5
1A2
100
AcDbEntity
  8
Frei
  6
CONTINUOUS
 62
           3
100
AcDbLine
 10
-14414.609322448145
 20
-4414.429060797082
 30
0.0
 11
-14420.670010138076
 21
-4413.803177281321
 31
0.0
  0
LINE
  5
1A3
100
AcDbEntity
  8
Frei
  6
CONTINUOUS
 62
           3
100
AcDbLine
 10
-14420.134817999404
 20
-4414.46163713181
 30
0.0
 11
-14420.670010138076
 21
-4413.803177281321
 31
0.0
  0
LINE
  5
1A4
100
AcDbEntity
  8
Frei
  6
CONTINUOUS
 62
           3
100
AcDbLine
 10
-14414.074130309475
 20
-4415.087520647569
 30
0.0
 11
-14420.134817999404
 21
-4414.46163713181
 31
0.0
  0
LINE
  5
1A5
100
AcDbEntity
  8
Frei
  6
CONTINUOUS
 62
           3
100
AcDbLine
 10
-14431.855642435046
 20
-4412.044852981173
 30
0.0
 11
-14431.978910146863
 21
-4413.238504970332
 31
0.0
  0
LINE
  5
1A6
100
AcDbEntity
  8
Frei
  6
CONTINUOUS
 62
           3
100
AcDbLine
 10
-14432.184356333222
 20
-4415.227924952264
 30
0.0
 11
-14432.061088621407
 21
-4414.034272963105
 31
0.0
  0
LINE
  5
1A7
100
AcDbEntity
  8
Frei
  6
CONTINUOUS
 62
           3
100
AcDbLine
 10
-14432.389802519583
 20
-4417.217344934195
 30
0.0
 11
-14432.266534807766
 21
-4416.023692945037
 31
0.0
  0
LINE
  5
1A8
100
AcDbEntity
  8
Frei
  6
CONTINUOUS
 62
           3
100
AcDbLine
 10
-14432.595248705942
 20
-4419.206764916127
 30
0.0
 11
-14432.471980994125
 21
-4418.013112926969
 31
0.0
  0
LINE
  5
1A9
100
AcDbEntity
  8
Frei
  6
CONTINUOUS
 62
           3
100
AcDbLine
 10
-14431.711830104596
 20
-4410.65225899382
 30
0.0
 11
-14431.773463960502
 21
-4411.2490849884
 31
0.0
  0
LINE
  5
1AA
100
AcDbEntity
  8
Frei
  6
CONTINUOUS
 62
           3
100
AcDbLine
 10
-14413.868684123116
 20
-4413.098100665637
 30
0.0
 11
-14413.807050267207
 21
-4412.501274671056
 31
0.0
  0
LINE
  5
1AB
100
AcDbEntity
  8
Frei
  6
CONTINUOUS
 62
           3
100
AcDbLine
 10
-14414.074130309475
 20
-4415.087520647569
 30
0.0
 11
-14413.95086259766
 21
-4413.89386865841
 31
0.0
  0
LINE
  5
1AC
100
AcDbEntity
  8
Frei
  6
CONTINUOUS
 62
           3
100
AcDbLine
 10
-14414.279576495834
 20
-4417.0769406295
 30
0.0
 11
-14414.156308784019
 21
-4415.883288640342
 31
0.0
  0
LINE
  5
1AD
100
AcDbEntity
  8
Frei
  6
CONTINUOUS
 62
           3
100
AcDbLine
 10
-14414.485022682195
 20
-4419.066360611432
 30
0.0
 11
-14414.361754970378
 21
-4417.872708622273
 31
0.0
  0
LINE
  5
1AE
100
AcDbEntity
  8
Frei
  6
CONTINUOUS
 62
           3
100
AcDbLine
 10
-14414.690468868554
 20
-4421.055780593364
 30
0.0
 11
-14414.567201156739
 21
-4419.862128604205
 31
0.0
  0
LINE
  5
1AF
100
AcDbEntity
  8
Frei
  6
CONTINUOUS
 62
           3
100
AcDbLine
 10
-14413.046899377676
 20
-4405.140420737909
 30
0.0
 11
-14412.923631665861
 21
-4403.94676874875
 31
0.0
  0
LINE
  5
1B0
100
AcDbEntity
  8
Frei
  6
CONTINUOUS
 62
           3
100
AcDbLine
 10
-14413.252345564037
 20
-4407.129840719841
 30
0.0
 11
-14413.12907785222
 21
-4405.936188730682
 31
0.0
  0
LINE
  5
1B1
100
AcDbEntity
  8
Frei
  6
CONTINUOUS
 62
           3
100
AcDbLine
 10
-14413.457791750396
 20
-4409.119260701773
 30
0.0
 11
-14413.334524038581
 21
-4407.925608712614
 31
0.0
  0
LINE
  5
1B2
100
AcDbEntity
  8
Frei
  6
CONTINUOUS
 62
           3
100
AcDbLine
 10
-14413.663237936755
 20
-4411.108680683705
 30
0.0
 11
-14413.53997022494
 21
-4409.915028694546
 31
0.0
  0
LINE
  5
1B3
100
AcDbEntity
  8
Frei
  6
CONTINUOUS
 62
           3
100
AcDbLine
 10
-14413.807050267207
 20
-4412.501274671056
 30
0.0
 11
-14413.745416411299
 21
-4411.904448676478
 31
0.0
  0
LINE
  5
1B4
100
AcDbEntity
  8
Frei
  6
CONTINUOUS
 62
           3
100
AcDbLine
 10
-14431.650196248687
 20
-4410.055432999241
 30
0.0
 11
-14431.711830104596
 21
-4410.65225899382
 31
0.0
  0
LINE
  5
1B5
100
AcDbEntity
  8
Frei
  6
CONTINUOUS
 62
           3
100
AcDbLine
 10
-14430.951679215064
 20
-4403.291405060671
 30
0.0
 11
-14430.828411503249
 21
-4402.097753071512
 31
0.0
  0
LINE
  5
1B6
100
AcDbEntity
  8
Frei
  6
CONTINUOUS
 62
           3
100
AcDbLine
 10
-14431.157125401423
 20
-4405.280825042603
 30
0.0
 11
-14431.033857689608
 21
-4404.087173053444
 31
0.0
  0
LINE
  5
1B7
100
AcDbEntity
  8
Frei
  6
CONTINUOUS
 62
           3
100
AcDbLine
 10
-14431.362571587784
 20
-4407.270245024536
 30
0.0
 11
-14431.239303875967
 21
-4406.076593035376
 31
0.0
  0
LINE
  5
1B8
100
AcDbEntity
  8
Frei
  6
CONTINUOUS
 62
           3
100
AcDbLine
 10
-14431.444750062328
 20
-4408.066013017308
 30
0.0
 11
-14431.568017774143
 21
-4409.259665006468
 31
0.0
  0
LINE
  5
1B9
100
AcDbEntity
  8
Frei
  6
CONTINUOUS
 62
           3
100
AcDbLine
 10
-14419.600657914869
 20
-4409.289145178786
 30
0.0
 11
-14413.53997022494
 21
-4409.915028694546
 31
0.0
  0
LINE
  5
1BA
100
AcDbEntity
  8
Frei
  6
CONTINUOUS
 62
           3
100
AcDbLine
 10
-14420.259117765358
 20
-4409.824337317457
 30
0.0
 11
-14419.600657914869
 21
-4409.289145178786
 31
0.0
  0
LINE
  5
1BB
100
AcDbEntity
  8
Frei
  6
CONTINUOUS
 62
           3
100
AcDbLine
 10
-14420.259117765358
 20
-4409.824337317457
 30
0.0
 11
-14414.198430075425
 21
-4410.450220833218
 31
0.0
  0
LINE
  5
1BC
100
AcDbEntity
  8
Frei
  6
CONTINUOUS
 62
           3
100
AcDbLine
 10
-14419.723925626686
 20
-4410.482797167946
 30
0.0
 11
-14420.259117765358
 21
-4409.824337317457
 31
0.0
  0
LINE
  5
1BD
100
AcDbEntity
  8
Frei
  6
CONTINUOUS
 62
           3
100
AcDbLine
 10
-14419.063835492845
 20
-4411.355218786515
 30
0.0
 11
-14413.745416411299
 21
-4411.904448676478
 31
0.0
  0
LINE
  5
1BE
100
AcDbEntity
  8
Frei
  6
CONTINUOUS
 62
           3
100
AcDbLine
 10
-14419.722295343334
 20
-4411.890410925185
 30
0.0
 11
-14419.063835492845
 21
-4411.355218786515
 31
0.0
  0
LINE
  5
1BF
100
AcDbEntity
  8
Frei
  6
CONTINUOUS
 62
           3
100
AcDbLine
 10
-14426.331777167139
 20
-4410.604662889204
 30
0.0
 11
-14425.796585028467
 21
-4411.263122739691
 31
0.0
  0
LINE
  5
1C0
100
AcDbEntity
  8
Frei
  6
CONTINUOUS
 62
           3
100
AcDbLine
 10
-14424.848870233725
 20
-4409.350356383555
 30
0.0
 11
-14425.384062372395
 21
-4408.691896533068
 31
0.0
  0
LINE
  5
1C1
100
AcDbEntity
  8
Frei
  6
CONTINUOUS
 62
           3
100
AcDbLine
 10
-14425.507330084212
 20
-4409.885548522227
 30
0.0
 11
-14431.568017774143
 21
-4409.259665006468
 31
0.0
  0
LINE
  5
1C2
100
AcDbEntity
  8
Frei
  6
CONTINUOUS
 62
           3
100
AcDbLine
 10
-14425.507330084212
 20
-4409.885548522227
 30
0.0
 11
-14424.848870233725
 21
-4409.350356383555
 31
0.0
  0
LINE
  5
1C3
100
AcDbEntity
  8
Frei
  6
CONTINUOUS
 62
           3
100
AcDbLine
 10
-14430.704111737296
 20
-4406.735052885863
 30
0.0
 11
-14413.992983889066
 21
-4408.460800851285
 31
0.0
  0
LINE
  5
1C4
100
AcDbEntity
  8
Frei
  6
CONTINUOUS
 62
           3
100
AcDbLine
 10
-14430.909557923655
 20
-4408.724472867796
 30
0.0
 11
-14424.848870233725
 21
-4409.350356383555
 31
0.0
  0
LINE
  5
1C5
100
AcDbEntity
  8
Frei
  6
CONTINUOUS
 62
           3
100
AcDbLine
 10
-14413.745416411299
 20
-4411.904448676478
 30
0.0
 11
-14414.403876261786
 21
-4412.43964081515
 31
0.0
  0
LINE
  5
1C6
100
AcDbEntity
  8
Frei
  6
CONTINUOUS
 62
           3
100
AcDbLine
 10
-14431.650196248687
 20
-4410.055432999241
 30
0.0
 11
-14426.331777167139
 21
-4410.604662889204
 31
0.0
  0
LINE
  5
1C7
100
AcDbEntity
  8
Frei
  6
CONTINUOUS
 62
           3
100
AcDbLine
 10
-14431.115004110015
 20
-4410.713892849728
 30
0.0
 11
-14431.650196248687
 21
-4410.055432999241
 31
0.0
  0
LINE
  5
1C8
100
AcDbEntity
  8
Frei
  6
CONTINUOUS
 62
           3
100
AcDbLine
 10
-14431.568017774143
 20
-4409.259665006468
 30
0.0
 11
-14430.909557923655
 21
-4408.724472867796
 31
0.0
  0
LINE
  5
1C9
100
AcDbEntity
  8
Frei
  6
CONTINUOUS
 62
           3
100
AcDbLine
 10
-14413.663237936755
 20
-4411.108680683705
 30
0.0
 11
-14419.723925626686
 21
-4410.482797167946
 31
0.0
  0
LINE
  5
1CA
100
AcDbEntity
  8
Frei
  6
CONTINUOUS
 62
           3
100
AcDbLine
 10
-14414.198430075425
 20
-4410.450220833218
 30
0.0
 11
-14413.663237936755
 21
-4411.108680683705
 31
0.0
  0
LINE
  5
1CB
100
AcDbEntity
  8
Frei
  6
CONTINUOUS
 62
           3
100
AcDbLine
 10
-14413.53997022494
 20
-4409.915028694546
 30
0.0
 11
-14414.198430075425
 21
-4410.450220833218
 31
0.0
  0
LINE
  5
1CC
100
AcDbEntity
  8
Frei
  6
CONTINUOUS
 62
           3
100
AcDbLine
 10
-14431.444750062328
 20
-4408.066013017308
 30
0.0
 11
-14425.384062372395
 21
-4408.691896533068
 31
0.0
  0
LINE
  5
1CD
100
AcDbEntity
  8
Frei
  6
CONTINUOUS
 62
           3
100
AcDbLine
 10
-14430.909557923655
 20
-4408.724472867796
 30
0.0
 11
-14431.444750062328
 21
-4408.066013017308
 31
0.0
  0
LINE
  5
1CE
100
AcDbEntity
  8
Frei
  6
CONTINUOUS
 62
           3
100
AcDbLine
 10
-14431.362571587784
 20
-4407.270245024536
 30
0.0
 11
-14430.704111737296
 21
-4406.735052885863
 31
0.0
  0
LINE
  5
1CF
100
AcDbEntity
  8
Frei
  6
CONTINUOUS
 62
           3
100
AcDbLine
 10
-14413.457791750396
 20
-4409.119260701773
 30
0.0
 11
-14431.362571587784
 21
-4407.270245024536
 31
0.0
  0
LINE
  5
1D0
100
AcDbEntity
  8
Frei
  6
CONTINUOUS
 62
           3
100
AcDbLine
 10
-14413.992983889066
 20
-4408.460800851285
 30
0.0
 11
-14413.457791750396
 21
-4409.119260701773
 31
0.0
  0
LINE
  5
1D1
100
AcDbEntity
  8
Frei
  6
CONTINUOUS
 62
           3
100
AcDbLine
 10
-14413.334524038581
 20
-4407.925608712614
 30
0.0
 11
-14413.992983889066
 21
-4408.460800851285
 31
0.0
  0
LINE
  5
1D2
100
AcDbEntity
  8
Frei
  6
CONTINUOUS
 62
           3
100
AcDbLine
 10
-14431.239303875967
 20
-4406.076593035376
 30
0.0
 11
-14413.334524038581
 21
-4407.925608712614
 31
0.0
  0
LINE
  5
1D3
100
AcDbEntity
  8
Frei
  6
CONTINUOUS
 62
           3
100
AcDbLine
 10
-14430.704111737296
 20
-4406.735052885863
 30
0.0
 11
-14431.239303875967
 21
-4406.076593035376
 31
0.0
  0
LINE
  5
1D4
100
AcDbEntity
  8
Frei
  6
CONTINUOUS
 62
           3
100
AcDbLine
 10
-14413.787537702707
 20
-4406.471380869353
 30
0.0
 11
-14430.498665550936
 21
-4404.745632903931
 31
0.0
  0
LINE
  5
1D5
100
AcDbEntity
  8
Frei
  6
CONTINUOUS
 62
           3
100
AcDbLine
 10
-14431.157125401423
 20
-4405.280825042603
 30
0.0
 11
-14430.498665550936
 21
-4404.745632903931
 31
0.0
  0
LINE
  5
1D6
100
AcDbEntity
  8
Frei
  6
CONTINUOUS
 62
           3
100
AcDbLine
 10
-14413.252345564037
 20
-4407.129840719841
 30
0.0
 11
-14431.157125401423
 21
-4405.280825042603
 31
0.0
  0
LINE
  5
1D7
100
AcDbEntity
  8
Frei
  6
CONTINUOUS
 62
           3
100
AcDbLine
 10
-14413.787537702707
 20
-4406.471380869353
 30
0.0
 11
-14413.252345564037
 21
-4407.129840719841
 31
0.0
  0
LINE
  5
1D8
100
AcDbEntity
  8
Frei
  6
CONTINUOUS
 62
           3
100
AcDbLine
 10
-14413.12907785222
 20
-4405.936188730682
 30
0.0
 11
-14413.787537702707
 21
-4406.471380869353
 31
0.0
  0
LINE
  5
1D9
100
AcDbEntity
  8
Frei
  6
CONTINUOUS
 62
           3
100
AcDbLine
 10
-14431.033857689608
 20
-4404.087173053444
 30
0.0
 11
-14413.12907785222
 21
-4405.936188730682
 31
0.0
  0
LINE
  5
1DA
100
AcDbEntity
  8
Frei
  6
CONTINUOUS
 62
           3
100
AcDbLine
 10
-14430.498665550936
 20
-4404.745632903931
 30
0.0
 11
-14431.033857689608
 21
-4404.087173053444
 31
0.0
  0
LINE
  5
1DB
100
AcDbEntity
  8
Frei
  6
CONTINUOUS
 62
           3
100
AcDbLine
 10
-14430.293219364576
 20
-4402.756212921999
 30
0.0
 11
-14413.582091516346
 21
-4404.48196088742
 31
0.0
  0
LINE
  5
1DC
100
AcDbEntity
  8
Frei
  6
CONTINUOUS
 62
           3
100
AcDbLine
 10
-14430.293219364576
 20
-4402.756212921999
 30
0.0
 11
-14430.951679215064
 21
-4403.291405060671
 31
0.0
  0
LINE
  5
1DD
100
AcDbEntity
  8
Frei
  6
CONTINUOUS
 62
           3
100
AcDbLine
 10
-14430.828411503249
 20
-4402.097753071512
 30
0.0
 11
-14430.293219364576
 21
-4402.756212921999
 31
0.0
  0
LINE
  5
1DE
100
AcDbEntity
  8
Frei
  6
CONTINUOUS
 62
           3
100
AcDbLine
 10
-14412.923631665861
 20
-4403.94676874875
 30
0.0
 11
-14430.828411503249
 21
-4402.097753071512
 31
0.0
  0
LINE
  5
1DF
100
AcDbEntity
  8
Frei
  6
CONTINUOUS
 62
           3
100
AcDbLine
 10
-14413.582091516346
 20
-4404.48196088742
 30
0.0
 11
-14412.923631665861
 21
-4403.94676874875
 31
0.0
  0
LINE
  5
1E0
100
AcDbEntity
  8
Frei
  6
CONTINUOUS
 62
           3
100
AcDbLine
 10
-14413.046899377676
 20
-4405.140420737909
 30
0.0
 11
-14413.582091516346
 21
-4404.48196088742
 31
0.0
  0
LINE
  5
1E1
100
AcDbEntity
  8
Frei
  6
CONTINUOUS
 62
           3
100
AcDbLine
 10
-14430.951679215064
 20
-4403.291405060671
 30
0.0
 11
-14413.046899377676
 21
-4405.140420737909
 31
0.0
  0
LINE
  5
1E2
100
AcDbEntity
  8
Frei
  6
CONTINUOUS
 62
           3
100
AcDbLine
 10
-14240.962070940557
 20
-4422.911515858024
 30
0.0
 11
-14223.05729110317
 21
-4424.760531535261
 31
0.0
  0
LINE
  5
1E3
100
AcDbEntity
  8
Frei
  6
CONTINUOUS
 62
           3
100
AcDbLine
 10
-14240.303611090072
 20
-4422.376323719351
 30
0.0
 11
-14240.962070940557
 21
-4422.911515858024
 31
0.0
  0
LINE
  5
1E4
100
AcDbEntity
  8
Frei
  6
CONTINUOUS
 62
           3
100
AcDbLine
 10
-14240.838803228742
 20
-4421.717863868864
 30
0.0
 11
-14240.303611090072
 21
-4422.376323719351
 31
0.0
  0
LINE
  5
1E5
100
AcDbEntity
  8
Frei
  6
CONTINUOUS
 62
           3
100
AcDbLine
 10
-14222.934023391354
 20
-4423.566879546102
 30
0.0
 11
-14240.838803228742
 21
-4421.717863868864
 31
0.0
  0
LINE
  5
1E6
100
AcDbEntity
  8
Frei
  6
CONTINUOUS
 62
           3
100
AcDbLine
 10
-14223.592483241842
 20
-4424.102071684773
 30
0.0
 11
-14222.934023391354
 21
-4423.566879546102
 31
0.0
  0
LINE
  5
1E7
100
AcDbEntity
  8
Frei
  6
CONTINUOUS
 62
           3
100
AcDbLine
 10
-14223.05729110317
 20
-4424.760531535261
 30
0.0
 11
-14223.592483241842
 21
-4424.102071684773
 31
0.0
  0
LINE
  5
1E8
100
AcDbEntity
  8
Frei
  6
CONTINUOUS
 62
           3
100
AcDbLine
 10
-14240.303611090072
 20
-4422.376323719351
 30
0.0
 11
-14223.592483241842
 21
-4424.102071684773
 31
0.0
  0
LINE
  5
1E9
100
AcDbEntity
  8
Frei
  6
CONTINUOUS
 62
           3
100
AcDbLine
 10
-14223.139469577714
 20
-4425.556299528034
 30
0.0
 11
-14223.797929428201
 21
-4426.091491666705
 31
0.0
  0
LINE
  5
1EA
100
AcDbEntity
  8
Frei
  6
CONTINUOUS
 62
           3
100
AcDbLine
 10
-14241.044249415101
 20
-4423.707283850797
 30
0.0
 11
-14223.139469577714
 21
-4425.556299528034
 31
0.0
  0
LINE
  5
1EB
100
AcDbEntity
  8
Frei
  6
CONTINUOUS
 62
           3
100
AcDbLine
 10
-14240.509057276431
 20
-4424.365743701284
 30
0.0
 11
-14241.044249415101
 21
-4423.707283850797
 31
0.0
  0
LINE
  5
1EC
100
AcDbEntity
  8
Frei
  6
CONTINUOUS
 62
           3
100
AcDbLine
 10
-14241.167517126918
 20
-4424.900935839956
 30
0.0
 11
-14240.509057276431
 21
-4424.365743701284
 31
0.0
  0
LINE
  5
1ED
100
AcDbEntity
  8
Frei
  6
CONTINUOUS
 62
           3
100
AcDbLine
 10
-14223.262737289529
 20
-4426.749951517193
 30
0.0
 11
-14241.167517126918
 21
-4424.900935839956
 31
0.0
  0
LINE
  5
1EE
100
AcDbEntity
  8
Frei
  6
CONTINUOUS
 62
           3
100
AcDbLine
 10
-14223.797929428201
 20
-4426.091491666705
 30
0.0
 11
-14223.262737289529
 21
-4426.749951517193
 31
0.0
  0
LINE
  5
1EF
100
AcDbEntity
  8
Frei
  6
CONTINUOUS
 62
           3
100
AcDbLine
 10
-14223.797929428201
 20
-4426.091491666705
 30
0.0
 11
-14240.509057276431
 21
-4424.365743701284
 31
0.0
  0
LINE
  5
1F0
100
AcDbEntity
  8
Frei
  6
CONTINUOUS
 62
           3
100
AcDbLine
 10
-14223.344915764073
 20
-4427.545719509966
 30
0.0
 11
-14224.003375614562
 21
-4428.080911648637
 31
0.0
  0
LINE
  5
1F1
100
AcDbEntity
  8
Frei
  6
CONTINUOUS
 62
           3
100
AcDbLine
 10
-14241.249695601462
 20
-4425.696703832728
 30
0.0
 11
-14223.344915764073
 21
-4427.545719509966
 31
0.0
  0
LINE
  5
1F2
100
AcDbEntity
  8
Frei
  6
CONTINUOUS
 62
           3
100
AcDbLine
 10
-14240.714503462792
 20
-4426.355163683215
 30
0.0
 11
-14241.249695601462
 21
-4425.696703832728
 31
0.0
  0
LINE
  5
1F3
100
AcDbEntity
  8
Frei
  6
CONTINUOUS
 62
           3
100
AcDbLine
 10
-14241.372963313277
 20
-4426.890355821888
 30
0.0
 11
-14240.714503462792
 21
-4426.355163683215
 31
0.0
  0
LINE
  5
1F4
100
AcDbEntity
  8
Frei
  6
CONTINUOUS
 62
           3
100
AcDbLine
 10
-14223.46818347589
 20
-4428.739371499125
 30
0.0
 11
-14241.372963313277
 21
-4426.890355821888
 31
0.0
  0
LINE
  5
1F5
100
AcDbEntity
  8
Frei
  6
CONTINUOUS
 62
           3
100
AcDbLine
 10
-14224.003375614562
 20
-4428.080911648637
 30
0.0
 11
-14223.46818347589
 21
-4428.739371499125
 31
0.0
  0
LINE
  5
1F6
100
AcDbEntity
  8
Frei
  6
CONTINUOUS
 62
           3
100
AcDbLine
 10
-14223.550361950434
 20
-4429.535139491898
 30
0.0
 11
-14224.208821800921
 21
-4430.07033163057
 31
0.0
  0
LINE
  5
1F7
100
AcDbEntity
  8
Frei
  6
CONTINUOUS
 62
           3
100
AcDbLine
 10
-14229.611049640365
 20
-4428.909255976138
 30
0.0
 11
-14223.550361950434
 21
-4429.535139491898
 31
0.0
  0
LINE
  5
1F8
100
AcDbEntity
  8
Frei
  6
CONTINUOUS
 62
           3
100
AcDbLine
 10
-14240.919949649151
 20
-4428.344583665148
 30
0.0
 11
-14241.455141787821
 21
-4427.686123814661
 31
0.0
  0
LINE
  5
1F9
100
AcDbEntity
  8
Frei
  6
CONTINUOUS
 62
           3
100
AcDbLine
 10
-14241.578409499638
 20
-4428.87977580382
 30
0.0
 11
-14240.919949649151
 21
-4428.344583665148
 31
0.0
  0
LINE
  5
1FA
100
AcDbEntity
  8
Frei
  6
CONTINUOUS
 62
           3
100
AcDbLine
 10
-14235.517721809707
 20
-4429.505659319579
 30
0.0
 11
-14241.578409499638
 21
-4428.87977580382
 31
0.0
  0
LINE
  5
1FB
100
AcDbEntity
  8
Frei
  6
CONTINUOUS
 62
           3
100
AcDbLine
 10
-14224.208821800921
 20
-4430.07033163057
 30
0.0
 11
-14223.673629662249
 21
-4430.728791481057
 31
0.0
  0
LINE
  5
1FC
100
AcDbEntity
  8
Frei
  6
CONTINUOUS
 62
           3
100
AcDbLine
 10
-14223.755808136793
 20
-4431.52455947383
 30
0.0
 11
-14224.41426798728
 21
-4432.059751612502
 31
0.0
  0
LINE
  5
1FD
100
AcDbEntity
  8
Frei
  6
CONTINUOUS
 62
           3
100
AcDbLine
 10
-14229.074227218342
 20
-4430.975329583867
 30
0.0
 11
-14223.755808136793
 21
-4431.52455947383
 31
0.0
  0
LINE
  5
1FE
100
AcDbEntity
  8
Frei
  6
CONTINUOUS
 62
           3
100
AcDbLine
 10
-14241.12539583551
 20
-4430.33400364708
 30
0.0
 11
-14241.660587974182
 21
-4429.675543796593
 31
0.0
  0
LINE
  5
1FF
100
AcDbEntity
  8
Frei
  6
CONTINUOUS
 62
           3
100
AcDbLine
 10
-14230.26950949085
 20
-4429.444448114809
 30
0.0
 11
-14224.208821800921
 21
-4430.07033163057
 31
0.0
  0
LINE
  5
200
100
AcDbEntity
  8
Frei
  6
CONTINUOUS
 62
           3
100
AcDbLine
 10
-14240.714503462792
 20
-4426.355163683215
 30
0.0
 11
-14224.003375614562
 21
-4428.080911648637
 31
0.0
  0
LINE
  5
201
100
AcDbEntity
  8
Frei
  6
CONTINUOUS
 62
           3
100
AcDbLine
 10
-14230.26950949085
 20
-4429.444448114809
 30
0.0
 11
-14229.73431735218
 21
-4430.102907965298
 31
0.0
  0
LINE
  5
202
100
AcDbEntity
  8
Frei
  6
CONTINUOUS
 62
           3
100
AcDbLine
 10
-14223.673629662249
 20
-4430.728791481057
 30
0.0
 11
-14229.73431735218
 21
-4430.102907965298
 31
0.0
  0
LINE
  5
203
100
AcDbEntity
  8
Frei
  6
CONTINUOUS
 62
           3
100
AcDbLine
 10
-14229.611049640365
 20
-4428.909255976138
 30
0.0
 11
-14230.26950949085
 21
-4429.444448114809
 31
0.0
  0
LINE
  5
204
100
AcDbEntity
  8
Frei
  6
CONTINUOUS
 62
           3
100
AcDbLine
 10
-14229.732687068828
 20
-4431.510521722537
 30
0.0
 11
-14229.074227218342
 21
-4430.975329583867
 31
0.0
  0
LINE
  5
205
100
AcDbEntity
  8
Frei
  6
CONTINUOUS
 62
           3
100
AcDbLine
 10
-14236.342168892636
 20
-4430.224773686556
 30
0.0
 11
-14235.806976753964
 21
-4430.883233537043
 31
0.0
  0
LINE
  5
206
100
AcDbEntity
  8
Frei
  6
CONTINUOUS
 62
           3
100
AcDbLine
 10
-14241.660587974182
 20
-4429.675543796593
 30
0.0
 11
-14236.342168892636
 21
-4430.224773686556
 31
0.0
  0
LINE
  5
207
100
AcDbEntity
  8
Frei
  6
CONTINUOUS
 62
           3
100
AcDbLine
 10
-14234.85926195922
 20
-4428.970467180907
 30
0.0
 11
-14235.517721809707
 21
-4429.505659319579
 31
0.0
  0
LINE
  5
208
100
AcDbEntity
  8
Frei
  6
CONTINUOUS
 62
           3
100
AcDbLine
 10
-14240.919949649151
 20
-4428.344583665148
 30
0.0
 11
-14234.85926195922
 21
-4428.970467180907
 31
0.0
  0
LINE
  5
209
100
AcDbEntity
  8
Frei
  6
CONTINUOUS
 62
           3
100
AcDbLine
 10
-14235.394454097892
 20
-4428.31200733042
 30
0.0
 11
-14234.85926195922
 21
-4428.970467180907
 31
0.0
  0
LINE
  5
20A
100
AcDbEntity
  8
Frei
  6
CONTINUOUS
 62
           3
100
AcDbLine
 10
-14241.455141787821
 20
-4427.686123814661
 30
0.0
 11
-14235.394454097892
 21
-4428.31200733042
 31
0.0
  0
LINE
  5
20B
100
AcDbEntity
  8
Frei
  6
CONTINUOUS
 62
           3
100
AcDbLine
 10
-14223.673629662249
 20
-4430.728791481057
 30
0.0
 11
-14223.550361950434
 21
-4429.535139491898
 31
0.0
  0
LINE
  5
20C
100
AcDbEntity
  8
Frei
  6
CONTINUOUS
 62
           3
100
AcDbLine
 10
-14223.344915764073
 20
-4427.545719509966
 30
0.0
 11
-14223.46818347589
 21
-4428.739371499125
 31
0.0
  0
LINE
  5
20D
100
AcDbEntity
  8
Frei
  6
CONTINUOUS
 62
           3
100
AcDbLine
 10
-14223.139469577714
 20
-4425.556299528034
 30
0.0
 11
-14223.262737289529
 21
-4426.749951517193
 31
0.0
  0
LINE
  5
20E
100
AcDbEntity
  8
Frei
  6
CONTINUOUS
 62
           3
100
AcDbLine
 10
-14222.934023391354
 20
-4423.566879546102
 30
0.0
 11
-14223.05729110317
 21
-4424.760531535261
 31
0.0
  0
LINE
  5
20F
100
AcDbEntity
  8
Frei
  6
CONTINUOUS
 62
           3
100
AcDbLine
 10
-14223.817441992702
 20
-4432.121385468408
 30
0.0
 11
-14223.755808136793
 21
-4431.52455947383
 31
0.0
  0
LINE
  5
210
100
AcDbEntity
  8
Frei
  6
CONTINUOUS
 62
           3
100
AcDbLine
 10
-14241.660587974182
 20
-4429.675543796593
 30
0.0
 11
-14241.722221830089
 21
-4430.272369791172
 31
0.0
  0
LINE
  5
211
100
AcDbEntity
  8
Frei
  6
CONTINUOUS
 62
           3
100
AcDbLine
 10
-14241.455141787821
 20
-4427.686123814661
 30
0.0
 11
-14241.578409499638
 21
-4428.87977580382
 31
0.0
  0
LINE
  5
212
100
AcDbEntity
  8
Frei
  6
CONTINUOUS
 62
           3
100
AcDbLine
 10
-14241.249695601462
 20
-4425.696703832728
 30
0.0
 11
-14241.372963313277
 21
-4426.890355821888
 31
0.0
  0
LINE
  5
213
100
AcDbEntity
  8
Frei
  6
CONTINUOUS
 62
           3
100
AcDbLine
 10
-14241.044249415101
 20
-4423.707283850797
 30
0.0
 11
-14241.167517126918
 21
-4424.900935839956
 31
0.0
  0
LINE
  5
214
100
AcDbEntity
  8
Frei
  6
CONTINUOUS
 62
           3
100
AcDbLine
 10
-14240.838803228742
 20
-4421.717863868864
 30
0.0
 11
-14240.962070940557
 21
-4422.911515858024
 31
0.0
  0
LINE
  5
215
100
AcDbEntity
  8
Frei
  6
CONTINUOUS
 62
           3
100
AcDbLine
 10
-14242.48237271962
 20
-4437.633223724321
 30
0.0
 11
-14242.605640431435
 21
-4438.826875713479
 31
0.0
  0
LINE
  5
216
100
AcDbEntity
  8
Frei
  6
CONTINUOUS
 62
           3
100
AcDbLine
 10
-14242.276926533261
 20
-4435.643803742389
 30
0.0
 11
-14242.400194245076
 21
-4436.837455731547
 31
0.0
  0
LINE
  5
217
100
AcDbEntity
  8
Frei
  6
CONTINUOUS
 62
           3
100
AcDbLine
 10
-14242.0714803469
 20
-4433.654383760457
 30
0.0
 11
-14242.194748058717
 21
-4434.848035749616
 31
0.0
  0
LINE
  5
218
100
AcDbEntity
  8
Frei
  6
CONTINUOUS
 62
           3
100
AcDbLine
 10
-14241.866034160541
 20
-4431.664963778525
 30
0.0
 11
-14241.989301872356
 21
-4432.858615767684
 31
0.0
  0
LINE
  5
219
100
AcDbEntity
  8
Frei
  6
CONTINUOUS
 62
           3
100
AcDbLine
 10
-14241.722221830089
 20
-4430.272369791172
 30
0.0
 11
-14241.783855685997
 21
-4430.869195785752
 31
0.0
  0
LINE
  5
21A
100
AcDbEntity
  8
Frei
  6
CONTINUOUS
 62
           3
100
AcDbLine
 10
-14223.879075848608
 20
-4432.718211462989
 30
0.0
 11
-14223.817441992702
 21
-4432.121385468408
 31
0.0
  0
LINE
  5
21B
100
AcDbEntity
  8
Frei
  6
CONTINUOUS
 62
           3
100
AcDbLine
 10
-14224.577592882231
 20
-4439.482239401557
 30
0.0
 11
-14224.700860594048
 21
-4440.675891390717
 31
0.0
  0
LINE
  5
21C
100
AcDbEntity
  8
Frei
  6
CONTINUOUS
 62
           3
100
AcDbLine
 10
-14224.372146695872
 20
-4437.492819419625
 30
0.0
 11
-14224.495414407687
 21
-4438.686471408784
 31
0.0
  0
LINE
  5
21D
100
AcDbEntity
  8
Frei
  6
CONTINUOUS
 62
           3
100
AcDbLine
 10
-14224.166700509513
 20
-4435.503399437694
 30
0.0
 11
-14224.289968221328
 21
-4436.697051426852
 31
0.0
  0
LINE
  5
21E
100
AcDbEntity
  8
Frei
  6
CONTINUOUS
 62
           3
100
AcDbLine
 10
-14224.084522034969
 20
-4434.707631444921
 30
0.0
 11
-14223.961254323152
 21
-4433.513979455762
 31
0.0
  0
LINE
  5
21F
100
AcDbEntity
  8
Frei
  6
CONTINUOUS
 62
           3
100
AcDbLine
 10
-14235.928614182427
 20
-4433.484499283442
 30
0.0
 11
-14241.989301872356
 21
-4432.858615767684
 31
0.0
  0
LINE
  5
220
100
AcDbEntity
  8
Frei
  6
CONTINUOUS
 62
           3
100
AcDbLine
 10
-14235.27015433194
 20
-4432.949307144771
 30
0.0
 11
-14235.928614182427
 21
-4433.484499283442
 31
0.0
  0
LINE
  5
221
100
AcDbEntity
  8
Frei
  6
CONTINUOUS
 62
           3
100
AcDbLine
 10
-14235.27015433194
 20
-4432.949307144771
 30
0.0
 11
-14241.330842021871
 21
-4432.323423629012
 31
0.0
  0
LINE
  5
222
100
AcDbEntity
  8
Frei
  6
CONTINUOUS
 62
           3
100
AcDbLine
 10
-14235.805346470612
 20
-4432.290847294284
 30
0.0
 11
-14235.27015433194
 21
-4432.949307144771
 31
0.0
  0
LINE
  5
223
100
AcDbEntity
  8
Frei
  6
CONTINUOUS
 62
           3
100
AcDbLine
 10
-14236.465436604451
 20
-4431.418425675714
 30
0.0
 11
-14241.783855685997
 21
-4430.869195785752
 31
0.0
  0
LINE
  5
224
100
AcDbEntity
  8
Frei
  6
CONTINUOUS
 62
           3
100
AcDbLine
 10
-14235.806976753964
 20
-4430.883233537043
 30
0.0
 11
-14236.465436604451
 21
-4431.418425675714
 31
0.0
  0
LINE
  5
225
100
AcDbEntity
  8
Frei
  6
CONTINUOUS
 62
           3
100
AcDbLine
 10
-14229.732687068828
 20
-4431.510521722537
 30
0.0
 11
-14224.41426798728
 21
-4432.059751612502
 31
0.0
  0
LINE
  5
226
100
AcDbEntity
  8
Frei
  6
CONTINUOUS
 62
           3
100
AcDbLine
 10
-14229.197494930157
 20
-4432.168981573026
 30
0.0
 11
-14229.732687068828
 21
-4431.510521722537
 31
0.0
  0
LINE
  5
227
100
AcDbEntity
  8
Frei
  6
CONTINUOUS
 62
           3
100
AcDbLine
 10
-14230.68040186357
 20
-4433.423288078673
 30
0.0
 11
-14230.1452097249
 21
-4434.081747929162
 31
0.0
  0
LINE
  5
228
100
AcDbEntity
  8
Frei
  6
CONTINUOUS
 62
           3
100
AcDbLine
 10
-14230.021942013085
 20
-4432.888095940003
 30
0.0
 11
-14223.961254323152
 21
-4433.513979455762
 31
0.0
  0
LINE
  5
229
100
AcDbEntity
  8
Frei
  6
CONTINUOUS
 62
           3
100
AcDbLine
 10
-14230.021942013085
 20
-4432.888095940003
 30
0.0
 11
-14230.68040186357
 21
-4433.423288078673
 31
0.0
  0
LINE
  5
22A
100
AcDbEntity
  8
Frei
  6
CONTINUOUS
 62
           3
100
AcDbLine
 10
-14224.82516036
 20
-4436.038591576365
 30
0.0
 11
-14241.53628820823
 21
-4434.312843610944
 31
0.0
  0
LINE
  5
22B
100
AcDbEntity
  8
Frei
  6
CONTINUOUS
 62
           3
100
AcDbLine
 10
-14224.619714173641
 20
-4434.049171594434
 30
0.0
 11
-14230.68040186357
 21
-4433.423288078673
 31
0.0
  0
LINE
  5
22C
100
AcDbEntity
  8
Frei
  6
CONTINUOUS
 62
           3
100
AcDbLine
 10
-14241.12539583551
 20
-4430.33400364708
 30
0.0
 11
-14235.806976753964
 21
-4430.883233537043
 31
0.0
  0
LINE
  5
22D
100
AcDbEntity
  8
Frei
  6
CONTINUOUS
 62
           3
100
AcDbLine
 10
-14241.783855685997
 20
-4430.869195785752
 30
0.0
 11
-14241.12539583551
 21
-4430.33400364708
 31
0.0
  0
LINE
  5
22E
100
AcDbEntity
  8
Frei
  6
CONTINUOUS
 62
           3
100
AcDbLine
 10
-14223.879075848608
 20
-4432.718211462989
 30
0.0
 11
-14229.197494930157
 21
-4432.168981573026
 31
0.0
  0
LINE
  5
22F
100
AcDbEntity
  8
Frei
  6
CONTINUOUS
 62
           3
100
AcDbLine
 10
-14224.41426798728
 20
-4432.059751612502
 30
0.0
 11
-14223.879075848608
 21
-4432.718211462989
 31
0.0
  0
LINE
  5
230
100
AcDbEntity
  8
Frei
  6
CONTINUOUS
 62
           3
100
AcDbLine
 10
-14223.961254323152
 20
-4433.513979455762
 30
0.0
 11
-14224.619714173641
 21
-4434.049171594434
 31
0.0
  0
LINE
  5
231
100
AcDbEntity
  8
Frei
  6
CONTINUOUS
 62
           3
100
AcDbLine
 10
-14241.866034160541
 20
-4431.664963778525
 30
0.0
 11
-14235.805346470612
 21
-4432.290847294284
 31
0.0
  0
LINE
  5
232
100
AcDbEntity
  8
Frei
  6
CONTINUOUS
 62
           3
100
AcDbLine
 10
-14241.330842021871
 20
-4432.323423629012
 30
0.0
 11
-14241.866034160541
 21
-4431.664963778525
 31
0.0
  0
LINE
  5
233
100
AcDbEntity
  8
Frei
  6
CONTINUOUS
 62
           3
100
AcDbLine
 10
-14241.989301872356
 20
-4432.858615767684
 30
0.0
 11
-14241.330842021871
 21
-4432.323423629012
 31
0.0
  0
LINE
  5
234
100
AcDbEntity
  8
Frei
  6
CONTINUOUS
 62
           3
100
AcDbLine
 10
-14224.084522034969
 20
-4434.707631444921
 30
0.0
 11
-14230.1452097249
 21
-4434.081747929162
 31
0.0
  0
LINE
  5
235
100
AcDbEntity
  8
Frei
  6
CONTINUOUS
 62
           3
100
AcDbLine
 10
-14224.619714173641
 20
-4434.049171594434
 30
0.0
 11
-14224.084522034969
 21
-4434.707631444921
 31
0.0
  0
LINE
  5
236
100
AcDbEntity
  8
Frei
  6
CONTINUOUS
 62
           3
100
AcDbLine
 10
-14224.166700509513
 20
-4435.503399437694
 30
0.0
 11
-14224.82516036
 21
-4436.038591576365
 31
0.0
  0
LINE
  5
237
100
AcDbEntity
  8
Frei
  6
CONTINUOUS
 62
           3
100
AcDbLine
 10
-14242.0714803469
 20
-4433.654383760457
 30
0.0
 11
-14224.166700509513
 21
-4435.503399437694
 31
0.0
  0
LINE
  5
238
100
AcDbEntity
  8
Frei
  6
CONTINUOUS
 62
           3
100
AcDbLine
 10
-14241.53628820823
 20
-4434.312843610944
 30
0.0
 11
-14242.0714803469
 21
-4433.654383760457
 31
0.0
  0
LINE
  5
239
100
AcDbEntity
  8
Frei
  6
CONTINUOUS
 62
           3
100
AcDbLine
 10
-14242.194748058717
 20
-4434.848035749616
 30
0.0
 11
-14241.53628820823
 21
-4434.312843610944
 31
0.0
  0
LINE
  5
23A
100
AcDbEntity
  8
Frei
  6
CONTINUOUS
 62
           3
100
AcDbLine
 10
-14224.289968221328
 20
-4436.697051426852
 30
0.0
 11
-14242.194748058717
 21
-4434.848035749616
 31
0.0
  0
LINE
  5
23B
100
AcDbEntity
  8
Frei
  6
CONTINUOUS
 62
           3
100
AcDbLine
 10
-14224.82516036
 20
-4436.038591576365
 30
0.0
 11
-14224.289968221328
 21
-4436.697051426852
 31
0.0
  0
LINE
  5
23C
100
AcDbEntity
  8
Frei
  6
CONTINUOUS
 62
           3
100
AcDbLine
 10
-14241.741734394589
 20
-4436.302263592876
 30
0.0
 11
-14225.030606546361
 21
-4438.028011558297
 31
0.0
  0
LINE
  5
23D
100
AcDbEntity
  8
Frei
  6
CONTINUOUS
 62
           3
100
AcDbLine
 10
-14224.372146695872
 20
-4437.492819419625
 30
0.0
 11
-14225.030606546361
 21
-4438.028011558297
 31
0.0
  0
LINE
  5
23E
100
AcDbEntity
  8
Frei
  6
CONTINUOUS
 62
           3
100
AcDbLine
 10
-14242.276926533261
 20
-4435.643803742389
 30
0.0
 11
-14224.372146695872
 21
-4437.492819419625
 31
0.0
  0
LINE
  5
23F
100
AcDbEntity
  8
Frei
  6
CONTINUOUS
 62
           3
100
AcDbLine
 10
-14241.741734394589
 20
-4436.302263592876
 30
0.0
 11
-14242.276926533261
 21
-4435.643803742389
 31
0.0
  0
LINE
  5
240
100
AcDbEntity
  8
Frei
  6
CONTINUOUS
 62
           3
100
AcDbLine
 10
-14242.400194245076
 20
-4436.837455731547
 30
0.0
 11
-14241.741734394589
 21
-4436.302263592876
 31
0.0
  0
LINE
  5
241
100
AcDbEntity
  8
Frei
  6
CONTINUOUS
 62
           3
100
AcDbLine
 10
-14224.495414407687
 20
-4438.686471408784
 30
0.0
 11
-14242.400194245076
 21
-4436.837455731547
 31
0.0
  0
LINE
  5
242
100
AcDbEntity
  8
Frei
  6
CONTINUOUS
 62
           3
100
AcDbLine
 10
-14225.030606546361
 20
-4438.028011558297
 30
0.0
 11
-14224.495414407687
 21
-4438.686471408784
 31
0.0
  0
LINE
  5
243
100
AcDbEntity
  8
Frei
  6
CONTINUOUS
 62
           3
100
AcDbLine
 10
-14225.23605273272
 20
-4440.017431540229
 30
0.0
 11
-14241.94718058095
 21
-4438.291683574807
 31
0.0
  0
LINE
  5
244
100
AcDbEntity
  8
Frei
  6
CONTINUOUS
 62
           3
100
AcDbLine
 10
-14225.23605273272
 20
-4440.017431540229
 30
0.0
 11
-14224.577592882231
 21
-4439.482239401557
 31
0.0
  0
LINE
  5
245
100
AcDbEntity
  8
Frei
  6
CONTINUOUS
 62
           3
100
AcDbLine
 10
-14224.700860594048
 20
-4440.675891390717
 30
0.0
 11
-14225.23605273272
 21
-4440.017431540229
 31
0.0
  0
LINE
  5
246
100
AcDbEntity
  8
Frei
  6
CONTINUOUS
 62
           3
100
AcDbLine
 10
-14242.605640431435
 20
-4438.826875713479
 30
0.0
 11
-14224.700860594048
 21
-4440.675891390717
 31
0.0
  0
LINE
  5
247
100
AcDbEntity
  8
Frei
  6
CONTINUOUS
 62
           3
100
AcDbLine
 10
-14241.94718058095
 20
-4438.291683574807
 30
0.0
 11
-14242.605640431435
 21
-4438.826875713479
 31
0.0
  0
LINE
  5
248
100
AcDbEntity
  8
Frei
  6
CONTINUOUS
 62
           3
100
AcDbLine
 10
-14242.48237271962
 20
-4437.633223724321
 30
0.0
 11
-14241.94718058095
 21
-4438.291683574807
 31
0.0
  0
LINE
  5
249
100
AcDbEntity
  8
Frei
  6
CONTINUOUS
 62
           3
100
AcDbLine
 10
-14224.577592882231
 20
-4439.482239401557
 30
0.0
 11
-14242.48237271962
 21
-4437.633223724321
 31
0.0
  0
LINE
  5
24A
100
AcDbEntity
  8
Frei
  6
CONTINUOUS
 62
           7
100
AcDbLine
 10
-14198.957136986368
 20
-4446.871945646168
 30
0.0
 11
-14198.339658808281
 21
-4448.252076898143
 31
0.0
  0
LINE
  5
24B
100
AcDbEntity
  8
Frei
  6
CONTINUOUS
 62
           7
100
AcDbLine
 10
-14198.957136986368
 20
-4446.871945646168
 30
0.0
 11
-14203.178703034293
 21
-4446.43598709901
 31
0.0
  0
LINE
  5
24C
100
AcDbEntity
  8
Frei
  6
CONTINUOUS
 62
           7
100
AcDbLine
 10
-14197.936141621827
 20
-4444.344653898443
 30
0.0
 11
-14198.957136986368
 21
-4446.871945646168
 31
0.0
  0
LINE
  5
24D
100
AcDbEntity
  8
Frei
  6
CONTINUOUS
 62
           7
100
AcDbLine
 10
-14198.008221698377
 20
-4437.68320834937
 30
0.0
 11
-14197.525249249109
 21
-4440.365813934578
 31
0.0
  0
LINE
  5
24E
100
AcDbEntity
  8
Frei
  6
CONTINUOUS
 62
           7
100
AcDbLine
 10
-14198.008221698377
 20
-4437.68320834937
 30
0.0
 11
-14202.229787746302
 21
-4437.247249802213
 31
0.0
  0
LINE
  5
24F
100
AcDbEntity
  8
Frei
  6
CONTINUOUS
 62
           7
100
AcDbLine
 10
-14197.121732062655
 20
-4436.458390934879
 30
0.0
 11
-14198.008221698377
 21
-4437.68320834937
 31
0.0
  0
LINE
  5
250
100
AcDbEntity
  8
Frei
  6
CONTINUOUS
 62
           7
100
AcDbLine
 10
-14198.54510499464
 20
-4450.241496880075
 30
0.0
 11
-14199.431594630363
 21
-4451.466314294567
 31
0.0
  0
LINE
  5
251
100
AcDbEntity
  8
Frei
  6
CONTINUOUS
 62
           7
100
AcDbLine
 10
-14197.533764054384
 20
-4433.088839700973
 30
0.0
 11
-14201.755330102309
 21
-4432.652881153814
 31
0.0
  0
LINE
  5
252
100
AcDbEntity
  8
Frei
  6
CONTINUOUS
 62
           7
100
AcDbLine
 10
-14197.533764054384
 20
-4433.088839700973
 30
0.0
 11
-14196.916285876296
 21
-4434.468970952947
 31
0.0
  0
LINE
  5
253
100
AcDbEntity
  8
Frei
  6
CONTINUOUS
 62
           7
100
AcDbLine
 10
-14203.51865494947
 20
-4449.727881414176
 30
0.0
 11
-14203.653160678288
 21
-4451.030355747409
 31
0.0
  0
LINE
  5
254
100
AcDbEntity
  8
Frei
  6
CONTINUOUS
 62
           7
100
AcDbLine
 10
-14198.54510499464
 20
-4450.241496880075
 30
0.0
 11
-14198.339658808281
 21
-4448.252076898143
 31
0.0
  0
LINE
  5
255
100
AcDbEntity
  8
Frei
  6
CONTINUOUS
 62
           7
100
AcDbLine
 10
-14198.54510499464
 20
-4450.241496880075
 30
0.0
 11
-14203.51865494947
 21
-4449.727881414176
 31
0.0
  0
LINE
  5
256
100
AcDbEntity
  8
Frei
  6
CONTINUOUS
 62
           7
100
AcDbLine
 10
-14203.313208763111
 20
-4447.738461432244
 30
0.0
 11
-14203.51865494947
 21
-4449.727881414176
 31
0.0
  0
LINE
  5
257
100
AcDbEntity
  8
Frei
  6
CONTINUOUS
 62
           7
100
AcDbLine
 10
-14198.339658808281
 20
-4448.252076898143
 30
0.0
 11
-14197.936141621827
 21
-4444.344653898443
 31
0.0
  0
LINE
  5
258
100
AcDbEntity
  8
Frei
  6
CONTINUOUS
 62
           7
100
AcDbLine
 10
-14198.339658808281
 20
-4448.252076898143
 30
0.0
 11
-14203.313208763111
 21
-4447.738461432244
 31
0.0
  0
LINE
  5
259
100
AcDbEntity
  8
Frei
  6
CONTINUOUS
 62
           7
100
AcDbLine
 10
-14203.178703034293
 20
-4446.43598709901
 30
0.0
 11
-14203.313208763111
 21
-4447.738461432244
 31
0.0
  0
LINE
  5
25A
100
AcDbEntity
  8
Frei
  6
CONTINUOUS
 62
           7
100
AcDbLine
 10
-14202.909691576659
 20
-4443.831038432543
 30
0.0
 11
-14203.178703034293
 21
-4446.43598709901
 31
0.0
  0
LINE
  5
25B
100
AcDbEntity
  8
Frei
  6
CONTINUOUS
 62
           7
100
AcDbLine
 10
-14197.936141621827
 20
-4444.344653898443
 30
0.0
 11
-14197.525249249109
 21
-4440.365813934578
 31
0.0
  0
LINE
  5
25C
100
AcDbEntity
  8
Frei
  6
CONTINUOUS
 62
           7
100
AcDbLine
 10
-14197.936141621827
 20
-4444.344653898443
 30
0.0
 11
-14202.909691576659
 21
-4443.831038432543
 31
0.0
  0
LINE
  5
25D
100
AcDbEntity
  8
Frei
  6
CONTINUOUS
 62
           7
100
AcDbLine
 10
-14202.498799203939
 20
-4439.85219846868
 30
0.0
 11
-14202.909691576659
 21
-4443.831038432543
 31
0.0
  0
LINE
  5
25E
100
AcDbEntity
  8
Frei
  6
CONTINUOUS
 62
           7
100
AcDbLine
 10
-14197.525249249109
 20
-4440.365813934578
 30
0.0
 11
-14197.121732062655
 21
-4436.458390934879
 31
0.0
  0
LINE
  5
25F
100
AcDbEntity
  8
Frei
  6
CONTINUOUS
 62
           7
100
AcDbLine
 10
-14197.525249249109
 20
-4440.365813934578
 30
0.0
 11
-14202.498799203939
 21
-4439.85219846868
 31
0.0
  0
LINE
  5
260
100
AcDbEntity
  8
Frei
  6
CONTINUOUS
 62
           7
100
AcDbLine
 10
-14202.229787746302
 20
-4437.247249802213
 30
0.0
 11
-14202.498799203939
 21
-4439.85219846868
 31
0.0
  0
LINE
  5
261
100
AcDbEntity
  8
Frei
  6
CONTINUOUS
 62
           7
100
AcDbLine
 10
-14202.095282017486
 20
-4435.944775468979
 30
0.0
 11
-14202.229787746302
 21
-4437.247249802213
 31
0.0
  0
LINE
  5
262
100
AcDbEntity
  8
Frei
  6
CONTINUOUS
 62
           7
100
AcDbLine
 10
-14197.121732062655
 20
-4436.458390934879
 30
0.0
 11
-14196.916285876296
 21
-4434.468970952947
 31
0.0
  0
LINE
  5
263
100
AcDbEntity
  8
Frei
  6
CONTINUOUS
 62
           7
100
AcDbLine
 10
-14197.121732062655
 20
-4436.458390934879
 30
0.0
 11
-14202.095282017486
 21
-4435.944775468979
 31
0.0
  0
LINE
  5
264
100
AcDbEntity
  8
Frei
  6
CONTINUOUS
 62
           7
100
AcDbLine
 10
-14201.889835831125
 20
-4433.955355487047
 30
0.0
 11
-14202.095282017486
 21
-4435.944775468979
 31
0.0
  0
LINE
  5
265
100
AcDbEntity
  8
Frei
  6
CONTINUOUS
 62
           7
100
AcDbLine
 10
-14201.889835831125
 20
-4433.955355487047
 30
0.0
 11
-14196.916285876296
 21
-4434.468970952947
 31
0.0
  0
LINE
  5
266
100
AcDbEntity
  8
Frei
  6
CONTINUOUS
 62
           7
100
AcDbLine
 10
-14203.653160678288
 20
-4451.030355747409
 30
0.0
 11
-14199.431594630363
 21
-4451.466314294567
 31
0.0
  0
LINE
  5
267
100
AcDbEntity
  8
Frei
  6
CONTINUOUS
 62
           7
100
AcDbLine
 10
-14201.755330102309
 20
-4432.652881153814
 30
0.0
 11
-14201.889835831125
 21
-4433.955355487047
 31
0.0
  0
LINE
  5
268
100
AcDbEntity
  8
Frei
  6
CONTINUOUS
 62
           7
100
AcDbLine
 10
-14245.398052785096
 20
-4397.722588428002
 30
0.0
 11
-14245.937349024291
 21
-4402.944815880572
 31
0.0
  0
LINE
  5
269
100
AcDbEntity
  8
Frei
  6
CONTINUOUS
 62
           7
100
AcDbLine
 10
-14244.625049450906
 20
-4404.839643004532
 30
0.0
 11
-14244.265518624776
 21
-4401.358158036152
 31
0.0
  0
LINE
  5
26A
100
AcDbEntity
  8
Frei
  6
CONTINUOUS
 62
           7
100
AcDbLine
 10
-14245.377038919945
 20
-4404.761985511394
 30
0.0
 11
-14244.625049450906
 21
-4404.839643004532
 31
0.0
  0
LINE
  5
26B
100
AcDbEntity
  8
Frei
  6
CONTINUOUS
 62
           7
100
AcDbLine
 10
-14244.265518624776
 20
-4401.358158036152
 30
0.0
 11
-14243.546456972517
 21
-4394.39518809939
 31
0.0
  0
LINE
  5
26C
100
AcDbEntity
  8
Frei
  6
CONTINUOUS
 62
           7
100
AcDbLine
 10
-14245.017508093817
 20
-4401.280500543013
 30
0.0
 11
-14244.265518624776
 21
-4401.358158036152
 31
0.0
  0
LINE
  5
26D
100
AcDbEntity
  8
Frei
  6
CONTINUOUS
 62
           7
100
AcDbLine
 10
-14243.546456972517
 20
-4394.39518809939
 30
0.0
 11
-14243.186926146387
 21
-4390.913703131009
 31
0.0
  0
LINE
  5
26E
100
AcDbEntity
  8
Frei
  6
CONTINUOUS
 62
           7
100
AcDbLine
 10
-14244.298446441557
 20
-4394.317530606251
 30
0.0
 11
-14243.546456972517
 21
-4394.39518809939
 31
0.0
  0
LINE
  5
26F
100
AcDbEntity
  8
Frei
  6
CONTINUOUS
 62
           7
100
AcDbLine
 10
-14243.186926146387
 20
-4390.913703131009
 30
0.0
 11
-14242.621949133898
 21
-4385.442798180696
 31
0.0
  0
LINE
  5
270
100
AcDbEntity
  8
Frei
  6
CONTINUOUS
 62
           7
100
AcDbLine
 10
-14243.938915615428
 20
-4390.836045637871
 30
0.0
 11
-14243.186926146387
 21
-4390.913703131009
 31
0.0
  0
LINE
  5
271
100
AcDbEntity
  8
Frei
  6
CONTINUOUS
 62
           7
100
AcDbLine
 10
-14208.294133904206
 20
-4447.296262930508
 30
0.0
 11
-14207.061456786048
 21
-4435.359743038916
 31
0.0
  0
LINE
  5
272
100
AcDbEntity
  8
Frei
  6
CONTINUOUS
 62
           2
100
AcDbLine
 10
-14203.320583949377
 20
-4447.809878396407
 30
0.0
 11
-14208.294133904206
 21
-4447.296262930508
 31
0.0
  0
LINE
  5
273
100
AcDbEntity
  8
Frei
  6
CONTINUOUS
 62
           7
100
AcDbLine
 10
-14207.061456786048
 20
-4435.359743038916
 30
0.0
 11
-14206.958733692869
 21
-4434.36503304795
 31
0.0
  0
LINE
  5
274
100
AcDbEntity
  8
Frei
  6
CONTINUOUS
 62
           2
100
AcDbLine
 10
-14202.087906831219
 20
-4435.873358504815
 30
0.0
 11
-14207.061456786048
 21
-4435.359743038916
 31
0.0
  0
LINE
  5
275
100
AcDbEntity
  8
Frei
  6
CONTINUOUS
 62
           7
100
AcDbLine
 10
-14208.396856997388
 20
-4448.290972921473
 30
0.0
 11
-14208.294133904206
 21
-4447.296262930508
 31
0.0
  0
LINE
  5
276
100
AcDbEntity
  8
Frei
  6
CONTINUOUS
 62
           7
100
AcDbLine
 10
-14208.396856997388
 20
-4448.290972921473
 30
0.0
 11
-14203.423307042558
 21
-4448.804588387373
 31
0.0
  0
LINE
  5
277
100
AcDbEntity
  8
Frei
  6
CONTINUOUS
 62
           7
100
AcDbLine
 10
-14206.958733692869
 20
-4434.36503304795
 30
0.0
 11
-14206.907372146279
 21
-4433.867678052467
 31
0.0
  0
LINE
  5
278
100
AcDbEntity
  8
Frei
  6
CONTINUOUS
 62
           7
100
AcDbLine
 10
-14206.958733692869
 20
-4434.36503304795
 30
0.0
 11
-14201.985183738039
 21
-4434.878648513848
 31
0.0
  0
LINE
  5
279
100
AcDbEntity
  8
Frei
  6
CONTINUOUS
 62
           7
100
AcDbLine
 10
-14227.757993339143
 20
-4446.2915601976
 30
0.0
 11
-14246.693191649578
 21
-4444.336133834049
 31
0.0
  0
LINE
  5
27A
100
AcDbEntity
  8
Frei
  6
CONTINUOUS
 62
           7
100
AcDbLine
 10
-14220.538823075338
 20
-4449.047715785247
 30
0.0
 11
-14227.757993339143
 21
-4446.2915601976
 31
0.0
  0
LINE
  5
27B
100
AcDbEntity
  8
Frei
  6
CONTINUOUS
 62
           7
100
AcDbLine
 10
-14245.206286933811
 20
-4415.335459456266
 30
0.0
 11
-14245.703641929294
 21
-4415.284097909675
 31
0.0
  0
LINE
  5
27C
100
AcDbEntity
  8
Frei
  6
CONTINUOUS
 62
           7
100
AcDbLine
 10
-14245.206286933811
 20
-4415.335459456266
 30
0.0
 11
-14248.031171996257
 21
-4442.689984207831
 31
0.0
  0
LINE
  5
27D
100
AcDbEntity
  8
Frei
  6
CONTINUOUS
 62
           7
100
AcDbLine
 10
-14227.757993339143
 20
-4446.2915601976
 30
0.0
 11
-14221.825441875428
 21
-4446.904211163545
 31
0.0
  0
LINE
  5
27E
100
AcDbEntity
  8
Frei
  6
CONTINUOUS
 62
           7
100
AcDbLine
 10
-14217.354407186764
 20
-4418.211706065302
 30
0.0
 11
-14245.206286933811
 21
-4415.335459456266
 31
0.0
  0
LINE
  5
27F
100
AcDbEntity
  8
Frei
  6
CONTINUOUS
 62
           7
100
AcDbLine
 10
-14217.354407186764
 20
-4418.211706065302
 30
0.0
 11
-14220.17929224921
 21
-4445.566230816867
 31
0.0
  0
LINE
  5
280
100
AcDbEntity
  8
Frei
  6
CONTINUOUS
 62
           7
100
AcDbLine
 10
-14220.538823075338
 20
-4449.047715785247
 30
0.0
 11
-14210.094368170196
 21
-4450.126308263636
 31
0.0
  0
LINE
  5
281
100
AcDbEntity
  8
Frei
  6
CONTINUOUS
 62
           7
100
AcDbLine
 10
-14208.448218543977
 20
-4448.788327916956
 30
0.0
 11
-14208.396856997388
 21
-4448.290972921473
 31
0.0
  0
LINE
  5
282
100
AcDbEntity
  8
Frei
  6
CONTINUOUS
 62
           7
100
AcDbLine
 10
-14218.689807398101
 20
-4431.142935947859
 30
0.0
 11
-14208.245352492959
 21
-4432.221528426248
 31
0.0
  0
LINE
  5
283
100
AcDbEntity
  8
Frei
  6
CONTINUOUS
 62
           7
100
AcDbLine
 10
-14245.703641929294
 20
-4415.284097909675
 30
0.0
 11
-14245.600918836115
 21
-4414.28938791871
 31
0.0
  0
LINE
  5
284
100
AcDbEntity
  8
Frei
  6
CONTINUOUS
 62
           7
100
AcDbLine
 10
-14216.857052191281
 20
-4418.263067611892
 30
0.0
 11
-14217.354407186764
 21
-4418.211706065302
 31
0.0
  0
LINE
  5
285
100
AcDbEntity
  8
Frei
  6
CONTINUOUS
 62
           7
100
AcDbLine
 10
-14216.754329098101
 20
-4417.268357620926
 30
0.0
 11
-14216.857052191281
 21
-4418.263067611892
 31
0.0
  0
LINE
  5
286
100
AcDbEntity
  8
Frei
  6
CONTINUOUS
 62
           7
100
AcDbLine
 10
-14216.754329098101
 20
-4417.268357620926
 30
0.0
 11
-14245.600918836115
 21
-4414.28938791871
 31
0.0
  0
LINE
  5
287
100
AcDbEntity
  8
Frei
  6
CONTINUOUS
 62
           7
100
AcDbLine
 10
-14214.134890222014
 20
-4391.903252851293
 30
0.0
 11
-14214.077784386172
 21
-4391.350273538705
 31
0.0
  0
LINE
  5
288
100
AcDbEntity
  8
Frei
  6
CONTINUOUS
 62
           7
100
AcDbLine
 10
-14242.621949133898
 20
-4385.442798180696
 30
0.0
 11
-14215.792453577911
 21
-4389.163789239818
 31
0.0
  0
LINE
  5
289
100
AcDbEntity
  8
Frei
  6
CONTINUOUS
 62
           7
100
AcDbLine
 10
-14210.291294292163
 20
-4403.358678217817
 30
0.0
 11
-14210.342655838753
 21
-4403.8560332133
 31
0.0
  0
LINE
  5
28A
100
AcDbEntity
  8
Frei
  6
CONTINUOUS
 62
           1
100
AcDbLine
 10
-14210.291294292163
 20
-4403.358678217817
 30
0.0
 11
-14212.76648183611
 21
-4403.103067112044
 31
0.0
  0
LINE
  5
28B
100
AcDbEntity
  8
Frei
  6
CONTINUOUS
 62
           7
100
AcDbLine
 10
-14209.880401919443
 20
-4399.379838253954
 30
0.0
 11
-14210.291294292163
 21
-4403.358678217817
 31
0.0
  0
LINE
  5
28C
100
AcDbEntity
  8
Frei
  6
CONTINUOUS
 62
           1
100
AcDbLine
 10
-14209.880401919443
 20
-4399.379838253954
 30
0.0
 11
-14212.35558946339
 21
-4399.124227148181
 31
0.0
  0
LINE
  5
28D
100
AcDbEntity
  8
Frei
  6
CONTINUOUS
 62
           7
100
AcDbLine
 10
-14210.342655838753
 20
-4403.8560332133
 30
0.0
 11
-14210.394017385343
 21
-4404.353388208783
 31
0.0
  0
LINE
  5
28E
100
AcDbEntity
  8
Frei
  6
CONTINUOUS
 62
           1
100
AcDbLine
 10
-14210.342655838753
 20
-4403.8560332133
 30
0.0
 11
-14212.8178433827
 21
-4403.600422107527
 31
0.0
  0
LINE
  5
28F
100
AcDbEntity
  8
Frei
  6
CONTINUOUS
 62
           7
100
AcDbLine
 10
-14209.829040372853
 20
-4398.882483258471
 30
0.0
 11
-14209.880401919443
 21
-4399.379838253954
 31
0.0
  0
LINE
  5
290
100
AcDbEntity
  8
Frei
  6
CONTINUOUS
 62
           1
100
AcDbLine
 10
-14209.829040372853
 20
-4398.882483258471
 30
0.0
 11
-14212.3042279168
 21
-4398.626872152698
 31
0.0
  0
LINE
  5
291
100
AcDbEntity
  8
Frei
  6
CONTINUOUS
 62
           7
100
AcDbLine
 10
-14211.388727376308
 20
-4404.250665115604
 30
0.0
 11
-14210.77238881723
 21
-4398.282405169808
 31
0.0
  0
LINE
  5
292
100
AcDbEntity
  8
Frei
  6
CONTINUOUS
 62
           2
100
AcDbLine
 10
-14210.394017385343
 20
-4404.353388208783
 30
0.0
 11
-14211.388727376308
 21
-4404.250665115604
 31
0.0
  0
LINE
  5
293
100
AcDbEntity
  8
Frei
  6
CONTINUOUS
 62
           7
100
AcDbLine
 10
-14210.77238881723
 20
-4398.282405169808
 30
0.0
 11
-14210.66966572405
 21
-4397.287695178842
 31
0.0
  0
LINE
  5
294
100
AcDbEntity
  8
Frei
  6
CONTINUOUS
 62
           2
100
AcDbLine
 10
-14209.777678826264
 20
-4398.385128262988
 30
0.0
 11
-14210.77238881723
 21
-4398.282405169808
 31
0.0
  0
LINE
  5
295
100
AcDbEntity
  8
Frei
  6
CONTINUOUS
 62
           7
100
AcDbLine
 10
-14211.491450469488
 20
-4405.24537510657
 30
0.0
 11
-14211.388727376308
 21
-4404.250665115604
 31
0.0
  0
LINE
  5
296
100
AcDbEntity
  8
Frei
  6
CONTINUOUS
 62
           7
100
AcDbLine
 10
-14210.394017385343
 20
-4404.353388208783
 30
0.0
 11
-14211.491450469488
 21
-4405.24537510657
 31
0.0
  0
LINE
  5
297
100
AcDbEntity
  8
Frei
  6
CONTINUOUS
 62
           7
100
AcDbLine
 10
-14209.777678826264
 20
-4398.385128262988
 30
0.0
 11
-14209.829040372853
 21
-4398.882483258471
 31
0.0
  0
LINE
  5
298
100
AcDbEntity
  8
Frei
  6
CONTINUOUS
 62
           7
100
AcDbLine
 10
-14210.66966572405
 20
-4397.287695178842
 30
0.0
 11
-14210.156050258151
 21
-4392.314145224013
 31
0.0
  0
LINE
  5
299
100
AcDbEntity
  8
Frei
  6
CONTINUOUS
 62
           7
100
AcDbLine
 10
-14210.66966572405
 20
-4397.287695178842
 30
0.0
 11
-14209.777678826264
 21
-4398.385128262988
 31
0.0
  0
LINE
  5
29A
100
AcDbEntity
  8
Frei
  6
CONTINUOUS
 62
           7
100
AcDbLine
 10
-14245.600918836115
 20
-4414.28938791871
 30
0.0
 11
-14244.625049450906
 21
-4404.839643004532
 31
0.0
  0
LINE
  5
29B
100
AcDbEntity
  8
Frei
  6
CONTINUOUS
 62
           7
100
AcDbLine
 10
-14215.983905899251
 20
-4409.808032688681
 30
0.0
 11
-14216.754329098101
 21
-4417.268357620926
 31
0.0
  0
LINE
  5
29C
100
AcDbEntity
  8
Frei
  6
CONTINUOUS
 62
           7
100
AcDbLine
 10
-14213.037457137869
 20
-4391.011265953506
 30
0.0
 11
-14215.091919001465
 21
-4410.905465772827
 31
0.0
  0
LINE
  5
29D
100
AcDbEntity
  8
Frei
  6
CONTINUOUS
 62
           7
100
AcDbLine
 10
-14211.048037155937
 20
-4391.216712139866
 30
0.0
 11
-14213.102499019533
 21
-4411.110911959186
 31
0.0
  0
LINE
  5
29E
100
AcDbEntity
  8
Frei
  6
CONTINUOUS
 62
           7
100
AcDbLine
 10
-14212.005065935387
 20
-4410.218925061399
 30
0.0
 11
-14213.102499019533
 21
-4411.110911959186
 31
0.0
  0
LINE
  5
29F
100
AcDbEntity
  8
Frei
  6
CONTINUOUS
 62
           7
100
AcDbLine
 10
-14215.091919001465
 20
-4410.905465772827
 30
0.0
 11
-14215.983905899251
 21
-4409.808032688681
 31
0.0
  0
LINE
  5
2A0
100
AcDbEntity
  8
Frei
  6
CONTINUOUS
 62
           7
100
AcDbLine
 10
-14214.134890222014
 20
-4391.903252851293
 30
0.0
 11
-14213.037457137869
 21
-4391.011265953506
 31
0.0
  0
LINE
  5
2A1
100
AcDbEntity
  8
Frei
  6
CONTINUOUS
 62
           7
100
AcDbLine
 10
-14210.156050258151
 20
-4392.314145224013
 30
0.0
 11
-14211.048037155937
 21
-4391.216712139866
 31
0.0
  0
LINE
  5
2A2
100
AcDbEntity
  8
Frei
  6
CONTINUOUS
 62
           7
100
AcDbLine
 10
-14212.005065935387
 20
-4410.218925061399
 30
0.0
 11
-14211.491450469488
 21
-4405.24537510657
 31
0.0
  0
LINE
  5
2A3
100
AcDbEntity
  8
Frei
  6
CONTINUOUS
 62
           7
100
AcDbLine
 10
-14215.091919001465
 20
-4410.905465772827
 30
0.0
 11
-14213.102499019533
 21
-4411.110911959186
 31
0.0
  0
LINE
  5
2A4
100
AcDbEntity
  8
Frei
  6
CONTINUOUS
 62
           7
100
AcDbLine
 10
-14214.134890222014
 20
-4391.903252851293
 30
0.0
 11
-14215.983905899251
 21
-4409.808032688681
 31
0.0
  0
LINE
  5
2A5
100
AcDbEntity
  8
Frei
  6
CONTINUOUS
 62
           7
100
AcDbLine
 10
-14211.048037155937
 20
-4391.216712139866
 30
0.0
 11
-14213.037457137869
 21
-4391.011265953506
 31
0.0
  0
LINE
  5
2A6
100
AcDbEntity
  8
Frei
  6
CONTINUOUS
 62
           7
100
AcDbLine
 10
-14262.013633687053
 20
-4412.594456881242
 30
0.0
 11
-14251.569178781911
 21
-4413.67304935963
 31
0.0
  0
LINE
  5
2A7
100
AcDbEntity
  8
Frei
  6
CONTINUOUS
 62
           7
100
AcDbLine
 10
-14244.697831738595
 20
-4381.207150483882
 30
0.0
 11
-14258.623771612118
 21
-4379.769027179364
 31
0.0
  0
LINE
  5
2A8
100
AcDbEntity
  8
Frei
  6
CONTINUOUS
 62
           7
100
AcDbLine
 10
-14243.805844840808
 20
-4382.304583568028
 30
0.0
 11
-14246.117114437355
 21
-4404.685558364763
 31
0.0
  0
LINE
  5
2A9
100
AcDbEntity
  8
Frei
  6
CONTINUOUS
 62
           7
100
AcDbLine
 10
-14405.149149292978
 20
-4396.807621472377
 30
0.0
 11
-14402.837879696432
 21
-4374.426646675642
 31
0.0
  0
LINE
  5
2AA
100
AcDbEntity
  8
Frei
  6
CONTINUOUS
 62
           7
100
AcDbLine
 10
-14404.096237587884
 20
-4386.611844064975
 30
0.0
 11
-14403.55694134869
 21
-4381.389616612403
 31
0.0
  0
LINE
  5
2AB
100
AcDbEntity
  8
Frei
  6
CONTINUOUS
 62
           7
100
AcDbLine
 10
-14244.858756545902
 20
-4392.500360975429
 30
0.0
 11
-14245.398052785096
 21
-4397.722588428002
 31
0.0
  0
ARC
  5
2AC
100
AcDbEntity
  8
Frei
  6
CONTINUOUS
 62
           7
100
AcDbCircle
 10
-14412.11583098801
 20
-4380.505745307279
 30
0.0
 40
8.604407030244
100
AcDbArc
 50
330.102014671726
 51
354.103999999999
  0
ARC
  5
2AD
100
AcDbEntity
  8
Frei
  6
CONTINUOUS
 62
           7
100
AcDbCircle
 10
-14405.434895838353
 20
-4375.917761153565
 30
0.0
 40
2.430106011614
100
AcDbArc
 50
308.038521857266
 51
354.103999999999
  0
ARC
  5
2AE
100
AcDbEntity
  8
Frei
  6
CONTINUOUS
 62
           7
100
AcDbCircle
 10
-14406.513488316741
 20
-4386.362216058707
 30
0.0
 40
2.430106011614
100
AcDbArc
 50
308.038521857266
 51
354.103999999999
  0
ARC
  5
2AF
100
AcDbEntity
  8
Frei
  6
CONTINUOUS
 62
           7
100
AcDbCircle
 10
-14405.434895838353
 20
-4375.917761153565
 30
0.0
 40
2.430106011614
100
AcDbArc
 50
354.103999999999
 51
40.169478142733
  0
ARC
  5
2B0
100
AcDbEntity
  8
Frei
  6
CONTINUOUS
 62
           7
100
AcDbCircle
 10
-14406.513488316741
 20
-4386.362216058707
 30
0.0
 40
2.430106011614
100
AcDbArc
 50
354.103999999999
 51
40.169478142733
  0
ARC
  5
2B1
100
AcDbEntity
  8
Frei
  6
CONTINUOUS
 62
           7
100
AcDbCircle
 10
-14243.52009829543
 20
-4403.19444388684
 30
0.0
 40
2.430106011614
100
AcDbArc
 50
128.038521857263
 51
174.104
  0
ARC
  5
2B2
100
AcDbEntity
  8
Frei
  6
CONTINUOUS
 62
           7
100
AcDbCircle
 10
-14242.441505817042
 20
-4392.749988981697
 30
0.0
 40
2.430106011614
100
AcDbArc
 50
128.038521857263
 51
174.104
  0
ARC
  5
2B3
100
AcDbEntity
  8
Frei
  6
CONTINUOUS
 62
           7
100
AcDbCircle
 10
-14243.52009829543
 20
-4403.19444388684
 30
0.0
 40
2.430106011614
100
AcDbArc
 50
174.104
 51
220.169478142737
  0
ARC
  5
2B4
100
AcDbEntity
  8
Frei
  6
CONTINUOUS
 62
           7
100
AcDbCircle
 10
-14242.441505817042
 20
-4392.749988981697
 30
0.0
 40
2.430106011614
100
AcDbArc
 50
174.104
 51
220.169478142737
  0
ARC
  5
2B5
100
AcDbEntity
  8
Frei
  6
CONTINUOUS
 62
           7
100
AcDbCircle
 10
-14236.839163145774
 20
-4398.606459733126
 30
0.0
 40
8.604407030244
100
AcDbArc
 50
150.102014671724
 51
174.104
  0
ARC
  5
2B6
100
AcDbEntity
  8
Frei
  6
CONTINUOUS
 62
           7
100
AcDbCircle
 10
-14381.129764314499
 20
-4391.509858033771
 30
0.0
 40
4.481959213903
100
AcDbArc
 50
182.482955885586
 51
345.725044114414
  0
ARC
  5
2B7
100
AcDbEntity
  8
Frei
  6
CONTINUOUS
 62
           7
100
AcDbCircle
 10
-14412.11583098801
 20
-4380.505745307279
 30
0.0
 40
8.604407030244
100
AcDbArc
 50
354.103999999999
 51
18.105985328274
  0
ARC
  5
2B8
100
AcDbEntity
  8
Frei
  6
CONTINUOUS
 62
           7
100
AcDbCircle
 10
-14236.839163145774
 20
-4398.606459733126
 30
0.0
 40
8.604407030244
100
AcDbArc
 50
174.104
 51
198.105985328276
  0
POLYLINE
  5
2B9
100
AcDbEntity
  8
Frei
  6
CONTINUOUS
 62
           7
100
AcDb2dPolyline
 66
           1
 10
0.0
 20
0.0
 30
0.0
  0
VERTEX
  5
2BA
100
AcDbEntity
  8
Frei
  6
CONTINUOUS
 62
           7
100
AcDbVertex
100
AcDb2dVertex
 10
-14385.288661300689
 20
-4391.382295515632
 30
0.0
 42
0.046286845788
  0
VERTEX
  5
2BB
100
AcDbEntity
  8
Frei
  6
CONTINUOUS
 62
           7
100
AcDbVertex
100
AcDb2dVertex
 10
-14385.295509026713
 20
-4392.062369726091
 30
0.0
  0
VERTEX
  5
2BC
100
AcDbEntity
  8
Frei
  6
CONTINUOUS
 62
           7
100
AcDbVertex
100
AcDb2dVertex
 10
-14385.25158283762
 20
-4392.401282528609
 30
0.0
  0
VERTEX
  5
2BD
100
AcDbEntity
  8
Frei
  6
CONTINUOUS
 62
           7
100
AcDbVertex
100
AcDb2dVertex
 10
-14385.176720085177
 20
-4392.734733161005
 30
0.0
 42
0.045273723548
  0
VERTEX
  5
2BE
100
AcDbEntity
  8
Frei
  6
CONTINUOUS
 62
           7
100
AcDbVertex
100
AcDb2dVertex
 10
-14384.935903817955
 20
-4393.378956397635
 30
0.0
  0
VERTEX
  5
2BF
100
AcDbEntity
  8
Frei
  6
CONTINUOUS
 62
           7
100
AcDbVertex
100
AcDb2dVertex
 10
-14384.771411586804
 20
-4393.685117087987
 30
0.0
  0
VERTEX
  5
2C0
100
AcDbEntity
  8
Frei
  6
CONTINUOUS
 62
           7
100
AcDbVertex
100
AcDb2dVertex
 10
-14384.580377305472
 20
-4393.975465038928
 30
0.0
 42
0.04348253534
  0
VERTEX
  5
2C1
100
AcDbEntity
  8
Frei
  6
CONTINUOUS
 62
           7
100
AcDbVertex
100
AcDb2dVertex
 10
-14384.120943040905
 20
-4394.506134471669
 30
0.0
  0
VERTEX
  5
2C2
100
AcDbEntity
  8
Frei
  6
CONTINUOUS
 62
           7
100
AcDbVertex
100
AcDb2dVertex
 10
-14383.855822267753
 20
-4394.742201359866
 30
0.0
  0
VERTEX
  5
2C3
100
AcDbEntity
  8
Frei
  6
CONTINUOUS
 62
           7
100
AcDbVertex
100
AcDb2dVertex
 10
-14383.571560701897
 20
-4394.954840573671
 30
0.0
 42
0.041825507476
  0
VERTEX
  5
2C4
100
AcDbEntity
  8
Frei
  6
CONTINUOUS
 62
           7
100
AcDbVertex
100
AcDb2dVertex
 10
-14382.948922992815
 20
-4395.307949637087
 30
0.0
  0
VERTEX
  5
2C5
100
AcDbEntity
  8
Frei
  6
CONTINUOUS
 62
           7
100
AcDbVertex
100
AcDb2dVertex
 10
-14382.615537493069
 20
-4395.445332896199
 30
0.0
  0
VERTEX
  5
2C6
100
AcDbEntity
  8
Frei
  6
CONTINUOUS
 62
           7
100
AcDbVertex
100
AcDb2dVertex
 10
-14382.271948445383
 20
-4395.554732621702
 30
0.0
 42
0.040993490696
  0
VERTEX
  5
2C7
100
AcDbEntity
  8
Frei
  6
CONTINUOUS
 62
           7
100
AcDbVertex
100
AcDb2dVertex
 10
-14381.56120658866
 20
-4395.68769115141
 30
0.0
  0
VERTEX
  5
2C8
100
AcDbEntity
  8
Frei
  6
CONTINUOUS
 62
           7
100
AcDbVertex
100
AcDb2dVertex
 10
-14381.200059191438
 20
-4395.710076411047
 30
0.0
  0
VERTEX
  5
2C9
100
AcDbEntity
  8
Frei
  6
CONTINUOUS
 62
           7
100
AcDbVertex
100
AcDb2dVertex
 10
-14380.838292954306
 20
-4395.702785348562
 30
0.0
 42
0.041278481646
  0
VERTEX
  5
2CA
100
AcDbEntity
  8
Frei
  6
CONTINUOUS
 62
           7
100
AcDbVertex
100
AcDb2dVertex
 10
-14380.125172907292
 20
-4395.59955658362
 30
0.0
  0
VERTEX
  5
2CB
100
AcDbEntity
  8
Frei
  6
CONTINUOUS
 62
           7
100
AcDbVertex
100
AcDb2dVertex
 10
-14379.779767478492
 20
-4395.504624536527
 30
0.0
  0
VERTEX
  5
2CC
100
AcDbEntity
  8
Frei
  6
CONTINUOUS
 62
           7
100
AcDbVertex
100
AcDb2dVertex
 10
-14379.443514239387
 20
-4395.381141410368
 30
0.0
 42
0.042584509173
  0
VERTEX
  5
2CD
100
AcDbEntity
  8
Frei
  6
CONTINUOUS
 62
           7
100
AcDbVertex
100
AcDb2dVertex
 10
-14378.814028804283
 20
-4395.054176263322
 30
0.0
  0
VERTEX
  5
2CE
100
AcDbEntity
  8
Frei
  6
CONTINUOUS
 62
           7
100
AcDbVertex
100
AcDb2dVertex
 10
-14378.525666571004
 20
-4394.853539065171
 30
0.0
  0
VERTEX
  5
2CF
100
AcDbEntity
  8
Frei
  6
CONTINUOUS
 62
           7
100
AcDbVertex
100
AcDb2dVertex
 10
-14378.255843198389
 20
-4394.628595813025
 30
0.0
 42
0.044417198743
  0
VERTEX
  5
2D0
100
AcDbEntity
  8
Frei
  6
CONTINUOUS
 62
           7
100
AcDbVertex
100
AcDb2dVertex
 10
-14377.785917608884
 20
-4394.117331106103
 30
0.0
  0
VERTEX
  5
2D1
100
AcDbEntity
  8
Frei
  6
CONTINUOUS
 62
           7
100
AcDbVertex
100
AcDb2dVertex
 10
-14377.589038871756
 20
-4393.834952439731
 30
0.0
  0
VERTEX
  5
2D2
100
AcDbEntity
  8
Frei
  6
CONTINUOUS
 62
           7
100
AcDbVertex
100
AcDb2dVertex
 10
-14377.418530487015
 20
-4393.535916661962
 30
0.0
 42
0.045929593742
  0
VERTEX
  5
2D3
100
AcDbEntity
  8
Frei
  6
CONTINUOUS
 62
           7
100
AcDbVertex
100
AcDb2dVertex
 10
-14377.164844704566
 20
-4392.90201846428
 30
0.0
  0
VERTEX
  5
2D4
100
AcDbEntity
  8
Frei
  6
CONTINUOUS
 62
           7
100
AcDbVertex
100
AcDb2dVertex
 10
-14377.083239341018
 20
-4392.571524021629
 30
0.0
  0
VERTEX
  5
2D5
100
AcDbEntity
  8
Frei
  6
CONTINUOUS
 62
           7
100
AcDbVertex
100
AcDb2dVertex
 10
-14377.032568375673
 20
-4392.234897189024
 30
0.0
 42
0.046286845788
  0
VERTEX
  5
2D6
100
AcDbEntity
  8
Frei
  6
CONTINUOUS
 62
           7
100
AcDbVertex
100
AcDb2dVertex
 10
-14377.025720649648
 20
-4391.554822978565
 30
0.0
  0
VERTEX
  5
2D7
100
AcDbEntity
  8
Frei
  6
CONTINUOUS
 62
           7
100
AcDbVertex
100
AcDb2dVertex
 10
-14377.069646838743
 20
-4391.215910176048
 30
0.0
  0
VERTEX
  5
2D8
100
AcDbEntity
  8
Frei
  6
CONTINUOUS
 62
           7
100
AcDbVertex
100
AcDb2dVertex
 10
-14377.144509591188
 20
-4390.882459543651
 30
0.0
 42
0.045273723548
  0
VERTEX
  5
2D9
100
AcDbEntity
  8
Frei
  6
CONTINUOUS
 62
           7
100
AcDbVertex
100
AcDb2dVertex
 10
-14377.385325858406
 20
-4390.238236307021
 30
0.0
  0
VERTEX
  5
2DA
100
AcDbEntity
  8
Frei
  6
CONTINUOUS
 62
           7
100
AcDbVertex
100
AcDb2dVertex
 10
-14377.549818089559
 20
-4389.932075616669
 30
0.0
  0
VERTEX
  5
2DB
100
AcDbEntity
  8
Frei
  6
CONTINUOUS
 62
           7
100
AcDbVertex
100
AcDb2dVertex
 10
-14377.740852370889
 20
-4389.641727665727
 30
0.0
 42
0.04348253534
  0
VERTEX
  5
2DC
100
AcDbEntity
  8
Frei
  6
CONTINUOUS
 62
           7
100
AcDbVertex
100
AcDb2dVertex
 10
-14378.200286635458
 20
-4389.111058232988
 30
0.0
  0
VERTEX
  5
2DD
100
AcDbEntity
  8
Frei
  6
CONTINUOUS
 62
           7
100
AcDbVertex
100
AcDb2dVertex
 10
-14378.46540740861
 20
-4388.87499134479
 30
0.0
  0
VERTEX
  5
2DE
100
AcDbEntity
  8
Frei
  6
CONTINUOUS
 62
           7
100
AcDbVertex
100
AcDb2dVertex
 10
-14378.749668974466
 20
-4388.662352130985
 30
0.0
 42
0.041825507476
  0
VERTEX
  5
2DF
100
AcDbEntity
  8
Frei
  6
CONTINUOUS
 62
           7
100
AcDbVertex
100
AcDb2dVertex
 10
-14379.372306683546
 20
-4388.309243067568
 30
0.0
  0
VERTEX
  5
2E0
100
AcDbEntity
  8
Frei
  6
CONTINUOUS
 62
           7
100
AcDbVertex
100
AcDb2dVertex
 10
-14379.705692183292
 20
-4388.171859808455
 30
0.0
  0
VERTEX
  5
2E1
100
AcDbEntity
  8
Frei
  6
CONTINUOUS
 62
           7
100
AcDbVertex
100
AcDb2dVertex
 10
-14380.049281230979
 20
-4388.062460082954
 30
0.0
 42
0.040993490695
  0
VERTEX
  5
2E2
100
AcDbEntity
  8
Frei
  6
CONTINUOUS
 62
           7
100
AcDbVertex
100
AcDb2dVertex
 10
-14380.760023087703
 20
-4387.929501553248
 30
0.0
  0
VERTEX
  5
2E3
100
AcDbEntity
  8
Frei
  6
CONTINUOUS
 62
           7
100
AcDbVertex
100
AcDb2dVertex
 10
-14381.121170484925
 20
-4387.907116293609
 30
0.0
  0
VERTEX
  5
2E4
100
AcDbEntity
  8
Frei
  6
CONTINUOUS
 62
           7
100
AcDbVertex
100
AcDb2dVertex
 10
-14381.482936722055
 20
-4387.914407356094
 30
0.0
 42
0.041278481646
  0
VERTEX
  5
2E5
100
AcDbEntity
  8
Frei
  6
CONTINUOUS
 62
           7
100
AcDbVertex
100
AcDb2dVertex
 10
-14382.196056769069
 20
-4388.017636121036
 30
0.0
  0
VERTEX
  5
2E6
100
AcDbEntity
  8
Frei
  6
CONTINUOUS
 62
           7
100
AcDbVertex
100
AcDb2dVertex
 10
-14382.541462197869
 20
-4388.11256816813
 30
0.0
  0
VERTEX
  5
2E7
100
AcDbEntity
  8
Frei
  6
CONTINUOUS
 62
           7
100
AcDbVertex
100
AcDb2dVertex
 10
-14382.877715436975
 20
-4388.236051294287
 30
0.0
 42
0.042584509172
  0
VERTEX
  5
2E8
100
AcDbEntity
  8
Frei
  6
CONTINUOUS
 62
           7
100
AcDbVertex
100
AcDb2dVertex
 10
-14383.507200872078
 20
-4388.563016441334
 30
0.0
  0
VERTEX
  5
2E9
100
AcDbEntity
  8
Frei
  6
CONTINUOUS
 62
           7
100
AcDbVertex
100
AcDb2dVertex
 10
-14383.795563105357
 20
-4388.763653639486
 30
0.0
  0
VERTEX
  5
2EA
100
AcDbEntity
  8
Frei
  6
CONTINUOUS
 62
           7
100
AcDbVertex
100
AcDb2dVertex
 10
-14384.065386477972
 20
-4388.988596891632
 30
0.0
 42
0.044417198743
  0
VERTEX
  5
2EB
100
AcDbEntity
  8
Frei
  6
CONTINUOUS
 62
           7
100
AcDbVertex
100
AcDb2dVertex
 10
-14384.535312067477
 20
-4389.499861598553
 30
0.0
  0
VERTEX
  5
2EC
100
AcDbEntity
  8
Frei
  6
CONTINUOUS
 62
           7
100
AcDbVertex
100
AcDb2dVertex
 10
-14384.732190804605
 20
-4389.782240264925
 30
0.0
  0
VERTEX
  5
2ED
100
AcDbEntity
  8
Frei
  6
CONTINUOUS
 62
           7
100
AcDbVertex
100
AcDb2dVertex
 10
-14384.90269918935
 20
-4390.081276042694
 30
0.0
 42
0.045929593741
  0
VERTEX
  5
2EE
100
AcDbEntity
  8
Frei
  6
CONTINUOUS
 62
           7
100
AcDbVertex
100
AcDb2dVertex
 10
-14385.156384971795
 20
-4390.715174240377
 30
0.0
  0
VERTEX
  5
2EF
100
AcDbEntity
  8
Frei
  6
CONTINUOUS
 62
           7
100
AcDbVertex
100
AcDb2dVertex
 10
-14385.237990335343
 20
-4391.045668683028
 30
0.0
  0
VERTEX
  5
2F0
100
AcDbEntity
  8
Frei
  6
CONTINUOUS
 62
           7
100
AcDbVertex
100
AcDb2dVertex
 10
-14385.288661300689
 20
-4391.382295515632
 30
0.0
  0
SEQEND
  5
2F1
100
AcDbEntity
  8
Frei
  6
CONTINUOUS
 62
           7
  0
POLYLINE
  5
2F2
100
AcDbEntity
  8
Frei
  6
CONTINUOUS
 62
           7
100
AcDb2dPolyline
 66
           1
 10
0.0
 20
0.0
 30
0.0
  0
VERTEX
  5
2F3
100
AcDbEntity
  8
Frei
  6
CONTINUOUS
 62
           7
100
AcDbVertex
100
AcDb2dVertex
 10
-14380.75145368115
 20
-4387.846520462535
 30
0.0
 42
0.046286845788
  0
VERTEX
  5
2F4
100
AcDbEntity
  8
Frei
  6
CONTINUOUS
 62
           7
100
AcDbVertex
100
AcDb2dVertex
 10
-14381.527490637754
 20
-4387.838706479324
 30
0.0
  0
VERTEX
  5
2F5
100
AcDbEntity
  8
Frei
  6
CONTINUOUS
 62
           7
100
AcDbVertex
100
AcDb2dVertex
 10
-14381.914226167162
 20
-4387.888830929826
 30
0.0
  0
VERTEX
  5
2F6
100
AcDbEntity
  8
Frei
  6
CONTINUOUS
 62
           7
100
AcDbVertex
100
AcDb2dVertex
 10
-14382.294728779911
 20
-4387.974257287238
 30
0.0
 42
0.045273723548
  0
VERTEX
  5
2F7
100
AcDbEntity
  8
Frei
  6
CONTINUOUS
 62
           7
100
AcDbVertex
100
AcDb2dVertex
 10
-14383.029855964913
 20
-4388.24905424357
 30
0.0
  0
VERTEX
  5
2F8
100
AcDbEntity
  8
Frei
  6
CONTINUOUS
 62
           7
100
AcDbVertex
100
AcDb2dVertex
 10
-14383.379217853246
 20
-4388.436757362559
 30
0.0
  0
VERTEX
  5
2F9
100
AcDbEntity
  8
Frei
  6
CONTINUOUS
 62
           7
100
AcDbVertex
100
AcDb2dVertex
 10
-14383.710535725235
 20
-4388.654747781855
 30
0.0
 42
0.04348253534
  0
VERTEX
  5
2FA
100
AcDbEntity
  8
Frei
  6
CONTINUOUS
 62
           7
100
AcDbVertex
100
AcDb2dVertex
 10
-14384.316085950803
 20
-4389.179011109227
 30
0.0
  0
VERTEX
  5
2FB
100
AcDbEntity
  8
Frei
  6
CONTINUOUS
 62
           7
100
AcDbVertex
100
AcDb2dVertex
 10
-14384.585463360874
 20
-4389.481542090061
 30
0.0
  0
VERTEX
  5
2FC
100
AcDbEntity
  8
Frei
  6
CONTINUOUS
 62
           7
100
AcDbVertex
100
AcDb2dVertex
 10
-14384.828107304431
 20
-4389.80591474977
 30
0.0
 42
0.041825507476
  0
VERTEX
  5
2FD
100
AcDbEntity
  8
Frei
  6
CONTINUOUS
 62
           7
100
AcDbVertex
100
AcDb2dVertex
 10
-14385.231042276389
 20
-4390.516410553593
 30
0.0
  0
VERTEX
  5
2FE
100
AcDbEntity
  8
Frei
  6
CONTINUOUS
 62
           7
100
AcDbVertex
100
AcDb2dVertex
 10
-14385.387811176977
 20
-4390.896838843064
 30
0.0
  0
VERTEX
  5
2FF
100
AcDbEntity
  8
Frei
  6
CONTINUOUS
 62
           7
100
AcDbVertex
100
AcDb2dVertex
 10
-14385.512647891448
 20
-4391.28891046523
 30
0.0
 42
0.040993490695
  0
VERTEX
  5
300
100
AcDbEntity
  8
Frei
  6
CONTINUOUS
 62
           7
100
AcDbVertex
100
AcDb2dVertex
 10
-14385.664367705494
 20
-4392.099942465769
 30
0.0
  0
VERTEX
  5
301
100
AcDbEntity
  8
Frei
  6
CONTINUOUS
 62
           7
100
AcDbVertex
100
AcDb2dVertex
 10
-14385.689911665984
 20
-4392.512050030965
 30
0.0
  0
VERTEX
  5
302
100
AcDbEntity
  8
Frei
  6
CONTINUOUS
 62
           7
100
AcDbVertex
100
AcDb2dVertex
 10
-14385.681591788751
 20
-4392.924863758271
 30
0.0
 42
0.041278481646
  0
VERTEX
  5
303
100
AcDbEntity
  8
Frei
  6
CONTINUOUS
 62
           7
100
AcDbVertex
100
AcDb2dVertex
 10
-14385.563796796163
 20
-4393.738609526699
 30
0.0
  0
VERTEX
  5
304
100
AcDbEntity
  8
Frei
  6
CONTINUOUS
 62
           7
100
AcDbVertex
100
AcDb2dVertex
 10
-14385.455469240469
 20
-4394.132753832771
 30
0.0
  0
VERTEX
  5
305
100
AcDbEntity
  8
Frei
  6
CONTINUOUS
 62
           7
100
AcDbVertex
100
AcDb2dVertex
 10
-14385.314561868976
 20
-4394.516454517652
 30
0.0
 42
0.042584509173
  0
VERTEX
  5
306
100
AcDbEntity
  8
Frei
  6
CONTINUOUS
 62
           7
100
AcDbVertex
100
AcDb2dVertex
 10
-14384.941459884332
 20
-4395.234764304689
 30
0.0
  0
VERTEX
  5
307
100
AcDbEntity
  8
Frei
  6
CONTINUOUS
 62
           7
100
AcDbVertex
100
AcDb2dVertex
 10
-14384.712511516283
 20
-4395.563816261771
 30
0.0
  0
VERTEX
  5
308
100
AcDbEntity
  8
Frei
  6
CONTINUOUS
 62
           7
100
AcDbVertex
100
AcDb2dVertex
 10
-14384.455827357235
 20
-4395.871713408412
 30
0.0
 42
0.044417198743
  0
VERTEX
  5
309
100
AcDbEntity
  8
Frei
  6
CONTINUOUS
 62
           7
100
AcDbVertex
100
AcDb2dVertex
 10
-14383.872419986277
 20
-4396.407948452617
 30
0.0
  0
VERTEX
  5
30A
100
AcDbEntity
  8
Frei
  6
CONTINUOUS
 62
           7
100
AcDbVertex
100
AcDb2dVertex
 10
-14383.550195915006
 20
-4396.632608017164
 30
0.0
  0
VERTEX
  5
30B
100
AcDbEntity
  8
Frei
  6
CONTINUOUS
 62
           7
100
AcDbVertex
100
AcDb2dVertex
 10
-14383.208964309211
 20
-4396.827176206835
 30
0.0
 42
0.045929593742
  0
VERTEX
  5
30C
100
AcDbEntity
  8
Frei
  6
CONTINUOUS
 62
           7
100
AcDbVertex
100
AcDb2dVertex
 10
-14382.485619091058
 20
-4397.116658647892
 30
0.0
  0
VERTEX
  5
30D
100
AcDbEntity
  8
Frei
  6
CONTINUOUS
 62
           7
100
AcDbVertex
100
AcDb2dVertex
 10
-14382.108489805012
 20
-4397.209779041219
 30
0.0
  0
VERTEX
  5
30E
100
AcDbEntity
  8
Frei
  6
CONTINUOUS
 62
           7
100
AcDbVertex
100
AcDb2dVertex
 10
-14381.724362810241
 20
-4397.267599998302
 30
0.0
 42
0.046286845788
  0
VERTEX
  5
30F
100
AcDbEntity
  8
Frei
  6
CONTINUOUS
 62
           7
100
AcDbVertex
100
AcDb2dVertex
 10
-14380.948325853638
 20
-4397.275413981513
 30
0.0
  0
VERTEX
  5
310
100
AcDbEntity
  8
Frei
  6
CONTINUOUS
 62
           7
100
AcDbVertex
100
AcDb2dVertex
 10
-14380.561590324229
 20
-4397.225289531012
 30
0.0
  0
VERTEX
  5
311
100
AcDbEntity
  8
Frei
  6
CONTINUOUS
 62
           7
100
AcDbVertex
100
AcDb2dVertex
 10
-14380.181087711482
 20
-4397.1398631736
 30
0.0
 42
0.045273723548
  0
VERTEX
  5
312
100
AcDbEntity
  8
Frei
  6
CONTINUOUS
 62
           7
100
AcDbVertex
100
AcDb2dVertex
 10
-14379.445960526478
 20
-4396.865066217268
 30
0.0
  0
VERTEX
  5
313
100
AcDbEntity
  8
Frei
  6
CONTINUOUS
 62
           7
100
AcDbVertex
100
AcDb2dVertex
 10
-14379.096598638145
 20
-4396.677363098277
 30
0.0
  0
VERTEX
  5
314
100
AcDbEntity
  8
Frei
  6
CONTINUOUS
 62
           7
100
AcDbVertex
100
AcDb2dVertex
 10
-14378.765280766158
 20
-4396.459372678981
 30
0.0
 42
0.04348253534
  0
VERTEX
  5
315
100
AcDbEntity
  8
Frei
  6
CONTINUOUS
 62
           7
100
AcDbVertex
100
AcDb2dVertex
 10
-14378.15973054059
 20
-4395.935109351611
 30
0.0
  0
VERTEX
  5
316
100
AcDbEntity
  8
Frei
  6
CONTINUOUS
 62
           7
100
AcDbVertex
100
AcDb2dVertex
 10
-14377.890353130517
 20
-4395.632578370778
 30
0.0
  0
VERTEX
  5
317
100
AcDbEntity
  8
Frei
  6
CONTINUOUS
 62
           7
100
AcDbVertex
100
AcDb2dVertex
 10
-14377.64770918696
 20
-4395.30820571107
 30
0.0
 42
0.041825507476
  0
VERTEX
  5
318
100
AcDbEntity
  8
Frei
  6
CONTINUOUS
 62
           7
100
AcDbVertex
100
AcDb2dVertex
 10
-14377.244774215002
 20
-4394.597709907244
 30
0.0
  0
VERTEX
  5
319
100
AcDbEntity
  8
Frei
  6
CONTINUOUS
 62
           7
100
AcDbVertex
100
AcDb2dVertex
 10
-14377.088005314417
 20
-4394.217281617774
 30
0.0
  0
VERTEX
  5
31A
100
AcDbEntity
  8
Frei
  6
CONTINUOUS
 62
           7
100
AcDbVertex
100
AcDb2dVertex
 10
-14376.963168599943
 20
-4393.825209995606
 30
0.0
 42
0.040993490695
  0
VERTEX
  5
31B
100
AcDbEntity
  8
Frei
  6
CONTINUOUS
 62
           7
100
AcDbVertex
100
AcDb2dVertex
 10
-14376.811448785897
 20
-4393.01417799507
 30
0.0
  0
VERTEX
  5
31C
100
AcDbEntity
  8
Frei
  6
CONTINUOUS
 62
           7
100
AcDbVertex
100
AcDb2dVertex
 10
-14376.785904825407
 20
-4392.602070429872
 30
0.0
  0
VERTEX
  5
31D
100
AcDbEntity
  8
Frei
  6
CONTINUOUS
 62
           7
100
AcDbVertex
100
AcDb2dVertex
 10
-14376.79422470264
 20
-4392.189256702564
 30
0.0
 42
0.041278481646
  0
VERTEX
  5
31E
100
AcDbEntity
  8
Frei
  6
CONTINUOUS
 62
           7
100
AcDbVertex
100
AcDb2dVertex
 10
-14376.912019695228
 20
-4391.375510934138
 30
0.0
  0
VERTEX
  5
31F
100
AcDbEntity
  8
Frei
  6
CONTINUOUS
 62
           7
100
AcDbVertex
100
AcDb2dVertex
 10
-14377.020347250924
 20
-4390.981366628066
 30
0.0
  0
VERTEX
  5
320
100
AcDbEntity
  8
Frei
  6
CONTINUOUS
 62
           7
100
AcDbVertex
100
AcDb2dVertex
 10
-14377.161254622417
 20
-4390.597665943185
 30
0.0
 42
0.042584509173
  0
VERTEX
  5
321
100
AcDbEntity
  8
Frei
  6
CONTINUOUS
 62
           7
100
AcDbVertex
100
AcDb2dVertex
 10
-14377.534356607061
 20
-4389.879356156149
 30
0.0
  0
VERTEX
  5
322
100
AcDbEntity
  8
Frei
  6
CONTINUOUS
 62
           7
100
AcDbVertex
100
AcDb2dVertex
 10
-14377.763304975108
 20
-4389.550304199065
 30
0.0
  0
VERTEX
  5
323
100
AcDbEntity
  8
Frei
  6
CONTINUOUS
 62
           7
100
AcDbVertex
100
AcDb2dVertex
 10
-14378.01998913416
 20
-4389.242407052425
 30
0.0
 42
0.044417198743
  0
VERTEX
  5
324
100
AcDbEntity
  8
Frei
  6
CONTINUOUS
 62
           7
100
AcDbVertex
100
AcDb2dVertex
 10
-14378.603396505114
 20
-4388.70617200822
 30
0.0
  0
VERTEX
  5
325
100
AcDbEntity
  8
Frei
  6
CONTINUOUS
 62
           7
100
AcDbVertex
100
AcDb2dVertex
 10
-14378.925620576385
 20
-4388.481512443674
 30
0.0
  0
VERTEX
  5
326
100
AcDbEntity
  8
Frei
  6
CONTINUOUS
 62
           7
100
AcDbVertex
100
AcDb2dVertex
 10
-14379.266852182182
 20
-4388.286944254003
 30
0.0
 42
0.045929593742
  0
VERTEX
  5
327
100
AcDbEntity
  8
Frei
  6
CONTINUOUS
 62
           7
100
AcDbVertex
100
AcDb2dVertex
 10
-14379.990197400333
 20
-4387.997461812945
 30
0.0
  0
VERTEX
  5
328
100
AcDbEntity
  8
Frei
  6
CONTINUOUS
 62
           7
100
AcDbVertex
100
AcDb2dVertex
 10
-14380.367326686379
 20
-4387.904341419619
 30
0.0
  0
VERTEX
  5
329
100
AcDbEntity
  8
Frei
  6
CONTINUOUS
 62
           7
100
AcDbVertex
100
AcDb2dVertex
 10
-14380.75145368115
 20
-4387.846520462535
 30
0.0
  0
SEQEND
  5
32A
100
AcDbEntity
  8
Frei
  6
CONTINUOUS
 62
           7
  0
ARC
  5
32B
100
AcDbEntity
  8
Frei
  6
CONTINUOUS
 62
           7
100
AcDbCircle
 10
-14247.799512607875
 20
-4411.105500208025
 30
0.0
 40
0.5
100
AcDbArc
 50
271.253821982568
 51
354.103999999999
  0
ARC
  5
32C
100
AcDbEntity
  8
Frei
  6
CONTINUOUS
 62
           7
100
AcDbCircle
 10
-14247.273816611003
 20
-4406.014969499563
 30
0.0
 40
0.5
100
AcDbArc
 50
354.103999999999
 51
76.954178017423
  0
ARC
  5
32D
100
AcDbEntity
  8
Frei
  6
CONTINUOUS
 62
           7
100
AcDbCircle
 10
-14400.658126530427
 20
-4368.058066378971
 30
0.0
 40
0.5
100
AcDbArc
 50
91.253821982565
 51
174.104
  0
ARC
  5
32E
100
AcDbEntity
  8
Frei
  6
CONTINUOUS
 62
           7
100
AcDbCircle
 10
-14401.1838225273
 20
-4373.148597087431
 30
0.0
 40
0.5
100
AcDbArc
 50
174.104
 51
256.954178017419
  0
ARC
  5
32F
100
AcDbEntity
  8
Frei
  6
CONTINUOUS
 62
           7
100
AcDbCircle
 10
-14430.924562416762
 20
-4368.956639225497
 30
0.0
 40
2.0
100
AcDbArc
 50
86.104
 51
174.104
  0
ARC
  5
330
100
AcDbEntity
  8
Frei
  6
CONTINUOUS
 62
           7
100
AcDbCircle
 10
-14448.670681362266
 20
-4423.980700914021
 30
0.0
 40
1.5
100
AcDbArc
 50
174.104
 51
264.104
  0
ARC
  5
331
100
AcDbEntity
  8
Frei
  6
CONTINUOUS
 62
           7
100
AcDbCircle
 10
-14447.129834964568
 20
-4409.060051049532
 30
0.0
 40
1.5
100
AcDbArc
 50
84.104
 51
174.104
  0
ARC
  5
332
100
AcDbEntity
  8
Frei
  6
CONTINUOUS
 62
           7
100
AcDbCircle
 10
-14436.528715284314
 20
-4423.223958050248
 30
0.0
 40
1.5
100
AcDbArc
 50
174.104
 51
264.104
  0
ARC
  5
333
100
AcDbEntity
  8
Frei
  6
CONTINUOUS
 62
           7
100
AcDbCircle
 10
-14411.660965510164
 20
-4425.792035379744
 30
0.0
 40
1.5
100
AcDbArc
 50
264.104
 51
354.103999999999
  0
ARC
  5
334
100
AcDbEntity
  8
Frei
  6
CONTINUOUS
 62
           7
100
AcDbCircle
 10
-14246.539107009809
 20
-4442.8440688476
 30
0.0
 40
1.5
100
AcDbArc
 50
174.104
 51
264.104000000001
  0
ARC
  5
335
100
AcDbEntity
  8
Frei
  6
CONTINUOUS
 62
           7
100
AcDbCircle
 10
-14221.671357235658
 20
-4445.412146177097
 30
0.0
 40
1.5
100
AcDbArc
 50
264.104000000001
 51
354.103999999999
  0
ARC
  5
336
100
AcDbEntity
  8
Frei
  6
CONTINUOUS
 62
           7
100
AcDbCircle
 10
-14208.399437132728
 20
-4433.713593412696
 30
0.0
 40
1.5
100
AcDbArc
 50
354.103999999999
 51
84.104
  0
ARC
  5
337
100
AcDbEntity
  8
Frei
  6
CONTINUOUS
 62
           7
100
AcDbCircle
 10
-14209.940283530426
 20
-4448.634243277187
 30
0.0
 40
1.5
100
AcDbArc
 50
264.104000000001
 51
354.103999999999
  0
ARC
  5
338
100
AcDbEntity
  8
Frei
  6
CONTINUOUS
 62
           7
100
AcDbCircle
 10
-14216.067204368104
 20
-4391.144827352345
 30
0.0
 40
2.0
100
AcDbArc
 50
354.103999999999
 51
82.104
  0
ARC
  5
339
100
AcDbEntity
  8
Frei
  6
CONTINUOUS
 62
           7
100
AcDbCircle
 10
-14244.800554831774
 20
-4382.201860474848
 30
0.0
 40
1.0
100
AcDbArc
 50
354.103999999999
 51
84.104
  0
ARC
  5
33A
100
AcDbEntity
  8
Frei
  6
CONTINUOUS
 62
           7
100
AcDbCircle
 10
-14247.984970720348
 20
-4413.037870194794
 30
0.0
 40
1.0
100
AcDbArc
 50
264.103999999999
 51
354.103999999999
  0
ARC
  5
33B
100
AcDbEntity
  8
Frei
  6
CONTINUOUS
 62
           7
100
AcDbCircle
 10
-14404.154439302012
 20
-4396.910344565556
 30
0.0
 40
1.0
100
AcDbArc
 50
174.104
 51
264.104
  0
ARC
  5
33C
100
AcDbEntity
  8
Frei
  6
CONTINUOUS
 62
           7
100
AcDbCircle
 10
-14400.970023413436
 20
-4366.074334845611
 30
0.0
 40
1.0
100
AcDbArc
 50
84.104
 51
174.104
  0
LINE
  5
33D
100
AcDbEntity
  8
Frei
  6
CONTINUOUS
 62
           7
100
AcDbLine
 10
-14686.698997731424
 20
-4358.241014886927
 30
0.0
 11
-14686.698997731424
 21
-4438.241014886927
 31
0.0
  0
LINE
  5
33E
100
AcDbEntity
  8
Frei
  6
CONTINUOUS
 62
           7
100
AcDbLine
 10
-14140.810112731424
 20
-4438.241014886927
 30
0.0
 11
-14140.810112731424
 21
-4358.241014886927
 31
0.0
  0
LINE
  5
33F
100
AcDbEntity
  8
Frei
  6
CONTINUOUS
 62
          15
100
AcDbLine
 10
-14611.604981590812
 20
-4358.241014886927
 30
0.0
 11
-14686.698997731424
 21
-4358.241014886927
 31
0.0
  0
LINE
  5
340
100
AcDbEntity
  8
Frei
  6
GESTRICHELT
 62
          15
100
AcDbLine
 10
-14504.641583452603
 20
-4358.241014886927
 30
0.0
 11
-14611.604981590812
 21
-4358.241014886927
 31
0.0
  0
LINE
  5
341
100
AcDbEntity
  8
Frei
  6
CONTINUOUS
 62
          15
100
AcDbLine
 10
-14487.299883239784
 20
-4358.241014886927
 30
0.0
 11
-14504.641583452603
 21
-4358.241014886927
 31
0.0
  0
LINE
  5
342
100
AcDbEntity
  8
Frei
  6
GESTRICHELT
 62
          15
100
AcDbLine
 10
-14289.912763733608
 20
-4358.241014886927
 30
0.0
 11
-14487.299883239784
 21
-4358.241014886927
 31
0.0
  0
LINE
  5
343
100
AcDbEntity
  8
Frei
  6
CONTINUOUS
 62
          15
100
AcDbLine
 10
-14140.810112731424
 20
-4358.241014886927
 30
0.0
 11
-14289.912763733608
 21
-4358.241014886927
 31
0.0
  0
LINE
  5
344
100
AcDbEntity
  8
Frei
  6
CONTINUOUS
 62
          15
100
AcDbLine
 10
-14247.571729652
 20
-4438.241014886927
 30
0.0
 11
-14686.698997731424
 21
-4438.241014886927
 31
0.0
  0
LINE
  5
345
100
AcDbEntity
  8
Frei
  6
GESTRICHELT
 62
          15
100
AcDbLine
 10
-14197.305822549324
 20
-4438.241014886927
 30
0.0
 11
-14247.571729652
 21
-4438.241014886927
 31
0.0
  0
LINE
  5
346
100
AcDbEntity
  8
Frei
  6
CONTINUOUS
 62
          15
100
AcDbLine
 10
-14140.810112731424
 20
-4438.241014886927
 30
0.0
 11
-14197.305822549324
 21
-4438.241014886927
 31
0.0
  0
TEXT
  5
347
100
AcDbEntity
  8
FREI
  6
CONTINUOUS
 62
          15
100
AcDbText
 10
-14894.973911982137
 20
-4501.668772390488
 30
0.0
 40
3.527777671814
  1
300-700
 41
0.899999979725
  7
GOTHICG
100
AcDbText
  0
ENDSEC
  0
SECTION
  2
OBJECTS
  0
DICTIONARY
  5
19
100
AcDbDictionary
  3
ACAD_GROUP
350
1A
  3
ACAD_MLINESTYLE
350
1B
  0
DICTIONARY
  5
1A
102
{ACAD_REACTORS
330
19
102
}
100
AcDbDictionary
  0
DICTIONARY
  5
1B
102
{ACAD_REACTORS
330
19
102
}
100
AcDbDictionary
  3
STANDARD
350
1C
  0
MLINESTYLE
  5
1C
102
{ACAD_REACTORS
330
1B
102
}
100
AcDbMlineStyle
  2
STANDARD
 70
           0
  3

 62
           0
 51
90.0
 52
90.0
 71
           2
 49
0.5
 62
         256
  6
BYLAYER
 49
-0.5
 62
         256
  6
BYLAYER
  0
ENDSEC
  0
EOF
