  0
SECTION
  2
HEADER
  9
$ACADVER
  1
AC1012
  9
$DWGCODEPAGE
  3
dos850
  9
$INSBASE
 10
0.0
 20
0.0
 30
0.0
  9
$EXTMIN
 10
-14696.198364760545
 20
8.120581780045
 30
0.0
  9
$EXTMAX
 10
-14129.101506311061
 20
148.175736132319
 30
0.0
  9
$LIMMIN
 10
-14696.198364760545
 20
8.120581780045
  9
$LIMMAX
 10
-14129.101506311061
 20
148.175736132319
  9
$ORTHOMODE
 70
           0
  9
$REGENMODE
 70
           1
  9
$FILLMODE
 70
           1
  9
$QTEXTMODE
 70
           0
  9
$MIRRTEXT
 70
           1
  9
$DRAGMODE
 70
           2
  9
$LTSCALE
 40
5.0
  9
$OSMODE
 70
           0
  9
$ATTMODE
 70
           1
  9
$TEXTSIZE
 40
0.2
  9
$TRACEWID
 40
0.05
  9
$TEXTSTYLE
  7
TXT
  9
$CLAYER
  8
0
  9
$CELTYPE
  6
CONTINUOUS
  9
$CECOLOR
 62
         256
  9
$CELTSCALE
 40
1.0
  9
$DELOBJ
 70
           1
  9
$DISPSILH
 70
           0
  9
$DIMSCALE
 40
1.0
  9
$DIMASZ
 40
3.5
  9
$DIMEXO
 40
0.0625
  9
$DIMDLI
 40
0.38
  9
$DIMRND
 40
0.0
  9
$DIMDLE
 40
0.0
  9
$DIMEXE
 40
0.18
  9
$DIMTP
 40
0.0
  9
$DIMTM
 40
0.0
  9
$DIMTXT
 40
3.5
  9
$DIMCEN
 40
0.09
  9
$DIMTSZ
 40
0.0
  9
$DIMTOL
 70
           0
  9
$DIMLIM
 70
           0
  9
$DIMTIH
 70
           1
  9
$DIMTOH
 70
           1
  9
$DIMSE1
 70
           0
  9
$DIMSE2
 70
           0
  9
$DIMTAD
 70
           0
  9
$DIMZIN
 70
           0
  9
$DIMBLK
  1

  9
$DIMASO
 70
           1
  9
$DIMSHO
 70
           1
  9
$DIMPOST
  1

  9
$DIMAPOST
  1

  9
$DIMALT
 70
           0
  9
$DIMALTD
 70
           2
  9
$DIMALTF
 40
25.4
  9
$DIMLFAC
 40
1.0
  9
$DIMTOFL
 70
           0
  9
$DIMTVP
 40
0.0
  9
$DIMTIX
 70
           0
  9
$DIMSOXD
 70
           0
  9
$DIMSAH
 70
           0
  9
$DIMBLK1
  1

  9
$DIMBLK2
  1

  9
$DIMSTYLE
  2
STANDARD
  9
$DIMCLRD
 70
           0
  9
$DIMCLRE
 70
           0
  9
$DIMCLRT
 70
           0
  9
$DIMTFAC
 40
1.0
  9
$DIMGAP
 40
0.09
  9
$DIMJUST
 70
           0
  9
$DIMSD1
 70
           0
  9
$DIMSD2
 70
           0
  9
$DIMTOLJ
 70
           1
  9
$DIMTZIN
 70
           0
  9
$DIMALTZ
 70
           0
  9
$DIMALTTZ
 70
           0
  9
$DIMFIT
 70
           3
  9
$DIMUPT
 70
           0
  9
$DIMUNIT
 70
           2
  9
$DIMDEC
 70
           4
  9
$DIMTDEC
 70
           4
  9
$DIMALTU
 70
           2
  9
$DIMALTTD
 70
           2
  9
$DIMTXSTY
  7
TXT
  9
$DIMAUNIT
 70
           0
  9
$LUNITS
 70
           2
  9
$LUPREC
 70
           3
  9
$SKETCHINC
 40
0.1
  9
$FILLETRAD
 40
0.0
  9
$AUNITS
 70
           0
  9
$AUPREC
 70
           3
  9
$MENU
  1
acad
  9
$ELEVATION
 40
0.0
  9
$PELEVATION
 40
0.0
  9
$THICKNESS
 40
0.0
  9
$LIMCHECK
 70
           0
  9
$BLIPMODE
 70
           1
  9
$CHAMFERA
 40
0.0
  9
$CHAMFERB
 40
0.0
  9
$CHAMFERC
 40
0.0
  9
$CHAMFERD
 40
0.0
  9
$SKPOLY
 70
           0
  9
$TDCREATE
 40
0.000000000
  9
$TDUPDATE
 40
0.000000000
  9
$TDINDWG
 40
0.0000000000
  9
$TDUSRTIMER
 40
0.0000000000
  9
$USRTIMER
 70
           1
  9
$ANGBASE
 50
0.0
  9
$ANGDIR
 70
           0
  9
$PDMODE
 70
           2
  9
$PDSIZE
 40
0.5
  9
$PLINEWID
 40
0.0
  9
$COORDS
 70
           0
  9
$SPLFRAME
 70
           0
  9
$SPLINETYPE
 70
           6
  9
$SPLINESEGS
 70
           8
  9
$ATTDIA
 70
           0
  9
$ATTREQ
 70
           1
  9
$HANDLING
 70
           1
  9
$HANDSEED
  5
3AC
  9
$SURFTAB1
 70
           6
  9
$SURFTAB2
 70
           6
  9
$SURFTYPE
 70
           6
  9
$SURFU
 70
           6
  9
$SURFV
 70
           6
  9
$UCSNAME
  2

  9
$UCSORG
 10
0.0
 20
0.0
 30
0.0
  9
$UCSXDIR
 10
1.0
 20
0.0
 30
0.0
  9
$UCSYDIR
 10
0.0
 20
1.0
 30
0.0
  9
$PUCSNAME
  2

  9
$PUCSORG
 10
0.0
 20
0.0
 30
0.0
  9
$PUCSXDIR
 10
1.0
 20
0.0
 30
0.0
  9
$PUCSYDIR
 10
0.0
 20
1.0
 30
0.0
  9
$USERI1
 70
           0
  9
$USERI2
 70
           0
  9
$USERI3
 70
           0
  9
$USERI4
 70
           0
  9
$USERI5
 70
           0
  9
$USERR1
 40
0.0
  9
$USERR2
 40
0.0
  9
$USERR3
 40
0.0
  9
$USERR4
 40
0.0
  9
$USERR5
 40
0.0
  9
$WORLDVIEW
 70
           1
  9
$SHADEDGE
 70
           3
  9
$SHADEDIF
 70
          70
  9
$TILEMODE
 70
           1
  9
$MAXACTVP
 70
          16
  9
$PINSBASE
 10
0.0
 20
0.0
 30
0.0
  9
$PLIMCHECK
 70
           0
  9
$PEXTMIN
 10
1.000000000000E+20
 20
1.000000000000E+20
 30
1.000000000000E+20
  9
$PEXTMAX
 10
-1.000000000000E+20
 20
-1.000000000000E+20
 30
-1.000000000000E+20
  9
$PLIMMIN
 10
0.0
 20
0.0
  9
$PLIMMAX
 10
12.0
 20
9.0
  9
$UNITMODE
 70
           0
  9
$VISRETAIN
 70
           0
  9
$PLINEGEN
 70
           1
  9
$PSLTSCALE
 70
           0
  9
$TREEDEPTH
 70
        3020
  9
$PICKSTYLE
 70
           1
  9
$CMLSTYLE
  2
STANDARD
  9
$CMLJUST
 70
           0
  9
$CMLSCALE
 40
1.0
  9
$SAVEIMAGES
 70
           0
  0
ENDSEC
  0
SECTION
  2
CLASSES
  0
CLASS
  1
LWPOLYLINE
  2
AcDbPolyline
  3
"AutoCAD"
 90
        0
280
           0
281
           1
  0
CLASS
  1
IMAGE
  2
AcDbRasterImage
  3
ISM
 90
      127
280
           0
281
           1
  0
CLASS
  1
OLE2FRAME
  2
AcDbOle2Frame
  3
""
 90
        0
280
           0
281
           1
  0
CLASS
  1
HATCH
  2
AcDbHatch
  3
"ACAD_SEDONA"
 90
        0
280
           0
281
           1
  0
CLASS
  1
DICTIONARYVAR
  2
AcDbDictionaryVar
  3
"AutoCAD"
 90
        0
280
           0
281
           0
  0
CLASS
  1
RASTERVARIABLES
  2
AcDbRasterVariables
  3
ISM
 90
        0
280
           0
281
           0
  0
CLASS
  1
IMAGEDEF
  2
AcDbRasterImageDef
  3
ISM
 90
        0
280
           0
281
           0
  0
CLASS
  1
IMAGEDEF_REACTOR
  2
AcDbRasterImageDefReactor
  3
ISM
 90
        1
280
           0
281
           0
  0
CLASS
  1
IDBUFFER
  2
AcDbIdBuffer
  3
"Acad"
 90
        0
280
           0
281
           0
  0
CLASS
  1
SPATIAL_FILTER
  2
AcDbSpatialFilter
  3
"Acad"
 90
        0
280
           0
281
           0
  0
CLASS
  1
XRECORD
  2
AcDbXrecord
  3
"<Built In>"
 90
        0
280
           0
281
           0
  0
ENDSEC
  0
SECTION
  2
TABLES
  0
TABLE
  2
VPORT
  5
7
100
AcDbSymbolTable
 70
           1
  0
VPORT
  5
15
100
AcDbSymbolTableRecord
100
AcDbViewportTableRecord
  2
*ACTIVE
 70
           0
 10
0.0
 20
0.0
 11
1.0
 21
1.0
 12
6.591288
 22
4.579184
 13
0.0
 23
0.0
 14
1.0
 24
1.0
 15
0.0
 25
0.0
 16
0.0
 26
0.0
 36
1.0
 17
0.0
 27
0.0
 37
0.0
 40
9.158369
 41
0.688564
 42
50.0
 43
0.0
 44
0.0
 50
0.0
 51
0.0
 71
           0
 72
         100
 73
           1
 74
           1
 75
           0
 76
           0
 77
           0
 78
           0
  0
ENDTAB
  0
TABLE
  2
LTYPE
  5
4
100
AcDbSymbolTable
 70
           5
  0
LTYPE
  5
11
100
AcDbSymbolTableRecord
100
AcDbLinetypeTableRecord
  2
BYBLOCK
 70
           0
  3

 72
          65
 73
           0
 40
0.0
  0
LTYPE
  5
12
100
AcDbSymbolTableRecord
100
AcDbLinetypeTableRecord
  2
BYLAYER
 70
           0
  3

 72
          65
 73
           0
 40
0.0
  0
LTYPE
  5
13
100
AcDbSymbolTableRecord
100
AcDbLinetypeTableRecord
  2
CONTINUOUS
 70
           0
  3
Solid line
 72
          65
 73
           0
 40
0.0
  0
LTYPE
  5
1D
100
AcDbSymbolTableRecord
100
AcDbLinetypeTableRecord
  2
GESTRICHELT
 70
           0
  3

 72
          65
 73
           2
 40
0.75
 49
0.5
 74
           0
 49
-0.25
 74
           0
  0
LTYPE
  5
1E
100
AcDbSymbolTableRecord
100
AcDbLinetypeTableRecord
  2
STRICHPUNKT
 70
           0
  3

 72
          65
 73
           4
 40
1.0
 49
0.5
 74
           0
 49
-0.25
 74
           0
 49
0.0
 74
           0
 49
-0.25
 74
           0
  0
ENDTAB
  0
TABLE
  2
LAYER
  5
2
100
AcDbSymbolTable
 70
           3
  0
LAYER
  5
14
100
AcDbSymbolTableRecord
100
AcDbLayerTableRecord
  2
0
 70
           0
 62
           7
  6
CONTINUOUS
  0
LAYER
  5
20
100
AcDbSymbolTableRecord
100
AcDbLayerTableRecord
  2
FREI
 70
           0
 62
           7
  6
CONTINUOUS
  0
LAYER
  5
21
100
AcDbSymbolTableRecord
100
AcDbLayerTableRecord
  2
Frei
 70
           0
 62
           7
  6
CONTINUOUS
  0
ENDTAB
  0
TABLE
  2
STYLE
  5
3
100
AcDbSymbolTable
 70
           2
  0
STYLE
  5
17
100
AcDbSymbolTableRecord
100
AcDbTextStyleTableRecord
  2
TXT
 70
           0
 40
3.5
 41
1.0
 50
0.0
 71
           0
 42
3.5
  3
TXT
  4

  0
STYLE
  5
1F
100
AcDbSymbolTableRecord
100
AcDbTextStyleTableRecord
  2
GOTHICG
 70
           0
 40
3.5
 41
1.0
 50
0.0
 71
           0
 42
3.5
  3
GOTHICG
  4

  0
ENDTAB
  0
TABLE
  2
VIEW
  5
5
100
AcDbSymbolTable
 70
           0
  0
ENDTAB
  0
TABLE
  2
UCS
  5
6
100
AcDbSymbolTable
 70
           0
  0
ENDTAB
  0
TABLE
  2
APPID
  5
8
100
AcDbSymbolTable
 70
           2
  0
APPID
  5
16
100
AcDbSymbolTableRecord
100
AcDbRegAppTableRecord
  2
ACAD
 70
           0
  0
APPID
  5
22
100
AcDbSymbolTableRecord
100
AcDbRegAppTableRecord
  2
MegaCADPntStyle
 70
           0
  0
ENDTAB
  0
TABLE
  2
DIMSTYLE
  5
9
100
AcDbSymbolTable
 70
           1
  0
DIMSTYLE
105
18
100
AcDbSymbolTableRecord
100
AcDbDimStyleTableRecord
  2
STANDARD
 70
           0
  3

  4

  5

  6

  7

 40
1.0
 41
0.18
 42
0.0625
 43
0.38
 44
0.18
 45
0.0
 46
0.0
 47
0.0
 48
0.0
140
0.18
141
0.09
142
0.0
143
25.4
144
1.0
145
0.0
146
1.0
147
0.09
 71
           0
 72
           0
 73
           1
 74
           1
 75
           0
 76
           0
 77
           0
 78
           0
170
           0
171
           2
172
           0
173
           0
174
           0
175
           0
176
           0
177
           0
178
           0
270
           2
271
           4
272
           4
273
           2
274
           2
340
17
275
           0
280
           0
281
           0
282
           0
283
           1
284
           0
285
           0
286
           0
287
           0
288
           0
  0
ENDTAB
  0
TABLE
  2
BLOCK_RECORD
  5
1
100
AcDbSymbolTable
 70
           3
  0
BLOCK_RECORD
  5
A
100
AcDbSymbolTableRecord
100
AcDbBlockTableRecord
  2
*MODEL_SPACE
  0
BLOCK_RECORD
  5
B
100
AcDbSymbolTableRecord
100
AcDbBlockTableRecord
  2
*PAPER_SPACE
  0
BLOCK_RECORD
  5
23
100
AcDbSymbolTableRecord
100
AcDbBlockTableRecord
  2
ELIPPSE
  0
BLOCK_RECORD
  5
24
100
AcDbSymbolTableRecord
100
AcDbBlockTableRecord
  2
MAK1
  0
BLOCK_RECORD
  5
25
100
AcDbSymbolTableRecord
100
AcDbBlockTableRecord
  2
MAK2
  0
ENDTAB
  0
ENDSEC
  0
SECTION
  2
BLOCKS
  0
BLOCK
  5
D
100
AcDbEntity
  8
0
100
AcDbBlockBegin
  2
*MODEL_SPACE
 70
           0
 10
0.0
 20
0.0
 30
0.0
  3
*MODEL_SPACE
  1

  0
ENDBLK
  5
E
100
AcDbEntity
  8
0
100
AcDbBlockEnd
  0
BLOCK
  5
F
100
AcDbEntity
 67
           1
  8
0
100
AcDbBlockBegin
  2
*PAPER_SPACE
 70
           0
 10
0.0
 20
0.0
 30
0.0
  3
*PAPER_SPACE
  1

  0
ENDBLK
  5
10
100
AcDbEntity
 67
           1
  8
0
100
AcDbBlockEnd
  0
BLOCK
  5
350
100
AcDbEntity
  8
0
100
AcDbBlockBegin
  2
ELIPPSE
 70
          64
 10
0.0
 20
0.0
 30
0.0
  3
ELIPPSE
  1

  0
CIRCLE
  5
351
100
AcDbEntity
  8
0
  6
BYBLOCK
 62
           0
100
AcDbCircle
 10
0.0
 20
0.0
 30
0.0
 40
1.0
  0
ENDBLK
  5
352
100
AcDbEntity
  8
0
  6
BYBLOCK
 62
           0
100
AcDbBlockEnd
  0
BLOCK
  5
353
100
AcDbEntity
  8
0
100
AcDbBlockBegin
  2
MAK1
 70
          64
 10
0.0
 20
0.0
 30
0.0
  3
MAK1
  1

  0
LINE
  5
354
100
AcDbEntity
  8
Frei
  6
CONTINUOUS
 62
           2
100
AcDbLine
 10
191.903508353415
 20
615.10691689356
 30
0.0
 11
192.293358480832
 21
615.496767020979
 31
0.0
  0
LINE
  5
355
100
AcDbEntity
  8
Frei
  6
CONTINUOUS
 62
           2
100
AcDbLine
 10
191.903508353415
 20
614.04625672178
 30
0.0
 11
193.354018652612
 21
615.496767020978
 31
0.0
  0
LINE
  5
356
100
AcDbEntity
  8
Frei
  6
CONTINUOUS
 62
           2
100
AcDbLine
 10
191.903508353415
 20
612.98559655
 30
0.0
 11
193.903508353415
 21
614.98559655
 31
0.0
  0
LINE
  5
357
100
AcDbEntity
  8
Frei
  6
CONTINUOUS
 62
           2
100
AcDbLine
 10
191.903508353416
 20
611.924936378221
 30
0.0
 11
193.903508353415
 21
613.92493637822
 31
0.0
  0
LINE
  5
358
100
AcDbEntity
  8
Frei
  6
CONTINUOUS
 62
           2
100
AcDbLine
 10
191.903508353413
 20
610.864276206441
 30
0.0
 11
193.903508353416
 21
612.864276206441
 31
0.0
  0
LINE
  5
359
100
AcDbEntity
  8
Frei
  6
CONTINUOUS
 62
           2
100
AcDbLine
 10
191.903508353415
 20
609.803616034661
 30
0.0
 11
193.903508353415
 21
611.803616034661
 31
0.0
  0
LINE
  5
35A
100
AcDbEntity
  8
Frei
  6
CONTINUOUS
 62
           2
100
AcDbLine
 10
191.903508353415
 20
608.742955862881
 30
0.0
 11
193.903508353416
 21
610.742955862881
 31
0.0
  0
LINE
  5
35B
100
AcDbEntity
  8
Frei
  6
CONTINUOUS
 62
           2
100
AcDbLine
 10
191.903508353413
 20
607.682295691101
 30
0.0
 11
193.903508353416
 21
609.682295691101
 31
0.0
  0
LINE
  5
35C
100
AcDbEntity
  8
Frei
  6
CONTINUOUS
 62
           2
100
AcDbLine
 10
191.903508353415
 20
606.621635519322
 30
0.0
 11
193.903508353415
 21
608.621635519321
 31
0.0
  0
LINE
  5
35D
100
AcDbEntity
  8
Frei
  6
CONTINUOUS
 62
           2
100
AcDbLine
 10
191.903508353415
 20
605.560975347542
 30
0.0
 11
193.903508353416
 21
607.560975347541
 31
0.0
  0
LINE
  5
35E
100
AcDbEntity
  8
Frei
  6
CONTINUOUS
 62
           2
100
AcDbLine
 10
191.903508353415
 20
604.500315175762
 30
0.0
 11
193.903508353415
 21
606.500315175762
 31
0.0
  0
LINE
  5
35F
100
AcDbEntity
  8
Frei
  6
CONTINUOUS
 62
           2
100
AcDbLine
 10
191.903508353415
 20
603.439655003982
 30
0.0
 11
193.903508353415
 21
605.439655003982
 31
0.0
  0
LINE
  5
360
100
AcDbEntity
  8
Frei
  6
CONTINUOUS
 62
           2
100
AcDbLine
 10
191.903508353416
 20
602.378994832203
 30
0.0
 11
193.903508353415
 21
604.378994832202
 31
0.0
  0
LINE
  5
361
100
AcDbEntity
  8
Frei
  6
CONTINUOUS
 62
           2
100
AcDbLine
 10
191.903508353413
 20
601.318334660423
 30
0.0
 11
193.903508353415
 21
603.318334660423
 31
0.0
  0
LINE
  5
362
100
AcDbEntity
  8
Frei
  6
CONTINUOUS
 62
           2
100
AcDbLine
 10
191.903508353415
 20
600.257674488643
 30
0.0
 11
193.903508353415
 21
602.257674488643
 31
0.0
  0
LINE
  5
363
100
AcDbEntity
  8
Frei
  6
CONTINUOUS
 62
           2
100
AcDbLine
 10
191.903508353413
 20
599.197014316863
 30
0.0
 11
193.903508353416
 21
601.197014316863
 31
0.0
  0
LINE
  5
364
100
AcDbEntity
  8
Frei
  6
CONTINUOUS
 62
           2
100
AcDbLine
 10
191.903508353415
 20
598.136354145083
 30
0.0
 11
193.903508353415
 21
600.136354145083
 31
0.0
  0
LINE
  5
365
100
AcDbEntity
  8
Frei
  6
CONTINUOUS
 62
           2
100
AcDbLine
 10
191.903508353415
 20
597.075693973303
 30
0.0
 11
193.903508353416
 21
599.075693973303
 31
0.0
  0
LINE
  5
366
100
AcDbEntity
  8
Frei
  6
CONTINUOUS
 62
           2
100
AcDbLine
 10
191.903508353415
 20
596.015033801524
 30
0.0
 11
193.903508353416
 21
598.015033801524
 31
0.0
  0
LINE
  5
367
100
AcDbEntity
  8
Frei
  6
CONTINUOUS
 62
           2
100
AcDbLine
 10
192.445901744648
 20
595.496767020978
 30
0.0
 11
193.903508353416
 21
596.954373629744
 31
0.0
  0
LINE
  5
368
100
AcDbEntity
  8
Frei
  6
CONTINUOUS
 62
           2
100
AcDbLine
 10
193.506561916431
 20
595.496767020978
 30
0.0
 11
193.903508353415
 21
595.893713457964
 31
0.0
  0
LINE
  5
369
100
AcDbEntity
  8
Frei
  6
CONTINUOUS
 62
           2
100
AcDbLine
 10
192.573740611431
 20
595.496767020978
 30
0.0
 11
191.903508353413
 21
596.166999278996
 31
0.0
  0
LINE
  5
36A
100
AcDbEntity
  8
Frei
  6
CONTINUOUS
 62
           2
100
AcDbLine
 10
193.63440078321
 20
595.496767020978
 30
0.0
 11
191.903508353415
 21
597.227659450776
 31
0.0
  0
LINE
  5
36B
100
AcDbEntity
  8
Frei
  6
CONTINUOUS
 62
           2
100
AcDbLine
 10
193.903508353415
 20
596.288319622556
 30
0.0
 11
191.903508353413
 21
598.288319622556
 31
0.0
  0
LINE
  5
36C
100
AcDbEntity
  8
Frei
  6
CONTINUOUS
 62
           2
100
AcDbLine
 10
193.903508353415
 20
597.348979794336
 30
0.0
 11
191.903508353415
 21
599.348979794336
 31
0.0
  0
LINE
  5
36D
100
AcDbEntity
  8
Frei
  6
CONTINUOUS
 62
           2
100
AcDbLine
 10
193.903508353416
 20
598.409639966116
 30
0.0
 11
191.903508353415
 21
600.409639966115
 31
0.0
  0
LINE
  5
36E
100
AcDbEntity
  8
Frei
  6
CONTINUOUS
 62
           2
100
AcDbLine
 10
193.903508353415
 20
599.470300137896
 30
0.0
 11
191.903508353415
 21
601.470300137896
 31
0.0
  0
LINE
  5
36F
100
AcDbEntity
  8
Frei
  6
CONTINUOUS
 62
           2
100
AcDbLine
 10
193.903508353416
 20
600.530960309675
 30
0.0
 11
191.903508353415
 21
602.530960309675
 31
0.0
  0
LINE
  5
370
100
AcDbEntity
  8
Frei
  6
CONTINUOUS
 62
           2
100
AcDbLine
 10
193.903508353415
 20
601.591620481455
 30
0.0
 11
191.903508353415
 21
603.591620481455
 31
0.0
  0
LINE
  5
371
100
AcDbEntity
  8
Frei
  6
CONTINUOUS
 62
           2
100
AcDbLine
 10
193.903508353416
 20
602.652280653235
 30
0.0
 11
191.903508353413
 21
604.652280653235
 31
0.0
  0
LINE
  5
372
100
AcDbEntity
  8
Frei
  6
CONTINUOUS
 62
           2
100
AcDbLine
 10
193.903508353415
 20
603.712940825015
 30
0.0
 11
191.903508353415
 21
605.712940825015
 31
0.0
  0
LINE
  5
373
100
AcDbEntity
  8
Frei
  6
CONTINUOUS
 62
           2
100
AcDbLine
 10
193.903508353415
 20
604.773600996795
 30
0.0
 11
191.903508353415
 21
606.773600996795
 31
0.0
  0
LINE
  5
374
100
AcDbEntity
  8
Frei
  6
CONTINUOUS
 62
           2
100
AcDbLine
 10
193.903508353416
 20
605.834261168574
 30
0.0
 11
191.903508353413
 21
607.834261168574
 31
0.0
  0
LINE
  5
375
100
AcDbEntity
  8
Frei
  6
CONTINUOUS
 62
           2
100
AcDbLine
 10
193.903508353415
 20
606.894921340354
 30
0.0
 11
191.903508353416
 21
608.894921340354
 31
0.0
  0
LINE
  5
376
100
AcDbEntity
  8
Frei
  6
CONTINUOUS
 62
           2
100
AcDbLine
 10
193.903508353416
 20
607.955581512134
 30
0.0
 11
191.903508353415
 21
609.955581512133
 31
0.0
  0
LINE
  5
377
100
AcDbEntity
  8
Frei
  6
CONTINUOUS
 62
           2
100
AcDbLine
 10
193.903508353416
 20
609.016241683913
 30
0.0
 11
191.903508353415
 21
611.016241683913
 31
0.0
  0
LINE
  5
378
100
AcDbEntity
  8
Frei
  6
CONTINUOUS
 62
           2
100
AcDbLine
 10
193.903508353416
 20
610.076901855693
 30
0.0
 11
191.903508353415
 21
612.076901855693
 31
0.0
  0
LINE
  5
379
100
AcDbEntity
  8
Frei
  6
CONTINUOUS
 62
           2
100
AcDbLine
 10
193.903508353415
 20
611.137562027473
 30
0.0
 11
191.903508353415
 21
613.137562027473
 31
0.0
  0
LINE
  5
37A
100
AcDbEntity
  8
Frei
  6
CONTINUOUS
 62
           2
100
AcDbLine
 10
193.903508353416
 20
612.198222199253
 30
0.0
 11
191.903508353413
 21
614.198222199253
 31
0.0
  0
LINE
  5
37B
100
AcDbEntity
  8
Frei
  6
CONTINUOUS
 62
           2
100
AcDbLine
 10
193.903508353415
 20
613.258882371032
 30
0.0
 11
191.903508353415
 21
615.258882371032
 31
0.0
  0
LINE
  5
37C
100
AcDbEntity
  8
Frei
  6
CONTINUOUS
 62
           2
100
AcDbLine
 10
193.903508353415
 20
614.319542542812
 30
0.0
 11
192.726283875249
 21
615.496767020978
 31
0.0
  0
LINE
  5
37D
100
AcDbEntity
  8
Frei
  6
CONTINUOUS
 62
           2
100
AcDbLine
 10
193.903508353415
 20
615.380202714592
 30
0.0
 11
193.786944047029
 21
615.496767020978
 31
0.0
  0
ENDBLK
  5
37E
100
AcDbEntity
  8
0
  6
BYBLOCK
 62
           0
100
AcDbBlockEnd
  0
BLOCK
  5
37F
100
AcDbEntity
  8
0
100
AcDbBlockBegin
  2
MAK2
 70
          64
 10
0.0
 20
0.0
 30
0.0
  3
MAK2
  1

  0
LINE
  5
380
100
AcDbEntity
  8
Frei
  6
CONTINUOUS
 62
           2
100
AcDbLine
 10
-32.096491646585
 20
614.906213139102
 30
0.0
 11
-31.50593776471
 21
615.496767020978
 31
0.0
  0
LINE
  5
381
100
AcDbEntity
  8
Frei
  6
CONTINUOUS
 62
           2
100
AcDbLine
 10
-32.096491646585
 20
613.845552967322
 30
0.0
 11
-30.445277592931
 21
615.496767020978
 31
0.0
  0
LINE
  5
382
100
AcDbEntity
  8
Frei
  6
CONTINUOUS
 62
           2
100
AcDbLine
 10
-32.096491646587
 20
612.784892795542
 30
0.0
 11
-30.096491646587
 21
614.784892795542
 31
0.0
  0
LINE
  5
383
100
AcDbEntity
  8
Frei
  6
CONTINUOUS
 62
           2
100
AcDbLine
 10
-32.096491646587
 20
611.724232623762
 30
0.0
 11
-30.096491646587
 21
613.724232623762
 31
0.0
  0
LINE
  5
384
100
AcDbEntity
  8
Frei
  6
CONTINUOUS
 62
           2
100
AcDbLine
 10
-32.096491646585
 20
610.663572451983
 30
0.0
 11
-30.096491646587
 21
612.663572451982
 31
0.0
  0
LINE
  5
385
100
AcDbEntity
  8
Frei
  6
CONTINUOUS
 62
           2
100
AcDbLine
 10
-32.096491646587
 20
609.602912280203
 30
0.0
 11
-30.096491646587
 21
611.602912280203
 31
0.0
  0
LINE
  5
386
100
AcDbEntity
  8
Frei
  6
CONTINUOUS
 62
           2
100
AcDbLine
 10
-32.096491646585
 20
608.542252108423
 30
0.0
 11
-30.096491646587
 21
610.542252108423
 31
0.0
  0
LINE
  5
387
100
AcDbEntity
  8
Frei
  6
CONTINUOUS
 62
           2
100
AcDbLine
 10
-32.096491646587
 20
607.481591936643
 30
0.0
 11
-30.096491646585
 21
609.481591936643
 31
0.0
  0
LINE
  5
388
100
AcDbEntity
  8
Frei
  6
CONTINUOUS
 62
           2
100
AcDbLine
 10
-32.096491646585
 20
606.420931764864
 30
0.0
 11
-30.096491646587
 21
608.420931764864
 31
0.0
  0
LINE
  5
389
100
AcDbEntity
  8
Frei
  6
CONTINUOUS
 62
           2
100
AcDbLine
 10
-32.096491646585
 20
605.360271593084
 30
0.0
 11
-30.096491646587
 21
607.360271593084
 31
0.0
  0
LINE
  5
38A
100
AcDbEntity
  8
Frei
  6
CONTINUOUS
 62
           2
100
AcDbLine
 10
-32.096491646585
 20
604.299611421304
 30
0.0
 11
-30.096491646587
 21
606.299611421304
 31
0.0
  0
LINE
  5
38B
100
AcDbEntity
  8
Frei
  6
CONTINUOUS
 62
           2
100
AcDbLine
 10
-32.096491646587
 20
603.238951249524
 30
0.0
 11
-30.096491646587
 21
605.238951249524
 31
0.0
  0
LINE
  5
38C
100
AcDbEntity
  8
Frei
  6
CONTINUOUS
 62
           2
100
AcDbLine
 10
-32.096491646585
 20
602.178291077744
 30
0.0
 11
-30.096491646587
 21
604.178291077744
 31
0.0
  0
LINE
  5
38D
100
AcDbEntity
  8
Frei
  6
CONTINUOUS
 62
           2
100
AcDbLine
 10
-32.096491646587
 20
601.117630905965
 30
0.0
 11
-30.096491646585
 21
603.117630905965
 31
0.0
  0
LINE
  5
38E
100
AcDbEntity
  8
Frei
  6
CONTINUOUS
 62
           2
100
AcDbLine
 10
-32.096491646585
 20
600.056970734185
 30
0.0
 11
-30.096491646587
 21
602.056970734185
 31
0.0
  0
LINE
  5
38F
100
AcDbEntity
  8
Frei
  6
CONTINUOUS
 62
           2
100
AcDbLine
 10
-32.096491646585
 20
598.996310562405
 30
0.0
 11
-30.096491646585
 21
600.996310562405
 31
0.0
  0
LINE
  5
390
100
AcDbEntity
  8
Frei
  6
CONTINUOUS
 62
           2
100
AcDbLine
 10
-32.096491646587
 20
597.935650390625
 30
0.0
 11
-30.096491646585
 21
599.935650390625
 31
0.0
  0
LINE
  5
391
100
AcDbEntity
  8
Frei
  6
CONTINUOUS
 62
           2
100
AcDbLine
 10
-32.096491646585
 20
596.874990218846
 30
0.0
 11
-30.096491646585
 21
598.874990218846
 31
0.0
  0
LINE
  5
392
100
AcDbEntity
  8
Frei
  6
CONTINUOUS
 62
           2
100
AcDbLine
 10
-32.096491646585
 20
595.814330047066
 30
0.0
 11
-30.096491646587
 21
597.814330047066
 31
0.0
  0
LINE
  5
393
100
AcDbEntity
  8
Frei
  6
CONTINUOUS
 62
           2
100
AcDbLine
 10
-31.353394500895
 20
595.496767020978
 30
0.0
 11
-30.096491646589
 21
596.753669875286
 31
0.0
  0
LINE
  5
394
100
AcDbEntity
  8
Frei
  6
CONTINUOUS
 62
           2
100
AcDbLine
 10
-30.292734329114
 20
595.496767020978
 30
0.0
 11
-30.096491646587
 21
595.693009703506
 31
0.0
  0
LINE
  5
395
100
AcDbEntity
  8
Frei
  6
CONTINUOUS
 62
           2
100
AcDbLine
 10
-31.225555634112
 20
595.496767020979
 30
0.0
 11
-32.096491646587
 21
596.367703033455
 31
0.0
  0
LINE
  5
396
100
AcDbEntity
  8
Frei
  6
CONTINUOUS
 62
           2
100
AcDbLine
 10
-30.164895462329
 20
595.496767020978
 30
0.0
 11
-32.096491646585
 21
597.428363205234
 31
0.0
  0
LINE
  5
397
100
AcDbEntity
  8
Frei
  6
CONTINUOUS
 62
           2
100
AcDbLine
 10
-30.096491646587
 20
596.489023377014
 30
0.0
 11
-32.096491646587
 21
598.489023377014
 31
0.0
  0
LINE
  5
398
100
AcDbEntity
  8
Frei
  6
CONTINUOUS
 62
           2
100
AcDbLine
 10
-30.096491646587
 20
597.549683548794
 30
0.0
 11
-32.096491646587
 21
599.549683548794
 31
0.0
  0
LINE
  5
399
100
AcDbEntity
  8
Frei
  6
CONTINUOUS
 62
           2
100
AcDbLine
 10
-30.096491646587
 20
598.610343720574
 30
0.0
 11
-32.096491646585
 21
600.610343720574
 31
0.0
  0
LINE
  5
39A
100
AcDbEntity
  8
Frei
  6
CONTINUOUS
 62
           2
100
AcDbLine
 10
-30.096491646589
 20
599.671003892353
 30
0.0
 11
-32.096491646587
 21
601.671003892353
 31
0.0
  0
LINE
  5
39B
100
AcDbEntity
  8
Frei
  6
CONTINUOUS
 62
           2
100
AcDbLine
 10
-30.096491646587
 20
600.731664064133
 30
0.0
 11
-32.096491646584
 21
602.731664064133
 31
0.0
  0
LINE
  5
39C
100
AcDbEntity
  8
Frei
  6
CONTINUOUS
 62
           2
100
AcDbLine
 10
-30.096491646587
 20
601.792324235913
 30
0.0
 11
-32.096491646585
 21
603.792324235913
 31
0.0
  0
LINE
  5
39D
100
AcDbEntity
  8
Frei
  6
CONTINUOUS
 62
           2
100
AcDbLine
 10
-30.096491646585
 20
602.852984407693
 30
0.0
 11
-32.096491646585
 21
604.852984407693
 31
0.0
  0
LINE
  5
39E
100
AcDbEntity
  8
Frei
  6
CONTINUOUS
 62
           2
100
AcDbLine
 10
-30.096491646585
 20
603.913644579473
 30
0.0
 11
-32.096491646585
 21
605.913644579473
 31
0.0
  0
LINE
  5
39F
100
AcDbEntity
  8
Frei
  6
CONTINUOUS
 62
           2
100
AcDbLine
 10
-30.096491646587
 20
604.974304751252
 30
0.0
 11
-32.096491646585
 21
606.974304751252
 31
0.0
  0
LINE
  5
3A0
100
AcDbEntity
  8
Frei
  6
CONTINUOUS
 62
           2
100
AcDbLine
 10
-30.096491646585
 20
606.034964923032
 30
0.0
 11
-32.096491646587
 21
608.034964923032
 31
0.0
  0
LINE
  5
3A1
100
AcDbEntity
  8
Frei
  6
CONTINUOUS
 62
           2
100
AcDbLine
 10
-30.096491646587
 20
607.095625094812
 30
0.0
 11
-32.096491646585
 21
609.095625094812
 31
0.0
  0
LINE
  5
3A2
100
AcDbEntity
  8
Frei
  6
CONTINUOUS
 62
           2
100
AcDbLine
 10
-30.096491646587
 20
608.156285266592
 30
0.0
 11
-32.096491646587
 21
610.156285266592
 31
0.0
  0
LINE
  5
3A3
100
AcDbEntity
  8
Frei
  6
CONTINUOUS
 62
           2
100
AcDbLine
 10
-30.096491646587
 20
609.216945438371
 30
0.0
 11
-32.096491646587
 21
611.216945438372
 31
0.0
  0
LINE
  5
3A4
100
AcDbEntity
  8
Frei
  6
CONTINUOUS
 62
           2
100
AcDbLine
 10
-30.096491646587
 20
610.277605610151
 30
0.0
 11
-32.096491646585
 21
612.277605610151
 31
0.0
  0
LINE
  5
3A5
100
AcDbEntity
  8
Frei
  6
CONTINUOUS
 62
           2
100
AcDbLine
 10
-30.096491646587
 20
611.338265781931
 30
0.0
 11
-32.096491646585
 21
613.338265781931
 31
0.0
  0
LINE
  5
3A6
100
AcDbEntity
  8
Frei
  6
CONTINUOUS
 62
           2
100
AcDbLine
 10
-30.096491646585
 20
612.398925953711
 30
0.0
 11
-32.096491646587
 21
614.398925953711
 31
0.0
  0
LINE
  5
3A7
100
AcDbEntity
  8
Frei
  6
CONTINUOUS
 62
           2
100
AcDbLine
 10
-30.096491646587
 20
613.45958612549
 30
0.0
 11
-32.096491646585
 21
615.459586125491
 31
0.0
  0
LINE
  5
3A8
100
AcDbEntity
  8
Frei
  6
CONTINUOUS
 62
           2
100
AcDbLine
 10
-30.096491646587
 20
614.52024629727
 30
0.0
 11
-31.073012370294
 21
615.496767020978
 31
0.0
  0
ENDBLK
  5
3A9
100
AcDbEntity
  8
0
  6
BYBLOCK
 62
           0
100
AcDbBlockEnd
  0
ENDSEC
  0
SECTION
  2
ENTITIES
  0
INSERT
  5
26
100
AcDbEntity
  8
FREI
  6
CONTINUOUS
 62
           7
100
AcDbBlockReference
  2
MAK1
 10
-14457.174304366077
 20
-490.171262313739
 30
0.0
 50
353.682999999999
  0
INSERT
  5
27
100
AcDbEntity
  8
FREI
  6
CONTINUOUS
 62
           7
100
AcDbBlockReference
  2
MAK2
 10
-14457.174304366077
 20
-490.171262313739
 30
0.0
 50
353.682999999999
  0
LINE
  5
28
100
AcDbEntity
  8
FREI
  6
STRICHPUNKT
 62
          15
100
AcDbLine
 10
-14611.99036131106
 20
139.473122158489
 30
0.0
 11
-14611.99036131106
 21
114.473122158489
 31
0.0
  0
LINE
  5
29
100
AcDbEntity
  8
FREI
  6
STRICHPUNKT
 62
          15
100
AcDbLine
 10
-14611.99036131106
 20
114.473122158489
 30
0.0
 11
-14661.99036131106
 21
27.870581780045
 31
0.0
  0
LINE
  5
2A
100
AcDbEntity
  8
FREI
  6
CONTINUOUS
 62
          15
100
AcDbLine
 10
-14657.601032577038
 20
114.473122158489
 30
0.0
 11
-14696.198364760545
 21
47.620581780045
 31
0.0
  0
LINE
  5
2B
100
AcDbEntity
  8
FREI
  6
CONTINUOUS
 62
          15
100
AcDbLine
 10
-14611.99036131106
 20
35.473122158489
 30
0.0
 11
-14627.782357861573
 21
8.120581780045
 31
0.0
  0
LINE
  5
2C
100
AcDbEntity
  8
FREI
  6
STRICHPUNKT
 62
          15
100
AcDbLine
 10
-14611.99036131106
 20
114.473122158489
 30
0.0
 11
-14561.99036131106
 21
27.870581780045
 31
0.0
  0
LINE
  5
2D
100
AcDbEntity
  8
FREI
  6
CONTINUOUS
 62
          15
100
AcDbLine
 10
-14536.742376226677
 20
63.139788825155
 30
0.0
 11
-14527.782357861573
 21
47.620581780045
 31
0.0
  0
LINE
  5
2E
100
AcDbEntity
  8
FREI
  6
GESTRICHELT
 62
          15
100
AcDbLine
 10
-14566.379690045078
 20
114.473122158489
 30
0.0
 11
-14536.742376226677
 21
63.139788825155
 31
0.0
  0
LINE
  5
2F
100
AcDbEntity
  8
FREI
  6
CONTINUOUS
 62
          15
100
AcDbLine
 10
-14611.99036131106
 20
35.473122158489
 30
0.0
 11
-14596.198364760545
 21
8.120581780045
 31
0.0
  0
LINE
  5
30
100
AcDbEntity
  8
FREI
  6
CONTINUOUS
 62
          15
100
AcDbLine
 10
-14651.49036131106
 20
139.473122158489
 30
0.0
 11
-14572.49036131106
 21
139.473122158489
 31
0.0
  0
LINE
  5
31
100
AcDbEntity
  8
FREI
  6
CONTINUOUS
 62
          15
100
AcDbLine
 10
-14696.198364760545
 20
47.620581780045
 30
0.0
 11
-14627.782357861573
 21
8.120581780045
 31
0.0
  0
LINE
  5
32
100
AcDbEntity
  8
FREI
  6
CONTINUOUS
 62
          15
100
AcDbLine
 10
-14596.198364760545
 20
8.120581780045
 30
0.0
 11
-14527.782357861573
 21
47.620581780045
 31
0.0
  0
LINE
  5
33
100
AcDbEntity
  8
FREI
  6
CONTINUOUS
 62
          15
100
AcDbLine
 10
-14646.990392311061
 20
114.473122158489
 30
0.0
 11
-14657.601032577038
 21
114.473122158489
 31
0.0
  0
LINE
  5
34
100
AcDbEntity
  8
FREI
  6
GESTRICHELT
 62
          15
100
AcDbLine
 10
-14566.379690045078
 20
114.473122158489
 30
0.0
 11
-14646.990392311061
 21
114.473122158489
 31
0.0
  0
LINE
  5
35
100
AcDbEntity
  8
FREI
  6
CONTINUOUS
 62
          15
100
AcDbLine
 10
-14657.601032577038
 20
114.473122158489
 30
0.0
 11
-14651.49036131106
 21
139.473122158489
 31
0.0
  0
LINE
  5
36
100
AcDbEntity
  8
FREI
  6
GESTRICHELT
 62
          15
100
AcDbLine
 10
-14570.942324590345
 20
133.139788825156
 30
0.0
 11
-14566.379690045078
 21
114.473122158489
 31
0.0
  0
LINE
  5
37
100
AcDbEntity
  8
FREI
  6
CONTINUOUS
 62
          15
100
AcDbLine
 10
-14572.49036131106
 20
139.473122158489
 30
0.0
 11
-14570.942324590345
 21
133.139788825156
 31
0.0
  0
LINE
  5
38
100
AcDbEntity
  8
FREI
  6
CONTINUOUS
 62
          15
100
AcDbLine
 10
-14611.99036131106
 20
63.139788825156
 30
0.0
 11
-14611.99036131106
 21
35.473122158489
 31
0.0
  0
LINE
  5
39
100
AcDbEntity
  8
FREI
  6
GESTRICHELT
 62
          15
100
AcDbLine
 10
-14611.99036131106
 20
82.556108282651
 30
0.0
 11
-14611.99036131106
 21
63.139788825156
 31
0.0
  0
LINE
  5
3A
100
AcDbEntity
  8
FREI
  6
GESTRICHELT
 62
          15
100
AcDbLine
 10
-14611.99036131106
 20
114.473122158489
 30
0.0
 11
-14611.99036131106
 21
93.72346936766
 31
0.0
  0
CIRCLE
  5
3B
100
AcDbEntity
  8
FREI
  6
CONTINUOUS
 62
          15
100
AcDbCircle
 10
-14611.99036131106
 20
88.139788825155
 30
0.0
 40
5.583680542505
  0
ARC
  5
3C
100
AcDbEntity
  8
FREI
  6
CONTINUOUS
 62
          15
100
AcDbCircle
 10
-14611.99036131106
 20
88.139788825155
 30
0.0
 40
17.25
100
AcDbArc
 50
119.192990506928
 51
300.807009493073
  0
LINE
  5
3D
100
AcDbEntity
  8
FREI
  6
CONTINUOUS
 62
          15
100
AcDbLine
 10
-14548.009670995423
 20
143.880685183489
 30
0.0
 11
-14620.404098203109
 21
103.19872409666
 31
0.0
  0
LINE
  5
3E
100
AcDbEntity
  8
FREI
  6
GESTRICHELT
 62
          15
100
AcDbLine
 10
-14547.278099636131
 20
144.291790826823
 30
0.0
 11
-14548.009670995423
 21
143.880685183489
 31
0.0
  0
LINE
  5
3F
100
AcDbEntity
  8
FREI
  6
CONTINUOUS
 62
          15
100
AcDbLine
 10
-14545.438160614342
 20
145.32574234179
 30
0.0
 11
-14547.278099636131
 21
144.291790826823
 31
0.0
  0
LINE
  5
40
100
AcDbEntity
  8
FREI
  6
CONTINUOUS
 62
          15
100
AcDbLine
 10
-14599.112642466864
 20
75.734692891658
 30
0.0
 11
-14603.155809258016
 21
73.323811300129
 31
0.0
  0
ARC
  5
41
100
AcDbEntity
  8
FREI
  6
CONTINUOUS
 62
          15
100
AcDbCircle
 10
-14537.512176585598
 20
131.139788825155
 30
0.0
 40
16.25
100
AcDbArc
 50
41.271034922086
 51
119.192990506929
  0
ARC
  5
42
100
AcDbEntity
  8
FREI
  6
GESTRICHELT
 62
          15
100
AcDbCircle
 10
-14537.512176585598
 20
131.139788825155
 30
0.0
 40
16.25
100
AcDbArc
 50
306.069978667634
 51
41.271034922086
  0
ARC
  5
43
100
AcDbEntity
  8
FREI
  6
CONTINUOUS
 62
          15
100
AcDbCircle
 10
-14537.512176585598
 20
131.139788825155
 30
0.0
 40
16.25
100
AcDbArc
 50
221.296021332365
 51
306.069978667634
  0
ARC
  5
44
100
AcDbEntity
  8
FREI
  6
GESTRICHELT
 62
          15
100
AcDbCircle
 10
-14537.512176585598
 20
131.139788825155
 30
0.0
 40
16.25
100
AcDbArc
 50
217.634979203191
 51
221.296021332365
  0
LINE
  5
45
100
AcDbEntity
  8
FREI
  6
CONTINUOUS
 62
          15
100
AcDbLine
 10
-14558.084796257286
 20
121.477474875502
 30
0.0
 11
-14596.054843826381
 21
78.57045670854
 31
0.0
  0
ARC
  5
46
100
AcDbEntity
  8
FREI
  6
CONTINUOUS
 62
          15
100
AcDbCircle
 10
-14604.234121917912
 20
84.323665369945
 30
0.0
 40
10.000000000014
100
AcDbArc
 50
300.807009493082
 51
324.877894256036
  0
ARC
  5
47
100
AcDbEntity
  8
FREI
  6
CONTINUOUS
 62
          15
100
AcDbCircle
 10
-14554.340412851008
 20
118.163927998393
 30
0.0
 40
5.0
100
AcDbArc
 50
46.128970107972
 51
138.493166028592
  0
ARC
  5
48
100
AcDbEntity
  8
FREI
  6
GESTRICHELT
 62
          15
100
AcDbCircle
 10
-14554.340412851008
 20
118.163927998393
 30
0.0
 40
5.0
100
AcDbArc
 50
37.634979203188
 51
46.128970107972
  0
LINE
  5
49
100
AcDbEntity
  8
Frei
  6
GESTRICHELT
 62
           7
100
AcDbLine
 10
-14166.594544733985
 20
90.076660712782
 30
0.0
 11
-14164.669033376831
 21
107.47040688816
 31
0.0
  0
LINE
  5
4A
100
AcDbEntity
  8
Frei
  6
GESTRICHELT
 62
           7
100
AcDbLine
 10
-14164.669033376831
 20
107.47040688816
 30
0.0
 11
-14168.644746788346
 21
107.910523769795
 31
0.0
  0
LINE
  5
4B
100
AcDbEntity
  8
Frei
  6
CONTINUOUS
 62
           7
100
AcDbLine
 10
-14168.644746788346
 20
107.910523769795
 30
0.0
 11
-14167.599469194463
 21
117.352843122143
 31
0.0
  0
LINE
  5
4C
100
AcDbEntity
  8
Frei
  6
CONTINUOUS
 62
           7
100
AcDbLine
 10
-14167.599469194463
 20
117.352843122143
 30
0.0
 11
-14197.019748439674
 21
120.609708046243
 31
0.0
  0
LINE
  5
4D
100
AcDbEntity
  8
Frei
  6
CONTINUOUS
 62
           7
100
AcDbLine
 10
-14197.019748439674
 20
120.609708046243
 30
0.0
 11
-14197.074763049879
 21
120.112743869803
 31
0.0
  0
LINE
  5
4E
100
AcDbEntity
  8
Frei
  6
CONTINUOUS
 62
           7
100
AcDbLine
 10
-14197.074763049879
 20
120.112743869803
 30
0.0
 11
-14416.67030507633
 21
144.42190703178
 31
0.0
  0
LINE
  5
4F
100
AcDbEntity
  8
Frei
  6
CONTINUOUS
 62
           7
100
AcDbLine
 10
-14416.67030507633
 20
144.42190703178
 30
0.0
 11
-14416.615290466125
 21
144.918871208219
 31
0.0
  0
LINE
  5
50
100
AcDbEntity
  8
Frei
  6
CONTINUOUS
 62
           7
100
AcDbLine
 10
-14416.615290466125
 20
144.918871208219
 30
0.0
 11
-14446.035569711335
 21
148.175736132319
 31
0.0
  0
LINE
  5
51
100
AcDbEntity
  8
Frei
  6
CONTINUOUS
 62
           7
100
AcDbLine
 10
-14446.035569711335
 20
148.175736132319
 30
0.0
 11
-14447.08084730522
 21
138.733416779971
 31
0.0
  0
LINE
  5
52
100
AcDbEntity
  8
Frei
  6
CONTINUOUS
 62
           7
100
AcDbLine
 10
-14447.08084730522
 20
138.733416779971
 30
0.0
 11
-14457.517095010448
 21
139.888723594263
 31
0.0
  0
LINE
  5
53
100
AcDbEntity
  8
Frei
  6
CONTINUOUS
 62
           7
100
AcDbLine
 10
-14457.517095010448
 20
139.888723594263
 30
0.0
 11
-14457.572109620651
 21
139.391759417824
 31
0.0
  0
LINE
  5
54
100
AcDbEntity
  8
Frei
  6
CONTINUOUS
 62
           7
100
AcDbLine
 10
-14457.572109620651
 20
139.391759417824
 30
0.0
 11
-14468.505321502316
 21
140.60208084232
 31
0.0
  0
LINE
  5
55
100
AcDbEntity
  8
Frei
  6
CONTINUOUS
 62
           7
100
AcDbLine
 10
-14468.505321502316
 20
140.60208084232
 30
0.0
 11
-14472.246314996215
 21
106.808516844443
 31
0.0
  0
LINE
  5
56
100
AcDbEntity
  8
Frei
  6
CONTINUOUS
 62
           7
100
AcDbLine
 10
-14472.246314996215
 20
106.808516844443
 30
0.0
 11
-14461.313103114549
 21
105.598195419947
 31
0.0
  0
LINE
  5
57
100
AcDbEntity
  8
Frei
  6
CONTINUOUS
 62
           7
100
AcDbLine
 10
-14461.313103114549
 20
105.598195419947
 30
0.0
 11
-14461.368117724754
 21
105.101231243508
 31
0.0
  0
LINE
  5
58
100
AcDbEntity
  8
Frei
  6
CONTINUOUS
 62
           7
100
AcDbLine
 10
-14461.368117724754
 20
105.101231243508
 30
0.0
 11
-14450.931870019527
 21
103.945924429216
 31
0.0
  0
LINE
  5
59
100
AcDbEntity
  8
Frei
  6
CONTINUOUS
 62
           7
100
AcDbLine
 10
-14450.931870019527
 20
103.945924429216
 30
0.0
 11
-14451.97714761341
 21
94.503605076868
 31
0.0
  0
LINE
  5
5A
100
AcDbEntity
  8
Frei
  6
CONTINUOUS
 62
           7
100
AcDbLine
 10
-14451.97714761341
 20
94.503605076868
 30
0.0
 11
-14422.5568683682
 21
91.246740152768
 31
0.0
  0
LINE
  5
5B
100
AcDbEntity
  8
Frei
  6
CONTINUOUS
 62
           7
100
AcDbLine
 10
-14422.5568683682
 20
91.246740152768
 30
0.0
 11
-14422.501853757994
 21
91.743704329207
 31
0.0
  0
LINE
  5
5C
100
AcDbEntity
  8
Frei
  6
CONTINUOUS
 62
           7
100
AcDbLine
 10
-14203.868163111869
 20
67.541017837595
 30
0.0
 11
-14202.906311731544
 21
67.43454116723
 31
0.0
  0
LINE
  5
5D
100
AcDbEntity
  8
Frei
  6
GESTRICHELT
 62
           7
100
AcDbLine
 10
-14231.698162009547
 20
70.621790688256
 30
0.0
 11
-14203.868163111869
 21
67.541017837595
 31
0.0
  0
LINE
  5
5E
100
AcDbEntity
  8
Frei
  6
CONTINUOUS
 62
           7
100
AcDbLine
 10
-14393.708512735311
 20
88.556289783175
 30
0.0
 11
-14231.698162009547
 21
70.621790688256
 31
0.0
  0
LINE
  5
5F
100
AcDbEntity
  8
Frei
  6
GESTRICHELT
 62
           7
100
AcDbLine
 10
-14421.538511632989
 20
91.637062633836
 30
0.0
 11
-14393.708512735311
 21
88.556289783175
 31
0.0
  0
LINE
  5
60
100
AcDbEntity
  8
Frei
  6
CONTINUOUS
 62
           7
100
AcDbLine
 10
-14422.501853757994
 20
91.743704329207
 30
0.0
 11
-14421.538511632989
 21
91.637062633836
 31
0.0
  0
LINE
  5
61
100
AcDbEntity
  8
Frei
  6
CONTINUOUS
 62
           7
100
AcDbLine
 10
-14202.906311731544
 20
67.43454116723
 30
0.0
 11
-14202.961326341749
 21
66.937576990791
 31
0.0
  0
LINE
  5
62
100
AcDbEntity
  8
Frei
  6
CONTINUOUS
 62
           7
100
AcDbLine
 10
-14202.961326341749
 20
66.937576990791
 30
0.0
 11
-14173.541047096538
 21
63.680712066691
 31
0.0
  0
LINE
  5
63
100
AcDbEntity
  8
Frei
  6
CONTINUOUS
 62
           7
100
AcDbLine
 10
-14173.541047096538
 20
63.680712066691
 30
0.0
 11
-14172.495769502653
 21
73.123031419039
 31
0.0
  0
LINE
  5
64
100
AcDbEntity
  8
Frei
  6
GESTRICHELT
 62
           7
100
AcDbLine
 10
-14172.495769502653
 20
73.123031419039
 30
0.0
 11
-14168.520056091138
 21
72.682914537404
 31
0.0
  0
LINE
  5
65
100
AcDbEntity
  8
Frei
  6
GESTRICHELT
 62
           7
100
AcDbLine
 10
-14168.520056091138
 20
72.682914537404
 30
0.0
 11
-14166.594544733985
 21
90.076660712782
 31
0.0
  0
LINE
  5
66
100
AcDbEntity
  8
Frei
  6
CONTINUOUS
 62
           7
100
AcDbLine
 10
-14168.644746788346
 20
107.910523769795
 30
0.0
 11
-14172.495769502653
 21
73.123031419039
 31
0.0
  0
LINE
  5
67
100
AcDbEntity
  8
Frei
  6
CONTINUOUS
 62
           7
100
AcDbLine
 10
-14201.38439709396
 20
81.182471974477
 30
0.0
 11
-14202.906311731544
 21
67.43454116723
 31
0.0
  0
LINE
  5
68
100
AcDbEntity
  8
Frei
  6
GESTRICHELT
 62
           7
100
AcDbLine
 10
-14199.300943873557
 20
100.00295638727
 30
0.0
 11
-14201.38439709396
 21
81.182471974477
 31
0.0
  0
LINE
  5
69
100
AcDbEntity
  8
Frei
  6
CONTINUOUS
 62
           7
100
AcDbLine
 10
-14197.074763049879
 20
120.112743869803
 30
0.0
 11
-14199.300943873557
 21
100.00295638727
 31
0.0
  0
LINE
  5
6A
100
AcDbEntity
  8
Frei
  6
CONTINUOUS
 62
           7
100
AcDbLine
 10
-14420.980064560106
 20
105.490502000474
 30
0.0
 11
-14422.501853757994
 21
91.743704329207
 31
0.0
  0
LINE
  5
6B
100
AcDbEntity
  8
Frei
  6
GESTRICHELT
 62
           7
100
AcDbLine
 10
-14418.896281284835
 20
124.313967902091
 30
0.0
 11
-14420.980064560106
 21
105.490502000474
 31
0.0
  0
LINE
  5
6C
100
AcDbEntity
  8
Frei
  6
CONTINUOUS
 62
           7
100
AcDbLine
 10
-14416.67030507633
 20
144.42190703178
 30
0.0
 11
-14418.896281284835
 21
124.313967902091
 31
0.0
  0
LINE
  5
6D
100
AcDbEntity
  8
Frei
  6
CONTINUOUS
 62
           7
100
AcDbLine
 10
-14447.08084730522
 20
138.733416779971
 30
0.0
 11
-14450.931870019527
 21
103.945924429216
 31
0.0
  0
LINE
  5
6E
100
AcDbEntity
  8
Frei
  6
CONTINUOUS
 62
           7
100
AcDbLine
 10
-14457.517095010448
 20
139.888723594263
 30
0.0
 11
-14461.368117724754
 21
105.101231243508
 31
0.0
  0
LINE
  5
6F
100
AcDbEntity
  8
Frei
  6
GESTRICHELT
 62
           7
100
AcDbLine
 10
-14483.188387811342
 20
131.160320142339
 30
0.0
 11
-14501.256170134386
 21
133.16044821773
 31
0.0
  0
LINE
  5
70
100
AcDbEntity
  8
Frei
  6
CONTINUOUS
 62
           7
100
AcDbLine
 10
-14478.164033926281
 20
130.604117334129
 30
0.0
 11
-14483.188387811342
 21
131.160320142339
 31
0.0
  0
LINE
  5
71
100
AcDbEntity
  8
Frei
  6
GESTRICHELT
 62
           7
100
AcDbLine
 10
-14484.508738456248
 20
119.233179907794
 30
0.0
 11
-14502.576520779292
 21
121.233307983185
 31
0.0
  0
LINE
  5
72
100
AcDbEntity
  8
Frei
  6
CONTINUOUS
 62
           7
100
AcDbLine
 10
-14479.484384571188
 20
118.676977099584
 30
0.0
 11
-14484.508738456248
 21
119.233179907794
 31
0.0
  0
LINE
  5
73
100
AcDbEntity
  8
Frei
  6
GESTRICHELT
 62
           7
100
AcDbLine
 10
-14502.102683701289
 20
132.482684302236
 30
0.0
 11
-14501.256170134386
 21
133.16044821773
 31
0.0
  0
LINE
  5
74
100
AcDbEntity
  8
Frei
  6
GESTRICHELT
 62
           7
100
AcDbLine
 10
-14503.254295734359
 20
122.079812711099
 30
0.0
 11
-14502.576520779292
 21
121.233307983185
 31
0.0
  0
LINE
  5
75
100
AcDbEntity
  8
Frei
  6
GESTRICHELT
 62
           7
100
AcDbLine
 10
-14502.102683701289
 20
132.482684302236
 30
0.0
 11
-14503.254295734359
 21
122.079812711099
 31
0.0
  0
LINE
  5
76
100
AcDbEntity
  8
Frei
  6
CONTINUOUS
 62
           7
100
AcDbLine
 10
-14483.27275711726
 20
130.398185820635
 30
0.0
 11
-14478.248403232199
 21
129.841983012425
 31
0.0
  0
LINE
  5
77
100
AcDbEntity
  8
Frei
  6
GESTRICHELT
 62
           7
100
AcDbLine
 10
-14502.102683701289
 20
132.482684302236
 30
0.0
 11
-14483.27275711726
 21
130.398185820635
 31
0.0
  0
LINE
  5
78
100
AcDbEntity
  8
Frei
  6
CONTINUOUS
 62
           7
100
AcDbLine
 10
-14484.424369150331
 20
119.995314229498
 30
0.0
 11
-14479.40001526527
 21
119.439111421288
 31
0.0
  0
LINE
  5
79
100
AcDbEntity
  8
Frei
  6
GESTRICHELT
 62
           7
100
AcDbLine
 10
-14503.254295734359
 20
122.079812711099
 30
0.0
 11
-14484.424369150331
 21
119.995314229498
 31
0.0
  0
LINE
  5
7A
100
AcDbEntity
  8
Frei
  6
GESTRICHELT
 62
           7
100
AcDbLine
 10
-14501.256170134386
 20
133.16044821773
 30
0.0
 11
-14502.576520779292
 21
121.233307983185
 31
0.0
  0
LINE
  5
7B
100
AcDbEntity
  8
Frei
  6
CONTINUOUS
 62
           7
100
AcDbLine
 10
-14469.495584485996
 20
131.656725666412
 30
0.0
 11
-14477.943975485465
 21
132.591974039887
 31
0.0
  0
LINE
  5
7C
100
AcDbEntity
  8
Frei
  6
CONTINUOUS
 62
           7
100
AcDbLine
 10
-14477.943975485465
 20
132.591974039887
 30
0.0
 11
-14479.704443012004
 21
116.689120393827
 31
0.0
  0
LINE
  5
7D
100
AcDbEntity
  8
Frei
  6
CONTINUOUS
 62
           7
100
AcDbLine
 10
-14479.704443012004
 20
116.689120393827
 30
0.0
 11
-14471.256052012535
 21
115.753872020352
 31
0.0
  0
LINE
  5
7E
100
AcDbEntity
  8
Frei
  6
CONTINUOUS
 62
           7
100
AcDbLine
 10
-14478.311067073806
 20
129.275920936894
 30
0.0
 11
-14473.010119171549
 21
128.689098794811
 31
0.0
  0
LINE
  5
7F
100
AcDbEntity
  8
Frei
  6
CONTINUOUS
 62
           7
100
AcDbLine
 10
-14479.337351423663
 20
120.00517349682
 30
0.0
 11
-14474.036403521406
 21
119.418351354737
 31
0.0
  0
LINE
  5
80
100
AcDbEntity
  8
Frei
  6
CONTINUOUS
 62
           7
100
AcDbLine
 10
-14473.010119171549
 20
128.689098794811
 30
0.0
 11
-14474.036403521406
 21
119.418351354737
 31
0.0
  0
LINE
  5
81
100
AcDbEntity
  8
Frei
  6
CONTINUOUS
 62
           7
100
AcDbLine
 10
-14478.311067073806
 20
129.275920936894
 30
0.0
 11
-14474.036403521406
 21
119.418351354737
 31
0.0
  0
LINE
  5
82
100
AcDbEntity
  8
Frei
  6
CONTINUOUS
 62
           7
100
AcDbLine
 10
-14473.010119171549
 20
128.689098794811
 30
0.0
 11
-14479.337351423663
 21
120.00517349682
 31
0.0
  0
CIRCLE
  5
83
100
AcDbEntity
  8
Frei
  6
CONTINUOUS
 62
           7
100
AcDbCircle
 10
-14435.751537044524
 20
113.835691401598
 30
0.0
 40
5.7225
  0
ARC
  5
84
100
AcDbEntity
  8
Frei
  6
CONTINUOUS
 62
           7
100
AcDbCircle
 10
-14435.751537044524
 20
113.835691401598
 30
0.0
 40
6.5785
100
AcDbArc
 50
103.683
 51
13.683
  0
CIRCLE
  5
85
100
AcDbEntity
  8
Frei
  6
CONTINUOUS
 62
           7
100
AcDbCircle
 10
-14183.82507976335
 20
98.020756797412
 30
0.0
 40
5.7225
  0
ARC
  5
86
100
AcDbEntity
  8
Frei
  6
CONTINUOUS
 62
           7
100
AcDbCircle
 10
-14183.82507976335
 20
98.020756797412
 30
0.0
 40
6.57849
100
AcDbArc
 50
103.682999999994
 51
13.683
  0
LINE
  5
87
100
AcDbEntity
  8
Frei
  6
CONTINUOUS
 62
           7
100
AcDbLine
 10
-14426.369928486221
 20
129.967285673671
 30
0.0
 11
-14434.114858738836
 21
123.766153223497
 31
0.0
  0
LINE
  5
88
100
AcDbEntity
  8
Frei
  6
CONTINUOUS
 62
           7
100
AcDbLine
 10
-14427.151118539499
 20
130.942963376943
 30
0.0
 11
-14434.896038889487
 21
124.741920380321
 31
0.0
  0
CIRCLE
  5
89
100
AcDbEntity
  8
Frei
  6
CONTINUOUS
 62
           7
100
AcDbCircle
 10
-14430.632985888438
 20
127.354583148429
 30
0.0
 40
5.0
  0
LINE
  5
8A
100
AcDbEntity
  8
Frei
  6
CONTINUOUS
 62
           7
100
AcDbLine
 10
-14184.680279739883
 20
87.114494809924
 30
0.0
 11
-14192.425597661209
 21
80.91349582499
 31
0.0
  0
LINE
  5
8B
100
AcDbEntity
  8
Frei
  6
CONTINUOUS
 62
           7
100
AcDbLine
 10
-14185.4616586762
 20
88.090283972591
 30
0.0
 11
-14193.206986500159
 21
81.889195534105
 31
0.0
  0
CIRCLE
  5
8C
100
AcDbEntity
  8
Frei
  6
CONTINUOUS
 62
           7
100
AcDbCircle
 10
-14188.943630919437
 20
84.501865050582
 30
0.0
 40
5.0
  0
LINE
  5
8D
100
AcDbEntity
  8
Frei
  6
CONTINUOUS
 62
           7
100
AcDbLine
 10
-14483.02905537213
 20
136.1430422486
 30
0.0
 11
-14485.619351931133
 21
136.429791600491
 31
0.0
  0
LINE
  5
8E
100
AcDbEntity
  8
Frei
  6
CONTINUOUS
 62
           7
100
AcDbLine
 10
-14488.209628611572
 20
136.716538751799
 30
0.0
 11
-14485.619351931133
 21
136.429791600491
 31
0.0
  0
LINE
  5
8F
100
AcDbEntity
  8
Frei
  6
CONTINUOUS
 62
           7
100
AcDbLine
 10
-14490.623669707342
 20
114.909750689639
 30
0.0
 11
-14488.033393026903
 21
114.623003538331
 31
0.0
  0
LINE
  5
90
100
AcDbEntity
  8
Frei
  6
CONTINUOUS
 62
           7
100
AcDbLine
 10
-14485.4430964679
 20
114.33625418644
 30
0.0
 11
-14488.033393026903
 21
114.623003538331
 31
0.0
  0
LINE
  5
91
100
AcDbEntity
  8
Frei
  6
CONTINUOUS
 62
           7
100
AcDbLine
 10
-14483.632566746364
 20
130.691335293776
 30
0.0
 11
-14486.222863305367
 21
130.978084645668
 31
0.0
  0
LINE
  5
92
100
AcDbEntity
  8
Frei
  6
CONTINUOUS
 62
           7
100
AcDbLine
 10
-14488.813139985807
 20
131.264831796975
 30
0.0
 11
-14486.222863305367
 21
130.978084645668
 31
0.0
  0
LINE
  5
93
100
AcDbEntity
  8
Frei
  6
CONTINUOUS
 62
           7
100
AcDbLine
 10
-14490.020158333107
 20
120.361457644462
 30
0.0
 11
-14487.429881652668
 21
120.074710493155
 31
0.0
  0
LINE
  5
94
100
AcDbEntity
  8
Frei
  6
CONTINUOUS
 62
           7
100
AcDbLine
 10
-14484.839585093665
 20
119.787961141263
 30
0.0
 11
-14487.429881652668
 21
120.074710493155
 31
0.0
  0
ARC
  5
95
100
AcDbEntity
  8
Frei
  6
CONTINUOUS
 62
           7
100
AcDbCircle
 10
-14522.390719230385
 20
129.46341912239
 30
0.0
 40
38.7776
100
AcDbArc
 50
354.542436999999
 51
1.81461
  0
ARC
  5
96
100
AcDbEntity
  8
Frei
  6
CONTINUOUS
 62
           7
100
AcDbCircle
 10
-14451.262025727652
 20
121.589376016433
 30
0.0
 40
38.7776
100
AcDbArc
 50
165.551
 51
172.824
  0
ARC
  5
97
100
AcDbEntity
  8
Frei
  6
CONTINUOUS
 62
           7
100
AcDbCircle
 10
-14451.262025727652
 20
121.589376016433
 30
0.0
 40
38.7776
100
AcDbArc
 50
174.541999999999
 51
181.814999999999
  0
ARC
  5
98
100
AcDbEntity
  8
Frei
  6
CONTINUOUS
 62
           7
100
AcDbCircle
 10
-14522.390719230385
 20
129.46341912239
 30
0.0
 40
38.7776
100
AcDbArc
 50
345.551389999999
 51
352.823562999999
  0
LINE
  5
99
100
AcDbEntity
  8
Frei
  6
CONTINUOUS
 62
           7
100
AcDbLine
 10
-14483.788899045596
 20
125.775340227493
 30
0.0
 11
-14483.848563133795
 21
125.196750025067
 31
0.0
  0
LINE
  5
9A
100
AcDbEntity
  8
Frei
  6
CONTINUOUS
 62
           7
100
AcDbLine
 10
-14489.735810923674
 20
126.433671460211
 30
0.0
 11
-14489.804181824244
 21
125.856045113756
 31
0.0
  0
LINE
  5
9B
100
AcDbEntity
  8
Frei
  6
CONTINUOUS
 62
           7
100
AcDbLine
 10
-14489.863806155307
 20
125.277450510161
 30
0.0
 11
-14489.804181824244
 21
125.856045113756
 31
0.0
  0
LINE
  5
9C
100
AcDbEntity
  8
Frei
  6
CONTINUOUS
 62
           7
100
AcDbLine
 10
-14483.916894277228
 20
124.619119277442
 30
0.0
 11
-14483.848563133795
 21
125.196750025067
 31
0.0
  0
ARC
  5
9D
100
AcDbEntity
  8
Frei
  6
CONTINUOUS
 62
           7
100
AcDbCircle
 10
-14493.016266815715
 20
134.489366804042
 30
0.0
 40
10.1345
100
AcDbArc
 50
337.964499999999
 51
353.682999999999
  0
ARC
  5
9E
100
AcDbEntity
  8
Frei
  6
CONTINUOUS
 62
           7
100
AcDbCircle
 10
-14478.825941782383
 20
132.918478523974
 30
0.0
 40
10.1232
100
AcDbArc
 50
173.683
 51
189.401999999999
  0
ARC
  5
9F
100
AcDbEntity
  8
Frei
  6
CONTINUOUS
 62
           7
100
AcDbCircle
 10
-14480.63646820304
 20
116.563427234489
 30
0.0
 40
10.1345
100
AcDbArc
 50
157.964
 51
173.683
  0
ARC
  5
A0
100
AcDbEntity
  8
Frei
  6
CONTINUOUS
 62
           7
100
AcDbCircle
 10
-14494.826793236372
 20
118.134315514557
 30
0.0
 40
10.1232
100
AcDbArc
 50
353.682999999999
 51
9.4015
  0
ARC
  5
A1
100
AcDbEntity
  8
Frei
  6
CONTINUOUS
 62
           7
100
AcDbCircle
 10
-14493.016266815715
 20
134.489366804042
 30
0.0
 40
10.1232
100
AcDbArc
 50
353.682999999999
 51
9.4015
  0
ARC
  5
A2
100
AcDbEntity
  8
Frei
  6
CONTINUOUS
 62
           7
100
AcDbCircle
 10
-14478.825941782383
 20
132.918478523974
 30
0.0
 40
10.1345
100
AcDbArc
 50
157.964
 51
173.683
  0
ARC
  5
A3
100
AcDbEntity
  8
Frei
  6
CONTINUOUS
 62
           7
100
AcDbCircle
 10
-14480.63646820304
 20
116.563427234489
 30
0.0
 40
10.1232
100
AcDbArc
 50
173.683
 51
189.401999999999
  0
ARC
  5
A4
100
AcDbEntity
  8
Frei
  6
CONTINUOUS
 62
           7
100
AcDbCircle
 10
-14494.826793236372
 20
118.134315514557
 30
0.0
 40
10.1345
100
AcDbArc
 50
337.964499999999
 51
353.682999999999
  0
LINE
  5
A5
100
AcDbEntity
  8
Frei
  6
CONTINUOUS
 62
           7
100
AcDbLine
 10
-14482.943299923467
 20
133.37427566981
 30
0.0
 11
-14483.848563133795
 21
125.196750025067
 31
0.0
  0
LINE
  5
A6
100
AcDbEntity
  8
Frei
  6
CONTINUOUS
 62
           7
100
AcDbLine
 10
-14488.898918613915
 20
134.033570758499
 30
0.0
 11
-14489.804181824244
 21
125.856045113756
 31
0.0
  0
LINE
  5
A7
100
AcDbEntity
  8
Frei
  6
CONTINUOUS
 62
           7
100
AcDbLine
 10
-14490.709445034572
 20
117.678519469013
 30
0.0
 11
-14489.804181824244
 21
125.856045113756
 31
0.0
  0
LINE
  5
A8
100
AcDbEntity
  8
Frei
  6
CONTINUOUS
 62
           7
100
AcDbLine
 10
-14484.753826344124
 20
117.019224380324
 30
0.0
 11
-14483.848563133795
 21
125.196750025067
 31
0.0
  0
LINE
  5
A9
100
AcDbEntity
  8
Frei
  6
CONTINUOUS
 62
           7
100
AcDbLine
 10
-14163.876696537624
 20
78.146961137633
 30
0.0
 11
-14164.715087577921
 21
78.224987226199
 31
0.0
  0
LINE
  5
AA
100
AcDbEntity
  8
Frei
  6
CONTINUOUS
 62
           7
100
AcDbLine
 10
-14163.007421038646
 20
78.855495559267
 30
0.0
 11
-14163.798434480594
 21
71.710023796959
 31
0.0
  0
LINE
  5
AB
100
AcDbEntity
  8
Frei
  6
CONTINUOUS
 62
           7
100
AcDbLine
 10
-14160.640035417169
 20
100.24083013351
 30
0.0
 11
-14160.656203219849
 21
100.094781316412
 31
0.0
  0
LINE
  5
AC
100
AcDbEntity
  8
Frei
  6
CONTINUOUS
 62
           7
100
AcDbLine
 10
-14162.168448220173
 20
101.229576850844
 30
0.0
 11
-14161.333290976265
 21
101.122338868319
 31
0.0
  0
LINE
  5
AD
100
AcDbEntity
  8
Frei
  6
CONTINUOUS
 62
           7
100
AcDbLine
 10
-14160.480521679365
 20
99.500528847897
 30
0.0
 11
-14162.689849167069
 21
79.542982819081
 31
0.0
  0
LINE
  5
AE
100
AcDbEntity
  8
Frei
  6
CONTINUOUS
 62
           7
100
AcDbLine
 10
-14149.991039111141
 20
78.581095249627
 30
0.0
 11
-14162.121977736992
 21
79.710078797998
 31
0.0
  0
LINE
  5
AF
100
AcDbEntity
  8
Frei
  6
CONTINUOUS
 62
           7
100
AcDbLine
 10
-14147.87879983257
 20
97.661613126934
 30
0.0
 11
-14159.962947660753
 21
99.213272581603
 31
0.0
  0
LINE
  5
B0
100
AcDbEntity
  8
Frei
  6
CONTINUOUS
 62
           7
100
AcDbLine
 10
-14162.991253235967
 20
79.001544376365
 30
0.0
 11
-14163.007421038646
 21
78.855495559267
 31
0.0
  0
LINE
  5
B1
100
AcDbEntity
  8
Frei
  6
CONTINUOUS
 62
           7
100
AcDbLine
 10
-14162.762287768976
 20
110.153044466421
 30
0.0
 11
-14161.88729051928
 21
110.025131018796
 31
0.0
  0
LINE
  5
B2
100
AcDbEntity
  8
Frei
  6
CONTINUOUS
 62
           7
100
AcDbLine
 10
-14159.849021975222
 20
107.386301895816
 30
0.0
 11
-14160.640035417169
 21
100.24083013351
 31
0.0
  0
LINE
  5
B3
100
AcDbEntity
  8
Frei
  6
CONTINUOUS
 62
           7
100
AcDbLine
 10
-14166.36452155384
 20
69.580903102749
 30
0.0
 11
-14167.246310145263
 21
69.64746823697
 31
0.0
  0
LINE
  5
B4
100
AcDbEntity
  8
Frei
  6
CONTINUOUS
 62
           7
100
AcDbLine
 10
-14163.740993735852
 20
115.346184920798
 30
0.0
 11
-14167.756623534811
 21
115.933218825359
 31
0.0
  0
LINE
  5
B5
100
AcDbEntity
  8
Frei
  6
CONTINUOUS
 62
           7
100
AcDbLine
 10
-14169.337174589926
 20
64.794133401775
 30
0.0
 11
-14173.383971931671
 21
65.099621146611
 31
0.0
  0
LINE
  5
B6
100
AcDbEntity
  8
Frei
  6
CONTINUOUS
 62
           7
100
AcDbLine
 10
-14166.453638575875
 20
76.807918382932
 30
0.0
 11
-14167.246310145263
 21
69.64746823697
 31
0.0
  0
LINE
  5
B7
100
AcDbEntity
  8
Frei
  6
CONTINUOUS
 62
           7
100
AcDbLine
 10
-14162.762287768976
 20
110.153044466421
 30
0.0
 11
-14163.554959338364
 21
102.992594320461
 31
0.0
  0
LINE
  5
B8
100
AcDbEntity
  8
Frei
  6
CONTINUOUS
 62
           7
100
AcDbLine
 10
-14162.382148039811
 20
113.586965505478
 30
0.0
 11
-14162.762287768976
 21
110.153044466421
 31
0.0
  0
LINE
  5
B9
100
AcDbEntity
  8
Frei
  6
CONTINUOUS
 62
           7
100
AcDbLine
 10
-14167.246310145263
 20
69.64746823697
 30
0.0
 11
-14167.626449874428
 21
66.213547197915
 31
0.0
  0
ARC
  5
BA
100
AcDbEntity
  8
Frei
  6
CONTINUOUS
 62
           7
100
AcDbCircle
 10
-14149.10144531106
 20
88.139788825156
 30
0.0
 40
9.6
100
AcDbArc
 50
264.682999999997
 51
82.683000000002
  0
ARC
  5
BB
100
AcDbEntity
  8
Frei
  6
CONTINUOUS
 62
           7
100
AcDbCircle
 10
-14149.10144531106
 20
88.139788825155
 30
0.0
 40
4.799999999999
100
AcDbArc
 50
173.682999999991
 51
353.683000000007
  0
ARC
  5
BC
100
AcDbEntity
  8
Frei
  6
CONTINUOUS
 62
           7
100
AcDbCircle
 10
-14149.101445311057
 20
88.139788825159
 30
0.0
 40
4.799999999995
100
AcDbArc
 50
353.682999999957
 51
63.886117282784
  0
ARC
  5
BD
100
AcDbEntity
  8
Frei
  6
CONTINUOUS
 62
           7
100
AcDbCircle
 10
-14149.101445311058
 20
88.139788825156
 30
0.0
 40
4.8
100
AcDbArc
 50
63.886117282778
 51
173.683
  0
ARC
  5
BE
100
AcDbEntity
  8
Frei
  6
CONTINUOUS
 62
           7
100
AcDbCircle
 10
-14162.196110553665
 20
78.913521000043
 30
0.0
 40
0.799999999995
100
AcDbArc
 50
84.682999999852
 51
128.110004000953
  0
ARC
  5
BF
100
AcDbEntity
  8
Frei
  6
CONTINUOUS
 62
           7
100
AcDbCircle
 10
-14162.196110553676
 20
78.913521000045
 30
0.0
 40
0.799999999986
100
AcDbArc
 50
128.110004000438
 51
173.683000000423
  0
ARC
  5
C0
100
AcDbEntity
  8
Frei
  6
CONTINUOUS
 62
           7
100
AcDbCircle
 10
-14163.80256372095
 20
78.943518935594
 30
0.0
 40
0.8
100
AcDbArc
 50
264.682999999975
 51
353.682999999991
  0
ARC
  5
C1
100
AcDbEntity
  8
Frei
  6
CONTINUOUS
 62
           7
100
AcDbCircle
 10
-14164.863353211269
 20
76.631871630278
 30
0.0
 40
1.599999999999
100
AcDbArc
 50
84.682999999911
 51
173.682999999991
  0
ARC
  5
C2
100
AcDbEntity
  8
Frei
  6
CONTINUOUS
 62
           7
100
AcDbCircle
 10
-14159.861060537558
 20
100.00675794008
 30
0.0
 40
0.799999999987
100
AcDbArc
 50
173.682999999556
 51
219.255995999584
  0
ARC
  5
C3
100
AcDbEntity
  8
Frei
  6
CONTINUOUS
 62
           7
100
AcDbCircle
 10
-14159.861060537547
 20
100.006757940079
 30
0.0
 40
0.799999999995
100
AcDbArc
 50
219.2559959991
 51
262.683000000148
  0
ARC
  5
C4
100
AcDbEntity
  8
Frei
  6
CONTINUOUS
 62
           7
100
AcDbCircle
 10
-14161.964673973758
 20
102.816547567808
 30
0.0
 40
1.600000000001
100
AcDbArc
 50
173.683000000032
 51
262.683000000024
  0
ARC
  5
C5
100
AcDbEntity
  8
Frei
  6
CONTINUOUS
 62
           7
100
AcDbCircle
 10
-14161.435178099473
 20
100.328853509837
 30
0.0
 40
0.8
100
AcDbArc
 50
353.682999999999
 51
82.683000000024
  0
ARC
  5
C6
100
AcDbEntity
  8
Frei
  6
CONTINUOUS
 62
           7
100
AcDbCircle
 10
-14169.216735239032
 20
66.389593950567
 30
0.0
 40
1.599999999999
100
AcDbArc
 50
265.682999999913
 51
353.683000000036
  0
ARC
  5
C7
100
AcDbEntity
  8
Frei
  6
CONTINUOUS
 62
           7
100
AcDbCircle
 10
-14166.183862527505
 20
71.97409392594
 30
0.0
 40
2.4
100
AcDbArc
 50
265.68300000002
 51
353.682999999997
  0
ARC
  5
C8
100
AcDbEntity
  8
Frei
  6
CONTINUOUS
 62
           7
100
AcDbCircle
 10
-14162.234450022133
 20
107.650372024797
 30
0.0
 40
2.400000000001
100
AcDbArc
 50
353.683000000013
 51
81.682999999936
  0
ARC
  5
C9
100
AcDbEntity
  8
Frei
  6
CONTINUOUS
 62
           7
100
AcDbCircle
 10
-14163.972433404415
 20
113.763012258133
 30
0.0
 40
1.599999999999
100
AcDbArc
 50
353.682999999963
 51
81.683000000086
  0
LINE
  5
CA
100
AcDbEntity
  8
Frei
  6
CONTINUOUS
 62
           7
100
AcDbLine
 10
-14490.464357146697
 20
119.892474996484
 30
0.0
 11
-14490.39833961445
 21
120.488832008211
 31
0.0
  0
LINE
  5
CB
100
AcDbEntity
  8
Frei
  6
CONTINUOUS
 62
           7
100
AcDbLine
 10
-14490.39833961445
 20
120.488832008211
 30
0.0
 11
-14489.210024034037
 21
131.223258219301
 31
0.0
  0
LINE
  5
CC
100
AcDbEntity
  8
Frei
  6
CONTINUOUS
 62
           7
100
AcDbLine
 10
-14489.210024034037
 20
131.223258219301
 30
0.0
 11
-14489.14400650179
 21
131.819615231028
 31
0.0
  0
LINE
  5
CD
100
AcDbEntity
  8
Frei
  6
CONTINUOUS
 62
           7
100
AcDbLine
 10
-14489.14400650179
 20
131.819615231028
 30
0.0
 11
-14488.780910074442
 21
135.099578795528
 31
0.0
  0
LINE
  5
CE
100
AcDbEntity
  8
Frei
  6
CONTINUOUS
 62
           7
100
AcDbLine
 10
-14514.97881293824
 20
116.569606169022
 30
0.0
 11
-14513.682559452236
 21
116.426109145213
 31
0.0
  0
LINE
  5
CF
100
AcDbEntity
  8
Frei
  6
CONTINUOUS
 62
           7
100
AcDbLine
 10
-14511.041858162425
 20
140.280389614303
 30
0.0
 11
-14512.338111648429
 21
140.423886638111
 31
0.0
  0
LINE
  5
D0
100
AcDbEntity
  8
Frei
  6
CONTINUOUS
 62
           7
100
AcDbLine
 10
-14513.682559452236
 20
116.426109145213
 30
0.0
 11
-14509.909778338559
 21
116.008457144937
 31
0.0
  0
LINE
  5
D1
100
AcDbEntity
  8
Frei
  6
CONTINUOUS
 62
           7
100
AcDbLine
 10
-14507.269077048748
 20
139.862737614027
 30
0.0
 11
-14511.041858162425
 21
140.280389614303
 31
0.0
  0
LINE
  5
D2
100
AcDbEntity
  8
Frei
  6
CONTINUOUS
 62
           7
100
AcDbLine
 10
-14547.658248598162
 20
144.333873833923
 30
0.0
 11
-14512.338111648429
 21
140.423886638111
 31
0.0
  0
LINE
  5
D3
100
AcDbEntity
  8
Frei
  6
CONTINUOUS
 62
           7
100
AcDbLine
 10
-14550.298949887972
 20
120.479593364833
 30
0.0
 11
-14514.97881293824
 21
116.569606169022
 31
0.0
  0
LINE
  5
D4
100
AcDbEntity
  8
Frei
  6
CONTINUOUS
 62
           7
100
AcDbLine
 10
-14506.572594127892
 20
137.974640280477
 30
0.0
 11
-14508.81719022423
 21
117.698501881751
 31
0.0
  0
LINE
  5
D5
100
AcDbEntity
  8
Frei
  6
CONTINUOUS
 62
           7
100
AcDbLine
 10
-14489.576419293666
 20
136.093140611487
 30
0.0
 11
-14492.280281657233
 21
136.392461852394
 31
0.0
  0
LINE
  5
D6
100
AcDbEntity
  8
Frei
  6
CONTINUOUS
 62
           7
100
AcDbLine
 10
-14490.827453574046
 20
116.612511431984
 30
0.0
 11
-14490.464357146697
 21
119.892474996484
 31
0.0
  0
LINE
  5
D7
100
AcDbEntity
  8
Frei
  6
CONTINUOUS
 62
           7
100
AcDbLine
 10
-14507.922654706637
 20
117.599475583383
 30
0.0
 11
-14506.093290926377
 21
117.396962524968
 31
0.0
  0
LINE
  5
D8
100
AcDbEntity
  8
Frei
  6
CONTINUOUS
 62
           7
100
AcDbLine
 10
-14503.716659765549
 20
138.865814947149
 30
0.0
 11
-14503.84869483004
 21
137.673100923695
 31
0.0
  0
LINE
  5
D9
100
AcDbEntity
  8
Frei
  6
CONTINUOUS
 62
           7
100
AcDbLine
 10
-14503.84869483004
 20
137.673100923695
 30
0.0
 11
-14505.6780586103
 21
137.875613982109
 31
0.0
  0
LINE
  5
DA
100
AcDbEntity
  8
Frei
  6
CONTINUOUS
 62
           7
100
AcDbLine
 10
-14503.84869483004
 20
137.673100923695
 30
0.0
 11
-14506.093290926377
 21
117.396962524968
 31
0.0
  0
LINE
  5
DB
100
AcDbEntity
  8
Frei
  6
CONTINUOUS
 62
           7
100
AcDbLine
 10
-14506.093290926377
 20
117.396962524968
 30
0.0
 11
-14506.225325990868
 21
116.204248501514
 31
0.0
  0
LINE
  5
DC
100
AcDbEntity
  8
Frei
  6
CONTINUOUS
 62
           7
100
AcDbLine
 10
-14494.656912818062
 20
114.923609430213
 30
0.0
 11
-14494.524877753571
 21
116.116323453667
 31
0.0
  0
LINE
  5
DD
100
AcDbEntity
  8
Frei
  6
CONTINUOUS
 62
           7
100
AcDbLine
 10
-14494.524877753571
 20
116.116323453667
 30
0.0
 11
-14491.821015390004
 21
115.817002212761
 31
0.0
  0
LINE
  5
DE
100
AcDbEntity
  8
Frei
  6
CONTINUOUS
 62
           7
100
AcDbLine
 10
-14494.524877753571
 20
116.116323453667
 30
0.0
 11
-14492.280281657233
 21
136.392461852394
 31
0.0
  0
LINE
  5
DF
100
AcDbEntity
  8
Frei
  6
CONTINUOUS
 62
           7
100
AcDbLine
 10
-14492.280281657233
 20
136.392461852394
 30
0.0
 11
-14492.148246592742
 21
137.585175875848
 31
0.0
  0
LINE
  5
E0
100
AcDbEntity
  8
Frei
  6
CONTINUOUS
 62
           7
100
AcDbLine
 10
-14503.716659765549
 20
138.865814947149
 30
0.0
 11
-14492.148246592742
 21
137.585175875848
 31
0.0
  0
LINE
  5
E1
100
AcDbEntity
  8
Frei
  6
CONTINUOUS
 62
           7
100
AcDbLine
 10
-14506.225325990868
 20
116.204248501514
 30
0.0
 11
-14494.656912818062
 21
114.923609430213
 31
0.0
  0
ARC
  5
E2
100
AcDbEntity
  8
Frei
  6
CONTINUOUS
 62
           7
100
AcDbCircle
 10
-14529.328843364876
 20
130.231478899945
 30
0.0
 40
20.866107311614
100
AcDbArc
 50
318.576694434247
 51
28.789305565753
  0
ARC
  5
E3
100
AcDbEntity
  8
Frei
  6
CONTINUOUS
 62
           7
100
AcDbCircle
 10
-14519.498431801267
 20
129.143238970468
 30
0.0
 40
29.660254037844
100
AcDbArc
 50
149.81807458395
 51
197.54792541605
  0
ARC
  5
E4
100
AcDbEntity
  8
Frei
  6
CONTINUOUS
 62
           7
100
AcDbCircle
 10
-14530.041720774105
 20
130.310395398661
 30
0.0
 40
22.516660498395
100
AcDbArc
 50
141.478772496028
 51
205.887227503973
  0
CIRCLE
  5
E5
100
AcDbEntity
  8
Frei
  6
CONTINUOUS
 62
           7
100
AcDbCircle
 10
-14537.512742762423
 20
131.137447693377
 30
0.0
 40
6.0
  0
CIRCLE
  5
E6
100
AcDbEntity
  8
Frei
  6
CONTINUOUS
 62
           7
100
AcDbCircle
 10
-14537.512742762423
 20
131.137447693377
 30
0.0
 40
5.1
  0
ARC
  5
E7
100
AcDbEntity
  8
Frei
  6
CONTINUOUS
 62
           7
100
AcDbCircle
 10
-14507.368103347115
 20
138.968202096436
 30
0.0
 40
0.9
100
AcDbArc
 50
353.682999999999
 51
83.683
  0
ARC
  5
E8
100
AcDbEntity
  8
Frei
  6
CONTINUOUS
 62
           7
100
AcDbCircle
 10
-14505.579032311931
 20
138.7701494997
 30
0.0
 40
0.9
100
AcDbArc
 50
173.683
 51
263.682999999999
  0
ARC
  5
E9
100
AcDbEntity
  8
Frei
  6
CONTINUOUS
 62
           7
100
AcDbCircle
 10
-14489.675445592033
 20
135.198605093896
 30
0.0
 40
0.9
100
AcDbArc
 50
353.682999999999
 51
83.683
  0
ARC
  5
EA
100
AcDbEntity
  8
Frei
  6
CONTINUOUS
 62
           7
100
AcDbCircle
 10
-14491.721989091637
 20
116.711537730352
 30
0.0
 40
0.9
100
AcDbArc
 50
263.682999999999
 51
353.682999999999
  0
ARC
  5
EB
100
AcDbEntity
  8
Frei
  6
CONTINUOUS
 62
           7
100
AcDbCircle
 10
-14508.021681005006
 20
116.704940065792
 30
0.0
 40
0.9
100
AcDbArc
 50
83.683
 51
173.683
  0
ARC
  5
EC
100
AcDbEntity
  8
Frei
  6
CONTINUOUS
 62
           7
100
AcDbCircle
 10
-14509.81075204019
 20
116.902992662528
 30
0.0
 40
0.9
100
AcDbArc
 50
263.682999999999
 51
353.682999999999
  0
LINE
  5
ED
100
AcDbEntity
  8
Frei
  6
CONTINUOUS
 62
           7
100
AcDbLine
 10
-14237.410532001746
 20
78.095382699204
 30
0.0
 11
-14233.931782766671
 21
77.710280427773
 31
0.0
  0
LINE
  5
EE
100
AcDbEntity
  8
Frei
  6
CONTINUOUS
 62
           7
100
AcDbLine
 10
-14237.19047356093
 20
80.083239404961
 30
0.0
 11
-14237.410532001746
 21
78.095382699204
 31
0.0
  0
LINE
  5
EF
100
AcDbEntity
  8
Frei
  6
CONTINUOUS
 62
           7
100
AcDbLine
 10
-14231.89257681991
 20
87.042570559712
 30
0.0
 11
-14232.827825193384
 21
78.594179560243
 31
0.0
  0
LINE
  5
F0
100
AcDbEntity
  8
Frei
  6
CONTINUOUS
 62
           7
100
AcDbLine
 10
-14236.365254407863
 20
87.537702051552
 30
0.0
 11
-14231.89257681991
 21
87.042570559712
 31
0.0
  0
LINE
  5
F1
100
AcDbEntity
  8
Frei
  6
CONTINUOUS
 62
           7
100
AcDbLine
 10
-14236.420269018068
 20
87.040737875112
 30
0.0
 11
-14236.365254407863
 21
87.537702051552
 31
0.0
  0
LINE
  5
F2
100
AcDbEntity
  8
Frei
  6
CONTINUOUS
 62
           7
100
AcDbLine
 10
-14232.942574846049
 20
86.207946963011
 30
0.0
 11
-14236.420269018068
 21
87.040737875112
 31
0.0
  0
LINE
  5
F3
100
AcDbEntity
  8
Frei
  6
CONTINUOUS
 62
           7
100
AcDbLine
 10
-14232.788580116061
 20
83.620378762899
 30
0.0
 11
-14232.562051798976
 21
85.66667988403
 31
0.0
  0
LINE
  5
F4
100
AcDbEntity
  8
Frei
  6
CONTINUOUS
 62
           7
100
AcDbLine
 10
-14237.19047356093
 20
80.083239404961
 30
0.0
 11
-14236.420269018068
 21
87.040737875112
 31
0.0
  0
LINE
  5
F5
100
AcDbEntity
  8
Frei
  6
CONTINUOUS
 62
           7
100
AcDbLine
 10
-14233.614834343072
 20
80.135216718251
 30
0.0
 11
-14237.19047356093
 21
80.083239404961
 31
0.0
  0
LINE
  5
F6
100
AcDbEntity
  8
Frei
  6
CONTINUOUS
 62
           7
100
AcDbLine
 10
-14232.898609336469
 20
82.62645041002
 30
0.0
 11
-14233.125137653553
 21
80.580149288891
 31
0.0
  0
LINE
  5
F7
100
AcDbEntity
  8
Frei
  6
CONTINUOUS
 62
           2
100
AcDbLine
 10
-14234.420280384455
 20
83.297955833119
 30
0.0
 11
-14231.66028613808
 21
82.992420716446
 31
0.0
  0
LINE
  5
F8
100
AcDbEntity
  8
Frei
  6
CONTINUOUS
 62
           7
100
AcDbLine
 10
-14234.365265774251
 20
83.794920009557
 30
0.0
 11
-14232.788580116061
 21
83.620378762899
 31
0.0
  0
LINE
  5
F9
100
AcDbEntity
  8
Frei
  6
CONTINUOUS
 62
           7
100
AcDbLine
 10
-14234.420280384455
 20
83.297955833119
 30
0.0
 11
-14234.365265774251
 21
83.794920009557
 31
0.0
  0
LINE
  5
FA
100
AcDbEntity
  8
Frei
  6
CONTINUOUS
 62
           7
100
AcDbLine
 10
-14234.47529499466
 20
82.800991656678
 30
0.0
 11
-14234.420280384455
 21
83.297955833119
 31
0.0
  0
LINE
  5
FB
100
AcDbEntity
  8
Frei
  6
CONTINUOUS
 62
           7
100
AcDbLine
 10
-14232.898609336469
 20
82.62645041002
 30
0.0
 11
-14234.47529499466
 21
82.800991656678
 31
0.0
  0
LINE
  5
FC
100
AcDbEntity
  8
Frei
  6
CONTINUOUS
 62
           7
100
AcDbLine
 10
-14376.063537228332
 20
93.444458946228
 30
0.0
 11
-14372.432572954844
 21
126.244094591226
 31
0.0
  0
LINE
  5
FD
100
AcDbEntity
  8
Frei
  6
CONTINUOUS
 62
           7
100
AcDbLine
 10
-14389.978534168635
 20
94.984868031951
 30
0.0
 11
-14376.063537228332
 21
93.444458946228
 31
0.0
  0
LINE
  5
FE
100
AcDbEntity
  8
Frei
  6
CONTINUOUS
 62
           7
100
AcDbLine
 10
-14382.371856483631
 20
127.344386795314
 30
0.0
 11
-14372.929537131282
 21
126.29910920143
 31
0.0
  0
LINE
  5
FF
100
AcDbEntity
  8
Frei
  6
CONTINUOUS
 62
           7
100
AcDbLine
 10
-14382.591914924447
 20
125.356530089556
 30
0.0
 11
-14382.371856483631
 21
127.344386795314
 31
0.0
  0
LINE
  5
100
100
AcDbEntity
  8
Frei
  6
CONTINUOUS
 62
           7
100
AcDbLine
 10
-14383.362119467309
 20
118.399031619405
 30
0.0
 11
-14383.417134077514
 21
117.902067442966
 31
0.0
  0
LINE
  5
101
100
AcDbEntity
  8
Frei
  6
CONTINUOUS
 62
           7
100
AcDbLine
 10
-14388.386775841907
 20
118.45221354501
 30
0.0
 11
-14387.451527468433
 21
126.900604544479
 31
0.0
  0
LINE
  5
102
100
AcDbEntity
  8
Frei
  6
CONTINUOUS
 62
           7
100
AcDbLine
 10
-14383.417134077514
 20
117.902067442966
 30
0.0
 11
-14388.386775841907
 21
118.45221354501
 31
0.0
  0
LINE
  5
103
100
AcDbEntity
  8
Frei
  6
CONTINUOUS
 62
           7
100
AcDbLine
 10
-14386.347569895146
 20
127.784503676949
 30
0.0
 11
-14382.371856483631
 21
127.344386795314
 31
0.0
  0
LINE
  5
104
100
AcDbEntity
  8
Frei
  6
CONTINUOUS
 62
           7
100
AcDbLine
 10
-14386.839813639328
 20
119.231822531507
 30
0.0
 11
-14383.362119467309
 21
118.399031619405
 31
0.0
  0
LINE
  5
105
100
AcDbEntity
  8
Frei
  6
CONTINUOUS
 62
           7
100
AcDbLine
 10
-14386.993808369316
 20
121.819390731618
 30
0.0
 11
-14387.220336686401
 21
119.773089610488
 31
0.0
  0
LINE
  5
106
100
AcDbEntity
  8
Frei
  6
CONTINUOUS
 62
           7
100
AcDbLine
 10
-14382.591914924447
 20
125.356530089556
 30
0.0
 11
-14383.362119467309
 21
118.399031619405
 31
0.0
  0
LINE
  5
107
100
AcDbEntity
  8
Frei
  6
CONTINUOUS
 62
           7
100
AcDbLine
 10
-14386.167554142305
 20
125.304552776266
 30
0.0
 11
-14382.591914924447
 21
125.356530089556
 31
0.0
  0
LINE
  5
108
100
AcDbEntity
  8
Frei
  6
CONTINUOUS
 62
           7
100
AcDbLine
 10
-14386.883779148908
 20
122.813319084497
 30
0.0
 11
-14386.657250831824
 21
124.859620205627
 31
0.0
  0
LINE
  5
109
100
AcDbEntity
  8
Frei
  6
CONTINUOUS
 62
           2
100
AcDbLine
 10
-14385.362108100924
 20
122.141813661399
 30
0.0
 11
-14388.122102347297
 21
122.447348778072
 31
0.0
  0
LINE
  5
10A
100
AcDbEntity
  8
Frei
  6
CONTINUOUS
 62
           7
100
AcDbLine
 10
-14385.417122711127
 20
121.64484948496
 30
0.0
 11
-14386.993808369316
 21
121.819390731618
 31
0.0
  0
LINE
  5
10B
100
AcDbEntity
  8
Frei
  6
CONTINUOUS
 62
           7
100
AcDbLine
 10
-14385.362108100924
 20
122.141813661399
 30
0.0
 11
-14385.417122711127
 21
121.64484948496
 31
0.0
  0
LINE
  5
10C
100
AcDbEntity
  8
Frei
  6
CONTINUOUS
 62
           7
100
AcDbLine
 10
-14385.307093490719
 20
122.638777837839
 30
0.0
 11
-14385.362108100924
 21
122.141813661399
 31
0.0
  0
LINE
  5
10D
100
AcDbEntity
  8
Frei
  6
CONTINUOUS
 62
           7
100
AcDbLine
 10
-14386.883779148908
 20
122.813319084497
 30
0.0
 11
-14385.307093490719
 21
122.638777837839
 31
0.0
  0
LINE
  5
10E
100
AcDbEntity
  8
Frei
  6
CONTINUOUS
 62
           7
100
AcDbLine
 10
-14350.584496480833
 20
87.3037356511
 30
0.0
 11
-14350.639511091038
 21
86.80677147466
 31
0.0
  0
LINE
  5
10F
100
AcDbEntity
  8
Frei
  6
CONTINUOUS
 62
           7
100
AcDbLine
 10
-14350.639511091038
 20
86.80677147466
 30
0.0
 11
-14274.107027919374
 21
78.334521503185
 31
0.0
  0
LINE
  5
110
100
AcDbEntity
  8
Frei
  6
CONTINUOUS
 62
           7
100
AcDbLine
 10
-14274.107027919374
 20
78.334521503185
 30
0.0
 11
-14268.935654560162
 21
125.049154088484
 31
0.0
  0
LINE
  5
111
100
AcDbEntity
  8
Frei
  6
CONTINUOUS
 62
           7
100
AcDbLine
 10
-14268.935654560162
 20
125.049154088484
 30
0.0
 11
-14345.468137731827
 21
133.52140405996
 31
0.0
  0
LINE
  5
112
100
AcDbEntity
  8
Frei
  6
CONTINUOUS
 62
           7
100
AcDbLine
 10
-14372.929537131282
 20
126.29910920143
 30
0.0
 11
-14372.432572954844
 21
126.244094591226
 31
0.0
  0
LINE
  5
113
100
AcDbEntity
  8
Frei
  6
CONTINUOUS
 62
           7
100
AcDbLine
 10
-14346.462066084707
 20
133.631433280369
 30
0.0
 11
-14371.807239083113
 21
136.437178400792
 31
0.0
  0
LINE
  5
114
100
AcDbEntity
  8
Frei
  6
CONTINUOUS
 62
           7
100
AcDbLine
 10
-14376.481648265886
 20
89.667531205288
 30
0.0
 11
-14376.063537228332
 21
93.444458946228
 31
0.0
  0
LINE
  5
115
100
AcDbEntity
  8
Frei
  6
CONTINUOUS
 62
           7
100
AcDbLine
 10
-14372.929537131282
 20
126.29910920143
 30
0.0
 11
-14371.807239083113
 21
136.437178400792
 31
0.0
  0
LINE
  5
116
100
AcDbEntity
  8
Frei
  6
CONTINUOUS
 62
           7
100
AcDbLine
 10
-14350.584496480833
 20
87.3037356511
 30
0.0
 11
-14351.578424833713
 21
87.413764871508
 31
0.0
  0
LINE
  5
117
100
AcDbEntity
  8
Frei
  6
CONTINUOUS
 62
           7
100
AcDbLine
 10
-14345.52315234203
 20
133.024439883522
 30
0.0
 11
-14350.584496480833
 21
87.3037356511
 31
0.0
  0
LINE
  5
118
100
AcDbEntity
  8
Frei
  6
CONTINUOUS
 62
           7
100
AcDbLine
 10
-14345.52315234203
 20
133.024439883522
 30
0.0
 11
-14346.51708069491
 21
133.13446910393
 31
0.0
  0
LINE
  5
119
100
AcDbEntity
  8
Frei
  6
CONTINUOUS
 62
           7
100
AcDbLine
 10
-14345.468137731827
 20
133.52140405996
 30
0.0
 11
-14345.52315234203
 21
133.024439883522
 31
0.0
  0
LINE
  5
11A
100
AcDbEntity
  8
Frei
  6
CONTINUOUS
 62
           7
100
AcDbLine
 10
-14351.578424833713
 20
87.413764871508
 30
0.0
 11
-14346.462066084707
 21
133.631433280369
 31
0.0
  0
LINE
  5
11B
100
AcDbEntity
  8
Frei
  6
CONTINUOUS
 62
           7
100
AcDbLine
 10
-14351.633439443918
 20
86.916800695069
 30
0.0
 11
-14351.578424833713
 21
87.413764871508
 31
0.0
  0
LINE
  5
11C
100
AcDbEntity
  8
Frei
  6
CONTINUOUS
 62
           7
100
AcDbLine
 10
-14376.481648265886
 20
89.667531205288
 30
0.0
 11
-14351.633439443918
 21
86.916800695069
 31
0.0
  0
LINE
  5
11D
100
AcDbEntity
  8
Frei
  6
CONTINUOUS
 62
           7
100
AcDbLine
 10
-14273.113099566495
 20
78.224492282776
 30
0.0
 11
-14248.264890744527
 21
75.473761772557
 31
0.0
  0
LINE
  5
11E
100
AcDbEntity
  8
Frei
  6
CONTINUOUS
 62
           7
100
AcDbLine
 10
-14273.05808495629
 20
78.721456459215
 30
0.0
 11
-14273.113099566495
 21
78.224492282776
 31
0.0
  0
LINE
  5
11F
100
AcDbEntity
  8
Frei
  6
CONTINUOUS
 62
           7
100
AcDbLine
 10
-14267.941726207284
 20
124.939124868076
 30
0.0
 11
-14273.05808495629
 21
78.721456459215
 31
0.0
  0
LINE
  5
120
100
AcDbEntity
  8
Frei
  6
CONTINUOUS
 62
           7
100
AcDbLine
 10
-14267.996740817487
 20
124.442160691637
 30
0.0
 11
-14268.990669170365
 21
124.552189912046
 31
0.0
  0
LINE
  5
121
100
AcDbEntity
  8
Frei
  6
CONTINUOUS
 62
           7
100
AcDbLine
 10
-14273.05808495629
 20
78.721456459215
 30
0.0
 11
-14274.052013309169
 21
78.831485679624
 31
0.0
  0
LINE
  5
122
100
AcDbEntity
  8
Frei
  6
CONTINUOUS
 62
           7
100
AcDbLine
 10
-14242.596553208876
 20
122.133379747652
 30
0.0
 11
-14243.718851257045
 21
111.99531054829
 31
0.0
  0
LINE
  5
123
100
AcDbEntity
  8
Frei
  6
CONTINUOUS
 62
           7
100
AcDbLine
 10
-14242.596553208876
 20
122.133379747652
 30
0.0
 11
-14267.941726207284
 21
124.939124868076
 31
0.0
  0
LINE
  5
124
100
AcDbEntity
  8
Frei
  6
CONTINUOUS
 62
           7
100
AcDbLine
 10
-14244.215815433485
 20
112.050325158494
 30
0.0
 11
-14243.718851257045
 21
111.99531054829
 31
0.0
  0
LINE
  5
125
100
AcDbEntity
  8
Frei
  6
CONTINUOUS
 62
           7
100
AcDbLine
 10
-14244.215815433485
 20
112.050325158494
 30
0.0
 11
-14248.264890744527
 21
75.473761772557
 31
0.0
  0
LINE
  5
126
100
AcDbEntity
  8
Frei
  6
CONTINUOUS
 62
           7
100
AcDbLine
 10
-14419.365431296361
 20
124.899919046522
 30
0.0
 11
-14421.353288002118
 21
125.11997748734
 31
0.0
  0
LINE
  5
127
100
AcDbEntity
  8
Frei
  6
CONTINUOUS
 62
           7
100
AcDbLine
 10
-14420.46205813125
 20
105.905251121417
 30
0.0
 11
-14418.481532163891
 21
123.795961473234
 31
0.0
  0
LINE
  5
128
100
AcDbEntity
  8
Frei
  6
CONTINUOUS
 62
           7
100
AcDbLine
 10
-14423.553872410293
 20
105.241410429765
 30
0.0
 11
-14421.566015704537
 21
105.021351988947
 31
0.0
  0
LINE
  5
129
100
AcDbEntity
  8
Frei
  6
CONTINUOUS
 62
           7
100
AcDbLine
 10
-14423.887625440721
 20
111.315009767446
 30
0.0
 11
-14424.437771542765
 21
106.345368003052
 31
0.0
  0
LINE
  5
12A
100
AcDbEntity
  8
Frei
  6
CONTINUOUS
 62
           7
100
AcDbLine
 10
-14421.353288002118
 20
125.11997748734
 30
0.0
 11
-14422.457245575406
 21
124.23607835487
 31
0.0
  0
LINE
  5
12B
100
AcDbEntity
  8
Frei
  6
CONTINUOUS
 62
           7
100
AcDbLine
 10
-14419.365431296361
 20
124.899919046522
 30
0.0
 11
-14418.481532163891
 21
123.795961473234
 31
0.0
  0
LINE
  5
12C
100
AcDbEntity
  8
Frei
  6
CONTINUOUS
 62
           7
100
AcDbLine
 10
-14420.46205813125
 20
105.905251121417
 30
0.0
 11
-14421.566015704537
 21
105.021351988947
 31
0.0
  0
LINE
  5
12D
100
AcDbEntity
  8
Frei
  6
CONTINUOUS
 62
           7
100
AcDbLine
 10
-14423.553872410293
 20
105.241410429765
 30
0.0
 11
-14424.437771542765
 21
106.345368003052
 31
0.0
  0
LINE
  5
12E
100
AcDbEntity
  8
Frei
  6
CONTINUOUS
 62
           7
100
AcDbLine
 10
-14423.553872410293
 20
105.241410429765
 30
0.0
 11
-14421.353288002118
 21
125.11997748734
 31
0.0
  0
LINE
  5
12F
100
AcDbEntity
  8
Frei
  6
CONTINUOUS
 62
           7
100
AcDbLine
 10
-14421.566015704537
 20
105.021351988947
 30
0.0
 11
-14419.365431296361
 21
124.899919046522
 31
0.0
  0
LINE
  5
130
100
AcDbEntity
  8
Frei
  6
CONTINUOUS
 62
           7
100
AcDbLine
 10
-14421.287277284315
 20
98.450788474827
 30
0.0
 11
-14420.46205813125
 21
105.905251121417
 31
0.0
  0
LINE
  5
131
100
AcDbEntity
  8
Frei
  6
CONTINUOUS
 62
           7
100
AcDbLine
 10
-14391.418077456949
 20
104.702260435321
 30
0.0
 11
-14392.463355050832
 21
95.259941082973
 31
0.0
  0
LINE
  5
132
100
AcDbEntity
  8
Frei
  6
CONTINUOUS
 62
           7
100
AcDbLine
 10
-14424.111349250737
 20
118.382537458006
 30
0.0
 11
-14423.007391677451
 21
119.266436590476
 31
0.0
  0
LINE
  5
133
100
AcDbEntity
  8
Frei
  6
CONTINUOUS
 62
           7
100
AcDbLine
 10
-14422.457245575406
 20
124.23607835487
 30
0.0
 11
-14423.007391677451
 21
119.266436590476
 31
0.0
  0
LINE
  5
134
100
AcDbEntity
  8
Frei
  6
CONTINUOUS
 62
           7
100
AcDbLine
 10
-14424.166363860943
 20
117.885573281567
 30
0.0
 11
-14424.111349250737
 21
118.382537458006
 31
0.0
  0
LINE
  5
135
100
AcDbEntity
  8
Frei
  6
CONTINUOUS
 62
           7
100
AcDbLine
 10
-14423.887625440721
 20
111.315009767446
 30
0.0
 11
-14424.771524573191
 21
112.418967340733
 31
0.0
  0
LINE
  5
136
100
AcDbEntity
  8
Frei
  6
CONTINUOUS
 62
           7
100
AcDbLine
 10
-14423.777596220312
 20
112.308938120325
 30
0.0
 11
-14423.887625440721
 21
111.315009767446
 31
0.0
  0
LINE
  5
137
100
AcDbEntity
  8
Frei
  6
CONTINUOUS
 62
           2
100
AcDbLine
 10
-14423.117420897859
 20
118.272508237597
 30
0.0
 11
-14424.111349250737
 21
118.382537458006
 31
0.0
  0
LINE
  5
138
100
AcDbEntity
  8
Frei
  6
CONTINUOUS
 62
           7
100
AcDbLine
 10
-14423.007391677451
 20
119.266436590476
 30
0.0
 11
-14423.117420897859
 21
118.272508237597
 31
0.0
  0
LINE
  5
139
100
AcDbEntity
  8
Frei
  6
CONTINUOUS
 62
           2
100
AcDbLine
 10
-14423.777596220312
 20
112.308938120325
 30
0.0
 11
-14424.771524573191
 21
112.418967340733
 31
0.0
  0
LINE
  5
13A
100
AcDbEntity
  8
Frei
  6
CONTINUOUS
 62
           7
100
AcDbLine
 10
-14423.117420897859
 20
118.272508237597
 30
0.0
 11
-14423.777596220312
 21
112.308938120325
 31
0.0
  0
LINE
  5
13B
100
AcDbEntity
  8
Frei
  6
CONTINUOUS
 62
           1
100
AcDbLine
 10
-14421.693121306867
 20
117.611781967214
 30
0.0
 11
-14424.166363860943
 21
117.885573281567
 31
0.0
  0
LINE
  5
13C
100
AcDbEntity
  8
Frei
  6
CONTINUOUS
 62
           7
100
AcDbLine
 10
-14424.221378471146
 20
117.388609105127
 30
0.0
 11
-14424.166363860943
 21
117.885573281567
 31
0.0
  0
LINE
  5
13D
100
AcDbEntity
  8
Frei
  6
CONTINUOUS
 62
           1
100
AcDbLine
 10
-14422.24326740891
 20
112.642140202821
 30
0.0
 11
-14424.716509962986
 21
112.915931517173
 31
0.0
  0
LINE
  5
13E
100
AcDbEntity
  8
Frei
  6
CONTINUOUS
 62
           7
100
AcDbLine
 10
-14424.771524573191
 20
112.418967340733
 30
0.0
 11
-14424.716509962986
 21
112.915931517173
 31
0.0
  0
LINE
  5
13F
100
AcDbEntity
  8
Frei
  6
CONTINUOUS
 62
           1
100
AcDbLine
 10
-14421.748135917071
 20
117.114817790775
 30
0.0
 11
-14424.221378471146
 21
117.388609105127
 31
0.0
  0
LINE
  5
140
100
AcDbEntity
  8
Frei
  6
CONTINUOUS
 62
           7
100
AcDbLine
 10
-14424.661495352782
 20
113.412895693612
 30
0.0
 11
-14424.221378471146
 21
117.388609105127
 31
0.0
  0
LINE
  5
141
100
AcDbEntity
  8
Frei
  6
CONTINUOUS
 62
           1
100
AcDbLine
 10
-14422.188252798707
 20
113.13910437926
 30
0.0
 11
-14424.661495352782
 21
113.412895693612
 31
0.0
  0
LINE
  5
142
100
AcDbEntity
  8
Frei
  6
CONTINUOUS
 62
           7
100
AcDbLine
 10
-14424.716509962986
 20
112.915931517173
 30
0.0
 11
-14424.661495352782
 21
113.412895693612
 31
0.0
  0
LINE
  5
143
100
AcDbEntity
  8
Frei
  6
CONTINUOUS
 62
           7
100
AcDbLine
 10
-14416.281958810441
 20
126.122773502645
 30
0.0
 11
-14389.272507658978
 21
124.083863316456
 31
0.0
  0
LINE
  5
144
100
AcDbEntity
  8
Frei
  6
CONTINUOUS
 62
           7
100
AcDbLine
 10
-14418.420364704814
 20
124.348506257471
 30
0.0
 11
-14418.481532163891
 21
123.795961473234
 31
0.0
  0
LINE
  5
145
100
AcDbEntity
  8
Frei
  6
CONTINUOUS
 62
           7
100
AcDbLine
 10
-14392.463355050832
 20
95.259941082973
 30
0.0
 11
-14421.287277284315
 21
98.450788474827
 31
0.0
  0
LINE
  5
146
100
AcDbEntity
  8
Frei
  6
CONTINUOUS
 62
           7
100
AcDbLine
 10
-14421.397306504725
 20
97.456860121948
 30
0.0
 11
-14421.287277284315
 21
98.450788474827
 31
0.0
  0
LINE
  5
147
100
AcDbEntity
  8
Frei
  6
CONTINUOUS
 62
           7
100
AcDbLine
 10
-14420.900342328285
 20
97.401845511744
 30
0.0
 11
-14421.397306504725
 21
97.456860121948
 31
0.0
  0
LINE
  5
148
100
AcDbEntity
  8
Frei
  6
CONTINUOUS
 62
           7
100
AcDbLine
 10
-14392.463355050832
 20
95.259941082973
 30
0.0
 11
-14392.573384271242
 21
94.266012730094
 31
0.0
  0
LINE
  5
149
100
AcDbEntity
  8
Frei
  6
CONTINUOUS
 62
           7
100
AcDbLine
 10
-14432.766969898825
 20
85.636083738612
 30
0.0
 11
-14422.330722193597
 21
84.48077692432
 31
0.0
  0
LINE
  5
14A
100
AcDbEntity
  8
Frei
  6
CONTINUOUS
 62
           7
100
AcDbLine
 10
-14436.018329954684
 20
69.898273923166
 30
0.0
 11
-14436.073344564889
 21
69.401309746726
 31
0.0
  0
LINE
  5
14B
100
AcDbEntity
  8
Frei
  6
CONTINUOUS
 62
           7
100
AcDbLine
 10
-14434.747495866182
 20
67.745373386795
 30
0.0
 11
-14424.311248160955
 21
66.590066572503
 31
0.0
  0
LINE
  5
14C
100
AcDbEntity
  8
Frei
  6
CONTINUOUS
 62
           7
100
AcDbLine
 10
-14423.926145889525
 20
70.068815807578
 30
0.0
 11
-14420.900342328285
 21
97.401845511744
 31
0.0
  0
LINE
  5
14D
100
AcDbEntity
  8
Frei
  6
CONTINUOUS
 62
           7
100
AcDbLine
 10
-14393.07034844768
 20
94.321027340298
 30
0.0
 11
-14420.900342328285
 21
97.401845511744
 31
0.0
  0
LINE
  5
14E
100
AcDbEntity
  8
Frei
  6
CONTINUOUS
 62
           7
100
AcDbLine
 10
-14422.60029719082
 20
68.412879447647
 30
0.0
 11
-14416.672407496086
 21
67.756653996495
 31
0.0
  0
LINE
  5
14F
100
AcDbEntity
  8
Frei
  6
CONTINUOUS
 62
           7
100
AcDbLine
 10
-14396.09615200892
 20
66.987997636133
 30
0.0
 11
-14393.07034844768
 21
94.321027340298
 31
0.0
  0
LINE
  5
150
100
AcDbEntity
  8
Frei
  6
CONTINUOUS
 62
           7
100
AcDbLine
 10
-14392.573384271242
 20
94.266012730094
 30
0.0
 11
-14393.07034844768
 21
94.321027340298
 31
0.0
  0
LINE
  5
151
100
AcDbEntity
  8
Frei
  6
CONTINUOUS
 62
           7
100
AcDbLine
 10
-14416.672407496086
 20
67.756653996495
 30
0.0
 11
-14424.311248160955
 21
66.590066572503
 31
0.0
  0
LINE
  5
152
100
AcDbEntity
  8
Frei
  6
CONTINUOUS
 62
           7
100
AcDbLine
 10
-14397.752088368852
 20
65.662148937428
 30
0.0
 11
-14416.672407496086
 21
67.756653996495
 31
0.0
  0
LINE
  5
153
100
AcDbEntity
  8
Frei
  6
CONTINUOUS
 62
           7
100
AcDbLine
 10
-14439.447562633355
 20
84.363416965512
 30
0.0
 11
-14434.477920868962
 21
83.813270863468
 31
0.0
  0
LINE
  5
154
100
AcDbEntity
  8
Frei
  6
CONTINUOUS
 62
           7
100
AcDbLine
 10
-14434.422906258756
 20
84.310235039907
 30
0.0
 11
-14434.477920868962
 21
83.813270863468
 31
0.0
  0
LINE
  5
155
100
AcDbEntity
  8
Frei
  6
CONTINUOUS
 62
           7
100
AcDbLine
 10
-14440.987971719078
 20
70.44842002521
 30
0.0
 11
-14436.018329954684
 21
69.898273923166
 31
0.0
  0
LINE
  5
156
100
AcDbEntity
  8
Frei
  6
CONTINUOUS
 62
           7
100
AcDbLine
 10
-14435.908300734276
 20
70.892202276044
 30
0.0
 11
-14436.018329954684
 21
69.898273923166
 31
0.0
  0
LINE
  5
157
100
AcDbEntity
  8
Frei
  6
CONTINUOUS
 62
           2
100
AcDbLine
 10
-14434.58795008937
 20
82.819342510589
 30
0.0
 11
-14439.557591853763
 21
83.369488612633
 31
0.0
  0
LINE
  5
158
100
AcDbEntity
  8
Frei
  6
CONTINUOUS
 62
           7
100
AcDbLine
 10
-14434.477920868962
 20
83.813270863468
 30
0.0
 11
-14434.58795008937
 21
82.819342510589
 31
0.0
  0
LINE
  5
159
100
AcDbEntity
  8
Frei
  6
CONTINUOUS
 62
           2
100
AcDbLine
 10
-14435.908300734276
 20
70.892202276044
 30
0.0
 11
-14440.87794249867
 21
71.442348378088
 31
0.0
  0
LINE
  5
15A
100
AcDbEntity
  8
Frei
  6
CONTINUOUS
 62
           7
100
AcDbLine
 10
-14434.58795008937
 20
82.819342510589
 30
0.0
 11
-14435.908300734276
 21
70.892202276044
 31
0.0
  0
LINE
  5
15B
100
AcDbEntity
  8
Frei
  6
CONTINUOUS
 62
           7
100
AcDbLine
 10
-14389.877668371226
 20
118.617257375623
 30
0.0
 11
-14389.12626981171
 21
118.534076533181
 31
0.0
  0
LINE
  5
15C
100
AcDbEntity
  8
Frei
  6
CONTINUOUS
 62
           7
100
AcDbLine
 10
-14389.272507658978
 20
124.083863316456
 30
0.0
 11
-14389.877668371226
 21
118.617257375623
 31
0.0
  0
LINE
  5
15D
100
AcDbEntity
  8
Frei
  6
CONTINUOUS
 62
           7
100
AcDbLine
 10
-14390.262770642657
 20
115.138508140547
 30
0.0
 11
-14389.511372083141
 21
115.055327298105
 31
0.0
  0
LINE
  5
15E
100
AcDbEntity
  8
Frei
  6
CONTINUOUS
 62
           7
100
AcDbLine
 10
-14389.877668371226
 20
118.617257375623
 30
0.0
 11
-14390.262770642657
 21
115.138508140547
 31
0.0
  0
LINE
  5
15F
100
AcDbEntity
  8
Frei
  6
CONTINUOUS
 62
           7
100
AcDbLine
 10
-14391.032975185519
 20
108.181009670396
 30
0.0
 11
-14390.281576626003
 21
108.097828827954
 31
0.0
  0
LINE
  5
160
100
AcDbEntity
  8
Frei
  6
CONTINUOUS
 62
           7
100
AcDbLine
 10
-14390.262770642657
 20
115.138508140547
 30
0.0
 11
-14391.032975185519
 21
108.181009670396
 31
0.0
  0
LINE
  5
161
100
AcDbEntity
  8
Frei
  6
CONTINUOUS
 62
           7
100
AcDbLine
 10
-14391.418077456949
 20
104.702260435321
 30
0.0
 11
-14390.666678897433
 21
104.619079592878
 31
0.0
  0
LINE
  5
162
100
AcDbEntity
  8
Frei
  6
CONTINUOUS
 62
           7
100
AcDbLine
 10
-14391.032975185519
 20
108.181009670396
 30
0.0
 11
-14391.418077456949
 21
104.702260435321
 31
0.0
  0
LINE
  5
163
100
AcDbEntity
  8
Frei
  6
CONTINUOUS
 62
           7
100
AcDbLine
 10
-14389.156980384769
 20
111.494715074858
 30
0.0
 11
-14388.579326977622
 21
116.712838927472
 31
0.0
  0
LINE
  5
164
100
AcDbEntity
  8
Frei
  6
CONTINUOUS
 62
           7
100
AcDbLine
 10
-14439.345433155548
 20
85.285984473316
 30
0.0
 11
-14439.201360775869
 21
86.587435328796
 31
0.0
  0
LINE
  5
165
100
AcDbEntity
  8
Frei
  6
CONTINUOUS
 62
           7
100
AcDbLine
 10
-14445.452422339209
 20
68.691367536778
 30
0.0
 11
-14441.234173576564
 21
68.224401661925
 31
0.0
  0
LINE
  5
166
100
AcDbEntity
  8
Frei
  6
CONTINUOUS
 62
           7
100
AcDbLine
 10
-14444.315074919941
 20
85.836130575359
 30
0.0
 11
-14439.345433155548
 21
85.285984473316
 31
0.0
  0
LINE
  5
167
100
AcDbEntity
  8
Frei
  6
CONTINUOUS
 62
           7
100
AcDbLine
 10
-14439.565491596364
 20
83.298127767558
 30
0.0
 11
-14439.345433155548
 21
85.285984473316
 31
0.0
  0
LINE
  5
168
100
AcDbEntity
  8
Frei
  6
CONTINUOUS
 62
           7
100
AcDbLine
 10
-14439.565491596364
 20
83.298127767558
 30
0.0
 11
-14444.535133360758
 21
83.848273869602
 31
0.0
  0
LINE
  5
169
100
AcDbEntity
  8
Frei
  6
CONTINUOUS
 62
           7
100
AcDbLine
 10
-14444.315074919941
 20
85.836130575359
 30
0.0
 11
-14444.535133360758
 21
83.848273869602
 31
0.0
  0
LINE
  5
16A
100
AcDbEntity
  8
Frei
  6
CONTINUOUS
 62
           7
100
AcDbLine
 10
-14439.709563976043
 20
81.996676912079
 30
0.0
 11
-14439.565491596364
 21
83.298127767558
 31
0.0
  0
LINE
  5
16B
100
AcDbEntity
  8
Frei
  6
CONTINUOUS
 62
           7
100
AcDbLine
 10
-14439.997708735398
 20
79.393775201118
 30
0.0
 11
-14439.709563976043
 21
81.996676912079
 31
0.0
  0
LINE
  5
16C
100
AcDbEntity
  8
Frei
  6
CONTINUOUS
 62
           7
100
AcDbLine
 10
-14439.997708735398
 20
79.393775201118
 30
0.0
 11
-14444.967350499792
 21
79.943921303162
 31
0.0
  0
LINE
  5
16D
100
AcDbEntity
  8
Frei
  6
CONTINUOUS
 62
           7
100
AcDbLine
 10
-14444.535133360758
 20
83.848273869602
 30
0.0
 11
-14444.967350499792
 21
79.943921303162
 31
0.0
  0
LINE
  5
16E
100
AcDbEntity
  8
Frei
  6
CONTINUOUS
 62
           7
100
AcDbLine
 10
-14440.437825617033
 20
75.418061789603
 30
0.0
 11
-14439.997708735398
 21
79.393775201118
 31
0.0
  0
LINE
  5
16F
100
AcDbEntity
  8
Frei
  6
CONTINUOUS
 62
           7
100
AcDbLine
 10
-14440.437825617033
 20
75.418061789603
 30
0.0
 11
-14445.407467381427
 21
75.968207891647
 31
0.0
  0
LINE
  5
170
100
AcDbEntity
  8
Frei
  6
CONTINUOUS
 62
           7
100
AcDbLine
 10
-14444.967350499792
 20
79.943921303162
 30
0.0
 11
-14445.407467381427
 21
75.968207891647
 31
0.0
  0
LINE
  5
171
100
AcDbEntity
  8
Frei
  6
CONTINUOUS
 62
           7
100
AcDbLine
 10
-14440.72597037639
 20
72.815160078643
 30
0.0
 11
-14440.437825617033
 21
75.418061789603
 31
0.0
  0
LINE
  5
172
100
AcDbEntity
  8
Frei
  6
CONTINUOUS
 62
           7
100
AcDbLine
 10
-14440.870042756069
 20
71.513709223162
 30
0.0
 11
-14440.72597037639
 21
72.815160078643
 31
0.0
  0
LINE
  5
173
100
AcDbEntity
  8
Frei
  6
CONTINUOUS
 62
           7
100
AcDbLine
 10
-14440.870042756069
 20
71.513709223162
 30
0.0
 11
-14445.839684520462
 21
72.063855325206
 31
0.0
  0
LINE
  5
174
100
AcDbEntity
  8
Frei
  6
CONTINUOUS
 62
           7
100
AcDbLine
 10
-14445.407467381427
 20
75.968207891647
 30
0.0
 11
-14445.839684520462
 21
72.063855325206
 31
0.0
  0
LINE
  5
175
100
AcDbEntity
  8
Frei
  6
CONTINUOUS
 62
           7
100
AcDbLine
 10
-14441.090101196885
 20
69.525852517404
 30
0.0
 11
-14440.870042756069
 21
71.513709223162
 31
0.0
  0
LINE
  5
176
100
AcDbEntity
  8
Frei
  6
CONTINUOUS
 62
           7
100
AcDbLine
 10
-14441.090101196885
 20
69.525852517404
 30
0.0
 11
-14446.059742961279
 21
70.075998619448
 31
0.0
  0
LINE
  5
177
100
AcDbEntity
  8
Frei
  6
CONTINUOUS
 62
           7
100
AcDbLine
 10
-14445.839684520462
 20
72.063855325206
 30
0.0
 11
-14446.059742961279
 21
70.075998619448
 31
0.0
  0
LINE
  5
178
100
AcDbEntity
  8
Frei
  6
CONTINUOUS
 62
           7
100
AcDbLine
 10
-14441.234173576564
 20
68.224401661925
 30
0.0
 11
-14441.090101196885
 21
69.525852517404
 31
0.0
  0
LINE
  5
179
100
AcDbEntity
  8
Frei
  6
CONTINUOUS
 62
           7
100
AcDbLine
 10
-14444.315074919941
 20
85.836130575359
 30
0.0
 11
-14443.419609538514
 21
87.05440120365
 31
0.0
  0
LINE
  5
17A
100
AcDbEntity
  8
Frei
  6
CONTINUOUS
 62
           7
100
AcDbLine
 10
-14439.201360775869
 20
86.587435328796
 30
0.0
 11
-14443.419609538514
 21
87.05440120365
 31
0.0
  0
LINE
  5
17B
100
AcDbEntity
  8
Frei
  6
CONTINUOUS
 62
           7
100
AcDbLine
 10
-14445.452422339209
 20
68.691367536778
 30
0.0
 11
-14446.059742961279
 21
70.075998619448
 31
0.0
  0
LINE
  5
17C
100
AcDbEntity
  8
Frei
  6
CONTINUOUS
 62
           7
100
AcDbLine
 10
-14443.927812738688
 20
82.463642786932
 30
0.0
 11
-14444.535133360758
 21
83.848273869602
 31
0.0
  0
LINE
  5
17D
100
AcDbEntity
  8
Frei
  6
CONTINUOUS
 62
           7
100
AcDbLine
 10
-14439.709563976043
 20
81.996676912079
 30
0.0
 11
-14443.927812738688
 21
82.463642786932
 31
0.0
  0
LINE
  5
17E
100
AcDbEntity
  8
Frei
  6
CONTINUOUS
 62
           7
100
AcDbLine
 10
-14444.967350499792
 20
79.943921303162
 30
0.0
 11
-14443.927812738688
 21
82.463642786932
 31
0.0
  0
LINE
  5
17F
100
AcDbEntity
  8
Frei
  6
CONTINUOUS
 62
           7
100
AcDbLine
 10
-14444.944219139035
 20
73.282125953496
 30
0.0
 11
-14445.407467381427
 21
75.968207891647
 31
0.0
  0
LINE
  5
180
100
AcDbEntity
  8
Frei
  6
CONTINUOUS
 62
           7
100
AcDbLine
 10
-14440.72597037639
 20
72.815160078643
 30
0.0
 11
-14444.944219139035
 21
73.282125953496
 31
0.0
  0
LINE
  5
181
100
AcDbEntity
  8
Frei
  6
CONTINUOUS
 62
           7
100
AcDbLine
 10
-14445.839684520462
 20
72.063855325206
 30
0.0
 11
-14444.944219139035
 21
73.282125953496
 31
0.0
  0
LINE
  5
182
100
AcDbEntity
  8
Frei
  6
CONTINUOUS
 62
           3
100
AcDbLine
 10
-14400.449630139025
 20
73.104142514297
 30
0.0
 11
-14418.340340490842
 21
75.084668481655
 31
0.0
  0
LINE
  5
183
100
AcDbEntity
  8
Frei
  6
CONTINUOUS
 62
           3
100
AcDbLine
 10
-14401.112004682998
 20
72.573803034815
 30
0.0
 11
-14400.449630139025
 21
73.104142514297
 31
0.0
  0
LINE
  5
184
100
AcDbEntity
  8
Frei
  6
CONTINUOUS
 62
           3
100
AcDbLine
 10
-14400.581665203516
 20
71.911428490843
 30
0.0
 11
-14401.112004682998
 21
72.573803034815
 31
0.0
  0
LINE
  5
185
100
AcDbEntity
  8
Frei
  6
CONTINUOUS
 62
           3
100
AcDbLine
 10
-14418.472375555333
 20
73.891954458201
 30
0.0
 11
-14400.581665203516
 21
71.911428490843
 31
0.0
  0
LINE
  5
186
100
AcDbEntity
  8
Frei
  6
CONTINUOUS
 62
           3
100
AcDbLine
 10
-14417.810001011361
 20
74.422293937683
 30
0.0
 11
-14418.472375555333
 21
73.891954458201
 31
0.0
  0
LINE
  5
187
100
AcDbEntity
  8
Frei
  6
CONTINUOUS
 62
           3
100
AcDbLine
 10
-14418.340340490842
 20
75.084668481655
 30
0.0
 11
-14417.810001011361
 21
74.422293937683
 31
0.0
  0
LINE
  5
188
100
AcDbEntity
  8
Frei
  6
CONTINUOUS
 62
           3
100
AcDbLine
 10
-14401.112004682998
 20
72.573803034815
 30
0.0
 11
-14417.810001011361
 21
74.422293937683
 31
0.0
  0
LINE
  5
189
100
AcDbEntity
  8
Frei
  6
CONTINUOUS
 62
           3
100
AcDbLine
 10
-14418.252317114515
 20
75.879811163958
 30
0.0
 11
-14417.589942570543
 21
76.41015064344
 31
0.0
  0
LINE
  5
18A
100
AcDbEntity
  8
Frei
  6
CONTINUOUS
 62
           3
100
AcDbLine
 10
-14400.361606762697
 20
73.8992851966
 30
0.0
 11
-14418.252317114515
 21
75.879811163958
 31
0.0
  0
LINE
  5
18B
100
AcDbEntity
  8
Frei
  6
CONTINUOUS
 62
           3
100
AcDbLine
 10
-14400.89194624218
 20
74.561659740573
 30
0.0
 11
-14400.361606762697
 21
73.8992851966
 31
0.0
  0
LINE
  5
18C
100
AcDbEntity
  8
Frei
  6
CONTINUOUS
 62
           3
100
AcDbLine
 10
-14400.229571698208
 20
75.091999220055
 30
0.0
 11
-14400.89194624218
 21
74.561659740573
 31
0.0
  0
LINE
  5
18D
100
AcDbEntity
  8
Frei
  6
CONTINUOUS
 62
           3
100
AcDbLine
 10
-14418.120282050026
 20
77.072525187413
 30
0.0
 11
-14400.229571698208
 21
75.091999220055
 31
0.0
  0
LINE
  5
18E
100
AcDbEntity
  8
Frei
  6
CONTINUOUS
 62
           3
100
AcDbLine
 10
-14417.589942570543
 20
76.41015064344
 30
0.0
 11
-14418.120282050026
 21
77.072525187413
 31
0.0
  0
LINE
  5
18F
100
AcDbEntity
  8
Frei
  6
CONTINUOUS
 62
           3
100
AcDbLine
 10
-14417.589942570543
 20
76.41015064344
 30
0.0
 11
-14400.89194624218
 21
74.561659740573
 31
0.0
  0
LINE
  5
190
100
AcDbEntity
  8
Frei
  6
CONTINUOUS
 62
           3
100
AcDbLine
 10
-14418.032258673698
 20
77.867667869716
 30
0.0
 11
-14417.369884129725
 21
78.398007349198
 31
0.0
  0
LINE
  5
191
100
AcDbEntity
  8
Frei
  6
CONTINUOUS
 62
           3
100
AcDbLine
 10
-14400.141548321881
 20
75.887141902358
 30
0.0
 11
-14418.032258673698
 21
77.867667869716
 31
0.0
  0
LINE
  5
192
100
AcDbEntity
  8
Frei
  6
CONTINUOUS
 62
           3
100
AcDbLine
 10
-14400.671887801362
 20
76.54951644633
 30
0.0
 11
-14400.141548321881
 21
75.887141902358
 31
0.0
  0
LINE
  5
193
100
AcDbEntity
  8
Frei
  6
CONTINUOUS
 62
           3
100
AcDbLine
 10
-14400.00951325739
 20
77.079855925812
 30
0.0
 11
-14400.671887801362
 21
76.54951644633
 31
0.0
  0
LINE
  5
194
100
AcDbEntity
  8
Frei
  6
CONTINUOUS
 62
           3
100
AcDbLine
 10
-14417.900223609207
 20
79.06038189317
 30
0.0
 11
-14400.00951325739
 21
77.079855925812
 31
0.0
  0
LINE
  5
195
100
AcDbEntity
  8
Frei
  6
CONTINUOUS
 62
           3
100
AcDbLine
 10
-14417.369884129725
 20
78.398007349198
 30
0.0
 11
-14417.900223609207
 21
79.06038189317
 31
0.0
  0
LINE
  5
196
100
AcDbEntity
  8
Frei
  6
CONTINUOUS
 62
           3
100
AcDbLine
 10
-14417.81220023288
 20
79.855524575473
 30
0.0
 11
-14417.149825688908
 21
80.385864054955
 31
0.0
  0
LINE
  5
197
100
AcDbEntity
  8
Frei
  6
CONTINUOUS
 62
           3
100
AcDbLine
 10
-14411.756275000727
 20
79.1851254162
 30
0.0
 11
-14417.81220023288
 21
79.855524575473
 31
0.0
  0
LINE
  5
198
100
AcDbEntity
  8
Frei
  6
CONTINUOUS
 62
           3
100
AcDbLine
 10
-14400.451829360545
 20
78.537373152088
 30
0.0
 11
-14399.921489881062
 21
77.874998608115
 31
0.0
  0
LINE
  5
199
100
AcDbEntity
  8
Frei
  6
CONTINUOUS
 62
           3
100
AcDbLine
 10
-14399.789454816571
 20
79.06771263157
 30
0.0
 11
-14400.451829360545
 21
78.537373152088
 31
0.0
  0
LINE
  5
19A
100
AcDbEntity
  8
Frei
  6
CONTINUOUS
 62
           3
100
AcDbLine
 10
-14405.845380048724
 20
79.738111790843
 30
0.0
 11
-14399.789454816571
 21
79.06771263157
 31
0.0
  0
LINE
  5
19B
100
AcDbEntity
  8
Frei
  6
CONTINUOUS
 62
           3
100
AcDbLine
 10
-14417.149825688908
 20
80.385864054955
 30
0.0
 11
-14417.680165168389
 21
81.048238598928
 31
0.0
  0
LINE
  5
19C
100
AcDbEntity
  8
Frei
  6
CONTINUOUS
 62
           3
100
AcDbLine
 10
-14417.592141792064
 20
81.843381281231
 30
0.0
 11
-14416.92976724809
 21
82.373720760713
 31
0.0
  0
LINE
  5
19D
100
AcDbEntity
  8
Frei
  6
CONTINUOUS
 62
           3
100
AcDbLine
 10
-14412.277901897371
 20
81.255087697508
 30
0.0
 11
-14417.592141792064
 21
81.843381281231
 31
0.0
  0
LINE
  5
19E
100
AcDbEntity
  8
Frei
  6
CONTINUOUS
 62
           3
100
AcDbLine
 10
-14400.231770919727
 20
80.525229857845
 30
0.0
 11
-14399.701431440246
 21
79.862855313873
 31
0.0
  0
LINE
  5
19F
100
AcDbEntity
  8
Frei
  6
CONTINUOUS
 62
           3
100
AcDbLine
 10
-14405.54601081442
 20
81.113523441568
 30
0.0
 11
-14400.231770919727
 21
80.525229857845
 31
0.0
  0
LINE
  5
1A0
100
AcDbEntity
  8
Frei
  6
CONTINUOUS
 62
           3
100
AcDbLine
 10
-14411.093900456757
 20
79.715464895682
 30
0.0
 11
-14417.149825688908
 21
80.385864054955
 31
0.0
  0
LINE
  5
1A1
100
AcDbEntity
  8
Frei
  6
CONTINUOUS
 62
           3
100
AcDbLine
 10
-14400.671887801362
 20
76.54951644633
 30
0.0
 11
-14417.369884129725
 21
78.398007349198
 31
0.0
  0
LINE
  5
1A2
100
AcDbEntity
  8
Frei
  6
CONTINUOUS
 62
           3
100
AcDbLine
 10
-14411.093900456757
 20
79.715464895682
 30
0.0
 11
-14411.624239936236
 21
80.377839439655
 31
0.0
  0
LINE
  5
1A3
100
AcDbEntity
  8
Frei
  6
CONTINUOUS
 62
           3
100
AcDbLine
 10
-14417.680165168389
 20
81.048238598928
 30
0.0
 11
-14411.624239936236
 21
80.377839439655
 31
0.0
  0
LINE
  5
1A4
100
AcDbEntity
  8
Frei
  6
CONTINUOUS
 62
           3
100
AcDbLine
 10
-14411.756275000727
 20
79.1851254162
 30
0.0
 11
-14411.093900456757
 21
79.715464895682
 31
0.0
  0
LINE
  5
1A5
100
AcDbEntity
  8
Frei
  6
CONTINUOUS
 62
           3
100
AcDbLine
 10
-14411.615527353397
 20
81.78542717699
 30
0.0
 11
-14412.277901897371
 21
81.255087697508
 31
0.0
  0
LINE
  5
1A6
100
AcDbEntity
  8
Frei
  6
CONTINUOUS
 62
           3
100
AcDbLine
 10
-14416.92976724809
 20
82.373720760713
 30
0.0
 11
-14411.615527353397
 21
81.78542717699
 31
0.0
  0
LINE
  5
1A7
100
AcDbEntity
  8
Frei
  6
CONTINUOUS
 62
           3
100
AcDbLine
 10
-14405.015671334939
 20
80.451148897595
 30
0.0
 11
-14405.54601081442
 21
81.113523441568
 31
0.0
  0
LINE
  5
1A8
100
AcDbEntity
  8
Frei
  6
CONTINUOUS
 62
           3
100
AcDbLine
 10
-14399.701431440246
 20
79.862855313873
 30
0.0
 11
-14405.015671334939
 21
80.451148897595
 31
0.0
  0
LINE
  5
1A9
100
AcDbEntity
  8
Frei
  6
CONTINUOUS
 62
           3
100
AcDbLine
 10
-14406.507754592698
 20
79.207772311361
 30
0.0
 11
-14405.845380048724
 21
79.738111790843
 31
0.0
  0
LINE
  5
1AA
100
AcDbEntity
  8
Frei
  6
CONTINUOUS
 62
           3
100
AcDbLine
 10
-14400.451829360545
 20
78.537373152088
 30
0.0
 11
-14406.507754592698
 21
79.207772311361
 31
0.0
  0
LINE
  5
1AB
100
AcDbEntity
  8
Frei
  6
CONTINUOUS
 62
           3
100
AcDbLine
 10
-14405.977415113215
 20
78.545397767389
 30
0.0
 11
-14406.507754592698
 21
79.207772311361
 31
0.0
  0
LINE
  5
1AC
100
AcDbEntity
  8
Frei
  6
CONTINUOUS
 62
           3
100
AcDbLine
 10
-14399.921489881062
 20
77.874998608115
 30
0.0
 11
-14405.977415113215
 21
78.545397767389
 31
0.0
  0
LINE
  5
1AD
100
AcDbEntity
  8
Frei
  6
CONTINUOUS
 62
           3
100
AcDbLine
 10
-14417.680165168389
 20
81.048238598928
 30
0.0
 11
-14417.81220023288
 21
79.855524575473
 31
0.0
  0
LINE
  5
1AE
100
AcDbEntity
  8
Frei
  6
CONTINUOUS
 62
           3
100
AcDbLine
 10
-14418.032258673698
 20
77.867667869716
 30
0.0
 11
-14417.900223609207
 21
79.06038189317
 31
0.0
  0
LINE
  5
1AF
100
AcDbEntity
  8
Frei
  6
CONTINUOUS
 62
           3
100
AcDbLine
 10
-14418.252317114515
 20
75.879811163958
 30
0.0
 11
-14418.120282050026
 21
77.072525187413
 31
0.0
  0
LINE
  5
1B0
100
AcDbEntity
  8
Frei
  6
CONTINUOUS
 62
           3
100
AcDbLine
 10
-14418.472375555333
 20
73.891954458201
 30
0.0
 11
-14418.340340490842
 21
75.084668481655
 31
0.0
  0
LINE
  5
1B1
100
AcDbEntity
  8
Frei
  6
CONTINUOUS
 62
           3
100
AcDbLine
 10
-14417.526124259817
 20
82.439738292958
 30
0.0
 11
-14417.592141792064
 21
81.843381281231
 31
0.0
  0
LINE
  5
1B2
100
AcDbEntity
  8
Frei
  6
CONTINUOUS
 62
           3
100
AcDbLine
 10
-14399.701431440246
 20
79.862855313873
 30
0.0
 11
-14399.635413907999
 21
80.4592123256
 31
0.0
  0
LINE
  5
1B3
100
AcDbEntity
  8
Frei
  6
CONTINUOUS
 62
           3
100
AcDbLine
 10
-14399.921489881062
 20
77.874998608115
 30
0.0
 11
-14399.789454816571
 21
79.06771263157
 31
0.0
  0
LINE
  5
1B4
100
AcDbEntity
  8
Frei
  6
CONTINUOUS
 62
           3
100
AcDbLine
 10
-14400.141548321881
 20
75.887141902358
 30
0.0
 11
-14400.00951325739
 21
77.079855925812
 31
0.0
  0
LINE
  5
1B5
100
AcDbEntity
  8
Frei
  6
CONTINUOUS
 62
           3
100
AcDbLine
 10
-14400.361606762697
 20
73.8992851966
 30
0.0
 11
-14400.229571698208
 21
75.091999220055
 31
0.0
  0
LINE
  5
1B6
100
AcDbEntity
  8
Frei
  6
CONTINUOUS
 62
           3
100
AcDbLine
 10
-14400.581665203516
 20
71.911428490843
 30
0.0
 11
-14400.449630139025
 21
73.104142514297
 31
0.0
  0
LINE
  5
1B7
100
AcDbEntity
  8
Frei
  6
CONTINUOUS
 62
           3
100
AcDbLine
 10
-14398.821197676974
 20
87.814282136903
 30
0.0
 11
-14398.689162612485
 21
89.006996160357
 31
0.0
  0
LINE
  5
1B8
100
AcDbEntity
  8
Frei
  6
CONTINUOUS
 62
           3
100
AcDbLine
 10
-14399.041256117793
 20
85.826425431145
 30
0.0
 11
-14398.909221053302
 21
87.0191394546
 31
0.0
  0
LINE
  5
1B9
100
AcDbEntity
  8
Frei
  6
CONTINUOUS
 62
           3
100
AcDbLine
 10
-14399.261314558609
 20
83.838568725388
 30
0.0
 11
-14399.12927949412
 21
85.031282748842
 31
0.0
  0
LINE
  5
1BA
100
AcDbEntity
  8
Frei
  6
CONTINUOUS
 62
           3
100
AcDbLine
 10
-14399.481372999428
 20
81.85071201963
 30
0.0
 11
-14399.349337934937
 21
83.043426043085
 31
0.0
  0
LINE
  5
1BB
100
AcDbEntity
  8
Frei
  6
CONTINUOUS
 62
           3
100
AcDbLine
 10
-14399.635413907999
 20
80.4592123256
 30
0.0
 11
-14399.569396375755
 21
81.055569337327
 31
0.0
  0
LINE
  5
1BC
100
AcDbEntity
  8
Frei
  6
CONTINUOUS
 62
           3
100
AcDbLine
 10
-14417.460106727573
 20
83.036095304685
 30
0.0
 11
-14417.526124259817
 21
82.439738292958
 31
0.0
  0
LINE
  5
1BD
100
AcDbEntity
  8
Frei
  6
CONTINUOUS
 62
           3
100
AcDbLine
 10
-14416.711908028792
 20
89.794808104261
 30
0.0
 11
-14416.579872964303
 21
90.987522127715
 31
0.0
  0
LINE
  5
1BE
100
AcDbEntity
  8
Frei
  6
CONTINUOUS
 62
           3
100
AcDbLine
 10
-14416.93196646961
 20
87.806951398503
 30
0.0
 11
-14416.799931405119
 21
88.999665421958
 31
0.0
  0
LINE
  5
1BF
100
AcDbEntity
  8
Frei
  6
CONTINUOUS
 62
           3
100
AcDbLine
 10
-14417.152024910427
 20
85.819094692746
 30
0.0
 11
-14417.019989845938
 21
87.0118087162
 31
0.0
  0
LINE
  5
1C0
100
AcDbEntity
  8
Frei
  6
CONTINUOUS
 62
           3
100
AcDbLine
 10
-14417.240048286754
 20
85.023952010443
 30
0.0
 11
-14417.372083351245
 21
83.831237986988
 31
0.0
  0
LINE
  5
1C1
100
AcDbEntity
  8
Frei
  6
CONTINUOUS
 62
           3
100
AcDbLine
 10
-14405.405263167089
 20
83.713825202358
 30
0.0
 11
-14399.349337934937
 21
83.043426043085
 31
0.0
  0
LINE
  5
1C2
100
AcDbEntity
  8
Frei
  6
CONTINUOUS
 62
           3
100
AcDbLine
 10
-14406.067637711063
 20
83.183485722876
 30
0.0
 11
-14405.405263167089
 21
83.713825202358
 31
0.0
  0
LINE
  5
1C3
100
AcDbEntity
  8
Frei
  6
CONTINUOUS
 62
           3
100
AcDbLine
 10
-14406.067637711063
 20
83.183485722876
 30
0.0
 11
-14400.01171247891
 21
82.513086563603
 31
0.0
  0
LINE
  5
1C4
100
AcDbEntity
  8
Frei
  6
CONTINUOUS
 62
           3
100
AcDbLine
 10
-14405.53729823158
 20
82.521111178904
 30
0.0
 11
-14406.067637711063
 21
83.183485722876
 31
0.0
  0
LINE
  5
1C5
100
AcDbEntity
  8
Frei
  6
CONTINUOUS
 62
           3
100
AcDbLine
 10
-14404.883636270448
 20
81.64386292105
 30
0.0
 11
-14399.569396375755
 21
81.055569337327
 31
0.0
  0
LINE
  5
1C6
100
AcDbEntity
  8
Frei
  6
CONTINUOUS
 62
           3
100
AcDbLine
 10
-14405.54601081442
 20
81.113523441568
 30
0.0
 11
-14404.883636270448
 21
81.64386292105
 31
0.0
  0
LINE
  5
1C7
100
AcDbEntity
  8
Frei
  6
CONTINUOUS
 62
           3
100
AcDbLine
 10
-14412.14586683288
 20
82.447801720963
 30
0.0
 11
-14411.615527353397
 21
81.78542717699
 31
0.0
  0
LINE
  5
1C8
100
AcDbEntity
  8
Frei
  6
CONTINUOUS
 62
           3
100
AcDbLine
 10
-14410.653783575122
 20
83.691178307197
 30
0.0
 11
-14411.184123054602
 21
84.35355285117
 31
0.0
  0
LINE
  5
1C9
100
AcDbEntity
  8
Frei
  6
CONTINUOUS
 62
           3
100
AcDbLine
 10
-14411.316158119093
 20
83.160838827715
 30
0.0
 11
-14417.372083351245
 21
83.831237986988
 31
0.0
  0
LINE
  5
1CA
100
AcDbEntity
  8
Frei
  6
CONTINUOUS
 62
           3
100
AcDbLine
 10
-14411.316158119093
 20
83.160838827715
 30
0.0
 11
-14410.653783575122
 21
83.691178307197
 31
0.0
  0
LINE
  5
1CB
100
AcDbEntity
  8
Frei
  6
CONTINUOUS
 62
           3
100
AcDbLine
 10
-14416.489650366455
 20
86.349434172228
 30
0.0
 11
-14399.791654038092
 21
84.50094326936
 31
0.0
  0
LINE
  5
1CC
100
AcDbEntity
  8
Frei
  6
CONTINUOUS
 62
           3
100
AcDbLine
 10
-14416.709708807273
 20
84.36157746647
 30
0.0
 11
-14410.653783575122
 21
83.691178307197
 31
0.0
  0
LINE
  5
1CD
100
AcDbEntity
  8
Frei
  6
CONTINUOUS
 62
           3
100
AcDbLine
 10
-14399.569396375755
 20
81.055569337327
 30
0.0
 11
-14400.231770919727
 21
80.525229857845
 31
0.0
  0
LINE
  5
1CE
100
AcDbEntity
  8
Frei
  6
CONTINUOUS
 62
           3
100
AcDbLine
 10
-14417.460106727573
 20
83.036095304685
 30
0.0
 11
-14412.14586683288
 21
82.447801720963
 31
0.0
  0
LINE
  5
1CF
100
AcDbEntity
  8
Frei
  6
CONTINUOUS
 62
           3
100
AcDbLine
 10
-14416.92976724809
 20
82.373720760713
 30
0.0
 11
-14417.460106727573
 21
83.036095304685
 31
0.0
  0
LINE
  5
1D0
100
AcDbEntity
  8
Frei
  6
CONTINUOUS
 62
           3
100
AcDbLine
 10
-14417.372083351245
 20
83.831237986988
 30
0.0
 11
-14416.709708807273
 21
84.36157746647
 31
0.0
  0
LINE
  5
1D1
100
AcDbEntity
  8
Frei
  6
CONTINUOUS
 62
           3
100
AcDbLine
 10
-14399.481372999428
 20
81.85071201963
 30
0.0
 11
-14405.53729823158
 21
82.521111178904
 31
0.0
  0
LINE
  5
1D2
100
AcDbEntity
  8
Frei
  6
CONTINUOUS
 62
           3
100
AcDbLine
 10
-14400.01171247891
 20
82.513086563603
 30
0.0
 11
-14399.481372999428
 21
81.85071201963
 31
0.0
  0
LINE
  5
1D3
100
AcDbEntity
  8
Frei
  6
CONTINUOUS
 62
           3
100
AcDbLine
 10
-14399.349337934937
 20
83.043426043085
 30
0.0
 11
-14400.01171247891
 21
82.513086563603
 31
0.0
  0
LINE
  5
1D4
100
AcDbEntity
  8
Frei
  6
CONTINUOUS
 62
           3
100
AcDbLine
 10
-14417.240048286754
 20
85.023952010443
 30
0.0
 11
-14411.184123054602
 21
84.35355285117
 31
0.0
  0
LINE
  5
1D5
100
AcDbEntity
  8
Frei
  6
CONTINUOUS
 62
           3
100
AcDbLine
 10
-14416.709708807273
 20
84.36157746647
 30
0.0
 11
-14417.240048286754
 21
85.023952010443
 31
0.0
  0
LINE
  5
1D6
100
AcDbEntity
  8
Frei
  6
CONTINUOUS
 62
           3
100
AcDbLine
 10
-14417.152024910427
 20
85.819094692746
 30
0.0
 11
-14416.489650366455
 21
86.349434172228
 31
0.0
  0
LINE
  5
1D7
100
AcDbEntity
  8
Frei
  6
CONTINUOUS
 62
           3
100
AcDbLine
 10
-14399.261314558609
 20
83.838568725388
 30
0.0
 11
-14417.152024910427
 21
85.819094692746
 31
0.0
  0
LINE
  5
1D8
100
AcDbEntity
  8
Frei
  6
CONTINUOUS
 62
           3
100
AcDbLine
 10
-14399.791654038092
 20
84.50094326936
 30
0.0
 11
-14399.261314558609
 21
83.838568725388
 31
0.0
  0
LINE
  5
1D9
100
AcDbEntity
  8
Frei
  6
CONTINUOUS
 62
           3
100
AcDbLine
 10
-14399.12927949412
 20
85.031282748842
 30
0.0
 11
-14399.791654038092
 21
84.50094326936
 31
0.0
  0
LINE
  5
1DA
100
AcDbEntity
  8
Frei
  6
CONTINUOUS
 62
           3
100
AcDbLine
 10
-14417.019989845938
 20
87.0118087162
 30
0.0
 11
-14399.12927949412
 21
85.031282748842
 31
0.0
  0
LINE
  5
1DB
100
AcDbEntity
  8
Frei
  6
CONTINUOUS
 62
           3
100
AcDbLine
 10
-14416.489650366455
 20
86.349434172228
 30
0.0
 11
-14417.019989845938
 21
87.0118087162
 31
0.0
  0
LINE
  5
1DC
100
AcDbEntity
  8
Frei
  6
CONTINUOUS
 62
           3
100
AcDbLine
 10
-14399.571595597274
 20
86.488799975118
 30
0.0
 11
-14416.269591925637
 21
88.337290877985
 31
0.0
  0
LINE
  5
1DD
100
AcDbEntity
  8
Frei
  6
CONTINUOUS
 62
           3
100
AcDbLine
 10
-14416.93196646961
 20
87.806951398503
 30
0.0
 11
-14416.269591925637
 21
88.337290877985
 31
0.0
  0
LINE
  5
1DE
100
AcDbEntity
  8
Frei
  6
CONTINUOUS
 62
           3
100
AcDbLine
 10
-14399.041256117793
 20
85.826425431145
 30
0.0
 11
-14416.93196646961
 21
87.806951398503
 31
0.0
  0
LINE
  5
1DF
100
AcDbEntity
  8
Frei
  6
CONTINUOUS
 62
           3
100
AcDbLine
 10
-14399.571595597274
 20
86.488799975118
 30
0.0
 11
-14399.041256117793
 21
85.826425431145
 31
0.0
  0
LINE
  5
1E0
100
AcDbEntity
  8
Frei
  6
CONTINUOUS
 62
           3
100
AcDbLine
 10
-14398.909221053302
 20
87.0191394546
 30
0.0
 11
-14399.571595597274
 21
86.488799975118
 31
0.0
  0
LINE
  5
1E1
100
AcDbEntity
  8
Frei
  6
CONTINUOUS
 62
           3
100
AcDbLine
 10
-14416.799931405119
 20
88.999665421958
 30
0.0
 11
-14398.909221053302
 21
87.0191394546
 31
0.0
  0
LINE
  5
1E2
100
AcDbEntity
  8
Frei
  6
CONTINUOUS
 62
           3
100
AcDbLine
 10
-14416.269591925637
 20
88.337290877985
 30
0.0
 11
-14416.799931405119
 21
88.999665421958
 31
0.0
  0
LINE
  5
1E3
100
AcDbEntity
  8
Frei
  6
CONTINUOUS
 62
           3
100
AcDbLine
 10
-14416.04953348482
 20
90.325147583743
 30
0.0
 11
-14399.351537156457
 21
88.476656680875
 31
0.0
  0
LINE
  5
1E4
100
AcDbEntity
  8
Frei
  6
CONTINUOUS
 62
           3
100
AcDbLine
 10
-14416.04953348482
 20
90.325147583743
 30
0.0
 11
-14416.711908028792
 21
89.794808104261
 31
0.0
  0
LINE
  5
1E5
100
AcDbEntity
  8
Frei
  6
CONTINUOUS
 62
           3
100
AcDbLine
 10
-14416.579872964303
 20
90.987522127715
 30
0.0
 11
-14416.04953348482
 21
90.325147583743
 31
0.0
  0
LINE
  5
1E6
100
AcDbEntity
  8
Frei
  6
CONTINUOUS
 62
           3
100
AcDbLine
 10
-14398.689162612485
 20
89.006996160357
 30
0.0
 11
-14416.579872964303
 21
90.987522127715
 31
0.0
  0
LINE
  5
1E7
100
AcDbEntity
  8
Frei
  6
CONTINUOUS
 62
           3
100
AcDbLine
 10
-14399.351537156457
 20
88.476656680875
 30
0.0
 11
-14398.689162612485
 21
89.006996160357
 31
0.0
  0
LINE
  5
1E8
100
AcDbEntity
  8
Frei
  6
CONTINUOUS
 62
           3
100
AcDbLine
 10
-14398.821197676974
 20
87.814282136903
 30
0.0
 11
-14399.351537156457
 21
88.476656680875
 31
0.0
  0
LINE
  5
1E9
100
AcDbEntity
  8
Frei
  6
CONTINUOUS
 62
           3
100
AcDbLine
 10
-14416.711908028792
 20
89.794808104261
 30
0.0
 11
-14398.821197676974
 21
87.814282136903
 31
0.0
  0
LINE
  5
1EA
100
AcDbEntity
  8
Frei
  6
CONTINUOUS
 62
           3
100
AcDbLine
 10
-14226.871592628951
 20
68.779227006185
 30
0.0
 11
-14208.980882277136
 21
66.798701038827
 31
0.0
  0
LINE
  5
1EB
100
AcDbEntity
  8
Frei
  6
CONTINUOUS
 62
           3
100
AcDbLine
 10
-14226.209218084981
 20
69.309566485667
 30
0.0
 11
-14226.871592628951
 21
68.779227006185
 31
0.0
  0
LINE
  5
1EC
100
AcDbEntity
  8
Frei
  6
CONTINUOUS
 62
           3
100
AcDbLine
 10
-14226.739557564462
 20
69.97194102964
 30
0.0
 11
-14226.209218084981
 21
69.309566485667
 31
0.0
  0
LINE
  5
1ED
100
AcDbEntity
  8
Frei
  6
CONTINUOUS
 62
           3
100
AcDbLine
 10
-14208.848847212646
 20
67.991415062282
 30
0.0
 11
-14226.739557564462
 21
69.97194102964
 31
0.0
  0
LINE
  5
1EE
100
AcDbEntity
  8
Frei
  6
CONTINUOUS
 62
           3
100
AcDbLine
 10
-14209.511221756618
 20
67.4610755828
 30
0.0
 11
-14208.848847212646
 21
67.991415062282
 31
0.0
  0
LINE
  5
1EF
100
AcDbEntity
  8
Frei
  6
CONTINUOUS
 62
           3
100
AcDbLine
 10
-14208.980882277136
 20
66.798701038827
 30
0.0
 11
-14209.511221756618
 21
67.4610755828
 31
0.0
  0
LINE
  5
1F0
100
AcDbEntity
  8
Frei
  6
CONTINUOUS
 62
           3
100
AcDbLine
 10
-14226.209218084981
 20
69.309566485667
 30
0.0
 11
-14209.511221756618
 21
67.4610755828
 31
0.0
  0
LINE
  5
1F1
100
AcDbEntity
  8
Frei
  6
CONTINUOUS
 62
           3
100
AcDbLine
 10
-14209.068905653463
 20
66.003558356524
 30
0.0
 11
-14209.731280197435
 21
65.473218877042
 31
0.0
  0
LINE
  5
1F2
100
AcDbEntity
  8
Frei
  6
CONTINUOUS
 62
           3
100
AcDbLine
 10
-14226.959616005279
 20
67.984084323882
 30
0.0
 11
-14209.068905653463
 21
66.003558356524
 31
0.0
  0
LINE
  5
1F3
100
AcDbEntity
  8
Frei
  6
CONTINUOUS
 62
           3
100
AcDbLine
 10
-14226.429276525798
 20
67.32170977991
 30
0.0
 11
-14226.959616005279
 21
67.984084323882
 31
0.0
  0
LINE
  5
1F4
100
AcDbEntity
  8
Frei
  6
CONTINUOUS
 62
           3
100
AcDbLine
 10
-14227.09165106977
 20
66.791370300428
 30
0.0
 11
-14226.429276525798
 21
67.32170977991
 31
0.0
  0
LINE
  5
1F5
100
AcDbEntity
  8
Frei
  6
CONTINUOUS
 62
           3
100
AcDbLine
 10
-14209.200940717954
 20
64.81084433307
 30
0.0
 11
-14227.09165106977
 21
66.791370300428
 31
0.0
  0
LINE
  5
1F6
100
AcDbEntity
  8
Frei
  6
CONTINUOUS
 62
           3
100
AcDbLine
 10
-14209.731280197435
 20
65.473218877042
 30
0.0
 11
-14209.200940717954
 21
64.81084433307
 31
0.0
  0
LINE
  5
1F7
100
AcDbEntity
  8
Frei
  6
CONTINUOUS
 62
           3
100
AcDbLine
 10
-14209.731280197435
 20
65.473218877042
 30
0.0
 11
-14226.429276525798
 21
67.32170977991
 31
0.0
  0
LINE
  5
1F8
100
AcDbEntity
  8
Frei
  6
CONTINUOUS
 62
           3
100
AcDbLine
 10
-14209.288964094281
 20
64.015701650767
 30
0.0
 11
-14209.951338638253
 21
63.485362171285
 31
0.0
  0
LINE
  5
1F9
100
AcDbEntity
  8
Frei
  6
CONTINUOUS
 62
           3
100
AcDbLine
 10
-14227.179674446097
 20
65.996227618125
 30
0.0
 11
-14209.288964094281
 21
64.015701650767
 31
0.0
  0
LINE
  5
1FA
100
AcDbEntity
  8
Frei
  6
CONTINUOUS
 62
           3
100
AcDbLine
 10
-14226.649334966616
 20
65.333853074152
 30
0.0
 11
-14227.179674446097
 21
65.996227618125
 31
0.0
  0
LINE
  5
1FB
100
AcDbEntity
  8
Frei
  6
CONTINUOUS
 62
           3
100
AcDbLine
 10
-14227.311709510586
 20
64.80351359467
 30
0.0
 11
-14226.649334966616
 21
65.333853074152
 31
0.0
  0
LINE
  5
1FC
100
AcDbEntity
  8
Frei
  6
CONTINUOUS
 62
           3
100
AcDbLine
 10
-14209.42099915877
 20
62.822987627312
 30
0.0
 11
-14227.311709510586
 21
64.80351359467
 31
0.0
  0
LINE
  5
1FD
100
AcDbEntity
  8
Frei
  6
CONTINUOUS
 62
           3
100
AcDbLine
 10
-14209.951338638253
 20
63.485362171285
 30
0.0
 11
-14209.42099915877
 21
62.822987627312
 31
0.0
  0
LINE
  5
1FE
100
AcDbEntity
  8
Frei
  6
CONTINUOUS
 62
           3
100
AcDbLine
 10
-14209.509022535098
 20
62.027844945009
 30
0.0
 11
-14210.171397079072
 21
61.497505465527
 31
0.0
  0
LINE
  5
1FF
100
AcDbEntity
  8
Frei
  6
CONTINUOUS
 62
           3
100
AcDbLine
 10
-14215.56494776725
 20
62.698244104282
 30
0.0
 11
-14209.509022535098
 21
62.027844945009
 31
0.0
  0
LINE
  5
200
100
AcDbEntity
  8
Frei
  6
CONTINUOUS
 62
           3
100
AcDbLine
 10
-14226.869393407434
 20
63.345996368395
 30
0.0
 11
-14227.399732886914
 21
64.008370912367
 31
0.0
  0
LINE
  5
201
100
AcDbEntity
  8
Frei
  6
CONTINUOUS
 62
           3
100
AcDbLine
 10
-14227.531767951405
 20
62.815656888913
 30
0.0
 11
-14226.869393407434
 21
63.345996368395
 31
0.0
  0
LINE
  5
202
100
AcDbEntity
  8
Frei
  6
CONTINUOUS
 62
           3
100
AcDbLine
 10
-14221.475842719254
 20
62.14525772964
 30
0.0
 11
-14227.531767951405
 21
62.815656888913
 31
0.0
  0
LINE
  5
203
100
AcDbEntity
  8
Frei
  6
CONTINUOUS
 62
           3
100
AcDbLine
 10
-14210.171397079072
 20
61.497505465527
 30
0.0
 11
-14209.641057599589
 21
60.835130921555
 31
0.0
  0
LINE
  5
204
100
AcDbEntity
  8
Frei
  6
CONTINUOUS
 62
           3
100
AcDbLine
 10
-14209.729080975916
 20
60.039988239252
 30
0.0
 11
-14210.391455519888
 21
59.50964875977
 31
0.0
  0
LINE
  5
205
100
AcDbEntity
  8
Frei
  6
CONTINUOUS
 62
           3
100
AcDbLine
 10
-14215.043320870609
 20
60.628281822974
 30
0.0
 11
-14209.729080975916
 21
60.039988239252
 31
0.0
  0
LINE
  5
206
100
AcDbEntity
  8
Frei
  6
CONTINUOUS
 62
           3
100
AcDbLine
 10
-14227.089451848251
 20
61.358139662638
 30
0.0
 11
-14227.619791327732
 21
62.02051420661
 31
0.0
  0
LINE
  5
207
100
AcDbEntity
  8
Frei
  6
CONTINUOUS
 62
           3
100
AcDbLine
 10
-14216.227322311222
 20
62.1679046248
 30
0.0
 11
-14210.171397079072
 21
61.497505465527
 31
0.0
  0
LINE
  5
208
100
AcDbEntity
  8
Frei
  6
CONTINUOUS
 62
           3
100
AcDbLine
 10
-14226.649334966616
 20
65.333853074152
 30
0.0
 11
-14209.951338638253
 21
63.485362171285
 31
0.0
  0
LINE
  5
209
100
AcDbEntity
  8
Frei
  6
CONTINUOUS
 62
           3
100
AcDbLine
 10
-14216.227322311222
 20
62.1679046248
 30
0.0
 11
-14215.696982831741
 21
61.505530080828
 31
0.0
  0
LINE
  5
20A
100
AcDbEntity
  8
Frei
  6
CONTINUOUS
 62
           3
100
AcDbLine
 10
-14209.641057599589
 20
60.835130921555
 30
0.0
 11
-14215.696982831741
 21
61.505530080828
 31
0.0
  0
LINE
  5
20B
100
AcDbEntity
  8
Frei
  6
CONTINUOUS
 62
           3
100
AcDbLine
 10
-14215.56494776725
 20
62.698244104282
 30
0.0
 11
-14216.227322311222
 21
62.1679046248
 31
0.0
  0
LINE
  5
20C
100
AcDbEntity
  8
Frei
  6
CONTINUOUS
 62
           3
100
AcDbLine
 10
-14215.705695414581
 20
60.097942343492
 30
0.0
 11
-14215.043320870609
 21
60.628281822974
 31
0.0
  0
LINE
  5
20D
100
AcDbEntity
  8
Frei
  6
CONTINUOUS
 62
           3
100
AcDbLine
 10
-14222.305551433041
 20
61.432220622888
 30
0.0
 11
-14221.775211953558
 21
60.769846078915
 31
0.0
  0
LINE
  5
20E
100
AcDbEntity
  8
Frei
  6
CONTINUOUS
 62
           3
100
AcDbLine
 10
-14227.619791327732
 20
62.02051420661
 30
0.0
 11
-14222.305551433041
 21
61.432220622888
 31
0.0
  0
LINE
  5
20F
100
AcDbEntity
  8
Frei
  6
CONTINUOUS
 62
           3
100
AcDbLine
 10
-14220.813468175282
 20
62.675597209122
 30
0.0
 11
-14221.475842719254
 21
62.14525772964
 31
0.0
  0
LINE
  5
210
100
AcDbEntity
  8
Frei
  6
CONTINUOUS
 62
           3
100
AcDbLine
 10
-14226.869393407434
 20
63.345996368395
 30
0.0
 11
-14220.813468175282
 21
62.675597209122
 31
0.0
  0
LINE
  5
211
100
AcDbEntity
  8
Frei
  6
CONTINUOUS
 62
           3
100
AcDbLine
 10
-14221.343807654763
 20
63.337971753094
 30
0.0
 11
-14220.813468175282
 21
62.675597209122
 31
0.0
  0
LINE
  5
212
100
AcDbEntity
  8
Frei
  6
CONTINUOUS
 62
           3
100
AcDbLine
 10
-14227.399732886914
 20
64.008370912367
 30
0.0
 11
-14221.343807654763
 21
63.337971753094
 31
0.0
  0
LINE
  5
213
100
AcDbEntity
  8
Frei
  6
CONTINUOUS
 62
           3
100
AcDbLine
 10
-14209.641057599589
 20
60.835130921555
 30
0.0
 11
-14209.509022535098
 21
62.027844945009
 31
0.0
  0
LINE
  5
214
100
AcDbEntity
  8
Frei
  6
CONTINUOUS
 62
           3
100
AcDbLine
 10
-14209.288964094281
 20
64.015701650767
 30
0.0
 11
-14209.42099915877
 21
62.822987627312
 31
0.0
  0
LINE
  5
215
100
AcDbEntity
  8
Frei
  6
CONTINUOUS
 62
           3
100
AcDbLine
 10
-14209.068905653463
 20
66.003558356524
 30
0.0
 11
-14209.200940717954
 21
64.81084433307
 31
0.0
  0
LINE
  5
216
100
AcDbEntity
  8
Frei
  6
CONTINUOUS
 62
           3
100
AcDbLine
 10
-14208.848847212646
 20
67.991415062282
 30
0.0
 11
-14208.980882277136
 21
66.798701038827
 31
0.0
  0
LINE
  5
217
100
AcDbEntity
  8
Frei
  6
CONTINUOUS
 62
           3
100
AcDbLine
 10
-14209.795098508161
 20
59.443631227525
 30
0.0
 11
-14209.729080975916
 21
60.039988239252
 31
0.0
  0
LINE
  5
218
100
AcDbEntity
  8
Frei
  6
CONTINUOUS
 62
           3
100
AcDbLine
 10
-14227.619791327732
 20
62.02051420661
 30
0.0
 11
-14227.685808859977
 21
61.424157194883
 31
0.0
  0
LINE
  5
219
100
AcDbEntity
  8
Frei
  6
CONTINUOUS
 62
           3
100
AcDbLine
 10
-14227.399732886914
 20
64.008370912367
 30
0.0
 11
-14227.531767951405
 21
62.815656888913
 31
0.0
  0
LINE
  5
21A
100
AcDbEntity
  8
Frei
  6
CONTINUOUS
 62
           3
100
AcDbLine
 10
-14227.179674446097
 20
65.996227618125
 30
0.0
 11
-14227.311709510586
 21
64.80351359467
 31
0.0
  0
LINE
  5
21B
100
AcDbEntity
  8
Frei
  6
CONTINUOUS
 62
           3
100
AcDbLine
 10
-14226.959616005279
 20
67.984084323882
 30
0.0
 11
-14227.09165106977
 21
66.791370300428
 31
0.0
  0
LINE
  5
21C
100
AcDbEntity
  8
Frei
  6
CONTINUOUS
 62
           3
100
AcDbLine
 10
-14226.739557564462
 20
69.97194102964
 30
0.0
 11
-14226.871592628951
 21
68.779227006185
 31
0.0
  0
LINE
  5
21D
100
AcDbEntity
  8
Frei
  6
CONTINUOUS
 62
           3
100
AcDbLine
 10
-14228.500025091002
 20
54.06908738358
 30
0.0
 11
-14228.632060155493
 21
52.876373360125
 31
0.0
  0
LINE
  5
21E
100
AcDbEntity
  8
Frei
  6
CONTINUOUS
 62
           3
100
AcDbLine
 10
-14228.279966650185
 20
56.056944089337
 30
0.0
 11
-14228.412001714674
 21
54.864230065883
 31
0.0
  0
LINE
  5
21F
100
AcDbEntity
  8
Frei
  6
CONTINUOUS
 62
           3
100
AcDbLine
 10
-14228.059908209367
 20
58.044800795095
 30
0.0
 11
-14228.191943273858
 21
56.85208677164
 31
0.0
  0
LINE
  5
220
100
AcDbEntity
  8
Frei
  6
CONTINUOUS
 62
           3
100
AcDbLine
 10
-14227.839849768548
 20
60.032657500852
 30
0.0
 11
-14227.971884833039
 21
58.839943477398
 31
0.0
  0
LINE
  5
221
100
AcDbEntity
  8
Frei
  6
CONTINUOUS
 62
           3
100
AcDbLine
 10
-14227.685808859977
 20
61.424157194883
 30
0.0
 11
-14227.751826392223
 21
60.827800183155
 31
0.0
  0
LINE
  5
222
100
AcDbEntity
  8
Frei
  6
CONTINUOUS
 62
           3
100
AcDbLine
 10
-14209.861116040407
 20
58.847274215797
 30
0.0
 11
-14209.795098508161
 21
59.443631227525
 31
0.0
  0
LINE
  5
223
100
AcDbEntity
  8
Frei
  6
CONTINUOUS
 62
           3
100
AcDbLine
 10
-14210.609314739186
 20
52.088561416222
 30
0.0
 11
-14210.741349803677
 21
50.895847392768
 31
0.0
  0
LINE
  5
224
100
AcDbEntity
  8
Frei
  6
CONTINUOUS
 62
           3
100
AcDbLine
 10
-14210.389256298369
 20
54.076418121979
 30
0.0
 11
-14210.521291362858
 21
52.883704098525
 31
0.0
  0
LINE
  5
225
100
AcDbEntity
  8
Frei
  6
CONTINUOUS
 62
           3
100
AcDbLine
 10
-14210.169197857551
 20
56.064274827737
 30
0.0
 11
-14210.301232922042
 21
54.871560804283
 31
0.0
  0
LINE
  5
226
100
AcDbEntity
  8
Frei
  6
CONTINUOUS
 62
           3
100
AcDbLine
 10
-14210.081174481224
 20
56.85941751004
 30
0.0
 11
-14209.949139416733
 21
58.052131533494
 31
0.0
  0
LINE
  5
227
100
AcDbEntity
  8
Frei
  6
CONTINUOUS
 62
           3
100
AcDbLine
 10
-14221.915959600889
 20
58.169544318125
 30
0.0
 11
-14227.971884833039
 21
58.839943477398
 31
0.0
  0
LINE
  5
228
100
AcDbEntity
  8
Frei
  6
CONTINUOUS
 62
           3
100
AcDbLine
 10
-14221.253585056917
 20
58.699883797607
 30
0.0
 11
-14221.915959600889
 21
58.169544318125
 31
0.0
  0
LINE
  5
229
100
AcDbEntity
  8
Frei
  6
CONTINUOUS
 62
           3
100
AcDbLine
 10
-14221.253585056917
 20
58.699883797607
 30
0.0
 11
-14227.309510289069
 21
59.37028295688
 31
0.0
  0
LINE
  5
22A
100
AcDbEntity
  8
Frei
  6
CONTINUOUS
 62
           3
100
AcDbLine
 10
-14221.783924536398
 20
59.362258341579
 30
0.0
 11
-14221.253585056917
 21
58.699883797607
 31
0.0
  0
LINE
  5
22B
100
AcDbEntity
  8
Frei
  6
CONTINUOUS
 62
           3
100
AcDbLine
 10
-14222.437586497532
 20
60.239506599433
 30
0.0
 11
-14227.751826392223
 21
60.827800183155
 31
0.0
  0
LINE
  5
22C
100
AcDbEntity
  8
Frei
  6
CONTINUOUS
 62
           3
100
AcDbLine
 10
-14221.775211953558
 20
60.769846078915
 30
0.0
 11
-14222.437586497532
 21
60.239506599433
 31
0.0
  0
LINE
  5
22D
100
AcDbEntity
  8
Frei
  6
CONTINUOUS
 62
           3
100
AcDbLine
 10
-14215.705695414581
 20
60.097942343492
 30
0.0
 11
-14210.391455519888
 21
59.50964875977
 31
0.0
  0
LINE
  5
22E
100
AcDbEntity
  8
Frei
  6
CONTINUOUS
 62
           3
100
AcDbLine
 10
-14215.1753559351
 20
59.43556779952
 30
0.0
 11
-14215.705695414581
 21
60.097942343492
 31
0.0
  0
LINE
  5
22F
100
AcDbEntity
  8
Frei
  6
CONTINUOUS
 62
           3
100
AcDbLine
 10
-14216.667439192857
 20
58.192191213285
 30
0.0
 11
-14216.137099713376
 21
57.529816669313
 31
0.0
  0
LINE
  5
230
100
AcDbEntity
  8
Frei
  6
CONTINUOUS
 62
           3
100
AcDbLine
 10
-14216.005064648885
 20
58.722530692767
 30
0.0
 11
-14209.949139416733
 21
58.052131533494
 31
0.0
  0
LINE
  5
231
100
AcDbEntity
  8
Frei
  6
CONTINUOUS
 62
           3
100
AcDbLine
 10
-14216.005064648885
 20
58.722530692767
 30
0.0
 11
-14216.667439192857
 21
58.192191213285
 31
0.0
  0
LINE
  5
232
100
AcDbEntity
  8
Frei
  6
CONTINUOUS
 62
           3
100
AcDbLine
 10
-14210.831572401523
 20
55.533935348255
 30
0.0
 11
-14227.529568729886
 21
57.382426251123
 31
0.0
  0
LINE
  5
233
100
AcDbEntity
  8
Frei
  6
CONTINUOUS
 62
           3
100
AcDbLine
 10
-14210.611513960706
 20
57.521792054012
 30
0.0
 11
-14216.667439192857
 21
58.192191213285
 31
0.0
  0
LINE
  5
234
100
AcDbEntity
  8
Frei
  6
CONTINUOUS
 62
           3
100
AcDbLine
 10
-14227.089451848251
 20
61.358139662638
 30
0.0
 11
-14221.775211953558
 21
60.769846078915
 31
0.0
  0
LINE
  5
235
100
AcDbEntity
  8
Frei
  6
CONTINUOUS
 62
           3
100
AcDbLine
 10
-14227.751826392223
 20
60.827800183155
 30
0.0
 11
-14227.089451848251
 21
61.358139662638
 31
0.0
  0
LINE
  5
236
100
AcDbEntity
  8
Frei
  6
CONTINUOUS
 62
           3
100
AcDbLine
 10
-14209.861116040407
 20
58.847274215797
 30
0.0
 11
-14215.1753559351
 21
59.43556779952
 31
0.0
  0
LINE
  5
237
100
AcDbEntity
  8
Frei
  6
CONTINUOUS
 62
           3
100
AcDbLine
 10
-14210.391455519888
 20
59.50964875977
 30
0.0
 11
-14209.861116040407
 21
58.847274215797
 31
0.0
  0
LINE
  5
238
100
AcDbEntity
  8
Frei
  6
CONTINUOUS
 62
           3
100
AcDbLine
 10
-14209.949139416733
 20
58.052131533494
 30
0.0
 11
-14210.611513960706
 21
57.521792054012
 31
0.0
  0
LINE
  5
239
100
AcDbEntity
  8
Frei
  6
CONTINUOUS
 62
           3
100
AcDbLine
 10
-14227.839849768548
 20
60.032657500852
 30
0.0
 11
-14221.783924536398
 21
59.362258341579
 31
0.0
  0
LINE
  5
23A
100
AcDbEntity
  8
Frei
  6
CONTINUOUS
 62
           3
100
AcDbLine
 10
-14227.309510289069
 20
59.37028295688
 30
0.0
 11
-14227.839849768548
 21
60.032657500852
 31
0.0
  0
LINE
  5
23B
100
AcDbEntity
  8
Frei
  6
CONTINUOUS
 62
           3
100
AcDbLine
 10
-14227.971884833039
 20
58.839943477398
 30
0.0
 11
-14227.309510289069
 21
59.37028295688
 31
0.0
  0
LINE
  5
23C
100
AcDbEntity
  8
Frei
  6
CONTINUOUS
 62
           3
100
AcDbLine
 10
-14210.081174481224
 20
56.85941751004
 30
0.0
 11
-14216.137099713376
 21
57.529816669313
 31
0.0
  0
LINE
  5
23D
100
AcDbEntity
  8
Frei
  6
CONTINUOUS
 62
           3
100
AcDbLine
 10
-14210.611513960706
 20
57.521792054012
 30
0.0
 11
-14210.081174481224
 21
56.85941751004
 31
0.0
  0
LINE
  5
23E
100
AcDbEntity
  8
Frei
  6
CONTINUOUS
 62
           3
100
AcDbLine
 10
-14210.169197857551
 20
56.064274827737
 30
0.0
 11
-14210.831572401523
 21
55.533935348255
 31
0.0
  0
LINE
  5
23F
100
AcDbEntity
  8
Frei
  6
CONTINUOUS
 62
           3
100
AcDbLine
 10
-14228.059908209367
 20
58.044800795095
 30
0.0
 11
-14210.169197857551
 21
56.064274827737
 31
0.0
  0
LINE
  5
240
100
AcDbEntity
  8
Frei
  6
CONTINUOUS
 62
           3
100
AcDbLine
 10
-14227.529568729886
 20
57.382426251123
 30
0.0
 11
-14228.059908209367
 21
58.044800795095
 31
0.0
  0
LINE
  5
241
100
AcDbEntity
  8
Frei
  6
CONTINUOUS
 62
           3
100
AcDbLine
 10
-14228.191943273858
 20
56.85208677164
 30
0.0
 11
-14227.529568729886
 21
57.382426251123
 31
0.0
  0
LINE
  5
242
100
AcDbEntity
  8
Frei
  6
CONTINUOUS
 62
           3
100
AcDbLine
 10
-14210.301232922042
 20
54.871560804283
 30
0.0
 11
-14228.191943273858
 21
56.85208677164
 31
0.0
  0
LINE
  5
243
100
AcDbEntity
  8
Frei
  6
CONTINUOUS
 62
           3
100
AcDbLine
 10
-14210.831572401523
 20
55.533935348255
 30
0.0
 11
-14210.301232922042
 21
54.871560804283
 31
0.0
  0
LINE
  5
244
100
AcDbEntity
  8
Frei
  6
CONTINUOUS
 62
           3
100
AcDbLine
 10
-14227.749627170704
 20
55.394569545365
 30
0.0
 11
-14211.051630842341
 21
53.546078642498
 31
0.0
  0
LINE
  5
245
100
AcDbEntity
  8
Frei
  6
CONTINUOUS
 62
           3
100
AcDbLine
 10
-14210.389256298369
 20
54.076418121979
 30
0.0
 11
-14211.051630842341
 21
53.546078642498
 31
0.0
  0
LINE
  5
246
100
AcDbEntity
  8
Frei
  6
CONTINUOUS
 62
           3
100
AcDbLine
 10
-14228.279966650185
 20
56.056944089337
 30
0.0
 11
-14210.389256298369
 21
54.076418121979
 31
0.0
  0
LINE
  5
247
100
AcDbEntity
  8
Frei
  6
CONTINUOUS
 62
           3
100
AcDbLine
 10
-14227.749627170704
 20
55.394569545365
 30
0.0
 11
-14228.279966650185
 21
56.056944089337
 31
0.0
  0
LINE
  5
248
100
AcDbEntity
  8
Frei
  6
CONTINUOUS
 62
           3
100
AcDbLine
 10
-14228.412001714674
 20
54.864230065883
 30
0.0
 11
-14227.749627170704
 21
55.394569545365
 31
0.0
  0
LINE
  5
249
100
AcDbEntity
  8
Frei
  6
CONTINUOUS
 62
           3
100
AcDbLine
 10
-14210.521291362858
 20
52.883704098525
 30
0.0
 11
-14228.412001714674
 21
54.864230065883
 31
0.0
  0
LINE
  5
24A
100
AcDbEntity
  8
Frei
  6
CONTINUOUS
 62
           3
100
AcDbLine
 10
-14211.051630842341
 20
53.546078642498
 30
0.0
 11
-14210.521291362858
 21
52.883704098525
 31
0.0
  0
LINE
  5
24B
100
AcDbEntity
  8
Frei
  6
CONTINUOUS
 62
           3
100
AcDbLine
 10
-14211.27168928316
 20
51.55822193674
 30
0.0
 11
-14227.969685611522
 21
53.406712839608
 31
0.0
  0
LINE
  5
24C
100
AcDbEntity
  8
Frei
  6
CONTINUOUS
 62
           3
100
AcDbLine
 10
-14211.27168928316
 20
51.55822193674
 30
0.0
 11
-14210.609314739186
 21
52.088561416222
 31
0.0
  0
LINE
  5
24D
100
AcDbEntity
  8
Frei
  6
CONTINUOUS
 62
           3
100
AcDbLine
 10
-14210.741349803677
 20
50.895847392768
 30
0.0
 11
-14211.27168928316
 21
51.55822193674
 31
0.0
  0
LINE
  5
24E
100
AcDbEntity
  8
Frei
  6
CONTINUOUS
 62
           3
100
AcDbLine
 10
-14228.632060155493
 20
52.876373360125
 30
0.0
 11
-14210.741349803677
 21
50.895847392768
 31
0.0
  0
LINE
  5
24F
100
AcDbEntity
  8
Frei
  6
CONTINUOUS
 62
           3
100
AcDbLine
 10
-14227.969685611522
 20
53.406712839608
 30
0.0
 11
-14228.632060155493
 21
52.876373360125
 31
0.0
  0
LINE
  5
250
100
AcDbEntity
  8
Frei
  6
CONTINUOUS
 62
           3
100
AcDbLine
 10
-14228.500025091002
 20
54.06908738358
 30
0.0
 11
-14227.969685611522
 21
53.406712839608
 31
0.0
  0
LINE
  5
251
100
AcDbEntity
  8
Frei
  6
CONTINUOUS
 62
           3
100
AcDbLine
 10
-14210.609314739186
 20
52.088561416222
 30
0.0
 11
-14228.500025091002
 21
54.06908738358
 31
0.0
  0
LINE
  5
252
100
AcDbEntity
  8
Frei
  6
CONTINUOUS
 62
           7
100
AcDbLine
 10
-14185.043848335423
 20
44.510801440369
 30
0.0
 11
-14184.436527713353
 21
43.126170357699
 31
0.0
  0
LINE
  5
253
100
AcDbEntity
  8
Frei
  6
CONTINUOUS
 62
           7
100
AcDbLine
 10
-14185.043848335423
 20
44.510801440369
 30
0.0
 11
-14189.262097098068
 21
44.977767315223
 31
0.0
  0
LINE
  5
254
100
AcDbEntity
  8
Frei
  6
CONTINUOUS
 62
           7
100
AcDbLine
 10
-14184.004310574317
 20
47.03052292414
 30
0.0
 11
-14185.043848335423
 21
44.510801440369
 31
0.0
  0
LINE
  5
255
100
AcDbEntity
  8
Frei
  6
CONTINUOUS
 62
           7
100
AcDbLine
 10
-14184.027441935075
 20
53.692318273805
 30
0.0
 11
-14183.564193692682
 21
51.006236335655
 31
0.0
  0
LINE
  5
256
100
AcDbEntity
  8
Frei
  6
CONTINUOUS
 62
           7
100
AcDbLine
 10
-14184.027441935075
 20
53.692318273805
 30
0.0
 11
-14188.24569069772
 21
54.159284148659
 31
0.0
  0
LINE
  5
257
100
AcDbEntity
  8
Frei
  6
CONTINUOUS
 62
           7
100
AcDbLine
 10
-14183.131976553648
 20
54.910588902095
 30
0.0
 11
-14184.027441935075
 21
53.692318273805
 31
0.0
  0
LINE
  5
258
100
AcDbEntity
  8
Frei
  6
CONTINUOUS
 62
           7
100
AcDbLine
 10
-14184.656586154169
 20
41.138313651941
 30
0.0
 11
-14185.552051535597
 21
39.920043023651
 31
0.0
  0
LINE
  5
259
100
AcDbEntity
  8
Frei
  6
CONTINUOUS
 62
           7
100
AcDbLine
 10
-14183.519238734902
 20
58.283076690523
 30
0.0
 11
-14187.737487497547
 21
58.750042565377
 31
0.0
  0
LINE
  5
25A
100
AcDbEntity
  8
Frei
  6
CONTINUOUS
 62
           7
100
AcDbLine
 10
-14183.519238734902
 20
58.283076690523
 30
0.0
 11
-14182.911918112832
 21
56.898445607852
 31
0.0
  0
LINE
  5
25B
100
AcDbEntity
  8
Frei
  6
CONTINUOUS
 62
           7
100
AcDbLine
 10
-14189.626227918563
 20
41.688459753985
 30
0.0
 11
-14189.770300298242
 21
40.387008898505
 31
0.0
  0
LINE
  5
25C
100
AcDbEntity
  8
Frei
  6
CONTINUOUS
 62
           7
100
AcDbLine
 10
-14184.656586154169
 20
41.138313651941
 30
0.0
 11
-14184.436527713353
 21
43.126170357699
 31
0.0
  0
LINE
  5
25D
100
AcDbEntity
  8
Frei
  6
CONTINUOUS
 62
           7
100
AcDbLine
 10
-14184.656586154169
 20
41.138313651941
 30
0.0
 11
-14189.626227918563
 21
41.688459753985
 31
0.0
  0
LINE
  5
25E
100
AcDbEntity
  8
Frei
  6
CONTINUOUS
 62
           7
100
AcDbLine
 10
-14189.406169477747
 20
43.676316459742
 30
0.0
 11
-14189.626227918563
 21
41.688459753985
 31
0.0
  0
LINE
  5
25F
100
AcDbEntity
  8
Frei
  6
CONTINUOUS
 62
           7
100
AcDbLine
 10
-14184.436527713353
 20
43.126170357699
 30
0.0
 11
-14184.004310574317
 21
47.03052292414
 31
0.0
  0
LINE
  5
260
100
AcDbEntity
  8
Frei
  6
CONTINUOUS
 62
           7
100
AcDbLine
 10
-14184.436527713353
 20
43.126170357699
 30
0.0
 11
-14189.406169477747
 21
43.676316459742
 31
0.0
  0
LINE
  5
261
100
AcDbEntity
  8
Frei
  6
CONTINUOUS
 62
           7
100
AcDbLine
 10
-14189.262097098068
 20
44.977767315223
 30
0.0
 11
-14189.406169477747
 21
43.676316459742
 31
0.0
  0
LINE
  5
262
100
AcDbEntity
  8
Frei
  6
CONTINUOUS
 62
           7
100
AcDbLine
 10
-14188.973952338711
 20
47.580669026184
 30
0.0
 11
-14189.262097098068
 21
44.977767315223
 31
0.0
  0
LINE
  5
263
100
AcDbEntity
  8
Frei
  6
CONTINUOUS
 62
           7
100
AcDbLine
 10
-14184.004310574317
 20
47.03052292414
 30
0.0
 11
-14183.564193692682
 21
51.006236335655
 31
0.0
  0
LINE
  5
264
100
AcDbEntity
  8
Frei
  6
CONTINUOUS
 62
           7
100
AcDbLine
 10
-14184.004310574317
 20
47.03052292414
 30
0.0
 11
-14188.973952338711
 21
47.580669026184
 31
0.0
  0
LINE
  5
265
100
AcDbEntity
  8
Frei
  6
CONTINUOUS
 62
           7
100
AcDbLine
 10
-14188.533835457076
 20
51.556382437699
 30
0.0
 11
-14188.973952338711
 21
47.580669026184
 31
0.0
  0
LINE
  5
266
100
AcDbEntity
  8
Frei
  6
CONTINUOUS
 62
           7
100
AcDbLine
 10
-14183.564193692682
 20
51.006236335655
 30
0.0
 11
-14183.131976553648
 21
54.910588902095
 31
0.0
  0
LINE
  5
267
100
AcDbEntity
  8
Frei
  6
CONTINUOUS
 62
           7
100
AcDbLine
 10
-14183.564193692682
 20
51.006236335655
 30
0.0
 11
-14188.533835457076
 21
51.556382437699
 31
0.0
  0
LINE
  5
268
100
AcDbEntity
  8
Frei
  6
CONTINUOUS
 62
           7
100
AcDbLine
 10
-14188.24569069772
 20
54.159284148659
 30
0.0
 11
-14188.533835457076
 21
51.556382437699
 31
0.0
  0
LINE
  5
269
100
AcDbEntity
  8
Frei
  6
CONTINUOUS
 62
           7
100
AcDbLine
 10
-14188.101618318042
 20
55.460735004139
 30
0.0
 11
-14188.24569069772
 21
54.159284148659
 31
0.0
  0
LINE
  5
26A
100
AcDbEntity
  8
Frei
  6
CONTINUOUS
 62
           7
100
AcDbLine
 10
-14183.131976553648
 20
54.910588902095
 30
0.0
 11
-14182.911918112832
 21
56.898445607852
 31
0.0
  0
LINE
  5
26B
100
AcDbEntity
  8
Frei
  6
CONTINUOUS
 62
           7
100
AcDbLine
 10
-14183.131976553648
 20
54.910588902095
 30
0.0
 11
-14188.101618318042
 21
55.460735004139
 31
0.0
  0
LINE
  5
26C
100
AcDbEntity
  8
Frei
  6
CONTINUOUS
 62
           7
100
AcDbLine
 10
-14187.881559877225
 20
57.448591709896
 30
0.0
 11
-14188.101618318042
 21
55.460735004139
 31
0.0
  0
LINE
  5
26D
100
AcDbEntity
  8
Frei
  6
CONTINUOUS
 62
           7
100
AcDbLine
 10
-14187.881559877225
 20
57.448591709896
 30
0.0
 11
-14182.911918112832
 21
56.898445607852
 31
0.0
  0
LINE
  5
26E
100
AcDbEntity
  8
Frei
  6
CONTINUOUS
 62
           7
100
AcDbLine
 10
-14189.770300298242
 20
40.387008898505
 30
0.0
 11
-14185.552051535597
 21
39.920043023651
 31
0.0
  0
LINE
  5
26F
100
AcDbEntity
  8
Frei
  6
CONTINUOUS
 62
           7
100
AcDbLine
 10
-14187.737487497547
 20
58.750042565377
 30
0.0
 11
-14187.881559877225
 21
57.448591709896
 31
0.0
  0
LINE
  5
270
100
AcDbEntity
  8
Frei
  6
CONTINUOUS
 62
           7
100
AcDbLine
 10
-14231.122372277048
 20
94.000069029863
 30
0.0
 11
-14231.700025684195
 21
88.78194517725
 31
0.0
  0
LINE
  5
271
100
AcDbEntity
  8
Frei
  6
CONTINUOUS
 62
           7
100
AcDbLine
 10
-14230.401684290591
 20
86.877526729099
 30
0.0
 11
-14230.016582019161
 21
90.356275964175
 31
0.0
  0
LINE
  5
272
100
AcDbEntity
  8
Frei
  6
CONTINUOUS
 62
           7
100
AcDbLine
 10
-14231.153082850104
 20
86.960707571541
 30
0.0
 11
-14230.401684290591
 21
86.877526729099
 31
0.0
  0
LINE
  5
273
100
AcDbEntity
  8
Frei
  6
CONTINUOUS
 62
           7
100
AcDbLine
 10
-14230.016582019161
 20
90.356275964175
 30
0.0
 11
-14229.2463774763
 21
97.313774434326
 31
0.0
  0
LINE
  5
274
100
AcDbEntity
  8
Frei
  6
CONTINUOUS
 62
           7
100
AcDbLine
 10
-14230.767980578674
 20
90.439456806617
 30
0.0
 11
-14230.016582019161
 21
90.356275964175
 31
0.0
  0
LINE
  5
275
100
AcDbEntity
  8
Frei
  6
CONTINUOUS
 62
           7
100
AcDbLine
 10
-14229.2463774763
 20
97.313774434326
 30
0.0
 11
-14228.861275204868
 21
100.792523669402
 31
0.0
  0
LINE
  5
276
100
AcDbEntity
  8
Frei
  6
CONTINUOUS
 62
           7
100
AcDbLine
 10
-14229.997776035812
 20
97.396955276768
 30
0.0
 11
-14229.2463774763
 21
97.313774434326
 31
0.0
  0
LINE
  5
277
100
AcDbEntity
  8
Frei
  6
CONTINUOUS
 62
           7
100
AcDbLine
 10
-14228.861275204868
 20
100.792523669402
 30
0.0
 11
-14228.25611449262
 21
106.259129610235
 31
0.0
  0
LINE
  5
278
100
AcDbEntity
  8
Frei
  6
CONTINUOUS
 62
           7
100
AcDbLine
 10
-14229.612673764381
 20
100.875704511844
 30
0.0
 11
-14228.861275204868
 21
100.792523669402
 31
0.0
  0
LINE
  5
279
100
AcDbEntity
  8
Frei
  6
CONTINUOUS
 62
           7
100
AcDbLine
 10
-14194.383710984741
 20
44.155101716713
 30
0.0
 11
-14193.063360339835
 21
56.082241951257
 31
0.0
  0
LINE
  5
27A
100
AcDbEntity
  8
Frei
  6
CONTINUOUS
 62
           2
100
AcDbLine
 10
-14189.414069220347
 20
43.604955614669
 30
0.0
 11
-14194.383710984741
 21
44.155101716713
 31
0.0
  0
LINE
  5
27B
100
AcDbEntity
  8
Frei
  6
CONTINUOUS
 62
           7
100
AcDbLine
 10
-14193.063360339835
 20
56.082241951257
 30
0.0
 11
-14192.953331119426
 21
57.076170304136
 31
0.0
  0
LINE
  5
27C
100
AcDbEntity
  8
Frei
  6
CONTINUOUS
 62
           2
100
AcDbLine
 10
-14188.093718575441
 20
55.532095849213
 30
0.0
 11
-14193.063360339835
 21
56.082241951257
 31
0.0
  0
LINE
  5
27D
100
AcDbEntity
  8
Frei
  6
CONTINUOUS
 62
           7
100
AcDbLine
 10
-14194.493740205149
 20
43.161173363834
 30
0.0
 11
-14194.383710984741
 21
44.155101716713
 31
0.0
  0
LINE
  5
27E
100
AcDbEntity
  8
Frei
  6
CONTINUOUS
 62
           7
100
AcDbLine
 10
-14194.493740205149
 20
43.161173363834
 30
0.0
 11
-14189.524098440756
 21
42.61102726179
 31
0.0
  0
LINE
  5
27F
100
AcDbEntity
  8
Frei
  6
CONTINUOUS
 62
           7
100
AcDbLine
 10
-14192.953331119426
 20
57.076170304136
 30
0.0
 11
-14192.898316509221
 21
57.573134480576
 31
0.0
  0
LINE
  5
280
100
AcDbEntity
  8
Frei
  6
CONTINUOUS
 62
           7
100
AcDbLine
 10
-14192.953331119426
 20
57.076170304136
 30
0.0
 11
-14187.983689355033
 21
56.526024202092
 31
0.0
  0
LINE
  5
281
100
AcDbEntity
  8
Frei
  6
CONTINUOUS
 62
           7
100
AcDbLine
 10
-14213.839662663748
 20
45.302793290505
 30
0.0
 11
-14232.759981790981
 21
47.397298349572
 31
0.0
  0
LINE
  5
282
100
AcDbEntity
  8
Frei
  6
CONTINUOUS
 62
           7
100
AcDbLine
 10
-14206.64093888051
 20
42.493667302982
 30
0.0
 11
-14213.839662663748
 21
45.302793290505
 31
0.0
  0
LINE
  5
283
100
AcDbEntity
  8
Frei
  6
CONTINUOUS
 62
           7
100
AcDbLine
 10
-14231.060026928444
 20
76.386264413668
 30
0.0
 11
-14231.556991104884
 21
76.441279023873
 31
0.0
  0
LINE
  5
284
100
AcDbEntity
  8
Frei
  6
CONTINUOUS
 62
           7
100
AcDbLine
 10
-14231.060026928444
 20
76.386264413668
 30
0.0
 11
-14234.085830489685
 21
49.053234709503
 31
0.0
  0
LINE
  5
285
100
AcDbEntity
  8
Frei
  6
CONTINUOUS
 62
           7
100
AcDbLine
 10
-14213.839662663748
 20
45.302793290505
 30
0.0
 11
-14207.911772969012
 21
44.646567839352
 31
0.0
  0
LINE
  5
286
100
AcDbEntity
  8
Frei
  6
CONTINUOUS
 62
           7
100
AcDbLine
 10
-14203.230033047839
 20
73.305446242222
 30
0.0
 11
-14231.060026928444
 21
76.386264413668
 31
0.0
  0
LINE
  5
287
100
AcDbEntity
  8
Frei
  6
CONTINUOUS
 62
           7
100
AcDbLine
 10
-14203.230033047839
 20
73.305446242222
 30
0.0
 11
-14206.25583660908
 21
45.972416538057
 31
0.0
  0
LINE
  5
288
100
AcDbEntity
  8
Frei
  6
CONTINUOUS
 62
           7
100
AcDbLine
 10
-14206.64093888051
 20
42.493667302982
 30
0.0
 11
-14196.204691175284
 21
41.338360488689
 31
0.0
  0
LINE
  5
289
100
AcDbEntity
  8
Frei
  6
CONTINUOUS
 62
           7
100
AcDbLine
 10
-14194.548754815354
 20
42.664209187395
 30
0.0
 11
-14194.493740205149
 21
43.161173363834
 31
0.0
  0
LINE
  5
28A
100
AcDbEntity
  8
Frei
  6
CONTINUOUS
 62
           7
100
AcDbLine
 10
-14204.660412913152
 20
60.384377654799
 30
0.0
 11
-14194.224165207926
 21
59.229070840507
 31
0.0
  0
LINE
  5
28B
100
AcDbEntity
  8
Frei
  6
CONTINUOUS
 62
           7
100
AcDbLine
 10
-14231.556991104884
 20
76.441279023873
 30
0.0
 11
-14231.446961884474
 21
77.435207376751
 31
0.0
  0
LINE
  5
28C
100
AcDbEntity
  8
Frei
  6
CONTINUOUS
 62
           7
100
AcDbLine
 10
-14202.733068871401
 20
73.250431632018
 30
0.0
 11
-14203.230033047839
 21
73.305446242222
 31
0.0
  0
LINE
  5
28D
100
AcDbEntity
  8
Frei
  6
CONTINUOUS
 62
           7
100
AcDbLine
 10
-14202.623039650991
 20
74.244359984897
 30
0.0
 11
-14202.733068871401
 21
73.250431632018
 31
0.0
  0
LINE
  5
28E
100
AcDbEntity
  8
Frei
  6
CONTINUOUS
 62
           7
100
AcDbLine
 10
-14202.623039650991
 20
74.244359984897
 30
0.0
 11
-14231.446961884474
 21
77.435207376751
 31
0.0
  0
LINE
  5
28F
100
AcDbEntity
  8
Frei
  6
CONTINUOUS
 62
           7
100
AcDbLine
 10
-14199.817294530567
 20
99.589532983304
 30
0.0
 11
-14199.75612707149
 21
100.142077767541
 31
0.0
  0
LINE
  5
290
100
AcDbEntity
  8
Frei
  6
CONTINUOUS
 62
           7
100
AcDbLine
 10
-14228.25611449262
 20
106.259129610235
 30
0.0
 11
-14201.454684191538
 21
102.341102036692
 31
0.0
  0
LINE
  5
291
100
AcDbEntity
  8
Frei
  6
CONTINUOUS
 62
           7
100
AcDbLine
 10
-14196.057974190671
 20
88.106174999595
 30
0.0
 11
-14196.112988800875
 21
87.609210823155
 31
0.0
  0
LINE
  5
292
100
AcDbEntity
  8
Frei
  6
CONTINUOUS
 62
           1
100
AcDbLine
 10
-14196.057974190671
 20
88.106174999595
 30
0.0
 11
-14198.531216744746
 21
88.379966313947
 31
0.0
  0
LINE
  5
293
100
AcDbEntity
  8
Frei
  6
CONTINUOUS
 62
           7
100
AcDbLine
 10
-14195.617857309035
 20
92.08188841111
 30
0.0
 11
-14196.057974190671
 21
88.106174999595
 31
0.0
  0
LINE
  5
294
100
AcDbEntity
  8
Frei
  6
CONTINUOUS
 62
           1
100
AcDbLine
 10
-14195.617857309035
 20
92.08188841111
 30
0.0
 11
-14198.09109986311
 21
92.355679725462
 31
0.0
  0
LINE
  5
295
100
AcDbEntity
  8
Frei
  6
CONTINUOUS
 62
           7
100
AcDbLine
 10
-14196.112988800875
 20
87.609210823155
 30
0.0
 11
-14196.16800341108
 21
87.112246646716
 31
0.0
  0
LINE
  5
296
100
AcDbEntity
  8
Frei
  6
CONTINUOUS
 62
           1
100
AcDbLine
 10
-14196.112988800875
 20
87.609210823155
 30
0.0
 11
-14198.58623135495
 21
87.883002137508
 31
0.0
  0
LINE
  5
297
100
AcDbEntity
  8
Frei
  6
CONTINUOUS
 62
           7
100
AcDbLine
 10
-14195.562842698831
 20
92.578852587549
 30
0.0
 11
-14195.617857309035
 21
92.08188841111
 31
0.0
  0
LINE
  5
298
100
AcDbEntity
  8
Frei
  6
CONTINUOUS
 62
           1
100
AcDbLine
 10
-14195.562842698831
 20
92.578852587549
 30
0.0
 11
-14198.036085252907
 21
92.852643901901
 31
0.0
  0
LINE
  5
299
100
AcDbEntity
  8
Frei
  6
CONTINUOUS
 62
           7
100
AcDbLine
 10
-14197.161931763958
 20
87.222275867125
 30
0.0
 11
-14196.501756441505
 21
93.185845984397
 31
0.0
  0
LINE
  5
29A
100
AcDbEntity
  8
Frei
  6
CONTINUOUS
 62
           2
100
AcDbLine
 10
-14196.16800341108
 20
87.112246646716
 30
0.0
 11
-14197.161931763958
 21
87.222275867125
 31
0.0
  0
LINE
  5
29B
100
AcDbEntity
  8
Frei
  6
CONTINUOUS
 62
           7
100
AcDbLine
 10
-14196.501756441505
 20
93.185845984397
 30
0.0
 11
-14196.391727221097
 21
94.179774337276
 31
0.0
  0
LINE
  5
29C
100
AcDbEntity
  8
Frei
  6
CONTINUOUS
 62
           2
100
AcDbLine
 10
-14195.507828088626
 20
93.075816763988
 30
0.0
 11
-14196.501756441505
 21
93.185845984397
 31
0.0
  0
LINE
  5
29D
100
AcDbEntity
  8
Frei
  6
CONTINUOUS
 62
           7
100
AcDbLine
 10
-14197.271960984366
 20
86.228347514246
 30
0.0
 11
-14197.161931763958
 21
87.222275867125
 31
0.0
  0
LINE
  5
29E
100
AcDbEntity
  8
Frei
  6
CONTINUOUS
 62
           7
100
AcDbLine
 10
-14196.16800341108
 20
87.112246646716
 30
0.0
 11
-14197.271960984366
 21
86.228347514246
 31
0.0
  0
LINE
  5
29F
100
AcDbEntity
  8
Frei
  6
CONTINUOUS
 62
           7
100
AcDbLine
 10
-14195.507828088626
 20
93.075816763988
 30
0.0
 11
-14195.562842698831
 21
92.578852587549
 31
0.0
  0
LINE
  5
2A0
100
AcDbEntity
  8
Frei
  6
CONTINUOUS
 62
           7
100
AcDbLine
 10
-14196.391727221097
 20
94.179774337276
 30
0.0
 11
-14195.841581119052
 21
99.149416101669
 31
0.0
  0
LINE
  5
2A1
100
AcDbEntity
  8
Frei
  6
CONTINUOUS
 62
           7
100
AcDbLine
 10
-14196.391727221097
 20
94.179774337276
 30
0.0
 11
-14195.507828088626
 21
93.075816763988
 31
0.0
  0
LINE
  5
2A2
100
AcDbEntity
  8
Frei
  6
CONTINUOUS
 62
           7
100
AcDbLine
 10
-14231.446961884474
 20
77.435207376751
 30
0.0
 11
-14230.401684290591
 21
86.877526729099
 31
0.0
  0
LINE
  5
2A3
100
AcDbEntity
  8
Frei
  6
CONTINUOUS
 62
           7
100
AcDbLine
 10
-14201.797820497926
 20
81.698822631487
 30
0.0
 11
-14202.623039650991
 21
74.244359984897
 31
0.0
  0
LINE
  5
2A4
100
AcDbEntity
  8
Frei
  6
CONTINUOUS
 62
           7
100
AcDbLine
 10
-14198.71333695728
 20
100.473432115775
 30
0.0
 11
-14200.913921365456
 21
80.5948650582
 31
0.0
  0
LINE
  5
2A5
100
AcDbEntity
  8
Frei
  6
CONTINUOUS
 62
           7
100
AcDbLine
 10
-14196.725480251522
 20
100.253373674957
 30
0.0
 11
-14198.926064659698
 21
80.374806617382
 31
0.0
  0
LINE
  5
2A6
100
AcDbEntity
  8
Frei
  6
CONTINUOUS
 62
           7
100
AcDbLine
 10
-14197.822107086411
 20
81.258705749852
 30
0.0
 11
-14198.926064659698
 21
80.374806617382
 31
0.0
  0
LINE
  5
2A7
100
AcDbEntity
  8
Frei
  6
CONTINUOUS
 62
           7
100
AcDbLine
 10
-14200.913921365456
 20
80.5948650582
 30
0.0
 11
-14201.797820497926
 21
81.698822631487
 31
0.0
  0
LINE
  5
2A8
100
AcDbEntity
  8
Frei
  6
CONTINUOUS
 62
           7
100
AcDbLine
 10
-14199.817294530567
 20
99.589532983304
 30
0.0
 11
-14198.71333695728
 21
100.473432115775
 31
0.0
  0
LINE
  5
2A9
100
AcDbEntity
  8
Frei
  6
CONTINUOUS
 62
           7
100
AcDbLine
 10
-14195.841581119052
 20
99.149416101669
 30
0.0
 11
-14196.725480251522
 21
100.253373674957
 31
0.0
  0
LINE
  5
2AA
100
AcDbEntity
  8
Frei
  6
CONTINUOUS
 62
           7
100
AcDbLine
 10
-14197.822107086411
 20
81.258705749852
 30
0.0
 11
-14197.271960984366
 21
86.228347514246
 31
0.0
  0
LINE
  5
2AB
100
AcDbEntity
  8
Frei
  6
CONTINUOUS
 62
           7
100
AcDbLine
 10
-14200.913921365456
 20
80.5948650582
 30
0.0
 11
-14198.926064659698
 21
80.374806617382
 31
0.0
  0
LINE
  5
2AC
100
AcDbEntity
  8
Frei
  6
CONTINUOUS
 62
           7
100
AcDbLine
 10
-14199.817294530567
 20
99.589532983304
 30
0.0
 11
-14201.797820497926
 21
81.698822631487
 31
0.0
  0
LINE
  5
2AD
100
AcDbEntity
  8
Frei
  6
CONTINUOUS
 62
           7
100
AcDbLine
 10
-14196.725480251522
 20
100.253373674957
 30
0.0
 11
-14198.71333695728
 21
100.473432115775
 31
0.0
  0
LINE
  5
2AE
100
AcDbEntity
  8
Frei
  6
CONTINUOUS
 62
           7
100
AcDbLine
 10
-14247.846779706973
 20
79.250689513496
 30
0.0
 11
-14237.410532001746
 21
78.095382699204
 31
0.0
  0
LINE
  5
2AF
100
AcDbEntity
  8
Frei
  6
CONTINUOUS
 62
           7
100
AcDbLine
 10
-14230.300818493182
 20
110.509916072771
 30
0.0
 11
-14244.215815433485
 21
112.050325158494
 31
0.0
  0
LINE
  5
2B0
100
AcDbEntity
  8
Frei
  6
CONTINUOUS
 62
           7
100
AcDbLine
 10
-14229.416919360712
 20
109.405958499484
 30
0.0
 11
-14231.89257681991
 21
87.042570559712
 31
0.0
  0
LINE
  5
2B1
100
AcDbEntity
  8
Frei
  6
CONTINUOUS
 62
           7
100
AcDbLine
 10
-14390.862433301105
 20
96.088825605238
 30
0.0
 11
-14388.386775841907
 21
118.45221354501
 31
0.0
  0
LINE
  5
2B2
100
AcDbEntity
  8
Frei
  6
CONTINUOUS
 62
           7
100
AcDbLine
 10
-14389.734633791915
 20
106.276591222245
 30
0.0
 11
-14389.156980384769
 21
111.494715074858
 31
0.0
  0
LINE
  5
2B3
100
AcDbEntity
  8
Frei
  6
CONTINUOUS
 62
           7
100
AcDbLine
 10
-14230.544718869902
 20
99.218192882477
 30
0.0
 11
-14231.122372277048
 21
94.000069029863
 31
0.0
  0
ARC
  5
2B4
100
AcDbEntity
  8
Frei
  6
CONTINUOUS
 62
           7
100
AcDbCircle
 10
-14397.709144491837
 20
112.441451272476
 30
0.0
 40
8.604407030244
100
AcDbArc
 50
329.681014671726
 51
353.682999999999
  0
ARC
  5
2B5
100
AcDbEntity
  8
Frei
  6
CONTINUOUS
 62
           7
100
AcDbCircle
 10
-14390.994678243065
 20
116.98022159744
 30
0.0
 40
2.430106011614
100
AcDbArc
 50
307.617521857266
 51
353.682999999999
  0
ARC
  5
2B6
100
AcDbEntity
  8
Frei
  6
CONTINUOUS
 62
           7
100
AcDbCircle
 10
-14392.149985057358
 20
106.543973892213
 30
0.0
 40
2.430106011614
100
AcDbArc
 50
307.617521857266
 51
353.682999999999
  0
ARC
  5
2B7
100
AcDbEntity
  8
Frei
  6
CONTINUOUS
 62
           7
100
AcDbCircle
 10
-14390.994678243065
 20
116.98022159744
 30
0.0
 40
2.430106011614
100
AcDbArc
 50
353.682999999999
 51
39.748478142733
  0
ARC
  5
2B8
100
AcDbEntity
  8
Frei
  6
CONTINUOUS
 62
           7
100
AcDbCircle
 10
-14392.149985057358
 20
106.543973892213
 30
0.0
 40
2.430106011614
100
AcDbArc
 50
353.682999999999
 51
39.748478142733
  0
ARC
  5
2B9
100
AcDbEntity
  8
Frei
  6
CONTINUOUS
 62
           7
100
AcDbCircle
 10
-14229.28467441875
 20
88.514562507282
 30
0.0
 40
2.430106011614
100
AcDbArc
 50
127.617521857263
 51
173.683
  0
ARC
  5
2BA
100
AcDbEntity
  8
Frei
  6
CONTINUOUS
 62
           7
100
AcDbCircle
 10
-14228.129367604457
 20
98.950810212508
 30
0.0
 40
2.430106011614
100
AcDbArc
 50
127.617521857263
 51
173.683
  0
ARC
  5
2BB
100
AcDbEntity
  8
Frei
  6
CONTINUOUS
 62
           7
100
AcDbCircle
 10
-14229.28467441875
 20
88.514562507282
 30
0.0
 40
2.430106011614
100
AcDbArc
 50
173.683
 51
219.748478142737
  0
ARC
  5
2BC
100
AcDbEntity
  8
Frei
  6
CONTINUOUS
 62
           7
100
AcDbCircle
 10
-14228.129367604457
 20
98.950810212508
 30
0.0
 40
2.430106011614
100
AcDbArc
 50
173.683
 51
219.748478142737
  0
ARC
  5
2BD
100
AcDbEntity
  8
Frei
  6
CONTINUOUS
 62
           7
100
AcDbCircle
 10
-14222.57020816998
 20
93.053332832246
 30
0.0
 40
8.604407030244
100
AcDbArc
 50
149.681014671724
 51
173.683
  0
ARC
  5
2BE
100
AcDbEntity
  8
Frei
  6
CONTINUOUS
 62
           7
100
AcDbCircle
 10
-14366.804769983935
 20
101.209957112389
 30
0.0
 40
4.481959213903
100
AcDbArc
 50
182.061955885586
 51
345.304044114414
  0
ARC
  5
2BF
100
AcDbEntity
  8
Frei
  6
CONTINUOUS
 62
           7
100
AcDbCircle
 10
-14397.709144491837
 20
112.441451272476
 30
0.0
 40
8.604407030244
100
AcDbArc
 50
353.682999999999
 51
17.684985328274
  0
ARC
  5
2C0
100
AcDbEntity
  8
Frei
  6
CONTINUOUS
 62
           7
100
AcDbCircle
 10
-14222.57020816998
 20
93.053332832246
 30
0.0
 40
8.604407030244
100
AcDbArc
 50
173.683
 51
197.684985328276
  0
POLYLINE
  5
2C1
100
AcDbEntity
  8
Frei
  6
CONTINUOUS
 62
           7
100
AcDb2dPolyline
 66
           1
 10
0.0
 20
0.0
 30
0.0
  0
VERTEX
  5
2C2
100
AcDbEntity
  8
Frei
  6
CONTINUOUS
 62
           7
100
AcDbVertex
100
AcDb2dVertex
 10
-14370.962617399711
 20
101.36807480559
 30
0.0
 42
0.046286845788
  0
VERTEX
  5
2C3
100
AcDbEntity
  8
Frei
  6
CONTINUOUS
 62
           7
100
AcDbVertex
100
AcDb2dVertex
 10
-14370.974461969783
 20
100.688069269404
 30
0.0
  0
VERTEX
  5
2C4
100
AcDbEntity
  8
Frei
  6
CONTINUOUS
 62
           7
100
AcDbVertex
100
AcDb2dVertex
 10
-14370.93302721982
 20
100.348842856379
 30
0.0
  0
VERTEX
  5
2C5
100
AcDbEntity
  8
Frei
  6
CONTINUOUS
 62
           7
100
AcDbVertex
100
AcDb2dVertex
 10
-14370.860616606878
 20
100.014851151268
 30
0.0
 42
0.045273723548
  0
VERTEX
  5
2C6
100
AcDbEntity
  8
Frei
  6
CONTINUOUS
 62
           7
100
AcDbVertex
100
AcDb2dVertex
 10
-14370.62454044474
 20
99.36887584304
 30
0.0
  0
VERTEX
  5
2C7
100
AcDbEntity
  8
Frei
  6
CONTINUOUS
 62
           7
100
AcDbVertex
100
AcDb2dVertex
 10
-14370.462302252437
 20
99.061514766478
 30
0.0
  0
VERTEX
  5
2C8
100
AcDbEntity
  8
Frei
  6
CONTINUOUS
 62
           7
100
AcDbVertex
100
AcDb2dVertex
 10
-14370.273406538092
 20
98.769770977578
 30
0.0
 42
0.04348253534
  0
VERTEX
  5
2C9
100
AcDbEntity
  8
Frei
  6
CONTINUOUS
 62
           7
100
AcDbVertex
100
AcDb2dVertex
 10
-14369.817883913012
 20
98.235740053059
 30
0.0
  0
VERTEX
  5
2CA
100
AcDbEntity
  8
Frei
  6
CONTINUOUS
 62
           7
100
AcDbVertex
100
AcDb2dVertex
 10
-14369.554504862061
 20
97.997731491069
 30
0.0
  0
VERTEX
  5
2CB
100
AcDbEntity
  8
Frei
  6
CONTINUOUS
 62
           7
100
AcDbVertex
100
AcDb2dVertex
 10
-14369.271813393954
 20
97.783009328891
 30
0.0
 42
0.041825507476
  0
VERTEX
  5
2CC
100
AcDbEntity
  8
Frei
  6
CONTINUOUS
 62
           7
100
AcDbVertex
100
AcDb2dVertex
 10
-14368.651787057312
 20
97.425334799037
 30
0.0
  0
VERTEX
  5
2CD
100
AcDbEntity
  8
Frei
  6
CONTINUOUS
 62
           7
100
AcDbVertex
100
AcDb2dVertex
 10
-14368.319420017979
 20
97.285505608631
 30
0.0
  0
VERTEX
  5
2CE
100
AcDbEntity
  8
Frei
  6
CONTINUOUS
 62
           7
100
AcDbVertex
100
AcDb2dVertex
 10
-14367.976644089582
 20
97.173584223092
 30
0.0
 42
0.040993490696
  0
VERTEX
  5
2CF
100
AcDbEntity
  8
Frei
  6
CONTINUOUS
 62
           7
100
AcDbVertex
100
AcDb2dVertex
 10
-14367.266898368194
 20
97.035406914915
 30
0.0
  0
VERTEX
  5
2D0
100
AcDbEntity
  8
Frei
  6
CONTINUOUS
 62
           7
100
AcDbVertex
100
AcDb2dVertex
 10
-14366.905925201967
 20
97.010368631549
 30
0.0
  0
VERTEX
  5
2D1
100
AcDbEntity
  8
Frei
  6
CONTINUOUS
 62
           7
100
AcDbVertex
100
AcDb2dVertex
 10
-14366.544115157749
 20
97.015001322095
 30
0.0
 42
0.041278481646
  0
VERTEX
  5
2D2
100
AcDbEntity
  8
Frei
  6
CONTINUOUS
 62
           7
100
AcDbVertex
100
AcDb2dVertex
 10
-14365.830255860345
 20
97.112987458243
 30
0.0
  0
VERTEX
  5
2D3
100
AcDbEntity
  8
Frei
  6
CONTINUOUS
 62
           7
100
AcDbVertex
100
AcDb2dVertex
 10
-14365.484162216993
 20
97.205378982966
 30
0.0
  0
VERTEX
  5
2D4
100
AcDbEntity
  8
Frei
  6
CONTINUOUS
 62
           7
100
AcDbVertex
100
AcDb2dVertex
 10
-14365.147010729506
 20
97.326388064195
 30
0.0
 42
0.042584509173
  0
VERTEX
  5
2D5
100
AcDbEntity
  8
Frei
  6
CONTINUOUS
 62
           7
100
AcDbVertex
100
AcDb2dVertex
 10
-14364.515139822797
 20
97.648719070527
 30
0.0
  0
VERTEX
  5
2D6
100
AcDbEntity
  8
Frei
  6
CONTINUOUS
 62
           7
100
AcDbVertex
100
AcDb2dVertex
 10
-14364.225311137929
 20
97.847232033056
 30
0.0
  0
VERTEX
  5
2D7
100
AcDbEntity
  8
Frei
  6
CONTINUOUS
 62
           7
100
AcDbVertex
100
AcDb2dVertex
 10
-14363.953842217968
 20
98.070186612717
 30
0.0
 42
0.044417198743
  0
VERTEX
  5
2D8
100
AcDbEntity
  8
Frei
  6
CONTINUOUS
 62
           7
100
AcDbVertex
100
AcDb2dVertex
 10
-14363.480172658721
 20
98.577984612769
 30
0.0
  0
VERTEX
  5
2D9
100
AcDbEntity
  8
Frei
  6
CONTINUOUS
 62
           7
100
AcDbVertex
100
AcDb2dVertex
 10
-14363.281224382878
 20
98.85890903658
 30
0.0
  0
VERTEX
  5
2DA
100
AcDbEntity
  8
Frei
  6
CONTINUOUS
 62
           7
100
AcDbVertex
100
AcDb2dVertex
 10
-14363.10852335492
 20
99.15668388541
 30
0.0
 42
0.045929593742
  0
VERTEX
  5
2DB
100
AcDbEntity
  8
Frei
  6
CONTINUOUS
 62
           7
100
AcDbVertex
100
AcDb2dVertex
 10
-14362.850186682597
 20
99.788700946078
 30
0.0
  0
VERTEX
  5
2DC
100
AcDbEntity
  8
Frei
  6
CONTINUOUS
 62
           7
100
AcDbVertex
100
AcDb2dVertex
 10
-14362.766155124844
 20
100.118586849511
 30
0.0
  0
VERTEX
  5
2DD
100
AcDbEntity
  8
Frei
  6
CONTINUOUS
 62
           7
100
AcDbVertex
100
AcDb2dVertex
 10
-14362.713012070819
 20
100.454832276198
 30
0.0
 42
0.046286845788
  0
VERTEX
  5
2DE
100
AcDbEntity
  8
Frei
  6
CONTINUOUS
 62
           7
100
AcDbVertex
100
AcDb2dVertex
 10
-14362.701167500747
 20
101.134837812384
 30
0.0
  0
VERTEX
  5
2DF
100
AcDbEntity
  8
Frei
  6
CONTINUOUS
 62
           7
100
AcDbVertex
100
AcDb2dVertex
 10
-14362.742602250712
 20
101.474064225409
 30
0.0
  0
VERTEX
  5
2E0
100
AcDbEntity
  8
Frei
  6
CONTINUOUS
 62
           7
100
AcDbVertex
100
AcDb2dVertex
 10
-14362.815012863653
 20
101.808055930519
 30
0.0
 42
0.045273723548
  0
VERTEX
  5
2E1
100
AcDbEntity
  8
Frei
  6
CONTINUOUS
 62
           7
100
AcDbVertex
100
AcDb2dVertex
 10
-14363.051089025792
 20
102.454031238748
 30
0.0
  0
VERTEX
  5
2E2
100
AcDbEntity
  8
Frei
  6
CONTINUOUS
 62
           7
100
AcDbVertex
100
AcDb2dVertex
 10
-14363.213327218094
 20
102.76139231531
 30
0.0
  0
VERTEX
  5
2E3
100
AcDbEntity
  8
Frei
  6
CONTINUOUS
 62
           7
100
AcDbVertex
100
AcDb2dVertex
 10
-14363.402222932436
 20
103.053136104209
 30
0.0
 42
0.04348253534
  0
VERTEX
  5
2E4
100
AcDbEntity
  8
Frei
  6
CONTINUOUS
 62
           7
100
AcDbVertex
100
AcDb2dVertex
 10
-14363.85774555752
 20
103.587167028728
 30
0.0
  0
VERTEX
  5
2E5
100
AcDbEntity
  8
Frei
  6
CONTINUOUS
 62
           7
100
AcDbVertex
100
AcDb2dVertex
 10
-14364.121124608469
 20
103.825175590719
 30
0.0
  0
VERTEX
  5
2E6
100
AcDbEntity
  8
Frei
  6
CONTINUOUS
 62
           7
100
AcDbVertex
100
AcDb2dVertex
 10
-14364.403816076576
 20
104.039897752896
 30
0.0
 42
0.041825507476
  0
VERTEX
  5
2E7
100
AcDbEntity
  8
Frei
  6
CONTINUOUS
 62
           7
100
AcDbVertex
100
AcDb2dVertex
 10
-14365.023842413219
 20
104.397572282752
 30
0.0
  0
VERTEX
  5
2E8
100
AcDbEntity
  8
Frei
  6
CONTINUOUS
 62
           7
100
AcDbVertex
100
AcDb2dVertex
 10
-14365.356209452551
 20
104.537401473157
 30
0.0
  0
VERTEX
  5
2E9
100
AcDbEntity
  8
Frei
  6
CONTINUOUS
 62
           7
100
AcDbVertex
100
AcDb2dVertex
 10
-14365.69898538095
 20
104.649322858696
 30
0.0
 42
0.040993490696
  0
VERTEX
  5
2EA
100
AcDbEntity
  8
Frei
  6
CONTINUOUS
 62
           7
100
AcDbVertex
100
AcDb2dVertex
 10
-14366.408731102336
 20
104.787500166872
 30
0.0
  0
VERTEX
  5
2EB
100
AcDbEntity
  8
Frei
  6
CONTINUOUS
 62
           7
100
AcDbVertex
100
AcDb2dVertex
 10
-14366.769704268561
 20
104.812538450238
 30
0.0
  0
VERTEX
  5
2EC
100
AcDbEntity
  8
Frei
  6
CONTINUOUS
 62
           7
100
AcDbVertex
100
AcDb2dVertex
 10
-14367.131514312783
 20
104.807905759693
 30
0.0
 42
0.041278481646
  0
VERTEX
  5
2ED
100
AcDbEntity
  8
Frei
  6
CONTINUOUS
 62
           7
100
AcDbVertex
100
AcDb2dVertex
 10
-14367.845373610186
 20
104.709919623545
 30
0.0
  0
VERTEX
  5
2EE
100
AcDbEntity
  8
Frei
  6
CONTINUOUS
 62
           7
100
AcDbVertex
100
AcDb2dVertex
 10
-14368.191467253537
 20
104.617528098822
 30
0.0
  0
VERTEX
  5
2EF
100
AcDbEntity
  8
Frei
  6
CONTINUOUS
 62
           7
100
AcDbVertex
100
AcDb2dVertex
 10
-14368.528618741024
 20
104.496519017593
 30
0.0
 42
0.042584509172
  0
VERTEX
  5
2F0
100
AcDbEntity
  8
Frei
  6
CONTINUOUS
 62
           7
100
AcDbVertex
100
AcDb2dVertex
 10
-14369.160489647735
 20
104.17418801126
 30
0.0
  0
VERTEX
  5
2F1
100
AcDbEntity
  8
Frei
  6
CONTINUOUS
 62
           7
100
AcDbVertex
100
AcDb2dVertex
 10
-14369.450318332603
 20
103.97567504873
 30
0.0
  0
VERTEX
  5
2F2
100
AcDbEntity
  8
Frei
  6
CONTINUOUS
 62
           7
100
AcDbVertex
100
AcDb2dVertex
 10
-14369.72178725256
 20
103.752720469071
 30
0.0
 42
0.044417198743
  0
VERTEX
  5
2F3
100
AcDbEntity
  8
Frei
  6
CONTINUOUS
 62
           7
100
AcDbVertex
100
AcDb2dVertex
 10
-14370.195456811811
 20
103.244922469019
 30
0.0
  0
VERTEX
  5
2F4
100
AcDbEntity
  8
Frei
  6
CONTINUOUS
 62
           7
100
AcDbVertex
100
AcDb2dVertex
 10
-14370.394405087654
 20
102.963998045207
 30
0.0
  0
VERTEX
  5
2F5
100
AcDbEntity
  8
Frei
  6
CONTINUOUS
 62
           7
100
AcDbVertex
100
AcDb2dVertex
 10
-14370.567106115612
 20
102.666223196377
 30
0.0
 42
0.045929593742
  0
VERTEX
  5
2F6
100
AcDbEntity
  8
Frei
  6
CONTINUOUS
 62
           7
100
AcDbVertex
100
AcDb2dVertex
 10
-14370.825442787933
 20
102.03420613571
 30
0.0
  0
VERTEX
  5
2F7
100
AcDbEntity
  8
Frei
  6
CONTINUOUS
 62
           7
100
AcDbVertex
100
AcDb2dVertex
 10
-14370.909474345688
 20
101.704320232277
 30
0.0
  0
VERTEX
  5
2F8
100
AcDbEntity
  8
Frei
  6
CONTINUOUS
 62
           7
100
AcDbVertex
100
AcDb2dVertex
 10
-14370.962617399711
 20
101.36807480559
 30
0.0
  0
SEQEND
  5
2F9
100
AcDbEntity
  8
Frei
  6
CONTINUOUS
 62
           7
  0
POLYLINE
  5
2FA
100
AcDbEntity
  8
Frei
  6
CONTINUOUS
 62
           7
100
AcDb2dPolyline
 66
           1
 10
0.0
 20
0.0
 30
0.0
  0
VERTEX
  5
2FB
100
AcDbEntity
  8
Frei
  6
CONTINUOUS
 62
           7
100
AcDbVertex
100
AcDb2dVertex
 10
-14366.399552201146
 20
104.870416051462
 30
0.0
 42
0.046286845788
  0
VERTEX
  5
2FC
100
AcDbEntity
  8
Frei
  6
CONTINUOUS
 62
           7
100
AcDbVertex
100
AcDb2dVertex
 10
-14367.175510793104
 20
104.883931964826
 30
0.0
  0
VERTEX
  5
2FD
100
AcDbEntity
  8
Frei
  6
CONTINUOUS
 62
           7
100
AcDbVertex
100
AcDb2dVertex
 10
-14367.562604185434
 20
104.836650511179
 30
0.0
  0
VERTEX
  5
2FE
100
AcDbEntity
  8
Frei
  6
CONTINUOUS
 62
           7
100
AcDbVertex
100
AcDb2dVertex
 10
-14367.943724219656
 20
104.754022305566
 30
0.0
 42
0.045273723548
  0
VERTEX
  5
2FF
100
AcDbEntity
  8
Frei
  6
CONTINUOUS
 62
           7
100
AcDbVertex
100
AcDb2dVertex
 10
-14368.680850704575
 20
104.48463431294
 30
0.0
  0
VERTEX
  5
300
100
AcDbEntity
  8
Frei
  6
CONTINUOUS
 62
           7
100
AcDbVertex
100
AcDb2dVertex
 10
-14369.031582361156
 20
104.299503291852
 30
0.0
  0
VERTEX
  5
301
100
AcDbEntity
  8
Frei
  6
CONTINUOUS
 62
           7
100
AcDbVertex
100
AcDb2dVertex
 10
-14369.364493032615
 20
104.083953204787
 30
0.0
 42
0.04348253534
  0
VERTEX
  5
302
100
AcDbEntity
  8
Frei
  6
CONTINUOUS
 62
           7
100
AcDbVertex
100
AcDb2dVertex
 10
-14369.973879077583
 20
103.564153473824
 30
0.0
  0
VERTEX
  5
303
100
AcDbEntity
  8
Frei
  6
CONTINUOUS
 62
           7
100
AcDbVertex
100
AcDb2dVertex
 10
-14370.245472143826
 20
103.263609983143
 30
0.0
  0
VERTEX
  5
304
100
AcDbEntity
  8
Frei
  6
CONTINUOUS
 62
           7
100
AcDbVertex
100
AcDb2dVertex
 10
-14370.490492952862
 20
102.941028971845
 30
0.0
 42
0.041825507476
  0
VERTEX
  5
305
100
AcDbEntity
  8
Frei
  6
CONTINUOUS
 62
           7
100
AcDbVertex
100
AcDb2dVertex
 10
-14370.898637607273
 20
102.233513021527
 30
0.0
  0
VERTEX
  5
306
100
AcDbEntity
  8
Frei
  6
CONTINUOUS
 62
           7
100
AcDbVertex
100
AcDb2dVertex
 10
-14371.058197575434
 20
101.854246903635
 30
0.0
  0
VERTEX
  5
307
100
AcDbEntity
  8
Frei
  6
CONTINUOUS
 62
           7
100
AcDbVertex
100
AcDb2dVertex
 10
-14371.185911772027
 20
101.463103137
 30
0.0
 42
0.040993490695
  0
VERTEX
  5
308
100
AcDbEntity
  8
Frei
  6
CONTINUOUS
 62
           7
100
AcDbVertex
100
AcDb2dVertex
 10
-14371.34358676699
 20
100.653207832757
 30
0.0
  0
VERTEX
  5
309
100
AcDbEntity
  8
Frei
  6
CONTINUOUS
 62
           7
100
AcDbVertex
100
AcDb2dVertex
 10
-14371.372158109532
 20
100.241299083645
 30
0.0
  0
VERTEX
  5
30A
100
AcDbEntity
  8
Frei
  6
CONTINUOUS
 62
           7
100
AcDbVertex
100
AcDb2dVertex
 10
-14371.36687171723
 20
99.828435367794
 30
0.0
 42
0.041278481646
  0
VERTEX
  5
30B
100
AcDbEntity
  8
Frei
  6
CONTINUOUS
 62
           7
100
AcDbVertex
100
AcDb2dVertex
 10
-14371.255059121317
 20
99.013846036102
 30
0.0
  0
VERTEX
  5
30C
100
AcDbEntity
  8
Frei
  6
CONTINUOUS
 62
           7
100
AcDbVertex
100
AcDb2dVertex
 10
-14371.149630571668
 20
98.618916404076
 30
0.0
  0
VERTEX
  5
30D
100
AcDbEntity
  8
Frei
  6
CONTINUOUS
 62
           7
100
AcDbVertex
100
AcDb2dVertex
 10
-14371.011546348396
 20
98.234190722321
 30
0.0
 42
0.042584509173
  0
VERTEX
  5
30E
100
AcDbEntity
  8
Frei
  6
CONTINUOUS
 62
           7
100
AcDbVertex
100
AcDb2dVertex
 10
-14370.643732410852
 20
97.513158858639
 30
0.0
  0
VERTEX
  5
30F
100
AcDbEntity
  8
Frei
  6
CONTINUOUS
 62
           7
100
AcDbVertex
100
AcDb2dVertex
 10
-14370.417208021425
 20
97.182433524431
 30
0.0
  0
VERTEX
  5
310
100
AcDbEntity
  8
Frei
  6
CONTINUOUS
 62
           7
100
AcDbVertex
100
AcDb2dVertex
 10
-14370.162793149051
 20
96.872658633372
 30
0.0
 42
0.044417198743
  0
VERTEX
  5
311
100
AcDbEntity
  8
Frei
  6
CONTINUOUS
 62
           7
100
AcDbVertex
100
AcDb2dVertex
 10
-14369.583341659098
 20
96.332151321756
 30
0.0
  0
VERTEX
  5
312
100
AcDbEntity
  8
Frei
  6
CONTINUOUS
 62
           7
100
AcDbVertex
100
AcDb2dVertex
 10
-14369.262777033153
 20
96.105130193571
 30
0.0
  0
VERTEX
  5
313
100
AcDbEntity
  8
Frei
  6
CONTINUOUS
 62
           7
100
AcDbVertex
100
AcDb2dVertex
 10
-14368.922984281295
 20
95.908059964945
 30
0.0
 42
0.045929593742
  0
VERTEX
  5
314
100
AcDbEntity
  8
Frei
  6
CONTINUOUS
 62
           7
100
AcDbVertex
100
AcDb2dVertex
 10
-14368.201785640415
 20
95.613270364215
 30
0.0
  0
VERTEX
  5
315
100
AcDbEntity
  8
Frei
  6
CONTINUOUS
 62
           7
100
AcDbVertex
100
AcDb2dVertex
 10
-14367.825350762296
 20
95.517381425428
 30
0.0
  0
VERTEX
  5
316
100
AcDbEntity
  8
Frei
  6
CONTINUOUS
 62
           7
100
AcDbVertex
100
AcDb2dVertex
 10
-14367.441658992215
 20
95.456739552415
 30
0.0
 42
0.046286845788
  0
VERTEX
  5
317
100
AcDbEntity
  8
Frei
  6
CONTINUOUS
 62
           7
100
AcDbVertex
100
AcDb2dVertex
 10
-14366.665700400257
 20
95.44322363905
 30
0.0
  0
VERTEX
  5
318
100
AcDbEntity
  8
Frei
  6
CONTINUOUS
 62
           7
100
AcDbVertex
100
AcDb2dVertex
 10
-14366.278607007926
 20
95.490505092698
 30
0.0
  0
VERTEX
  5
319
100
AcDbEntity
  8
Frei
  6
CONTINUOUS
 62
           7
100
AcDbVertex
100
AcDb2dVertex
 10
-14365.897486973703
 20
95.57313329831
 30
0.0
 42
0.045273723548
  0
VERTEX
  5
31A
100
AcDbEntity
  8
Frei
  6
CONTINUOUS
 62
           7
100
AcDbVertex
100
AcDb2dVertex
 10
-14365.160360488786
 20
95.842521290937
 30
0.0
  0
VERTEX
  5
31B
100
AcDbEntity
  8
Frei
  6
CONTINUOUS
 62
           7
100
AcDbVertex
100
AcDb2dVertex
 10
-14364.809628832203
 20
96.027652312025
 30
0.0
  0
VERTEX
  5
31C
100
AcDbEntity
  8
Frei
  6
CONTINUOUS
 62
           7
100
AcDbVertex
100
AcDb2dVertex
 10
-14364.476718160746
 20
96.24320239909
 30
0.0
 42
0.04348253534
  0
VERTEX
  5
31D
100
AcDbEntity
  8
Frei
  6
CONTINUOUS
 62
           7
100
AcDbVertex
100
AcDb2dVertex
 10
-14363.867332115778
 20
96.763002130053
 30
0.0
  0
VERTEX
  5
31E
100
AcDbEntity
  8
Frei
  6
CONTINUOUS
 62
           7
100
AcDbVertex
100
AcDb2dVertex
 10
-14363.595739049535
 20
97.063545620733
 30
0.0
  0
VERTEX
  5
31F
100
AcDbEntity
  8
Frei
  6
CONTINUOUS
 62
           7
100
AcDbVertex
100
AcDb2dVertex
 10
-14363.350718240499
 20
97.386126632031
 30
0.0
 42
0.041825507476
  0
VERTEX
  5
320
100
AcDbEntity
  8
Frei
  6
CONTINUOUS
 62
           7
100
AcDbVertex
100
AcDb2dVertex
 10
-14362.942573586086
 20
98.09364258235
 30
0.0
  0
VERTEX
  5
321
100
AcDbEntity
  8
Frei
  6
CONTINUOUS
 62
           7
100
AcDbVertex
100
AcDb2dVertex
 10
-14362.783013617927
 20
98.472908700242
 30
0.0
  0
VERTEX
  5
322
100
AcDbEntity
  8
Frei
  6
CONTINUOUS
 62
           7
100
AcDbVertex
100
AcDb2dVertex
 10
-14362.655299421333
 20
98.864052466877
 30
0.0
 42
0.040993490695
  0
VERTEX
  5
323
100
AcDbEntity
  8
Frei
  6
CONTINUOUS
 62
           7
100
AcDbVertex
100
AcDb2dVertex
 10
-14362.497624426369
 20
99.673947771119
 30
0.0
  0
VERTEX
  5
324
100
AcDbEntity
  8
Frei
  6
CONTINUOUS
 62
           7
100
AcDbVertex
100
AcDb2dVertex
 10
-14362.469053083827
 20
100.085856520231
 30
0.0
  0
VERTEX
  5
325
100
AcDbEntity
  8
Frei
  6
CONTINUOUS
 62
           7
100
AcDbVertex
100
AcDb2dVertex
 10
-14362.47433947613
 20
100.498720236083
 30
0.0
 42
0.041278481646
  0
VERTEX
  5
326
100
AcDbEntity
  8
Frei
  6
CONTINUOUS
 62
           7
100
AcDbVertex
100
AcDb2dVertex
 10
-14362.586152072043
 20
101.313309567775
 30
0.0
  0
VERTEX
  5
327
100
AcDbEntity
  8
Frei
  6
CONTINUOUS
 62
           7
100
AcDbVertex
100
AcDb2dVertex
 10
-14362.691580621691
 20
101.7082391998
 30
0.0
  0
VERTEX
  5
328
100
AcDbEntity
  8
Frei
  6
CONTINUOUS
 62
           7
100
AcDbVertex
100
AcDb2dVertex
 10
-14362.829664844965
 20
102.092964881555
 30
0.0
 42
0.042584509173
  0
VERTEX
  5
329
100
AcDbEntity
  8
Frei
  6
CONTINUOUS
 62
           7
100
AcDbVertex
100
AcDb2dVertex
 10
-14363.197478782509
 20
102.813996745238
 30
0.0
  0
VERTEX
  5
32A
100
AcDbEntity
  8
Frei
  6
CONTINUOUS
 62
           7
100
AcDbVertex
100
AcDb2dVertex
 10
-14363.424003171935
 20
103.144722079446
 30
0.0
  0
VERTEX
  5
32B
100
AcDbEntity
  8
Frei
  6
CONTINUOUS
 62
           7
100
AcDbVertex
100
AcDb2dVertex
 10
-14363.67841804431
 20
103.454496970505
 30
0.0
 42
0.044417198743
  0
VERTEX
  5
32C
100
AcDbEntity
  8
Frei
  6
CONTINUOUS
 62
           7
100
AcDbVertex
100
AcDb2dVertex
 10
-14364.257869534264
 20
103.995004282121
 30
0.0
  0
VERTEX
  5
32D
100
AcDbEntity
  8
Frei
  6
CONTINUOUS
 62
           7
100
AcDbVertex
100
AcDb2dVertex
 10
-14364.578434160208
 20
104.222025410306
 30
0.0
  0
VERTEX
  5
32E
100
AcDbEntity
  8
Frei
  6
CONTINUOUS
 62
           7
100
AcDbVertex
100
AcDb2dVertex
 10
-14364.918226912065
 20
104.419095638931
 30
0.0
 42
0.045929593741
  0
VERTEX
  5
32F
100
AcDbEntity
  8
Frei
  6
CONTINUOUS
 62
           7
100
AcDbVertex
100
AcDb2dVertex
 10
-14365.639425552947
 20
104.713885239661
 30
0.0
  0
VERTEX
  5
330
100
AcDbEntity
  8
Frei
  6
CONTINUOUS
 62
           7
100
AcDbVertex
100
AcDb2dVertex
 10
-14366.015860431065
 20
104.809774178448
 30
0.0
  0
VERTEX
  5
331
100
AcDbEntity
  8
Frei
  6
CONTINUOUS
 62
           7
100
AcDbVertex
100
AcDb2dVertex
 10
-14366.399552201146
 20
104.870416051462
 30
0.0
  0
SEQEND
  5
332
100
AcDbEntity
  8
Frei
  6
CONTINUOUS
 62
           7
  0
ARC
  5
333
100
AcDbEntity
  8
Frei
  6
CONTINUOUS
 62
           7
100
AcDbCircle
 10
-14233.622101829993
 20
80.635163899095
 30
0.0
 40
0.5
100
AcDbArc
 50
270.832821982568
 51
353.682999999999
  0
ARC
  5
334
100
AcDbEntity
  8
Frei
  6
CONTINUOUS
 62
           7
100
AcDbCircle
 10
-14233.059015975416
 20
85.721694494234
 30
0.0
 40
0.5
100
AcDbArc
 50
353.682999999999
 51
76.533178017423
  0
ARC
  5
335
100
AcDbEntity
  8
Frei
  6
CONTINUOUS
 62
           7
100
AcDbCircle
 10
-14386.160286655384
 20
124.804605595422
 30
0.0
 40
0.5
100
AcDbArc
 50
90.832821982565
 51
173.683
  0
ARC
  5
336
100
AcDbEntity
  8
Frei
  6
CONTINUOUS
 62
           7
100
AcDbCircle
 10
-14386.723372509961
 20
119.718075000283
 30
0.0
 40
0.5
100
AcDbArc
 50
173.683
 51
256.533178017419
  0
ARC
  5
337
100
AcDbEntity
  8
Frei
  6
CONTINUOUS
 62
           7
100
AcDbCircle
 10
-14416.432507999056
 20
124.128447816654
 30
0.0
 40
2.0
100
AcDbArc
 50
85.683
 51
173.683
  0
ARC
  5
338
100
AcDbEntity
  8
Frei
  6
CONTINUOUS
 62
           7
100
AcDbCircle
 10
-14434.582452035571
 20
69.236265916113
 30
0.0
 40
1.5
100
AcDbArc
 50
173.683
 51
263.683
  0
ARC
  5
339
100
AcDbEntity
  8
Frei
  6
CONTINUOUS
 62
           7
100
AcDbCircle
 10
-14432.932013729438
 20
84.145191209294
 30
0.0
 40
1.5
100
AcDbArc
 50
83.683
 51
173.683
  0
ARC
  5
33A
100
AcDbEntity
  8
Frei
  6
CONTINUOUS
 62
           7
100
AcDbCircle
 10
-14422.435253360207
 20
69.903771976965
 30
0.0
 40
1.5
100
AcDbArc
 50
173.683
 51
263.683
  0
ARC
  5
33B
100
AcDbEntity
  8
Frei
  6
CONTINUOUS
 62
           7
100
AcDbCircle
 10
-14397.587044538239
 20
67.153041466746
 30
0.0
 40
1.5
100
AcDbArc
 50
263.683
 51
353.682999999999
  0
ARC
  5
33C
100
AcDbEntity
  8
Frei
  6
CONTINUOUS
 62
           7
100
AcDbCircle
 10
-14232.594937960368
 20
48.88819087889
 30
0.0
 40
1.5
100
AcDbArc
 50
173.683
 51
263.683
  0
ARC
  5
33D
100
AcDbEntity
  8
Frei
  6
CONTINUOUS
 62
           7
100
AcDbCircle
 10
-14207.746729138398
 20
46.13746036867
 30
0.0
 40
1.5
100
AcDbArc
 50
263.683
 51
353.682999999999
  0
ARC
  5
33E
100
AcDbEntity
  8
Frei
  6
CONTINUOUS
 62
           7
100
AcDbCircle
 10
-14194.38920903854
 20
57.738178311189
 30
0.0
 40
1.5
100
AcDbArc
 50
353.682999999999
 51
83.683
  0
ARC
  5
33F
100
AcDbEntity
  8
Frei
  6
CONTINUOUS
 62
           7
100
AcDbCircle
 10
-14196.039647344673
 20
42.829253018008
 30
0.0
 40
1.5
100
AcDbArc
 50
263.683
 51
353.682999999999
  0
ARC
  5
340
100
AcDbEntity
  8
Frei
  6
CONTINUOUS
 62
           7
100
AcDbCircle
 10
-14201.743983777247
 20
100.362136208359
 30
0.0
 40
2.0
100
AcDbArc
 50
353.682999999999
 51
81.683
  0
ARC
  5
341
100
AcDbEntity
  8
Frei
  6
CONTINUOUS
 62
           7
100
AcDbCircle
 10
-14230.410847713591
 20
109.515987719893
 30
0.0
 40
1.0
100
AcDbArc
 50
353.682999999999
 51
83.683
  0
ARC
  5
342
100
AcDbEntity
  8
Frei
  6
CONTINUOUS
 62
           7
100
AcDbCircle
 10
-14233.821753546263
 20
78.704208780652
 30
0.0
 40
1.0
100
AcDbArc
 50
263.682999999999
 51
353.682999999999
  0
ARC
  5
343
100
AcDbEntity
  8
Frei
  6
CONTINUOUS
 62
           7
100
AcDbCircle
 10
-14389.868504948226
 20
95.978796384829
 30
0.0
 40
1.0
100
AcDbArc
 50
173.683
 51
263.683
  0
ARC
  5
344
100
AcDbEntity
  8
Frei
  6
CONTINUOUS
 62
           7
100
AcDbCircle
 10
-14386.457599115554
 20
126.79057532407
 30
0.0
 40
1.0
100
AcDbArc
 50
83.683
 51
173.683
  0
LINE
  5
345
100
AcDbEntity
  8
Frei
  6
CONTINUOUS
 62
           7
100
AcDbLine
 10
-14646.990392311061
 20
133.139788825156
 30
0.0
 11
-14646.990392311061
 21
63.139788825156
 31
0.0
  0
LINE
  5
346
100
AcDbEntity
  8
Frei
  6
CONTINUOUS
 62
           7
100
AcDbLine
 10
-14129.101506311061
 20
63.139788825155
 30
0.0
 11
-14129.101506311061
 21
133.139788825155
 31
0.0
  0
LINE
  5
347
100
AcDbEntity
  8
Frei
  6
CONTINUOUS
 62
          15
100
AcDbLine
 10
-14567.123327731368
 20
133.139788825156
 30
0.0
 11
-14646.990392311061
 21
133.139788825156
 31
0.0
  0
LINE
  5
348
100
AcDbEntity
  8
Frei
  6
GESTRICHELT
 62
          15
100
AcDbLine
 10
-14482.969257936073
 20
133.139788825156
 30
0.0
 11
-14567.123327731368
 21
133.139788825156
 31
0.0
  0
LINE
  5
349
100
AcDbEntity
  8
Frei
  6
CONTINUOUS
 62
          15
100
AcDbLine
 10
-14469.331407377353
 20
133.139788825155
 30
0.0
 11
-14482.969257936073
 21
133.139788825156
 31
0.0
  0
LINE
  5
34A
100
AcDbEntity
  8
Frei
  6
GESTRICHELT
 62
          15
100
AcDbLine
 10
-14314.753885893893
 20
133.139788825155
 30
0.0
 11
-14469.331407377353
 21
133.139788825155
 31
0.0
  0
LINE
  5
34B
100
AcDbEntity
  8
Frei
  6
CONTINUOUS
 62
          15
100
AcDbLine
 10
-14129.101506311061
 20
133.139788825155
 30
0.0
 11
-14314.753885893893
 21
133.139788825155
 31
0.0
  0
LINE
  5
34C
100
AcDbEntity
  8
Frei
  6
CONTINUOUS
 62
          15
100
AcDbLine
 10
-14232.526429791333
 20
63.139788825155
 30
0.0
 11
-14646.990392311061
 21
63.139788825156
 31
0.0
  0
LINE
  5
34D
100
AcDbEntity
  8
Frei
  6
GESTRICHELT
 62
          15
100
AcDbLine
 10
-14204.355385149229
 20
63.139788825155
 30
0.0
 11
-14232.526429791333
 21
63.139788825155
 31
0.0
  0
LINE
  5
34E
100
AcDbEntity
  8
Frei
  6
CONTINUOUS
 62
          15
100
AcDbLine
 10
-14129.101506311061
 20
63.139788825155
 30
0.0
 11
-14204.355385149229
 21
63.139788825155
 31
0.0
  0
TEXT
  5
34F
100
AcDbEntity
  8
FREI
  6
CONTINUOUS
 62
          15
100
AcDbText
 10
-14681.913185770281
 20
51.743319222879
 30
0.0
 40
3.527777671814
  1
80-700
 41
0.899999979725
  7
GOTHICG
100
AcDbText
  0
ENDSEC
  0
SECTION
  2
OBJECTS
  0
DICTIONARY
  5
19
100
AcDbDictionary
  3
ACAD_GROUP
350
1A
  3
ACAD_MLINESTYLE
350
1B
  0
DICTIONARY
  5
1A
102
{ACAD_REACTORS
330
19
102
}
100
AcDbDictionary
  0
DICTIONARY
  5
1B
102
{ACAD_REACTORS
330
19
102
}
100
AcDbDictionary
  3
STANDARD
350
1C
  0
MLINESTYLE
  5
1C
102
{ACAD_REACTORS
330
1B
102
}
100
AcDbMlineStyle
  2
STANDARD
 70
           0
  3

 62
           0
 51
90.0
 52
90.0
 71
           2
 49
0.5
 62
         256
  6
BYLAYER
 49
-0.5
 62
         256
  6
BYLAYER
  0
ENDSEC
  0
EOF
