  0
SECTION
  2
HEADER
  9
$ACADVER
  1
AC1012
  9
$DWGCODEPAGE
  3
dos850
  9
$INSBASE
 10
0.0
 20
0.0
 30
0.0
  9
$EXTMIN
 10
-868.394160315282
 20
582.324271726355
 30
0.0
  9
$EXTMAX
 10
-494.894160315282
 20
832.324271726355
 30
0.0
  9
$LIMMIN
 10
-868.394160315282
 20
582.324271726355
  9
$LIMMAX
 10
-494.894160315282
 20
832.324271726355
  9
$ORTHOMODE
 70
           0
  9
$REGENMODE
 70
           1
  9
$FILLMODE
 70
           1
  9
$QTEXTMODE
 70
           0
  9
$MIRRTEXT
 70
           1
  9
$DRAGMODE
 70
           2
  9
$LTSCALE
 40
5.0
  9
$OSMODE
 70
           0
  9
$ATTMODE
 70
           1
  9
$TEXTSIZE
 40
0.2
  9
$TRACEWID
 40
0.05
  9
$TEXTSTYLE
  7
TXT
  9
$CLAYER
  8
0
  9
$CELTYPE
  6
CONTINUOUS
  9
$CECOLOR
 62
         256
  9
$CELTSCALE
 40
1.0
  9
$DELOBJ
 70
           1
  9
$DISPSILH
 70
           0
  9
$DIMSCALE
 40
1.0
  9
$DIMASZ
 40
3.5
  9
$DIMEXO
 40
0.0625
  9
$DIMDLI
 40
0.38
  9
$DIMRND
 40
0.0
  9
$DIMDLE
 40
0.0
  9
$DIMEXE
 40
0.18
  9
$DIMTP
 40
0.0
  9
$DIMTM
 40
0.0
  9
$DIMTXT
 40
3.5
  9
$DIMCEN
 40
0.09
  9
$DIMTSZ
 40
0.0
  9
$DIMTOL
 70
           0
  9
$DIMLIM
 70
           0
  9
$DIMTIH
 70
           1
  9
$DIMTOH
 70
           1
  9
$DIMSE1
 70
           0
  9
$DIMSE2
 70
           0
  9
$DIMTAD
 70
           0
  9
$DIMZIN
 70
           0
  9
$DIMBLK
  1

  9
$DIMASO
 70
           1
  9
$DIMSHO
 70
           1
  9
$DIMPOST
  1

  9
$DIMAPOST
  1

  9
$DIMALT
 70
           0
  9
$DIMALTD
 70
           2
  9
$DIMALTF
 40
25.4
  9
$DIMLFAC
 40
1.0
  9
$DIMTOFL
 70
           0
  9
$DIMTVP
 40
0.0
  9
$DIMTIX
 70
           0
  9
$DIMSOXD
 70
           0
  9
$DIMSAH
 70
           0
  9
$DIMBLK1
  1

  9
$DIMBLK2
  1

  9
$DIMSTYLE
  2
STANDARD
  9
$DIMCLRD
 70
           0
  9
$DIMCLRE
 70
           0
  9
$DIMCLRT
 70
           0
  9
$DIMTFAC
 40
1.0
  9
$DIMGAP
 40
0.09
  9
$DIMJUST
 70
           0
  9
$DIMSD1
 70
           0
  9
$DIMSD2
 70
           0
  9
$DIMTOLJ
 70
           1
  9
$DIMTZIN
 70
           0
  9
$DIMALTZ
 70
           0
  9
$DIMALTTZ
 70
           0
  9
$DIMFIT
 70
           3
  9
$DIMUPT
 70
           0
  9
$DIMUNIT
 70
           2
  9
$DIMDEC
 70
           4
  9
$DIMTDEC
 70
           4
  9
$DIMALTU
 70
           2
  9
$DIMALTTD
 70
           2
  9
$DIMTXSTY
  7
TXT
  9
$DIMAUNIT
 70
           0
  9
$LUNITS
 70
           2
  9
$LUPREC
 70
           2
  9
$SKETCHINC
 40
0.1
  9
$FILLETRAD
 40
0.0
  9
$AUNITS
 70
           0
  9
$AUPREC
 70
           2
  9
$MENU
  1
acad
  9
$ELEVATION
 40
0.0
  9
$PELEVATION
 40
0.0
  9
$THICKNESS
 40
0.0
  9
$LIMCHECK
 70
           0
  9
$BLIPMODE
 70
           1
  9
$CHAMFERA
 40
0.0
  9
$CHAMFERB
 40
0.0
  9
$CHAMFERC
 40
0.0
  9
$CHAMFERD
 40
0.0
  9
$SKPOLY
 70
           0
  9
$TDCREATE
 40
0.000000000
  9
$TDUPDATE
 40
0.000000000
  9
$TDINDWG
 40
0.0000000000
  9
$TDUSRTIMER
 40
0.0000000000
  9
$USRTIMER
 70
           1
  9
$ANGBASE
 50
0.0
  9
$ANGDIR
 70
           0
  9
$PDMODE
 70
           2
  9
$PDSIZE
 40
0.5
  9
$PLINEWID
 40
0.0
  9
$COORDS
 70
           0
  9
$SPLFRAME
 70
           0
  9
$SPLINETYPE
 70
           6
  9
$SPLINESEGS
 70
           8
  9
$ATTDIA
 70
           0
  9
$ATTREQ
 70
           1
  9
$HANDLING
 70
           1
  9
$HANDSEED
  5
9D
  9
$SURFTAB1
 70
           6
  9
$SURFTAB2
 70
           6
  9
$SURFTYPE
 70
           6
  9
$SURFU
 70
           6
  9
$SURFV
 70
           6
  9
$UCSNAME
  2

  9
$UCSORG
 10
0.0
 20
0.0
 30
0.0
  9
$UCSXDIR
 10
1.0
 20
0.0
 30
0.0
  9
$UCSYDIR
 10
0.0
 20
1.0
 30
0.0
  9
$PUCSNAME
  2

  9
$PUCSORG
 10
0.0
 20
0.0
 30
0.0
  9
$PUCSXDIR
 10
1.0
 20
0.0
 30
0.0
  9
$PUCSYDIR
 10
0.0
 20
1.0
 30
0.0
  9
$USERI1
 70
           0
  9
$USERI2
 70
           0
  9
$USERI3
 70
           0
  9
$USERI4
 70
           0
  9
$USERI5
 70
           0
  9
$USERR1
 40
0.0
  9
$USERR2
 40
0.0
  9
$USERR3
 40
0.0
  9
$USERR4
 40
0.0
  9
$USERR5
 40
0.0
  9
$WORLDVIEW
 70
           1
  9
$SHADEDGE
 70
           3
  9
$SHADEDIF
 70
          70
  9
$TILEMODE
 70
           1
  9
$MAXACTVP
 70
          16
  9
$PINSBASE
 10
0.0
 20
0.0
 30
0.0
  9
$PLIMCHECK
 70
           0
  9
$PEXTMIN
 10
1.000000000000E+20
 20
1.000000000000E+20
 30
1.000000000000E+20
  9
$PEXTMAX
 10
-1.000000000000E+20
 20
-1.000000000000E+20
 30
-1.000000000000E+20
  9
$PLIMMIN
 10
0.0
 20
0.0
  9
$PLIMMAX
 10
12.0
 20
9.0
  9
$UNITMODE
 70
           0
  9
$VISRETAIN
 70
           0
  9
$PLINEGEN
 70
           1
  9
$PSLTSCALE
 70
           0
  9
$TREEDEPTH
 70
        3020
  9
$PICKSTYLE
 70
           1
  9
$CMLSTYLE
  2
STANDARD
  9
$CMLJUST
 70
           0
  9
$CMLSCALE
 40
1.0
  9
$SAVEIMAGES
 70
           0
  0
ENDSEC
  0
SECTION
  2
CLASSES
  0
CLASS
  1
LWPOLYLINE
  2
AcDbPolyline
  3
"AutoCAD"
 90
        0
280
           0
281
           1
  0
CLASS
  1
IMAGE
  2
AcDbRasterImage
  3
ISM
 90
      127
280
           0
281
           1
  0
CLASS
  1
OLE2FRAME
  2
AcDbOle2Frame
  3
""
 90
        0
280
           0
281
           1
  0
CLASS
  1
HATCH
  2
AcDbHatch
  3
"ACAD_SEDONA"
 90
        0
280
           0
281
           1
  0
CLASS
  1
DICTIONARYVAR
  2
AcDbDictionaryVar
  3
"AutoCAD"
 90
        0
280
           0
281
           0
  0
CLASS
  1
RASTERVARIABLES
  2
AcDbRasterVariables
  3
ISM
 90
        0
280
           0
281
           0
  0
CLASS
  1
IMAGEDEF
  2
AcDbRasterImageDef
  3
ISM
 90
        0
280
           0
281
           0
  0
CLASS
  1
IMAGEDEF_REACTOR
  2
AcDbRasterImageDefReactor
  3
ISM
 90
        1
280
           0
281
           0
  0
CLASS
  1
IDBUFFER
  2
AcDbIdBuffer
  3
"Acad"
 90
        0
280
           0
281
           0
  0
CLASS
  1
SPATIAL_FILTER
  2
AcDbSpatialFilter
  3
"Acad"
 90
        0
280
           0
281
           0
  0
CLASS
  1
XRECORD
  2
AcDbXrecord
  3
"<Built In>"
 90
        0
280
           0
281
           0
  0
ENDSEC
  0
SECTION
  2
TABLES
  0
TABLE
  2
VPORT
  5
7
100
AcDbSymbolTable
 70
           1
  0
VPORT
  5
15
100
AcDbSymbolTableRecord
100
AcDbViewportTableRecord
  2
*ACTIVE
 70
           0
 10
0.0
 20
0.0
 11
1.0
 21
1.0
 12
6.591288
 22
4.579184
 13
0.0
 23
0.0
 14
1.0
 24
1.0
 15
0.0
 25
0.0
 16
0.0
 26
0.0
 36
1.0
 17
0.0
 27
0.0
 37
0.0
 40
9.158369
 41
0.688564
 42
50.0
 43
0.0
 44
0.0
 50
0.0
 51
0.0
 71
           0
 72
         100
 73
           1
 74
           1
 75
           0
 76
           0
 77
           0
 78
           0
  0
ENDTAB
  0
TABLE
  2
LTYPE
  5
4
100
AcDbSymbolTable
 70
           5
  0
LTYPE
  5
11
100
AcDbSymbolTableRecord
100
AcDbLinetypeTableRecord
  2
BYBLOCK
 70
           0
  3

 72
          65
 73
           0
 40
0.0
  0
LTYPE
  5
12
100
AcDbSymbolTableRecord
100
AcDbLinetypeTableRecord
  2
BYLAYER
 70
           0
  3

 72
          65
 73
           0
 40
0.0
  0
LTYPE
  5
13
100
AcDbSymbolTableRecord
100
AcDbLinetypeTableRecord
  2
CONTINUOUS
 70
           0
  3
Solid line
 72
          65
 73
           0
 40
0.0
  0
LTYPE
  5
1D
100
AcDbSymbolTableRecord
100
AcDbLinetypeTableRecord
  2
GESTRICHELT
 70
           0
  3

 72
          65
 73
           2
 40
0.75
 49
0.5
 74
           0
 49
-0.25
 74
           0
  0
LTYPE
  5
1E
100
AcDbSymbolTableRecord
100
AcDbLinetypeTableRecord
  2
STRICHPUNKT
 70
           0
  3

 72
          65
 73
           4
 40
1.0
 49
0.5
 74
           0
 49
-0.25
 74
           0
 49
0.0
 74
           0
 49
-0.25
 74
           0
  0
ENDTAB
  0
TABLE
  2
LAYER
  5
2
100
AcDbSymbolTable
 70
           4
  0
LAYER
  5
14
100
AcDbSymbolTableRecord
100
AcDbLayerTableRecord
  2
0
 70
           0
 62
           7
  6
CONTINUOUS
  0
LAYER
  5
20
100
AcDbSymbolTableRecord
100
AcDbLayerTableRecord
  2
BLACK
 70
           0
 62
           7
  6
CONTINUOUS
  0
LAYER
  5
21
100
AcDbSymbolTableRecord
100
AcDbLayerTableRecord
  2
WHITE
 70
           0
 62
           7
  6
CONTINUOUS
  0
LAYER
  5
22
100
AcDbSymbolTableRecord
100
AcDbLayerTableRecord
  2
YELLOW
 70
           0
 62
           7
  6
CONTINUOUS
  0
ENDTAB
  0
TABLE
  2
STYLE
  5
3
100
AcDbSymbolTable
 70
           2
  0
STYLE
  5
17
100
AcDbSymbolTableRecord
100
AcDbTextStyleTableRecord
  2
TXT
 70
           0
 40
3.5
 41
1.0
 50
0.0
 71
           0
 42
3.5
  3
TXT
  4

  0
STYLE
  5
1F
100
AcDbSymbolTableRecord
100
AcDbTextStyleTableRecord
  2
GOTHICG
 70
           0
 40
3.5
 41
1.0
 50
0.0
 71
           0
 42
3.5
  3
GOTHICG
  4

  0
ENDTAB
  0
TABLE
  2
VIEW
  5
5
100
AcDbSymbolTable
 70
           0
  0
ENDTAB
  0
TABLE
  2
UCS
  5
6
100
AcDbSymbolTable
 70
           0
  0
ENDTAB
  0
TABLE
  2
APPID
  5
8
100
AcDbSymbolTable
 70
           2
  0
APPID
  5
16
100
AcDbSymbolTableRecord
100
AcDbRegAppTableRecord
  2
ACAD
 70
           0
  0
APPID
  5
23
100
AcDbSymbolTableRecord
100
AcDbRegAppTableRecord
  2
MegaCADPntStyle
 70
           0
  0
ENDTAB
  0
TABLE
  2
DIMSTYLE
  5
9
100
AcDbSymbolTable
 70
           1
  0
DIMSTYLE
105
18
100
AcDbSymbolTableRecord
100
AcDbDimStyleTableRecord
  2
STANDARD
 70
           0
  3

  4

  5

  6

  7

 40
1.0
 41
0.18
 42
0.0625
 43
0.38
 44
0.18
 45
0.0
 46
0.0
 47
0.0
 48
0.0
140
0.18
141
0.09
142
0.0
143
25.4
144
1.0
145
0.0
146
1.0
147
0.09
 71
           0
 72
           0
 73
           1
 74
           1
 75
           0
 76
           0
 77
           0
 78
           0
170
           0
171
           2
172
           0
173
           0
174
           0
175
           0
176
           0
177
           0
178
           0
270
           2
271
           4
272
           4
273
           2
274
           2
340
17
275
           0
280
           0
281
           0
282
           0
283
           1
284
           0
285
           0
286
           0
287
           0
288
           0
  0
ENDTAB
  0
TABLE
  2
BLOCK_RECORD
  5
1
100
AcDbSymbolTable
 70
           1
  0
BLOCK_RECORD
  5
A
100
AcDbSymbolTableRecord
100
AcDbBlockTableRecord
  2
*MODEL_SPACE
  0
BLOCK_RECORD
  5
B
100
AcDbSymbolTableRecord
100
AcDbBlockTableRecord
  2
*PAPER_SPACE
  0
BLOCK_RECORD
  5
24
100
AcDbSymbolTableRecord
100
AcDbBlockTableRecord
  2
ELIPPSE
  0
ENDTAB
  0
ENDSEC
  0
SECTION
  2
BLOCKS
  0
BLOCK
  5
D
100
AcDbEntity
  8
0
100
AcDbBlockBegin
  2
*MODEL_SPACE
 70
           0
 10
0.0
 20
0.0
 30
0.0
  3
*MODEL_SPACE
  1

  0
ENDBLK
  5
E
100
AcDbEntity
  8
0
100
AcDbBlockEnd
  0
BLOCK
  5
F
100
AcDbEntity
 67
           1
  8
0
100
AcDbBlockBegin
  2
*PAPER_SPACE
 70
           0
 10
0.0
 20
0.0
 30
0.0
  3
*PAPER_SPACE
  1

  0
ENDBLK
  5
10
100
AcDbEntity
 67
           1
  8
0
100
AcDbBlockEnd
  0
BLOCK
  5
98
100
AcDbEntity
  8
0
100
AcDbBlockBegin
  2
ELIPPSE
 70
          64
 10
0.0
 20
0.0
 30
0.0
  3
ELIPPSE
  1

  0
CIRCLE
  5
99
100
AcDbEntity
  8
0
  6
BYBLOCK
 62
           0
100
AcDbCircle
 10
0.0
 20
0.0
 30
0.0
 40
1.0
  0
ENDBLK
  5
9A
100
AcDbEntity
  8
0
  6
BYBLOCK
 62
           0
100
AcDbBlockEnd
  0
ENDSEC
  0
SECTION
  2
ENTITIES
  0
LINE
  5
25
100
AcDbEntity
  8
0
  6
CONTINUOUS
 62
          15
100
AcDbLine
 10
-861.394160315282
 20
832.324271726355
 30
0.0
 11
-660.394160315282
 21
832.324271726355
 31
0.0
  0
LINE
  5
26
100
AcDbEntity
  8
0
  6
CONTINUOUS
 62
          15
100
AcDbLine
 10
-660.394160315282
 20
682.324271726355
 30
0.0
 11
-660.394160315282
 21
582.324271726355
 31
0.0
  0
LINE
  5
27
100
AcDbEntity
  8
0
  6
GESTRICHELT
 62
          15
100
AcDbLine
 10
-660.394160315282
 20
764.570566815355
 30
0.0
 11
-660.394160315282
 21
682.324271726355
 31
0.0
  0
LINE
  5
28
100
AcDbEntity
  8
0
  6
CONTINUOUS
 62
          15
100
AcDbLine
 10
-660.394160315282
 20
768.363820311894
 30
0.0
 11
-660.394160315282
 21
764.570566815355
 31
0.0
  0
LINE
  5
29
100
AcDbEntity
  8
0
  6
GESTRICHELT
 62
          15
100
AcDbLine
 10
-660.394160315282
 20
772.896640907311
 30
0.0
 11
-660.394160315282
 21
768.363820311894
 31
0.0
  0
LINE
  5
2A
100
AcDbEntity
  8
0
  6
CONTINUOUS
 62
          15
100
AcDbLine
 10
-660.394160315282
 20
832.324271726355
 30
0.0
 11
-660.394160315282
 21
772.896640907311
 31
0.0
  0
LINE
  5
2B
100
AcDbEntity
  8
0
  6
CONTINUOUS
 62
          15
100
AcDbLine
 10
-660.394160315282
 20
582.324271726355
 30
0.0
 11
-861.394160315282
 21
582.324271726355
 31
0.0
  0
LINE
  5
2C
100
AcDbEntity
  8
0
  6
CONTINUOUS
 62
          15
100
AcDbLine
 10
-861.394160315282
 20
732.324271726355
 30
0.0
 11
-861.394160315282
 21
832.324271726355
 31
0.0
  0
LINE
  5
2D
100
AcDbEntity
  8
0
  6
GESTRICHELT
 62
          15
100
AcDbLine
 10
-861.394160315282
 20
682.324271726355
 30
0.0
 11
-861.394160315282
 21
732.324271726355
 31
0.0
  0
LINE
  5
2E
100
AcDbEntity
  8
0
  6
CONTINUOUS
 62
          15
100
AcDbLine
 10
-861.394160315282
 20
582.324271726355
 30
0.0
 11
-861.394160315282
 21
682.324271726355
 31
0.0
  0
LINE
  5
2F
100
AcDbEntity
  8
0
  6
STRICHPUNKT
 62
          15
100
AcDbLine
 10
-760.894160315282
 20
832.324271726355
 30
0.0
 11
-760.894160315282
 21
582.324271726355
 31
0.0
  0
LINE
  5
30
100
AcDbEntity
  8
0
  6
GESTRICHELT
 62
          15
100
AcDbLine
 10
-861.394160315282
 20
707.324271726355
 30
0.0
 11
-660.394160315282
 21
707.324271726355
 31
0.0
  0
ARC
  5
31
100
AcDbEntity
  8
WHITE
  6
CONTINUOUS
 62
          15
100
AcDbCircle
 10
-760.894160315282
 20
707.324271726355
 30
0.0
 40
119.999969
100
AcDbArc
 50
77.389461
 51
87.610176
  0
LINE
  5
32
100
AcDbEntity
  8
WHITE
  6
CONTINUOUS
 62
          15
100
AcDbLine
 10
-755.890377315282
 20
827.219870726355
 30
0.0
 11
-760.894160315282
 21
822.324271726355
 31
0.0
  0
LINE
  5
33
100
AcDbEntity
  8
WHITE
  6
CONTINUOUS
 62
          15
100
AcDbLine
 10
-760.894160315282
 20
822.324271726355
 30
0.0
 11
-765.793117315282
 21
827.324271726355
 31
0.0
  0
LINE
  5
34
100
AcDbEntity
  8
WHITE
  6
CONTINUOUS
 62
          15
100
AcDbLine
 10
-765.793117315282
 20
827.324271726355
 30
0.0
 11
-770.894160315282
 21
827.324271726355
 31
0.0
  0
ARC
  5
35
100
AcDbEntity
  8
WHITE
  6
CONTINUOUS
 62
          15
100
AcDbCircle
 10
-770.894160315282
 20
822.324271726355
 30
0.0
 40
5.0
100
AcDbArc
 50
90.0
 51
180.0
  0
LINE
  5
36
100
AcDbEntity
  8
WHITE
  6
CONTINUOUS
 62
          15
100
AcDbLine
 10
-775.894160315282
 20
822.324271726355
 30
0.0
 11
-775.894173782127
 21
724.4287183995
 31
0.0
  0
LINE
  5
37
100
AcDbEntity
  8
WHITE
  6
CONTINUOUS
 62
          15
100
AcDbLine
 10
-660.122629211495
 20
692.324192588695
 30
0.0
 11
-504.894169355362
 21
692.324052263999
 31
0.0
  0
LINE
  5
38
100
AcDbEntity
  8
WHITE
  6
GESTRICHELT
 62
          15
100
AcDbLine
 10
-681.665676378078
 20
692.324212063355
 30
0.0
 11
-660.12264916198
 21
692.324192588713
 31
0.0
  0
LINE
  5
39
100
AcDbEntity
  8
WHITE
  6
CONTINUOUS
 62
          15
100
AcDbLine
 10
-760.894173875094
 20
692.324283684982
 30
0.0
 11
-681.665691419195
 21
692.324212063369
 31
0.0
  0
ARC
  5
3A
100
AcDbEntity
  8
WHITE
  6
GESTRICHELT
 62
          15
100
AcDbCircle
 10
-645.894191315282
 20
697.324179726355
 30
0.0
 40
5.0
100
AcDbArc
 50
269.999999999999
 51
0.0
  0
LINE
  5
3B
100
AcDbEntity
  8
WHITE
  6
CONTINUOUS
 62
          15
100
AcDbLine
 10
-640.894173089925
 20
700.323212189651
 30
0.0
 11
-640.894160315282
 21
702.425314726355
 31
0.0
  0
LINE
  5
3C
100
AcDbEntity
  8
WHITE
  6
GESTRICHELT
 62
          15
100
AcDbLine
 10
-640.894191315282
 20
697.324179726355
 30
0.0
 11
-640.894173089925
 21
700.323212189651
 31
0.0
  0
LINE
  5
3D
100
AcDbEntity
  8
WHITE
  6
CONTINUOUS
 62
          15
100
AcDbLine
 10
-640.894160315282
 20
702.425314726355
 30
0.0
 11
-645.894160315282
 21
707.324271726355
 31
0.0
  0
LINE
  5
3E
100
AcDbEntity
  8
WHITE
  6
CONTINUOUS
 62
          15
100
AcDbLine
 10
-645.894160315282
 20
707.324271726355
 30
0.0
 11
-640.998561315282
 21
712.328054726355
 31
0.0
  0
ARC
  5
3F
100
AcDbEntity
  8
WHITE
  6
CONTINUOUS
 62
          15
100
AcDbCircle
 10
-760.894160315282
 20
707.324271726355
 30
0.0
 40
119.999969
100
AcDbArc
 50
7.180757646261
 51
12.610154
  0
ARC
  5
40
100
AcDbEntity
  8
WHITE
  6
GESTRICHELT
 62
          15
100
AcDbCircle
 10
-760.894160315282
 20
707.324271726355
 30
0.0
 40
119.999969
100
AcDbArc
 50
3.291131162357
 51
7.180757646261
  0
ARC
  5
41
100
AcDbEntity
  8
WHITE
  6
CONTINUOUS
 62
          15
100
AcDbCircle
 10
-760.894160315282
 20
707.324271726355
 30
0.0
 40
119.999969
100
AcDbArc
 50
2.389824
 51
3.291131162357
  0
LINE
  5
42
100
AcDbEntity
  8
WHITE
  6
CONTINUOUS
 62
          15
100
AcDbLine
 10
-643.788820315282
 20
733.522207726355
 30
0.0
 11
-649.812709315282
 21
737.088431726355
 31
0.0
  0
LINE
  5
43
100
AcDbEntity
  8
WHITE
  6
CONTINUOUS
 62
          15
100
AcDbLine
 10
-649.812709315282
 20
737.088431726355
 30
0.0
 11
-646.378973315282
 21
743.188801726355
 31
0.0
  0
ARC
  5
44
100
AcDbEntity
  8
WHITE
  6
CONTINUOUS
 62
          15
100
AcDbCircle
 10
-760.894160315282
 20
707.324271726355
 30
0.0
 40
119.999969
100
AcDbArc
 50
17.389815
 51
27.61018
  0
LINE
  5
45
100
AcDbEntity
  8
WHITE
  6
CONTINUOUS
 62
          15
100
AcDbLine
 10
-654.559638315282
 20
762.938674726355
 30
0.0
 11
-661.301234315282
 21
764.824271726355
 31
0.0
  0
LINE
  5
46
100
AcDbEntity
  8
WHITE
  6
CONTINUOUS
 62
          15
100
AcDbLine
 10
-661.301234315282
 20
764.824271726355
 30
0.0
 11
-659.563434315282
 21
771.605446726355
 31
0.0
  0
ARC
  5
47
100
AcDbEntity
  8
WHITE
  6
CONTINUOUS
 62
          15
100
AcDbCircle
 10
-760.894160315282
 20
707.324271726355
 30
0.0
 40
119.99994
100
AcDbArc
 50
32.389817
 51
42.610518
  0
LINE
  5
48
100
AcDbEntity
  8
WHITE
  6
CONTINUOUS
 62
          15
100
AcDbLine
 10
-672.577467315282
 20
788.565560726355
 30
0.0
 11
-679.576869315282
 21
788.641531726355
 31
0.0
  0
LINE
  5
49
100
AcDbEntity
  8
WHITE
  6
CONTINUOUS
 62
          15
100
AcDbLine
 10
-679.576869315282
 20
788.641531726355
 30
0.0
 11
-679.652799315282
 21
795.640981726355
 31
0.0
  0
ARC
  5
4A
100
AcDbEntity
  8
WHITE
  6
CONTINUOUS
 62
          15
100
AcDbCircle
 10
-760.894123315282
 20
707.324236726355
 30
0.0
 40
120.0
100
AcDbArc
 50
47.389486
 51
57.610542
  0
LINE
  5
4B
100
AcDbEntity
  8
WHITE
  6
CONTINUOUS
 62
          15
100
AcDbLine
 10
-696.613551315282
 20
808.655417726355
 30
0.0
 11
-703.394130315282
 21
806.917197726355
 31
0.0
  0
LINE
  5
4C
100
AcDbEntity
  8
WHITE
  6
CONTINUOUS
 62
          15
100
AcDbLine
 10
-703.394130315282
 20
806.917197726355
 30
0.0
 11
-705.279090315282
 21
813.658445726355
 31
0.0
  0
ARC
  5
4D
100
AcDbEntity
  8
WHITE
  6
CONTINUOUS
 62
          15
100
AcDbCircle
 10
-760.894160315282
 20
707.324271726355
 30
0.0
 40
119.999969
100
AcDbArc
 50
62.389461
 51
72.610508
  0
LINE
  5
4E
100
AcDbEntity
  8
WHITE
  6
CONTINUOUS
 62
          15
100
AcDbLine
 10
-725.030276315282
 20
821.839660726355
 30
0.0
 11
-731.129939315282
 21
818.405722726355
 31
0.0
  0
LINE
  5
4F
100
AcDbEntity
  8
WHITE
  6
CONTINUOUS
 62
          15
100
AcDbLine
 10
-731.129939315282
 20
818.405722726355
 30
0.0
 11
-734.695437315282
 21
824.429435726355
 31
0.0
  0
ARC
  5
50
100
AcDbEntity
  8
WHITE
  6
CONTINUOUS
 62
          15
100
AcDbCircle
 10
-760.894160315282
 20
707.324271726355
 30
0.0
 40
94.5
100
AcDbArc
 50
11.54895455509
 51
90.0
  0
ARC
  5
51
100
AcDbEntity
  8
WHITE
  6
GESTRICHELT
 62
          15
100
AcDbCircle
 10
-760.894160315282
 20
707.324271726355
 30
0.0
 40
94.5
100
AcDbArc
 50
0.0
 51
11.54895455509
  0
LINE
  5
52
100
AcDbEntity
  8
WHITE
  6
CONTINUOUS
 62
          15
100
AcDbLine
 10
-760.894160315282
 20
801.824271726355
 30
0.0
 11
-765.394160315282
 21
801.824271726355
 31
0.0
  0
LINE
  5
53
100
AcDbEntity
  8
WHITE
  6
CONTINUOUS
 62
          15
100
AcDbLine
 10
-765.394160315282
 20
801.824271726355
 30
0.0
 11
-765.394160315282
 21
792.824271726355
 31
0.0
  0
LINE
  5
54
100
AcDbEntity
  8
WHITE
  6
CONTINUOUS
 62
          15
100
AcDbLine
 10
-765.394160315282
 20
792.824271726355
 30
0.0
 11
-760.894160315282
 21
792.824271726355
 31
0.0
  0
ARC
  5
55
100
AcDbEntity
  8
WHITE
  6
CONTINUOUS
 62
          15
100
AcDbCircle
 10
-760.894160315282
 20
707.324271726355
 30
0.0
 40
85.5
100
AcDbArc
 50
10.615198858936
 51
90.0
  0
ARC
  5
56
100
AcDbEntity
  8
WHITE
  6
GESTRICHELT
 62
          15
100
AcDbCircle
 10
-760.894160315282
 20
707.324271726355
 30
0.0
 40
85.5
100
AcDbArc
 50
0.0
 51
10.615198858936
  0
LINE
  5
57
100
AcDbEntity
  8
WHITE
  6
GESTRICHELT
 62
          15
100
AcDbLine
 10
-675.394160315282
 20
707.324271726355
 30
0.0
 11
-675.394160315282
 21
702.824271726355
 31
0.0
  0
LINE
  5
58
100
AcDbEntity
  8
WHITE
  6
GESTRICHELT
 62
          15
100
AcDbLine
 10
-675.394160315282
 20
702.824271726355
 30
0.0
 11
-666.394160315282
 21
702.824271726355
 31
0.0
  0
LINE
  5
59
100
AcDbEntity
  8
WHITE
  6
GESTRICHELT
 62
          15
100
AcDbLine
 10
-666.394160315282
 20
702.824271726355
 30
0.0
 11
-666.394160315282
 21
707.324271726355
 31
0.0
  0
LINE
  5
5A
100
AcDbEntity
  8
WHITE
  6
GESTRICHELT
 62
          15
100
AcDbLine
 10
-699.222547315282
 20
702.993350726355
 30
0.0
 11
-689.222547315282
 21
702.993350726355
 31
0.0
  0
LINE
  5
5B
100
AcDbEntity
  8
WHITE
  6
GESTRICHELT
 62
          15
100
AcDbLine
 10
-689.222547315282
 20
702.993350726355
 30
0.0
 11
-689.222547315282
 21
705.993350726355
 31
0.0
  0
LINE
  5
5C
100
AcDbEntity
  8
WHITE
  6
GESTRICHELT
 62
          15
100
AcDbLine
 10
-689.222547315282
 20
705.993350726355
 30
0.0
 11
-693.921328346703
 21
705.993350726355
 31
0.0
  0
LINE
  5
5D
100
AcDbEntity
  8
WHITE
  6
GESTRICHELT
 62
          15
100
AcDbLine
 10
-689.222547315282
 20
713.493350726355
 30
0.0
 11
-689.222547315282
 21
717.993350726355
 31
0.0
  0
LINE
  5
5E
100
AcDbEntity
  8
WHITE
  6
GESTRICHELT
 62
          15
100
AcDbLine
 10
-689.222547315282
 20
717.993350726355
 30
0.0
 11
-699.222547315282
 21
717.993350726355
 31
0.0
  0
LINE
  5
5F
100
AcDbEntity
  8
WHITE
  6
GESTRICHELT
 62
          15
100
AcDbLine
 10
-699.222547315282
 20
714.993350726355
 30
0.0
 11
-694.227423189597
 21
714.993350726355
 31
0.0
  0
LINE
  5
60
100
AcDbEntity
  8
WHITE
  6
CONTINUOUS
 62
          15
100
AcDbLine
 10
-757.509050315282
 20
780.096902726355
 30
0.0
 11
-750.009050315282
 21
765.096902726355
 31
0.0
  0
LINE
  5
61
100
AcDbEntity
  8
WHITE
  6
CONTINUOUS
 62
          15
100
AcDbLine
 10
-750.009050315282
 20
765.096902726355
 30
0.0
 11
-753.363152315282
 21
765.096902726355
 31
0.0
  0
LINE
  5
62
100
AcDbEntity
  8
WHITE
  6
CONTINUOUS
 62
          15
100
AcDbLine
 10
-753.363152315282
 20
765.096902726355
 30
0.0
 11
-754.901019315282
 21
768.172637726355
 31
0.0
  0
LINE
  5
63
100
AcDbEntity
  8
WHITE
  6
CONTINUOUS
 62
          15
100
AcDbLine
 10
-754.901019315282
 20
768.172637726355
 30
0.0
 11
-760.117081315282
 21
768.172637726355
 31
0.0
  0
LINE
  5
64
100
AcDbEntity
  8
WHITE
  6
CONTINUOUS
 62
          15
100
AcDbLine
 10
-760.117081315282
 20
768.172637726355
 30
0.0
 11
-761.654948315282
 21
765.096902726355
 31
0.0
  0
LINE
  5
65
100
AcDbEntity
  8
WHITE
  6
CONTINUOUS
 62
          15
100
AcDbLine
 10
-761.654948315282
 20
765.096902726355
 30
0.0
 11
-765.009050315282
 21
765.096902726355
 31
0.0
  0
LINE
  5
66
100
AcDbEntity
  8
WHITE
  6
CONTINUOUS
 62
          15
100
AcDbLine
 10
-765.009050315282
 20
765.096902726355
 30
0.0
 11
-757.509050315282
 21
780.096902726355
 31
0.0
  0
LINE
  5
67
100
AcDbEntity
  8
0
  6
GESTRICHELT
 62
          15
100
AcDbLine
 10
-699.222547315282
 20
717.993350726355
 30
0.0
 11
-699.222547315282
 21
714.993350726355
 31
0.0
  0
LINE
  5
68
100
AcDbEntity
  8
0
  6
GESTRICHELT
 62
          15
100
AcDbLine
 10
-699.222547315282
 20
706.781677087595
 30
0.0
 11
-699.222547315282
 21
702.993350726355
 31
0.0
  0
LINE
  5
69
100
AcDbEntity
  8
0
  6
GESTRICHELT
 62
          15
100
AcDbLine
 10
-694.652383614946
 20
707.675668976715
 30
0.0
 11
-689.222547315282
 21
713.493350726355
 31
0.0
  0
LINE
  5
6A
100
AcDbEntity
  8
0
  6
GESTRICHELT
 62
          15
100
AcDbLine
 10
-698.953602583525
 20
707.463995337955
 30
0.0
 11
-693.496367921355
 21
713.311032475995
 31
0.0
  0
ARC
  5
6B
100
AcDbEntity
  8
0
  6
GESTRICHELT
 62
          15
100
AcDbCircle
 10
-694.227423189597
 20
713.993350726355
 30
0.0
 40
1.0
100
AcDbArc
 50
316.974934010881
 51
90.0
  0
ARC
  5
6C
100
AcDbEntity
  8
0
  6
GESTRICHELT
 62
          15
100
AcDbCircle
 10
-693.921328346703
 20
706.993350726355
 30
0.0
 40
1.0
100
AcDbArc
 50
136.974934010881
 51
269.999999999999
  0
ARC
  5
6D
100
AcDbEntity
  8
0
  6
GESTRICHELT
 62
          15
100
AcDbCircle
 10
-698.222547315282
 20
706.781677087595
 30
0.0
 40
1.0
100
AcDbArc
 50
136.974934010883
 51
180.0
  0
ARC
  5
6E
100
AcDbEntity
  8
0
  6
CONTINUOUS
 62
          15
100
AcDbCircle
 10
-760.894160315282
 20
707.324271726355
 30
0.0
 40
17.75
100
AcDbArc
 50
57.679481854315
 51
302.320518145685
  0
ARC
  5
6F
100
AcDbEntity
  8
0
  6
GESTRICHELT
 62
          15
100
AcDbCircle
 10
-760.894160315282
 20
707.324271726355
 30
0.0
 40
17.75
100
AcDbArc
 50
302.320518145685
 51
57.679481854315
  0
ARC
  5
70
100
AcDbEntity
  8
0
  6
CONTINUOUS
 62
          15
100
AcDbCircle
 10
-760.894160315282
 20
707.324271726355
 30
0.0
 40
22.75
100
AcDbArc
 50
131.24965220468
 51
318.750381169746
  0
ARC
  5
71
100
AcDbEntity
  8
WHITE
  6
CONTINUOUS
 62
          15
100
AcDbCircle
 10
-760.894160315282
 20
707.324271726355
 30
0.0
 40
15.0
100
AcDbArc
 50
90.0
 51
270.0
  0
ARC
  5
72
100
AcDbEntity
  8
WHITE
  6
CONTINUOUS
 62
          15
100
AcDbCircle
 10
-504.894160315282
 20
702.324271726355
 30
0.0
 40
10.0
100
AcDbArc
 50
270.0
 51
0.0
  0
LINE
  5
73
100
AcDbEntity
  8
WHITE
  6
CONTINUOUS
 62
          15
100
AcDbLine
 10
-494.894160315282
 20
702.324271726355
 30
0.0
 11
-494.894160315282
 21
712.324271726355
 31
0.0
  0
ARC
  5
74
100
AcDbEntity
  8
WHITE
  6
CONTINUOUS
 62
          15
100
AcDbCircle
 10
-504.894160315282
 20
712.324271726355
 30
0.0
 40
10.0
100
AcDbArc
 50
0.0
 51
90.0
  0
LINE
  5
75
100
AcDbEntity
  8
WHITE
  6
CONTINUOUS
 62
          15
100
AcDbLine
 10
-678.212023322409
 20
722.324271726355
 30
0.0
 11
-760.894160315282
 21
722.324271726355
 31
0.0
  0
LINE
  5
76
100
AcDbEntity
  8
WHITE
  6
GESTRICHELT
 62
          15
100
AcDbLine
 10
-663.576297308155
 20
722.324271726355
 30
0.0
 11
-678.212023322409
 21
722.324271726355
 31
0.0
  0
LINE
  5
77
100
AcDbEntity
  8
WHITE
  6
CONTINUOUS
 62
          15
100
AcDbLine
 10
-504.894160315282
 20
722.324271726355
 30
0.0
 11
-663.576297308155
 21
722.324271726355
 31
0.0
  0
CIRCLE
  5
78
100
AcDbEntity
  8
WHITE
  6
GESTRICHELT
 62
          15
100
AcDbCircle
 10
-670.894160315282
 20
707.324271726355
 30
0.0
 40
6.0
  0
LINE
  5
79
100
AcDbEntity
  8
YELLOW
  6
CONTINUOUS
 62
           2
100
AcDbLine
 10
-594.894160315282
 20
692.324271726355
 30
0.0
 11
-594.894160315282
 21
722.324271726355
 31
0.0
  0
LINE
  5
7A
100
AcDbEntity
  8
YELLOW
  6
CONTINUOUS
 62
           2
100
AcDbLine
 10
-630.894160315282
 20
722.324271726355
 30
0.0
 11
-630.894160315282
 21
692.324271726355
 31
0.0
  0
LINE
  5
7B
100
AcDbEntity
  8
0
  6
CONTINUOUS
 62
          15
100
AcDbLine
 10
-648.721415076219
 20
707.35414553134
 30
0.0
 11
-642.428109259229
 21
700.921808333848
 31
0.0
  0
LINE
  5
7C
100
AcDbEntity
  8
0
  6
CONTINUOUS
 62
          15
100
AcDbLine
 10
-642.293865461939
 20
713.651803366484
 30
0.0
 11
-648.721415076219
 21
707.35414553134
 31
0.0
  0
LINE
  5
7D
100
AcDbEntity
  8
0
  6
CONTINUOUS
 62
          15
100
AcDbLine
 10
-638.998641387219
 20
702.299409884632
 30
0.0
 11
-638.894271387219
 21
712.202150884632
 31
0.0
  0
ARC
  5
7E
100
AcDbEntity
  8
0
  6
CONTINUOUS
 62
          15
100
AcDbCircle
 10
-640.998530315282
 20
702.320487726355
 30
0.0
 40
2.0
100
AcDbArc
 50
224.374051716375
 51
359.396153135564
  0
ARC
  5
7F
100
AcDbEntity
  8
0
  6
CONTINUOUS
 62
          15
100
AcDbCircle
 10
-640.894160315282
 20
712.223228726355
 30
0.0
 40
2.0
100
AcDbArc
 50
359.396153135564
 51
134.415177134853
  0
CIRCLE
  5
80
100
AcDbEntity
  8
0
  6
CONTINUOUS
 62
          15
100
AcDbCircle
 10
-760.894160315282
 20
707.324271726355
 30
0.0
 40
10.25
  0
ARC
  5
81
100
AcDbEntity
  8
BLACK
  6
CONTINUOUS
 62
          15
100
AcDbCircle
 10
-663.794244315282
 20
692.581144726355
 30
0.0
 40
3.636364
100
AcDbArc
 50
243.219638
 51
348.208933
  0
ARC
  5
82
100
AcDbEntity
  8
BLACK
  6
CONTINUOUS
 62
          15
100
AcDbCircle
 10
-670.894160315282
 20
678.513721726355
 30
0.0
 40
12.121212
100
AcDbArc
 50
63.219638
 51
116.780362
  0
ARC
  5
83
100
AcDbEntity
  8
BLACK
  6
CONTINUOUS
 62
          15
100
AcDbCircle
 10
-654.940794315282
 20
703.683019726355
 30
0.0
 40
3.636364
100
AcDbArc
 50
294.64821
 51
39.637504
  0
ARC
  5
84
100
AcDbEntity
  8
BLACK
  6
CONTINUOUS
 62
          15
100
AcDbCircle
 10
-648.369165315282
 20
689.361187726355
 30
0.0
 40
12.121212
100
AcDbArc
 50
114.64821
 51
168.208933
  0
ARC
  5
85
100
AcDbEntity
  8
BLACK
  6
CONTINUOUS
 62
          15
100
AcDbCircle
 10
-658.100554315282
 20
717.526831726355
 30
0.0
 40
3.636364
100
AcDbArc
 50
346.076783
 51
91.066076
  0
ARC
  5
86
100
AcDbEntity
  8
BLACK
  6
CONTINUOUS
 62
          15
100
AcDbCircle
 10
-642.805951315282
 20
713.735221726355
 30
0.0
 40
12.121212
100
AcDbArc
 50
166.076781
 51
219.637504
  0
ARC
  5
87
100
AcDbEntity
  8
BLACK
  6
CONTINUOUS
 62
          15
100
AcDbCircle
 10
-670.894160315282
 20
723.687907726355
 30
0.0
 40
3.636364
100
AcDbArc
 50
37.505352
 51
142.494648
  0
ARC
  5
88
100
AcDbEntity
  8
BLACK
  6
CONTINUOUS
 62
          15
100
AcDbCircle
 10
-658.393731315282
 20
733.281679726355
 30
0.0
 40
12.121212
100
AcDbArc
 50
217.505353
 51
271.066076
  0
ARC
  5
89
100
AcDbEntity
  8
BLACK
  6
CONTINUOUS
 62
          15
100
AcDbCircle
 10
-683.687766315282
 20
717.526831726355
 30
0.0
 40
3.636364
100
AcDbArc
 50
88.933924
 51
193.923217
  0
ARC
  5
8A
100
AcDbEntity
  8
BLACK
  6
CONTINUOUS
 62
          15
100
AcDbCircle
 10
-683.394589315282
 20
733.281679726355
 30
0.0
 40
12.121212
100
AcDbArc
 50
268.933924
 51
322.494647
  0
ARC
  5
8B
100
AcDbEntity
  8
BLACK
  6
CONTINUOUS
 62
          15
100
AcDbCircle
 10
-686.847526315282
 20
703.683019726355
 30
0.0
 40
3.636364
100
AcDbArc
 50
140.362496
 51
245.35179
  0
ARC
  5
8C
100
AcDbEntity
  8
BLACK
  6
CONTINUOUS
 62
          15
100
AcDbCircle
 10
-698.982369315282
 20
713.735221726355
 30
0.0
 40
12.121212
100
AcDbArc
 50
320.362496
 51
13.923219
  0
ARC
  5
8D
100
AcDbEntity
  8
BLACK
  6
CONTINUOUS
 62
          15
100
AcDbCircle
 10
-677.994076315282
 20
692.581144726355
 30
0.0
 40
3.636364
100
AcDbArc
 50
191.791067
 51
296.780361
  0
ARC
  5
8E
100
AcDbEntity
  8
BLACK
  6
CONTINUOUS
 62
          15
100
AcDbCircle
 10
-693.419155315282
 20
689.361187726355
 30
0.0
 40
12.121212
100
AcDbArc
 50
11.791067
 51
65.35179
  0
LINE
  5
8F
100
AcDbEntity
  8
0
  6
CONTINUOUS
 62
          15
100
AcDbLine
 10
-653.394160315282
 20
692.324186506238
 30
0.0
 11
-653.394160315282
 21
682.324271726355
 31
0.0
  0
LINE
  5
90
100
AcDbEntity
  8
0
  6
GESTRICHELT
 62
          15
100
AcDbLine
 10
-653.394160315282
 20
732.324271726355
 30
0.0
 11
-653.394160315282
 21
692.324186506238
 31
0.0
  0
LINE
  5
91
100
AcDbEntity
  8
0
  6
CONTINUOUS
 62
          15
100
AcDbLine
 10
-868.394160315282
 20
682.324271726355
 30
0.0
 11
-868.394160315282
 21
732.324271726355
 31
0.0
  0
LINE
  5
92
100
AcDbEntity
  8
0
  6
CONTINUOUS
 62
          15
100
AcDbLine
 10
-868.394160315282
 20
682.324271726355
 30
0.0
 11
-653.394160315282
 21
682.324271726355
 31
0.0
  0
LINE
  5
93
100
AcDbEntity
  8
0
  6
GESTRICHELT
 62
          15
100
AcDbLine
 10
-669.761015960443
 20
732.324271726355
 30
0.0
 11
-653.394160315282
 21
732.324271726355
 31
0.0
  0
LINE
  5
94
100
AcDbEntity
  8
0
  6
CONTINUOUS
 62
          15
100
AcDbLine
 10
-679.13078220503
 20
732.324271726355
 30
0.0
 11
-669.761015960443
 21
732.324271726355
 31
0.0
  0
LINE
  5
95
100
AcDbEntity
  8
0
  6
GESTRICHELT
 62
          15
100
AcDbLine
 10
-775.894172695988
 20
732.324271726355
 30
0.0
 11
-679.13078220503
 21
732.324271726355
 31
0.0
  0
LINE
  5
96
100
AcDbEntity
  8
0
  6
CONTINUOUS
 62
          15
100
AcDbLine
 10
-868.394160315282
 20
732.324271726355
 30
0.0
 11
-775.894172695988
 21
732.324271726355
 31
0.0
  0
TEXT
  5
97
100
AcDbEntity
  8
0
  6
CONTINUOUS
 62
          15
100
AcDbText
 10
-827.657868898141
 20
608.666681796687
 30
0.0
 40
3.5
  1
200-290
 41
0.900000010218
  7
GOTHICG
100
AcDbText
  0
ENDSEC
  0
SECTION
  2
OBJECTS
  0
DICTIONARY
  5
19
100
AcDbDictionary
  3
ACAD_GROUP
350
1A
  3
ACAD_MLINESTYLE
350
1B
  0
DICTIONARY
  5
1A
102
{ACAD_REACTORS
330
19
102
}
100
AcDbDictionary
  0
DICTIONARY
  5
1B
102
{ACAD_REACTORS
330
19
102
}
100
AcDbDictionary
  3
STANDARD
350
1C
  0
MLINESTYLE
  5
1C
102
{ACAD_REACTORS
330
1B
102
}
100
AcDbMlineStyle
  2
STANDARD
 70
           0
  3

 62
           0
 51
90.0
 52
90.0
 71
           2
 49
0.5
 62
         256
  6
BYLAYER
 49
-0.5
 62
         256
  6
BYLAYER
  0
ENDSEC
  0
EOF
