  0
SECTION
  2
HEADER
  9
$ACADVER
  1
AC1012
  9
$DWGCODEPAGE
  3
dos850
  9
$INSBASE
 10
0.0
 20
0.0
 30
0.0
  9
$EXTMIN
 10
-773.39185141259
 20
-6294.396243801674
 30
0.0
  9
$EXTMAX
 10
-74.39185141259
 20
-5669.396243801674
 30
0.0
  9
$LIMMIN
 10
-773.39185141259
 20
-6294.396243801674
  9
$LIMMAX
 10
-74.39185141259
 20
-5669.396243801674
  9
$ORTHOMODE
 70
           0
  9
$REGENMODE
 70
           1
  9
$FILLMODE
 70
           1
  9
$QTEXTMODE
 70
           0
  9
$MIRRTEXT
 70
           1
  9
$DRAGMODE
 70
           2
  9
$LTSCALE
 40
5.0
  9
$OSMODE
 70
           0
  9
$ATTMODE
 70
           1
  9
$TEXTSIZE
 40
0.2
  9
$TRACEWID
 40
0.05
  9
$TEXTSTYLE
  7
TXT
  9
$CLAYER
  8
0
  9
$CELTYPE
  6
CONTINUOUS
  9
$CECOLOR
 62
         256
  9
$CELTSCALE
 40
1.0
  9
$DELOBJ
 70
           1
  9
$DISPSILH
 70
           0
  9
$DIMSCALE
 40
1.0
  9
$DIMASZ
 40
3.5
  9
$DIMEXO
 40
0.0625
  9
$DIMDLI
 40
0.38
  9
$DIMRND
 40
0.0
  9
$DIMDLE
 40
0.0
  9
$DIMEXE
 40
0.18
  9
$DIMTP
 40
0.0
  9
$DIMTM
 40
0.0
  9
$DIMTXT
 40
3.5
  9
$DIMCEN
 40
0.09
  9
$DIMTSZ
 40
0.0
  9
$DIMTOL
 70
           0
  9
$DIMLIM
 70
           0
  9
$DIMTIH
 70
           1
  9
$DIMTOH
 70
           1
  9
$DIMSE1
 70
           0
  9
$DIMSE2
 70
           0
  9
$DIMTAD
 70
           0
  9
$DIMZIN
 70
           0
  9
$DIMBLK
  1

  9
$DIMASO
 70
           1
  9
$DIMSHO
 70
           1
  9
$DIMPOST
  1

  9
$DIMAPOST
  1

  9
$DIMALT
 70
           0
  9
$DIMALTD
 70
           2
  9
$DIMALTF
 40
25.4
  9
$DIMLFAC
 40
1.0
  9
$DIMTOFL
 70
           0
  9
$DIMTVP
 40
0.0
  9
$DIMTIX
 70
           0
  9
$DIMSOXD
 70
           0
  9
$DIMSAH
 70
           0
  9
$DIMBLK1
  1

  9
$DIMBLK2
  1

  9
$DIMSTYLE
  2
STANDARD
  9
$DIMCLRD
 70
           0
  9
$DIMCLRE
 70
           0
  9
$DIMCLRT
 70
           0
  9
$DIMTFAC
 40
1.0
  9
$DIMGAP
 40
0.09
  9
$DIMJUST
 70
           0
  9
$DIMSD1
 70
           0
  9
$DIMSD2
 70
           0
  9
$DIMTOLJ
 70
           1
  9
$DIMTZIN
 70
           0
  9
$DIMALTZ
 70
           0
  9
$DIMALTTZ
 70
           0
  9
$DIMFIT
 70
           3
  9
$DIMUPT
 70
           0
  9
$DIMUNIT
 70
           2
  9
$DIMDEC
 70
           4
  9
$DIMTDEC
 70
           4
  9
$DIMALTU
 70
           2
  9
$DIMALTTD
 70
           2
  9
$DIMTXSTY
  7
TXT
  9
$DIMAUNIT
 70
           0
  9
$LUNITS
 70
           2
  9
$LUPREC
 70
           2
  9
$SKETCHINC
 40
0.1
  9
$FILLETRAD
 40
0.0
  9
$AUNITS
 70
           0
  9
$AUPREC
 70
           2
  9
$MENU
  1
acad
  9
$ELEVATION
 40
0.0
  9
$PELEVATION
 40
0.0
  9
$THICKNESS
 40
0.0
  9
$LIMCHECK
 70
           0
  9
$BLIPMODE
 70
           1
  9
$CHAMFERA
 40
0.0
  9
$CHAMFERB
 40
0.0
  9
$CHAMFERC
 40
0.0
  9
$CHAMFERD
 40
0.0
  9
$SKPOLY
 70
           0
  9
$TDCREATE
 40
0.000000000
  9
$TDUPDATE
 40
0.000000000
  9
$TDINDWG
 40
0.0000000000
  9
$TDUSRTIMER
 40
0.0000000000
  9
$USRTIMER
 70
           1
  9
$ANGBASE
 50
0.0
  9
$ANGDIR
 70
           0
  9
$PDMODE
 70
           2
  9
$PDSIZE
 40
0.5
  9
$PLINEWID
 40
0.0
  9
$COORDS
 70
           0
  9
$SPLFRAME
 70
           0
  9
$SPLINETYPE
 70
           6
  9
$SPLINESEGS
 70
           8
  9
$ATTDIA
 70
           0
  9
$ATTREQ
 70
           1
  9
$HANDLING
 70
           1
  9
$HANDSEED
  5
A6
  9
$SURFTAB1
 70
           6
  9
$SURFTAB2
 70
           6
  9
$SURFTYPE
 70
           6
  9
$SURFU
 70
           6
  9
$SURFV
 70
           6
  9
$UCSNAME
  2

  9
$UCSORG
 10
0.0
 20
0.0
 30
0.0
  9
$UCSXDIR
 10
1.0
 20
0.0
 30
0.0
  9
$UCSYDIR
 10
0.0
 20
1.0
 30
0.0
  9
$PUCSNAME
  2

  9
$PUCSORG
 10
0.0
 20
0.0
 30
0.0
  9
$PUCSXDIR
 10
1.0
 20
0.0
 30
0.0
  9
$PUCSYDIR
 10
0.0
 20
1.0
 30
0.0
  9
$USERI1
 70
           0
  9
$USERI2
 70
           0
  9
$USERI3
 70
           0
  9
$USERI4
 70
           0
  9
$USERI5
 70
           0
  9
$USERR1
 40
0.0
  9
$USERR2
 40
0.0
  9
$USERR3
 40
0.0
  9
$USERR4
 40
0.0
  9
$USERR5
 40
0.0
  9
$WORLDVIEW
 70
           1
  9
$SHADEDGE
 70
           3
  9
$SHADEDIF
 70
          70
  9
$TILEMODE
 70
           1
  9
$MAXACTVP
 70
          16
  9
$PINSBASE
 10
0.0
 20
0.0
 30
0.0
  9
$PLIMCHECK
 70
           0
  9
$PEXTMIN
 10
1.000000000000E+20
 20
1.000000000000E+20
 30
1.000000000000E+20
  9
$PEXTMAX
 10
-1.000000000000E+20
 20
-1.000000000000E+20
 30
-1.000000000000E+20
  9
$PLIMMIN
 10
0.0
 20
0.0
  9
$PLIMMAX
 10
12.0
 20
9.0
  9
$UNITMODE
 70
           0
  9
$VISRETAIN
 70
           0
  9
$PLINEGEN
 70
           1
  9
$PSLTSCALE
 70
           0
  9
$TREEDEPTH
 70
        3020
  9
$PICKSTYLE
 70
           1
  9
$CMLSTYLE
  2
STANDARD
  9
$CMLJUST
 70
           0
  9
$CMLSCALE
 40
1.0
  9
$SAVEIMAGES
 70
           0
  0
ENDSEC
  0
SECTION
  2
CLASSES
  0
CLASS
  1
LWPOLYLINE
  2
AcDbPolyline
  3
"AutoCAD"
 90
        0
280
           0
281
           1
  0
CLASS
  1
IMAGE
  2
AcDbRasterImage
  3
ISM
 90
      127
280
           0
281
           1
  0
CLASS
  1
OLE2FRAME
  2
AcDbOle2Frame
  3
""
 90
        0
280
           0
281
           1
  0
CLASS
  1
HATCH
  2
AcDbHatch
  3
"ACAD_SEDONA"
 90
        0
280
           0
281
           1
  0
CLASS
  1
DICTIONARYVAR
  2
AcDbDictionaryVar
  3
"AutoCAD"
 90
        0
280
           0
281
           0
  0
CLASS
  1
RASTERVARIABLES
  2
AcDbRasterVariables
  3
ISM
 90
        0
280
           0
281
           0
  0
CLASS
  1
IMAGEDEF
  2
AcDbRasterImageDef
  3
ISM
 90
        0
280
           0
281
           0
  0
CLASS
  1
IMAGEDEF_REACTOR
  2
AcDbRasterImageDefReactor
  3
ISM
 90
        1
280
           0
281
           0
  0
CLASS
  1
IDBUFFER
  2
AcDbIdBuffer
  3
"Acad"
 90
        0
280
           0
281
           0
  0
CLASS
  1
SPATIAL_FILTER
  2
AcDbSpatialFilter
  3
"Acad"
 90
        0
280
           0
281
           0
  0
CLASS
  1
XRECORD
  2
AcDbXrecord
  3
"<Built In>"
 90
        0
280
           0
281
           0
  0
ENDSEC
  0
SECTION
  2
TABLES
  0
TABLE
  2
VPORT
  5
7
100
AcDbSymbolTable
 70
           1
  0
VPORT
  5
15
100
AcDbSymbolTableRecord
100
AcDbViewportTableRecord
  2
*ACTIVE
 70
           0
 10
0.0
 20
0.0
 11
1.0
 21
1.0
 12
6.591288
 22
4.579184
 13
0.0
 23
0.0
 14
1.0
 24
1.0
 15
0.0
 25
0.0
 16
0.0
 26
0.0
 36
1.0
 17
0.0
 27
0.0
 37
0.0
 40
9.158369
 41
0.688564
 42
50.0
 43
0.0
 44
0.0
 50
0.0
 51
0.0
 71
           0
 72
         100
 73
           1
 74
           1
 75
           0
 76
           0
 77
           0
 78
           0
  0
ENDTAB
  0
TABLE
  2
LTYPE
  5
4
100
AcDbSymbolTable
 70
           5
  0
LTYPE
  5
11
100
AcDbSymbolTableRecord
100
AcDbLinetypeTableRecord
  2
BYBLOCK
 70
           0
  3

 72
          65
 73
           0
 40
0.0
  0
LTYPE
  5
12
100
AcDbSymbolTableRecord
100
AcDbLinetypeTableRecord
  2
BYLAYER
 70
           0
  3

 72
          65
 73
           0
 40
0.0
  0
LTYPE
  5
13
100
AcDbSymbolTableRecord
100
AcDbLinetypeTableRecord
  2
CONTINUOUS
 70
           0
  3
Solid line
 72
          65
 73
           0
 40
0.0
  0
LTYPE
  5
1D
100
AcDbSymbolTableRecord
100
AcDbLinetypeTableRecord
  2
GESTRICHELT
 70
           0
  3

 72
          65
 73
           2
 40
0.75
 49
0.5
 74
           0
 49
-0.25
 74
           0
  0
LTYPE
  5
1E
100
AcDbSymbolTableRecord
100
AcDbLinetypeTableRecord
  2
STRICHPUNKT
 70
           0
  3

 72
          65
 73
           4
 40
1.0
 49
0.5
 74
           0
 49
-0.25
 74
           0
 49
0.0
 74
           0
 49
-0.25
 74
           0
  0
ENDTAB
  0
TABLE
  2
LAYER
  5
2
100
AcDbSymbolTable
 70
           4
  0
LAYER
  5
14
100
AcDbSymbolTableRecord
100
AcDbLayerTableRecord
  2
0
 70
           0
 62
           7
  6
CONTINUOUS
  0
LAYER
  5
20
100
AcDbSymbolTableRecord
100
AcDbLayerTableRecord
  2
BLACK
 70
           0
 62
           7
  6
CONTINUOUS
  0
LAYER
  5
21
100
AcDbSymbolTableRecord
100
AcDbLayerTableRecord
  2
WHITE
 70
           0
 62
           7
  6
CONTINUOUS
  0
LAYER
  5
22
100
AcDbSymbolTableRecord
100
AcDbLayerTableRecord
  2
YELLOW
 70
           0
 62
           7
  6
CONTINUOUS
  0
ENDTAB
  0
TABLE
  2
STYLE
  5
3
100
AcDbSymbolTable
 70
           2
  0
STYLE
  5
17
100
AcDbSymbolTableRecord
100
AcDbTextStyleTableRecord
  2
TXT
 70
           0
 40
3.5
 41
1.0
 50
0.0
 71
           0
 42
3.5
  3
TXT
  4

  0
STYLE
  5
1F
100
AcDbSymbolTableRecord
100
AcDbTextStyleTableRecord
  2
GOTHICG
 70
           0
 40
3.5
 41
1.0
 50
0.0
 71
           0
 42
3.5
  3
GOTHICG
  4

  0
ENDTAB
  0
TABLE
  2
VIEW
  5
5
100
AcDbSymbolTable
 70
           0
  0
ENDTAB
  0
TABLE
  2
UCS
  5
6
100
AcDbSymbolTable
 70
           0
  0
ENDTAB
  0
TABLE
  2
APPID
  5
8
100
AcDbSymbolTable
 70
           2
  0
APPID
  5
16
100
AcDbSymbolTableRecord
100
AcDbRegAppTableRecord
  2
ACAD
 70
           0
  0
APPID
  5
23
100
AcDbSymbolTableRecord
100
AcDbRegAppTableRecord
  2
MegaCADPntStyle
 70
           0
  0
ENDTAB
  0
TABLE
  2
DIMSTYLE
  5
9
100
AcDbSymbolTable
 70
           1
  0
DIMSTYLE
105
18
100
AcDbSymbolTableRecord
100
AcDbDimStyleTableRecord
  2
STANDARD
 70
           0
  3

  4

  5

  6

  7

 40
1.0
 41
0.18
 42
0.0625
 43
0.38
 44
0.18
 45
0.0
 46
0.0
 47
0.0
 48
0.0
140
0.18
141
0.09
142
0.0
143
25.4
144
1.0
145
0.0
146
1.0
147
0.09
 71
           0
 72
           0
 73
           1
 74
           1
 75
           0
 76
           0
 77
           0
 78
           0
170
           0
171
           2
172
           0
173
           0
174
           0
175
           0
176
           0
177
           0
178
           0
270
           2
271
           4
272
           4
273
           2
274
           2
340
17
275
           0
280
           0
281
           0
282
           0
283
           1
284
           0
285
           0
286
           0
287
           0
288
           0
  0
ENDTAB
  0
TABLE
  2
BLOCK_RECORD
  5
1
100
AcDbSymbolTable
 70
           1
  0
BLOCK_RECORD
  5
A
100
AcDbSymbolTableRecord
100
AcDbBlockTableRecord
  2
*MODEL_SPACE
  0
BLOCK_RECORD
  5
B
100
AcDbSymbolTableRecord
100
AcDbBlockTableRecord
  2
*PAPER_SPACE
  0
BLOCK_RECORD
  5
24
100
AcDbSymbolTableRecord
100
AcDbBlockTableRecord
  2
ELIPPSE
  0
ENDTAB
  0
ENDSEC
  0
SECTION
  2
BLOCKS
  0
BLOCK
  5
D
100
AcDbEntity
  8
0
100
AcDbBlockBegin
  2
*MODEL_SPACE
 70
           0
 10
0.0
 20
0.0
 30
0.0
  3
*MODEL_SPACE
  1

  0
ENDBLK
  5
E
100
AcDbEntity
  8
0
100
AcDbBlockEnd
  0
BLOCK
  5
F
100
AcDbEntity
 67
           1
  8
0
100
AcDbBlockBegin
  2
*PAPER_SPACE
 70
           0
 10
0.0
 20
0.0
 30
0.0
  3
*PAPER_SPACE
  1

  0
ENDBLK
  5
10
100
AcDbEntity
 67
           1
  8
0
100
AcDbBlockEnd
  0
BLOCK
  5
A1
100
AcDbEntity
  8
0
100
AcDbBlockBegin
  2
ELIPPSE
 70
          64
 10
0.0
 20
0.0
 30
0.0
  3
ELIPPSE
  1

  0
CIRCLE
  5
A2
100
AcDbEntity
  8
0
  6
BYBLOCK
 62
           0
100
AcDbCircle
 10
0.0
 20
0.0
 30
0.0
 40
1.0
  0
ENDBLK
  5
A3
100
AcDbEntity
  8
0
  6
BYBLOCK
 62
           0
100
AcDbBlockEnd
  0
ENDSEC
  0
SECTION
  2
ENTITIES
  0
LINE
  5
25
100
AcDbEntity
  8
0
  6
CONTINUOUS
 62
          15
100
AcDbLine
 10
-766.39185141259
 20
-5669.396243801674
 30
0.0
 11
-132.39185141259
 21
-5669.396243801674
 31
0.0
  0
LINE
  5
26
100
AcDbEntity
  8
0
  6
CONTINUOUS
 62
          15
100
AcDbLine
 10
-132.39185141259
 20
-6006.896243801674
 30
0.0
 11
-132.39185141259
 21
-6294.396243801674
 31
0.0
  0
LINE
  5
27
100
AcDbEntity
  8
0
  6
GESTRICHELT
 62
          15
100
AcDbLine
 10
-132.39185141259
 20
-5956.896243801674
 30
0.0
 11
-132.39185141259
 21
-6006.896243801674
 31
0.0
  0
LINE
  5
28
100
AcDbEntity
  8
0
  6
CONTINUOUS
 62
          15
100
AcDbLine
 10
-132.39185141259
 20
-5669.396243801674
 30
0.0
 11
-132.39185141259
 21
-5956.896243801674
 31
0.0
  0
LINE
  5
29
100
AcDbEntity
  8
0
  6
CONTINUOUS
 62
          15
100
AcDbLine
 10
-132.39185141259
 20
-6294.396243801674
 30
0.0
 11
-766.39185141259
 21
-6294.396243801674
 31
0.0
  0
LINE
  5
2A
100
AcDbEntity
  8
0
  6
CONTINUOUS
 62
          15
100
AcDbLine
 10
-766.39185141259
 20
-5956.896243801674
 30
0.0
 11
-766.39185141259
 21
-5669.396243801674
 31
0.0
  0
LINE
  5
2B
100
AcDbEntity
  8
0
  6
GESTRICHELT
 62
          15
100
AcDbLine
 10
-766.39185141259
 20
-6006.896243801674
 30
0.0
 11
-766.39185141259
 21
-5956.896243801674
 31
0.0
  0
LINE
  5
2C
100
AcDbEntity
  8
0
  6
CONTINUOUS
 62
          15
100
AcDbLine
 10
-766.39185141259
 20
-6294.396243801674
 30
0.0
 11
-766.39185141259
 21
-6006.896243801674
 31
0.0
  0
LINE
  5
2D
100
AcDbEntity
  8
0
  6
STRICHPUNKT
 62
          15
100
AcDbLine
 10
-449.39185141259
 20
-5669.396243801674
 30
0.0
 11
-449.39185141259
 21
-6294.396243801674
 31
0.0
  0
LINE
  5
2E
100
AcDbEntity
  8
0
  6
GESTRICHELT
 62
          15
100
AcDbLine
 10
-766.39185141259
 20
-5981.896243801674
 30
0.0
 11
-132.39185141259
 21
-5981.896243801674
 31
0.0
  0
LINE
  5
2F
100
AcDbEntity
  8
WHITE
  6
CONTINUOUS
 62
          15
100
AcDbLine
 10
-474.391844737211
 20
-5960.740562915234
 30
0.0
 11
-474.39194341259
 21
-5811.896365801674
 31
0.0
  0
ARC
  5
30
100
AcDbEntity
  8
WHITE
  6
CONTINUOUS
 62
          15
100
AcDbCircle
 10
-464.39194341259
 20
-5811.896365801674
 30
0.0
 40
10.0
100
AcDbArc
 50
90.0
 51
180.0
  0
LINE
  5
31
100
AcDbEntity
  8
WHITE
  6
CONTINUOUS
 62
          15
100
AcDbLine
 10
-464.39194341259
 20
-5801.896365801674
 30
0.0
 11
-453.54514141259
 21
-5801.896243801674
 31
0.0
  0
LINE
  5
32
100
AcDbEntity
  8
WHITE
  6
CONTINUOUS
 62
          15
100
AcDbLine
 10
-453.54514141259
 20
-5801.896243801674
 30
0.0
 11
-449.39185141259
 21
-5806.896243801674
 31
0.0
  0
LINE
  5
33
100
AcDbEntity
  8
WHITE
  6
CONTINUOUS
 62
          15
100
AcDbLine
 10
-449.39185141259
 20
-5806.896243801674
 30
0.0
 11
-445.17990741259
 21
-5801.945560801673
 31
0.0
  0
ARC
  5
34
100
AcDbEntity
  8
WHITE
  6
CONTINUOUS
 62
          15
100
AcDbCircle
 10
-449.39185141259
 20
-5981.896243801674
 30
0.0
 40
179.999969
100
AcDbArc
 50
76.340812
 51
88.659174
  0
LINE
  5
35
100
AcDbEntity
  8
WHITE
  6
CONTINUOUS
 62
          15
100
AcDbLine
 10
-406.88557041259
 20
-5806.987110801674
 30
0.0
 11
-404.09848641259
 21
-5812.859256801674
 31
0.0
  0
LINE
  5
36
100
AcDbEntity
  8
WHITE
  6
CONTINUOUS
 62
          15
100
AcDbLine
 10
-404.09848641259
 20
-5812.859256801674
 30
0.0
 11
-398.74872441259
 21
-5809.167361801674
 31
0.0
  0
ARC
  5
37
100
AcDbEntity
  8
WHITE
  6
CONTINUOUS
 62
          15
100
AcDbCircle
 10
-449.39185141259
 20
-5981.896243801674
 30
0.0
 40
179.999981
100
AcDbArc
 50
61.340809
 51
73.659163
  0
LINE
  5
38
100
AcDbEntity
  8
WHITE
  6
CONTINUOUS
 62
          15
100
AcDbLine
 10
-363.06409841259
 20
-5823.948406801674
 30
0.0
 11
-361.89179041259
 21
-5830.341800801673
 31
0.0
  0
LINE
  5
39
100
AcDbEntity
  8
WHITE
  6
CONTINUOUS
 62
          15
100
AcDbLine
 10
-361.89179041259
 20
-5830.341800801673
 30
0.0
 11
-355.76882441259
 21
-5828.160373801674
 31
0.0
  0
ARC
  5
3A
100
AcDbEntity
  8
WHITE
  6
CONTINUOUS
 62
          15
100
AcDbCircle
 10
-449.39185141259
 20
-5981.896243801674
 30
0.0
 40
179.999969
100
AcDbArc
 50
46.340822
 51
58.659161
  0
LINE
  5
3B
100
AcDbEntity
  8
WHITE
  6
CONTINUOUS
 62
          15
100
AcDbLine
 10
-325.12578841259
 20
-5851.673609801674
 30
0.0
 11
-325.64813841259
 21
-5858.152560801674
 31
0.0
  0
LINE
  5
3C
100
AcDbEntity
  8
WHITE
  6
CONTINUOUS
 62
          15
100
AcDbLine
 10
-325.64813841259
 20
-5858.152560801674
 30
0.0
 11
-319.16916541259
 21
-5857.630191801673
 31
0.0
  0
ARC
  5
3D
100
AcDbEntity
  8
WHITE
  6
CONTINUOUS
 62
          15
100
AcDbCircle
 10
-449.39185141259
 20
-5981.896243801674
 30
0.0
 40
179.999999
100
AcDbArc
 50
31.340818
 51
43.659164
  0
LINE
  5
3E
100
AcDbEntity
  8
WHITE
  6
CONTINUOUS
 62
          15
100
AcDbLine
 10
-295.65592041259
 20
-5888.273257801674
 30
0.0
 11
-297.83737841259
 21
-5894.396243801674
 31
0.0
  0
LINE
  5
3F
100
AcDbEntity
  8
WHITE
  6
CONTINUOUS
 62
          15
100
AcDbLine
 10
-297.83737841259
 20
-5894.396243801674
 30
0.0
 11
-291.44401041259
 21
-5895.568563801674
 31
0.0
  0
ARC
  5
40
100
AcDbEntity
  8
WHITE
  6
CONTINUOUS
 62
          15
100
AcDbCircle
 10
-449.39185141259
 20
-5981.896243801674
 30
0.0
 40
179.999969
100
AcDbArc
 50
16.340816
 51
28.65917
  0
LINE
  5
41
100
AcDbEntity
  8
WHITE
  6
CONTINUOUS
 62
          15
100
AcDbLine
 10
-276.66296141259
 20
-5931.253184801674
 30
0.0
 11
-280.35483441259
 21
-5936.602939801674
 31
0.0
  0
LINE
  5
42
100
AcDbEntity
  8
WHITE
  6
CONTINUOUS
 62
          15
100
AcDbLine
 10
-280.35483441259
 20
-5936.602939801674
 30
0.0
 11
-274.48267241259
 21
-5939.390048801673
 31
0.0
  0
ARC
  5
43
100
AcDbEntity
  8
WHITE
  6
CONTINUOUS
 62
          15
100
AcDbCircle
 10
-449.39185141259
 20
-5981.896243801674
 30
0.0
 40
179.999993
100
AcDbArc
 50
6.37937045756
 51
13.659158
  0
ARC
  5
44
100
AcDbEntity
  8
WHITE
  6
GESTRICHELT
 62
          15
100
AcDbCircle
 10
-449.39185141259
 20
-5981.896243801674
 30
0.0
 40
179.999993
100
AcDbArc
 50
1.958154042582
 51
6.37937045756
  0
ARC
  5
45
100
AcDbEntity
  8
WHITE
  6
CONTINUOUS
 62
          15
100
AcDbCircle
 10
-449.39185141259
 20
-5981.896243801674
 30
0.0
 40
179.999993
100
AcDbArc
 50
1.309594
 51
1.958154042582
  0
LINE
  5
46
100
AcDbEntity
  8
WHITE
  6
CONTINUOUS
 62
          15
100
AcDbLine
 10
-269.43847141259
 20
-5977.782381801674
 30
0.0
 11
-274.39185141259
 21
-5981.896243801674
 31
0.0
  0
LINE
  5
47
100
AcDbEntity
  8
WHITE
  6
CONTINUOUS
 62
          15
100
AcDbLine
 10
-274.39185141259
 20
-5981.896243801674
 30
0.0
 11
-269.39185141259
 21
-5986.049533801674
 31
0.0
  0
LINE
  5
48
100
AcDbEntity
  8
WHITE
  6
GESTRICHELT
 62
          15
100
AcDbLine
 10
-269.39185141259
 20
-5988.107581432
 30
0.0
 11
-269.39185141259
 21
-5996.896243801674
 31
0.0
  0
LINE
  5
49
100
AcDbEntity
  8
WHITE
  6
CONTINUOUS
 62
          15
100
AcDbLine
 10
-269.39185141259
 20
-5986.049533801674
 30
0.0
 11
-269.39185141259
 21
-5988.107581432
 31
0.0
  0
ARC
  5
4A
100
AcDbEntity
  8
WHITE
  6
GESTRICHELT
 62
          15
100
AcDbCircle
 10
-279.39185141259
 20
-5996.896243801674
 30
0.0
 40
10.0
100
AcDbArc
 50
329.999999999998
 51
0.0
  0
ARC
  5
4B
100
AcDbEntity
  8
WHITE
  6
CONTINUOUS
 62
          15
100
AcDbCircle
 10
-279.39185141259
 20
-5996.896243801674
 30
0.0
 40
10.0
100
AcDbArc
 50
269.999999999999
 51
329.999999999998
  0
LINE
  5
4C
100
AcDbEntity
  8
WHITE
  6
GESTRICHELT
 62
          15
100
AcDbLine
 10
-422.808277162494
 20
-6006.896230366883
 30
0.0
 11
-428.236161937589
 21
-6006.896229858417
 31
0.0
  0
LINE
  5
4D
100
AcDbEntity
  8
WHITE
  6
CONTINUOUS
 62
          15
100
AcDbLine
 10
-279.39185141259
 20
-6006.896243801674
 30
0.0
 11
-422.808340081617
 21
-6006.896230366878
 31
0.0
  0
ARC
  5
4E
100
AcDbEntity
  8
WHITE
  6
CONTINUOUS
 62
          15
100
AcDbCircle
 10
-449.39185141259
 20
-5981.896243801674
 30
0.0
 40
144.0
100
AcDbArc
 50
7.983556145555
 51
90.0
  0
ARC
  5
4F
100
AcDbEntity
  8
WHITE
  6
GESTRICHELT
 62
          15
100
AcDbCircle
 10
-449.39185141259
 20
-5981.896243801674
 30
0.0
 40
144.0
100
AcDbArc
 50
0.0
 51
7.983556145555
  0
LINE
  5
50
100
AcDbEntity
  8
WHITE
  6
CONTINUOUS
 62
          15
100
AcDbLine
 10
-449.39185141259
 20
-5837.896243801674
 30
0.0
 11
-454.89185141259
 21
-5837.896243801674
 31
0.0
  0
LINE
  5
51
100
AcDbEntity
  8
WHITE
  6
CONTINUOUS
 62
          15
100
AcDbLine
 10
-454.89185141259
 20
-5837.896243801674
 30
0.0
 11
-454.89185141259
 21
-5825.896243801674
 31
0.0
  0
LINE
  5
52
100
AcDbEntity
  8
WHITE
  6
CONTINUOUS
 62
          15
100
AcDbLine
 10
-454.89185141259
 20
-5825.896243801674
 30
0.0
 11
-449.39185141259
 21
-5825.896243801674
 31
0.0
  0
ARC
  5
53
100
AcDbEntity
  8
WHITE
  6
CONTINUOUS
 62
          15
100
AcDbCircle
 10
-449.39185141259
 20
-5981.896243801674
 30
0.0
 40
156.0
100
AcDbArc
 50
8.206528905083
 51
90.0
  0
ARC
  5
54
100
AcDbEntity
  8
WHITE
  6
GESTRICHELT
 62
          15
100
AcDbCircle
 10
-449.39185141259
 20
-5981.896243801674
 30
0.0
 40
156.0
100
AcDbArc
 50
0.0
 51
8.206528905083
  0
LINE
  5
55
100
AcDbEntity
  8
WHITE
  6
GESTRICHELT
 62
          15
100
AcDbLine
 10
-293.39185141259
 20
-5981.896243801674
 30
0.0
 11
-293.39185141259
 21
-5987.396243801674
 31
0.0
  0
LINE
  5
56
100
AcDbEntity
  8
WHITE
  6
GESTRICHELT
 62
          15
100
AcDbLine
 10
-293.39185141259
 20
-5987.396243801674
 30
0.0
 11
-305.39185141259
 21
-5987.396243801674
 31
0.0
  0
LINE
  5
57
100
AcDbEntity
  8
WHITE
  6
GESTRICHELT
 62
          15
100
AcDbLine
 10
-305.39185141259
 20
-5987.396243801674
 30
0.0
 11
-305.39185141259
 21
-5981.896243801674
 31
0.0
  0
CIRCLE
  5
58
100
AcDbEntity
  8
0
  6
GESTRICHELT
 62
          15
100
AcDbCircle
 10
-449.39185141259
 20
-5981.896243801674
 30
0.0
 40
22.75
  0
ARC
  5
59
100
AcDbEntity
  8
0
  6
GESTRICHELT
 62
          15
100
AcDbCircle
 10
-449.39185141259
 20
-5981.896243801674
 30
0.0
 40
32.75
100
AcDbArc
 50
305.700699324332
 51
310.238835888346
  0
ARC
  5
5A
100
AcDbEntity
  8
0
  6
CONTINUOUS
 62
          15
100
AcDbCircle
 10
-449.39185141259
 20
-5981.896243801674
 30
0.0
 40
32.75
100
AcDbArc
 50
139.761183795191
 51
305.700699324332
  0
LINE
  5
5B
100
AcDbEntity
  8
WHITE
  6
CONTINUOUS
 62
          15
100
AcDbLine
 10
-443.960594827862
 20
-5853.581428503365
 30
0.0
 11
-432.710594827862
 21
-5876.081428503365
 31
0.0
  0
LINE
  5
5C
100
AcDbEntity
  8
WHITE
  6
CONTINUOUS
 62
          15
100
AcDbLine
 10
-432.710594827862
 20
-5876.081428503365
 30
0.0
 11
-437.741747827862
 21
-5876.081428503365
 31
0.0
  0
LINE
  5
5D
100
AcDbEntity
  8
WHITE
  6
CONTINUOUS
 62
          15
100
AcDbLine
 10
-437.741747827862
 20
-5876.081428503365
 30
0.0
 11
-440.048548327862
 21
-5871.467826003364
 31
0.0
  0
LINE
  5
5E
100
AcDbEntity
  8
WHITE
  6
CONTINUOUS
 62
          15
100
AcDbLine
 10
-440.048548327862
 20
-5871.467826003364
 30
0.0
 11
-447.872641327862
 21
-5871.467826003364
 31
0.0
  0
LINE
  5
5F
100
AcDbEntity
  8
WHITE
  6
CONTINUOUS
 62
          15
100
AcDbLine
 10
-447.872641327862
 20
-5871.467826003364
 30
0.0
 11
-450.179441827862
 21
-5876.081428503365
 31
0.0
  0
LINE
  5
60
100
AcDbEntity
  8
WHITE
  6
CONTINUOUS
 62
          15
100
AcDbLine
 10
-450.179441827862
 20
-5876.081428503365
 30
0.0
 11
-455.210594827862
 21
-5876.081428503365
 31
0.0
  0
LINE
  5
61
100
AcDbEntity
  8
WHITE
  6
CONTINUOUS
 62
          15
100
AcDbLine
 10
-455.210594827862
 20
-5876.081428503365
 30
0.0
 11
-443.960594827862
 21
-5853.581428503365
 31
0.0
  0
LINE
  5
62
100
AcDbEntity
  8
WHITE
  6
GESTRICHELT
 62
          15
100
AcDbLine
 10
-340.010579861135
 20
-5987.193721039035
 30
0.0
 11
-325.010579861135
 21
-5987.193721039035
 31
0.0
  0
LINE
  5
63
100
AcDbEntity
  8
WHITE
  6
GESTRICHELT
 62
          15
100
AcDbLine
 10
-325.010579861135
 20
-5987.193721039035
 30
0.0
 11
-325.010579861135
 21
-5982.693721039035
 31
0.0
  0
LINE
  5
64
100
AcDbEntity
  8
WHITE
  6
GESTRICHELT
 62
          15
100
AcDbLine
 10
-325.010579861135
 20
-5982.693721039035
 30
0.0
 11
-332.058751408267
 21
-5982.693721039035
 31
0.0
  0
LINE
  5
65
100
AcDbEntity
  8
WHITE
  6
GESTRICHELT
 62
          15
100
AcDbLine
 10
-325.010579861135
 20
-5971.443721039035
 30
0.0
 11
-325.010579861135
 21
-5964.693721039035
 31
0.0
  0
LINE
  5
66
100
AcDbEntity
  8
WHITE
  6
GESTRICHELT
 62
          15
100
AcDbLine
 10
-325.010579861135
 20
-5964.693721039035
 30
0.0
 11
-340.010579861135
 21
-5964.693721039035
 31
0.0
  0
LINE
  5
67
100
AcDbEntity
  8
WHITE
  6
GESTRICHELT
 62
          15
100
AcDbLine
 10
-340.010579861135
 20
-5969.193721039035
 30
0.0
 11
-332.517893672608
 21
-5969.193721039035
 31
0.0
  0
LINE
  5
68
100
AcDbEntity
  8
0
  6
GESTRICHELT
 62
          15
100
AcDbLine
 10
-340.010579861135
 20
-5964.693721039035
 30
0.0
 11
-340.010579861135
 21
-5969.193721039035
 31
0.0
  0
LINE
  5
69
100
AcDbEntity
  8
0
  6
GESTRICHELT
 62
          15
100
AcDbLine
 10
-340.010579861135
 20
-5981.511231497175
 30
0.0
 11
-340.010579861135
 21
-5987.193721039035
 31
0.0
  0
LINE
  5
6A
100
AcDbEntity
  8
0
  6
GESTRICHELT
 62
          15
100
AcDbLine
 10
-333.155334310631
 20
-5980.170243663495
 30
0.0
 11
-325.010579861135
 21
-5971.443721039035
 31
0.0
  0
LINE
  5
6B
100
AcDbEntity
  8
0
  6
GESTRICHELT
 62
          15
100
AcDbLine
 10
-339.607162763499
 20
-5980.487754121635
 30
0.0
 11
-331.421310770244
 21
-5971.717198414575
 31
0.0
  0
ARC
  5
6C
100
AcDbEntity
  8
0
  6
GESTRICHELT
 62
          15
100
AcDbCircle
 10
-332.517893672608
 20
-5970.693721039035
 30
0.0
 40
1.5
100
AcDbArc
 50
316.974934010881
 51
90.0
  0
ARC
  5
6D
100
AcDbEntity
  8
0
  6
GESTRICHELT
 62
          15
100
AcDbCircle
 10
-332.058751408267
 20
-5981.193721039035
 30
0.0
 40
1.5
100
AcDbArc
 50
136.974934010881
 51
269.999999999999
  0
ARC
  5
6E
100
AcDbEntity
  8
0
  6
GESTRICHELT
 62
          15
100
AcDbCircle
 10
-338.510579861135
 20
-5981.511231497175
 30
0.0
 40
1.5
100
AcDbArc
 50
136.974934010883
 51
180.0
  0
LINE
  5
6F
100
AcDbEntity
  8
WHITE
  6
CONTINUOUS
 62
          15
100
AcDbLine
 10
-74.39185141259
 20
-5986.896243801674
 30
0.0
 11
-74.39185141259
 21
-5976.896243801674
 31
0.0
  0
ARC
  5
70
100
AcDbEntity
  8
WHITE
  6
CONTINUOUS
 62
          15
100
AcDbCircle
 10
-89.39185141259
 20
-5976.896243801674
 30
0.0
 40
15.0
100
AcDbArc
 50
0.0
 51
90.0
  0
LINE
  5
71
100
AcDbEntity
  8
WHITE
  6
CONTINUOUS
 62
          15
100
AcDbLine
 10
-306.377564069251
 20
-5961.896243801674
 30
0.0
 11
-399.39185141259
 21
-5961.896243801674
 31
0.0
  0
LINE
  5
72
100
AcDbEntity
  8
WHITE
  6
GESTRICHELT
 62
          15
100
AcDbLine
 10
-292.406138755929
 20
-5961.896243801674
 30
0.0
 11
-306.377564069251
 21
-5961.896243801674
 31
0.0
  0
LINE
  5
73
100
AcDbEntity
  8
WHITE
  6
CONTINUOUS
 62
          15
100
AcDbLine
 10
-89.39185141259
 20
-5961.896243801674
 30
0.0
 11
-292.406138755929
 21
-5961.896243801674
 31
0.0
  0
LINE
  5
74
100
AcDbEntity
  8
WHITE
  6
CONTINUOUS
 62
          15
100
AcDbLine
 10
-399.39185141259
 20
-5961.896243801674
 30
0.0
 11
-443.12732541259
 21
-5952.557620801674
 31
0.0
  0
ARC
  5
75
100
AcDbEntity
  8
WHITE
  6
CONTINUOUS
 62
          15
100
AcDbCircle
 10
-449.39185141259
 20
-5981.896243801674
 30
0.0
 40
29.999985
100
AcDbArc
 50
77.946928
 51
282.053073
  0
LINE
  5
76
100
AcDbEntity
  8
WHITE
  6
CONTINUOUS
 62
          15
100
AcDbLine
 10
-443.12732841259
 20
-6011.234850801674
 30
0.0
 11
-399.39185141259
 21
-6001.896243801674
 31
0.0
  0
LINE
  5
77
100
AcDbEntity
  8
WHITE
  6
CONTINUOUS
 62
          15
100
AcDbLine
 10
-286.251650535312
 20
-6001.896243801674
 30
0.0
 11
-89.39185141259
 21
-6001.896243801674
 31
0.0
  0
LINE
  5
78
100
AcDbEntity
  8
WHITE
  6
GESTRICHELT
 62
          15
100
AcDbLine
 10
-312.532052289868
 20
-6001.896243801674
 30
0.0
 11
-286.251650535312
 21
-6001.896243801674
 31
0.0
  0
LINE
  5
79
100
AcDbEntity
  8
WHITE
  6
CONTINUOUS
 62
          15
100
AcDbLine
 10
-399.39185141259
 20
-6001.896243801674
 30
0.0
 11
-312.532052289868
 21
-6001.896243801674
 31
0.0
  0
ARC
  5
7A
100
AcDbEntity
  8
WHITE
  6
CONTINUOUS
 62
          15
100
AcDbCircle
 10
-89.39185141259
 20
-5986.896243801674
 30
0.0
 40
15.0
100
AcDbArc
 50
270.0
 51
0.0
  0
CIRCLE
  5
7B
100
AcDbEntity
  8
WHITE
  6
GESTRICHELT
 62
          15
100
AcDbCircle
 10
-299.39185141259
 20
-5981.896243801674
 30
0.0
 40
7.0
  0
LINE
  5
7C
100
AcDbEntity
  8
YELLOW
  6
CONTINUOUS
 62
           2
100
AcDbLine
 10
-194.39185141259
 20
-6001.896243801674
 30
0.0
 11
-194.39185141259
 21
-5961.896243801674
 31
0.0
  0
LINE
  5
7D
100
AcDbEntity
  8
YELLOW
  6
CONTINUOUS
 62
           2
100
AcDbLine
 10
-259.39185141259
 20
-5961.896243801674
 30
0.0
 11
-259.39185141259
 21
-6001.896243801674
 31
0.0
  0
LINE
  5
7E
100
AcDbEntity
  8
0
  6
CONTINUOUS
 62
          15
100
AcDbLine
 10
-276.70802702377
 20
-5982.551584299187
 30
0.0
 11
-270.737119725837
 21
-5987.631484519436
 31
0.0
  0
LINE
  5
7F
100
AcDbEntity
  8
0
  6
GESTRICHELT
 62
          15
100
AcDbLine
 10
-277.499842843899
 20
-5981.87792698743
 30
0.0
 11
-276.70802702377
 21
-5982.551584299187
 31
0.0
  0
LINE
  5
80
100
AcDbEntity
  8
0
  6
GESTRICHELT
 62
          15
100
AcDbLine
 10
-277.268976666278
 20
-5981.686156196233
 30
0.0
 11
-277.499842843899
 21
-5981.87792698743
 31
0.0
  0
LINE
  5
81
100
AcDbEntity
  8
0
  6
CONTINUOUS
 62
          15
100
AcDbLine
 10
-270.669789370283
 20
-5976.204489795154
 30
0.0
 11
-277.268976666278
 21
-5981.686156196233
 31
0.0
  0
LINE
  5
82
100
AcDbEntity
  8
0
  6
CONTINUOUS
 62
          15
100
AcDbLine
 10
-267.441172124591
 20
-5986.119972128857
 30
0.0
 11
-267.391886124591
 21
-5977.754738128857
 31
0.0
  0
ARC
  5
83
100
AcDbEntity
  8
0
  6
CONTINUOUS
 62
          15
100
AcDbCircle
 10
-269.44113741259
 20
-5986.108188801674
 30
0.0
 40
2.0
100
AcDbArc
 50
229.609685635494
 51
359.662430588941
  0
ARC
  5
84
100
AcDbEntity
  8
0
  6
CONTINUOUS
 62
          15
100
AcDbCircle
 10
-269.39185141259
 20
-5977.742954801674
 30
0.0
 40
2.0
100
AcDbArc
 50
359.662430588941
 51
129.714981743212
  0
CIRCLE
  5
85
100
AcDbEntity
  8
0
  6
CONTINUOUS
 62
          15
100
AcDbCircle
 10
-449.39185141259
 20
-5981.896243801674
 30
0.0
 40
15.25
  0
ARC
  5
86
100
AcDbEntity
  8
BLACK
  6
CONTINUOUS
 62
          15
100
AcDbCircle
 10
-290.51695641259
 20
-6000.325152801674
 30
0.0
 40
4.545455
100
AcDbArc
 50
243.219638
 51
348.208933
  0
ARC
  5
87
100
AcDbEntity
  8
BLACK
  6
CONTINUOUS
 62
          15
100
AcDbCircle
 10
-299.39185141259
 20
-6017.909430801674
 30
0.0
 40
15.151515
100
AcDbArc
 50
63.219638
 51
116.780361
  0
ARC
  5
88
100
AcDbEntity
  8
BLACK
  6
CONTINUOUS
 62
          15
100
AcDbCircle
 10
-279.45014441259
 20
-5986.447808801674
 30
0.0
 40
4.545455
100
AcDbArc
 50
294.64821
 51
39.637504
  0
ARC
  5
89
100
AcDbEntity
  8
BLACK
  6
CONTINUOUS
 62
          15
100
AcDbCircle
 10
-271.23560741259
 20
-6004.350098801674
 30
0.0
 40
15.151515
100
AcDbArc
 50
114.64821
 51
168.208933
  0
ARC
  5
8A
100
AcDbEntity
  8
BLACK
  6
CONTINUOUS
 62
          15
100
AcDbCircle
 10
-283.39984441259
 20
-5969.143043801674
 30
0.0
 40
4.545455
100
AcDbArc
 50
346.076782
 51
91.066075
  0
ARC
  5
8B
100
AcDbEntity
  8
BLACK
  6
CONTINUOUS
 62
          15
100
AcDbCircle
 10
-264.28158941259
 20
-5973.882555801674
 30
0.0
 40
15.151515
100
AcDbArc
 50
166.076782
 51
219.637504
  0
ARC
  5
8C
100
AcDbEntity
  8
BLACK
  6
CONTINUOUS
 62
          15
100
AcDbCircle
 10
-299.39185141259
 20
-5961.441698801674
 30
0.0
 40
4.545455
100
AcDbArc
 50
37.505353
 51
142.494647
  0
ARC
  5
8D
100
AcDbEntity
  8
BLACK
  6
CONTINUOUS
 62
          15
100
AcDbCircle
 10
-283.76631541259
 20
-5949.449482801674
 30
0.0
 40
15.151515
100
AcDbArc
 50
217.505353
 51
271.066076
  0
ARC
  5
8E
100
AcDbEntity
  8
BLACK
  6
CONTINUOUS
 62
          15
100
AcDbCircle
 10
-315.38385841259
 20
-5969.143043801674
 30
0.0
 40
4.545455
100
AcDbArc
 50
88.933925
 51
193.923218
  0
ARC
  5
8F
100
AcDbEntity
  8
BLACK
  6
CONTINUOUS
 62
          15
100
AcDbCircle
 10
-315.01738741259
 20
-5949.449482801674
 30
0.0
 40
15.151515
100
AcDbArc
 50
268.933924
 51
322.494647
  0
ARC
  5
90
100
AcDbEntity
  8
BLACK
  6
CONTINUOUS
 62
          15
100
AcDbCircle
 10
-319.33355841259
 20
-5986.447808801674
 30
0.0
 40
4.545455
100
AcDbArc
 50
140.362496
 51
245.35179
  0
ARC
  5
91
100
AcDbEntity
  8
BLACK
  6
CONTINUOUS
 62
          15
100
AcDbCircle
 10
-334.50211341259
 20
-5973.882555801674
 30
0.0
 40
15.151515
100
AcDbArc
 50
320.362496
 51
13.923218
  0
ARC
  5
92
100
AcDbEntity
  8
BLACK
  6
CONTINUOUS
 62
          15
100
AcDbCircle
 10
-308.26674641259
 20
-6000.325152801674
 30
0.0
 40
4.545455
100
AcDbArc
 50
191.791067
 51
296.780361
  0
ARC
  5
93
100
AcDbEntity
  8
BLACK
  6
CONTINUOUS
 62
          15
100
AcDbCircle
 10
-327.54809541259
 20
-6004.350098801674
 30
0.0
 40
15.151515
100
AcDbArc
 50
11.791067
 51
65.35179
  0
LINE
  5
94
100
AcDbEntity
  8
0
  6
CONTINUOUS
 62
          15
100
AcDbLine
 10
-125.39185141259
 20
-6001.896243801674
 30
0.0
 11
-125.39185141259
 21
-6006.896243801674
 31
0.0
  0
LINE
  5
95
100
AcDbEntity
  8
0
  6
GESTRICHELT
 62
          15
100
AcDbLine
 10
-125.39185141259
 20
-5961.896243801674
 30
0.0
 11
-125.39185141259
 21
-6001.896243801674
 31
0.0
  0
LINE
  5
96
100
AcDbEntity
  8
0
  6
CONTINUOUS
 62
          15
100
AcDbLine
 10
-125.39185141259
 20
-5956.896243801674
 30
0.0
 11
-125.39185141259
 21
-5961.896243801674
 31
0.0
  0
LINE
  5
97
100
AcDbEntity
  8
0
  6
CONTINUOUS
 62
          15
100
AcDbLine
 10
-773.39185141259
 20
-6006.896243801674
 30
0.0
 11
-773.39185141259
 21
-5956.896243801674
 31
0.0
  0
LINE
  5
98
100
AcDbEntity
  8
0
  6
CONTINUOUS
 62
          15
100
AcDbLine
 10
-279.39185141259
 20
-6006.896243801674
 30
0.0
 11
-125.39185141259
 21
-6006.896243801674
 31
0.0
  0
LINE
  5
99
100
AcDbEntity
  8
0
  6
GESTRICHELT
 62
          15
100
AcDbLine
 10
-470.54752441063
 20
-6006.896243801674
 30
0.0
 11
-422.808277162494
 21
-6006.896243801674
 31
0.0
  0
LINE
  5
9A
100
AcDbEntity
  8
0
  6
CONTINUOUS
 62
          15
100
AcDbLine
 10
-773.39185141259
 20
-6006.896243801674
 30
0.0
 11
-470.54752441063
 21
-6006.896243801674
 31
0.0
  0
LINE
  5
9B
100
AcDbEntity
  8
0
  6
CONTINUOUS
 62
          15
100
AcDbLine
 10
-271.136423781339
 20
-5956.896243801674
 30
0.0
 11
-125.39185141259
 21
-5956.896243801674
 31
0.0
  0
LINE
  5
9C
100
AcDbEntity
  8
0
  6
GESTRICHELT
 62
          15
100
AcDbLine
 10
-295.408086034548
 20
-5956.896243801674
 30
0.0
 11
-271.136423781339
 21
-5956.896243801674
 31
0.0
  0
LINE
  5
9D
100
AcDbEntity
  8
0
  6
CONTINUOUS
 62
          15
100
AcDbLine
 10
-307.578593922326
 20
-5956.896243801674
 30
0.0
 11
-295.408086034548
 21
-5956.896243801674
 31
0.0
  0
LINE
  5
9E
100
AcDbEntity
  8
0
  6
GESTRICHELT
 62
          15
100
AcDbLine
 10
-474.39184728578
 20
-5956.896243801674
 30
0.0
 11
-307.578593922326
 21
-5956.896243801674
 31
0.0
  0
LINE
  5
9F
100
AcDbEntity
  8
0
  6
CONTINUOUS
 62
          15
100
AcDbLine
 10
-773.39185141259
 20
-5956.896243801674
 30
0.0
 11
-474.39184728578
 21
-5956.896243801674
 31
0.0
  0
TEXT
  5
A0
100
AcDbEntity
  8
0
  6
CONTINUOUS
 62
          15
100
AcDbText
 10
-691.57081233204
 20
-6224.137310988355
 30
0.0
 40
3.5
  1
630-290
 41
0.900000010218
  7
GOTHICG
100
AcDbText
  0
ENDSEC
  0
SECTION
  2
OBJECTS
  0
DICTIONARY
  5
19
100
AcDbDictionary
  3
ACAD_GROUP
350
1A
  3
ACAD_MLINESTYLE
350
1B
  0
DICTIONARY
  5
1A
102
{ACAD_REACTORS
330
19
102
}
100
AcDbDictionary
  0
DICTIONARY
  5
1B
102
{ACAD_REACTORS
330
19
102
}
100
AcDbDictionary
  3
STANDARD
350
1C
  0
MLINESTYLE
  5
1C
102
{ACAD_REACTORS
330
1B
102
}
100
AcDbMlineStyle
  2
STANDARD
 70
           0
  3

 62
           0
 51
90.0
 52
90.0
 71
           2
 49
0.5
 62
         256
  6
BYLAYER
 49
-0.5
 62
         256
  6
BYLAYER
  0
ENDSEC
  0
EOF
