  0
SECTION
  2
HEADER
  9
$ACADVER
  1
AC1012
  9
$DWGCODEPAGE
  3
dos850
  9
$INSBASE
 10
0.0
 20
0.0
 30
0.0
  9
$EXTMIN
 10
-1938.640866045572
 20
-3845.862566666708
 30
0.0
  9
$EXTMAX
 10
-1338.140866045572
 20
-3345.862566666708
 30
0.0
  9
$LIMMIN
 10
-1938.640866045572
 20
-3845.862566666708
  9
$LIMMAX
 10
-1338.140866045572
 20
-3345.862566666708
  9
$ORTHOMODE
 70
           0
  9
$REGENMODE
 70
           1
  9
$FILLMODE
 70
           1
  9
$QTEXTMODE
 70
           0
  9
$MIRRTEXT
 70
           1
  9
$DRAGMODE
 70
           2
  9
$LTSCALE
 40
5.0
  9
$OSMODE
 70
           0
  9
$ATTMODE
 70
           1
  9
$TEXTSIZE
 40
0.2
  9
$TRACEWID
 40
0.05
  9
$TEXTSTYLE
  7
TXT
  9
$CLAYER
  8
0
  9
$CELTYPE
  6
CONTINUOUS
  9
$CECOLOR
 62
         256
  9
$CELTSCALE
 40
1.0
  9
$DELOBJ
 70
           1
  9
$DISPSILH
 70
           0
  9
$DIMSCALE
 40
1.0
  9
$DIMASZ
 40
3.5
  9
$DIMEXO
 40
0.0625
  9
$DIMDLI
 40
0.38
  9
$DIMRND
 40
0.0
  9
$DIMDLE
 40
0.0
  9
$DIMEXE
 40
0.18
  9
$DIMTP
 40
0.0
  9
$DIMTM
 40
0.0
  9
$DIMTXT
 40
3.5
  9
$DIMCEN
 40
0.09
  9
$DIMTSZ
 40
0.0
  9
$DIMTOL
 70
           0
  9
$DIMLIM
 70
           0
  9
$DIMTIH
 70
           1
  9
$DIMTOH
 70
           1
  9
$DIMSE1
 70
           0
  9
$DIMSE2
 70
           0
  9
$DIMTAD
 70
           0
  9
$DIMZIN
 70
           0
  9
$DIMBLK
  1

  9
$DIMASO
 70
           1
  9
$DIMSHO
 70
           1
  9
$DIMPOST
  1

  9
$DIMAPOST
  1

  9
$DIMALT
 70
           0
  9
$DIMALTD
 70
           2
  9
$DIMALTF
 40
25.4
  9
$DIMLFAC
 40
1.0
  9
$DIMTOFL
 70
           0
  9
$DIMTVP
 40
0.0
  9
$DIMTIX
 70
           0
  9
$DIMSOXD
 70
           0
  9
$DIMSAH
 70
           0
  9
$DIMBLK1
  1

  9
$DIMBLK2
  1

  9
$DIMSTYLE
  2
STANDARD
  9
$DIMCLRD
 70
           0
  9
$DIMCLRE
 70
           0
  9
$DIMCLRT
 70
           0
  9
$DIMTFAC
 40
1.0
  9
$DIMGAP
 40
0.09
  9
$DIMJUST
 70
           0
  9
$DIMSD1
 70
           0
  9
$DIMSD2
 70
           0
  9
$DIMTOLJ
 70
           1
  9
$DIMTZIN
 70
           0
  9
$DIMALTZ
 70
           0
  9
$DIMALTTZ
 70
           0
  9
$DIMFIT
 70
           3
  9
$DIMUPT
 70
           0
  9
$DIMUNIT
 70
           2
  9
$DIMDEC
 70
           4
  9
$DIMTDEC
 70
           4
  9
$DIMALTU
 70
           2
  9
$DIMALTTD
 70
           2
  9
$DIMTXSTY
  7
TXT
  9
$DIMAUNIT
 70
           0
  9
$LUNITS
 70
           2
  9
$LUPREC
 70
           2
  9
$SKETCHINC
 40
0.1
  9
$FILLETRAD
 40
0.0
  9
$AUNITS
 70
           0
  9
$AUPREC
 70
           2
  9
$MENU
  1
acad
  9
$ELEVATION
 40
0.0
  9
$PELEVATION
 40
0.0
  9
$THICKNESS
 40
0.0
  9
$LIMCHECK
 70
           0
  9
$BLIPMODE
 70
           1
  9
$CHAMFERA
 40
0.0
  9
$CHAMFERB
 40
0.0
  9
$CHAMFERC
 40
0.0
  9
$CHAMFERD
 40
0.0
  9
$SKPOLY
 70
           0
  9
$TDCREATE
 40
0.000000000
  9
$TDUPDATE
 40
0.000000000
  9
$TDINDWG
 40
0.0000000000
  9
$TDUSRTIMER
 40
0.0000000000
  9
$USRTIMER
 70
           1
  9
$ANGBASE
 50
0.0
  9
$ANGDIR
 70
           0
  9
$PDMODE
 70
           2
  9
$PDSIZE
 40
0.5
  9
$PLINEWID
 40
0.0
  9
$COORDS
 70
           0
  9
$SPLFRAME
 70
           0
  9
$SPLINETYPE
 70
           6
  9
$SPLINESEGS
 70
           8
  9
$ATTDIA
 70
           0
  9
$ATTREQ
 70
           1
  9
$HANDLING
 70
           1
  9
$HANDSEED
  5
98
  9
$SURFTAB1
 70
           6
  9
$SURFTAB2
 70
           6
  9
$SURFTYPE
 70
           6
  9
$SURFU
 70
           6
  9
$SURFV
 70
           6
  9
$UCSNAME
  2

  9
$UCSORG
 10
0.0
 20
0.0
 30
0.0
  9
$UCSXDIR
 10
1.0
 20
0.0
 30
0.0
  9
$UCSYDIR
 10
0.0
 20
1.0
 30
0.0
  9
$PUCSNAME
  2

  9
$PUCSORG
 10
0.0
 20
0.0
 30
0.0
  9
$PUCSXDIR
 10
1.0
 20
0.0
 30
0.0
  9
$PUCSYDIR
 10
0.0
 20
1.0
 30
0.0
  9
$USERI1
 70
           0
  9
$USERI2
 70
           0
  9
$USERI3
 70
           0
  9
$USERI4
 70
           0
  9
$USERI5
 70
           0
  9
$USERR1
 40
0.0
  9
$USERR2
 40
0.0
  9
$USERR3
 40
0.0
  9
$USERR4
 40
0.0
  9
$USERR5
 40
0.0
  9
$WORLDVIEW
 70
           1
  9
$SHADEDGE
 70
           3
  9
$SHADEDIF
 70
          70
  9
$TILEMODE
 70
           1
  9
$MAXACTVP
 70
          16
  9
$PINSBASE
 10
0.0
 20
0.0
 30
0.0
  9
$PLIMCHECK
 70
           0
  9
$PEXTMIN
 10
1.000000000000E+20
 20
1.000000000000E+20
 30
1.000000000000E+20
  9
$PEXTMAX
 10
-1.000000000000E+20
 20
-1.000000000000E+20
 30
-1.000000000000E+20
  9
$PLIMMIN
 10
0.0
 20
0.0
  9
$PLIMMAX
 10
12.0
 20
9.0
  9
$UNITMODE
 70
           0
  9
$VISRETAIN
 70
           0
  9
$PLINEGEN
 70
           1
  9
$PSLTSCALE
 70
           0
  9
$TREEDEPTH
 70
        3020
  9
$PICKSTYLE
 70
           1
  9
$CMLSTYLE
  2
STANDARD
  9
$CMLJUST
 70
           0
  9
$CMLSCALE
 40
1.0
  9
$SAVEIMAGES
 70
           0
  0
ENDSEC
  0
SECTION
  2
CLASSES
  0
CLASS
  1
LWPOLYLINE
  2
AcDbPolyline
  3
"AutoCAD"
 90
        0
280
           0
281
           1
  0
CLASS
  1
IMAGE
  2
AcDbRasterImage
  3
ISM
 90
      127
280
           0
281
           1
  0
CLASS
  1
OLE2FRAME
  2
AcDbOle2Frame
  3
""
 90
        0
280
           0
281
           1
  0
CLASS
  1
HATCH
  2
AcDbHatch
  3
"ACAD_SEDONA"
 90
        0
280
           0
281
           1
  0
CLASS
  1
DICTIONARYVAR
  2
AcDbDictionaryVar
  3
"AutoCAD"
 90
        0
280
           0
281
           0
  0
CLASS
  1
RASTERVARIABLES
  2
AcDbRasterVariables
  3
ISM
 90
        0
280
           0
281
           0
  0
CLASS
  1
IMAGEDEF
  2
AcDbRasterImageDef
  3
ISM
 90
        0
280
           0
281
           0
  0
CLASS
  1
IMAGEDEF_REACTOR
  2
AcDbRasterImageDefReactor
  3
ISM
 90
        1
280
           0
281
           0
  0
CLASS
  1
IDBUFFER
  2
AcDbIdBuffer
  3
"Acad"
 90
        0
280
           0
281
           0
  0
CLASS
  1
SPATIAL_FILTER
  2
AcDbSpatialFilter
  3
"Acad"
 90
        0
280
           0
281
           0
  0
CLASS
  1
XRECORD
  2
AcDbXrecord
  3
"<Built In>"
 90
        0
280
           0
281
           0
  0
ENDSEC
  0
SECTION
  2
TABLES
  0
TABLE
  2
VPORT
  5
7
100
AcDbSymbolTable
 70
           1
  0
VPORT
  5
15
100
AcDbSymbolTableRecord
100
AcDbViewportTableRecord
  2
*ACTIVE
 70
           0
 10
0.0
 20
0.0
 11
1.0
 21
1.0
 12
6.591288
 22
4.579184
 13
0.0
 23
0.0
 14
1.0
 24
1.0
 15
0.0
 25
0.0
 16
0.0
 26
0.0
 36
1.0
 17
0.0
 27
0.0
 37
0.0
 40
9.158369
 41
0.688564
 42
50.0
 43
0.0
 44
0.0
 50
0.0
 51
0.0
 71
           0
 72
         100
 73
           1
 74
           1
 75
           0
 76
           0
 77
           0
 78
           0
  0
ENDTAB
  0
TABLE
  2
LTYPE
  5
4
100
AcDbSymbolTable
 70
           5
  0
LTYPE
  5
11
100
AcDbSymbolTableRecord
100
AcDbLinetypeTableRecord
  2
BYBLOCK
 70
           0
  3

 72
          65
 73
           0
 40
0.0
  0
LTYPE
  5
12
100
AcDbSymbolTableRecord
100
AcDbLinetypeTableRecord
  2
BYLAYER
 70
           0
  3

 72
          65
 73
           0
 40
0.0
  0
LTYPE
  5
13
100
AcDbSymbolTableRecord
100
AcDbLinetypeTableRecord
  2
CONTINUOUS
 70
           0
  3
Solid line
 72
          65
 73
           0
 40
0.0
  0
LTYPE
  5
1D
100
AcDbSymbolTableRecord
100
AcDbLinetypeTableRecord
  2
GESTRICHELT
 70
           0
  3

 72
          65
 73
           2
 40
0.75
 49
0.5
 74
           0
 49
-0.25
 74
           0
  0
LTYPE
  5
1E
100
AcDbSymbolTableRecord
100
AcDbLinetypeTableRecord
  2
STRICHPUNKT
 70
           0
  3

 72
          65
 73
           4
 40
1.0
 49
0.5
 74
           0
 49
-0.25
 74
           0
 49
0.0
 74
           0
 49
-0.25
 74
           0
  0
ENDTAB
  0
TABLE
  2
LAYER
  5
2
100
AcDbSymbolTable
 70
           4
  0
LAYER
  5
14
100
AcDbSymbolTableRecord
100
AcDbLayerTableRecord
  2
0
 70
           0
 62
           7
  6
CONTINUOUS
  0
LAYER
  5
20
100
AcDbSymbolTableRecord
100
AcDbLayerTableRecord
  2
BLACK
 70
           0
 62
           7
  6
CONTINUOUS
  0
LAYER
  5
21
100
AcDbSymbolTableRecord
100
AcDbLayerTableRecord
  2
WHITE
 70
           0
 62
           7
  6
CONTINUOUS
  0
LAYER
  5
22
100
AcDbSymbolTableRecord
100
AcDbLayerTableRecord
  2
YELLOW
 70
           0
 62
           7
  6
CONTINUOUS
  0
ENDTAB
  0
TABLE
  2
STYLE
  5
3
100
AcDbSymbolTable
 70
           2
  0
STYLE
  5
17
100
AcDbSymbolTableRecord
100
AcDbTextStyleTableRecord
  2
TXT
 70
           0
 40
3.5
 41
1.0
 50
0.0
 71
           0
 42
3.5
  3
TXT
  4

  0
STYLE
  5
1F
100
AcDbSymbolTableRecord
100
AcDbTextStyleTableRecord
  2
GOTHICG
 70
           0
 40
3.5
 41
1.0
 50
0.0
 71
           0
 42
3.5
  3
GOTHICG
  4

  0
ENDTAB
  0
TABLE
  2
VIEW
  5
5
100
AcDbSymbolTable
 70
           0
  0
ENDTAB
  0
TABLE
  2
UCS
  5
6
100
AcDbSymbolTable
 70
           0
  0
ENDTAB
  0
TABLE
  2
APPID
  5
8
100
AcDbSymbolTable
 70
           2
  0
APPID
  5
16
100
AcDbSymbolTableRecord
100
AcDbRegAppTableRecord
  2
ACAD
 70
           0
  0
APPID
  5
23
100
AcDbSymbolTableRecord
100
AcDbRegAppTableRecord
  2
MegaCADPntStyle
 70
           0
  0
ENDTAB
  0
TABLE
  2
DIMSTYLE
  5
9
100
AcDbSymbolTable
 70
           1
  0
DIMSTYLE
105
18
100
AcDbSymbolTableRecord
100
AcDbDimStyleTableRecord
  2
STANDARD
 70
           0
  3

  4

  5

  6

  7

 40
1.0
 41
0.18
 42
0.0625
 43
0.38
 44
0.18
 45
0.0
 46
0.0
 47
0.0
 48
0.0
140
0.18
141
0.09
142
0.0
143
25.4
144
1.0
145
0.0
146
1.0
147
0.09
 71
           0
 72
           0
 73
           1
 74
           1
 75
           0
 76
           0
 77
           0
 78
           0
170
           0
171
           2
172
           0
173
           0
174
           0
175
           0
176
           0
177
           0
178
           0
270
           2
271
           4
272
           4
273
           2
274
           2
340
17
275
           0
280
           0
281
           0
282
           0
283
           1
284
           0
285
           0
286
           0
287
           0
288
           0
  0
ENDTAB
  0
TABLE
  2
BLOCK_RECORD
  5
1
100
AcDbSymbolTable
 70
           1
  0
BLOCK_RECORD
  5
A
100
AcDbSymbolTableRecord
100
AcDbBlockTableRecord
  2
*MODEL_SPACE
  0
BLOCK_RECORD
  5
B
100
AcDbSymbolTableRecord
100
AcDbBlockTableRecord
  2
*PAPER_SPACE
  0
BLOCK_RECORD
  5
24
100
AcDbSymbolTableRecord
100
AcDbBlockTableRecord
  2
ELIPPSE
  0
ENDTAB
  0
ENDSEC
  0
SECTION
  2
BLOCKS
  0
BLOCK
  5
D
100
AcDbEntity
  8
0
100
AcDbBlockBegin
  2
*MODEL_SPACE
 70
           0
 10
0.0
 20
0.0
 30
0.0
  3
*MODEL_SPACE
  1

  0
ENDBLK
  5
E
100
AcDbEntity
  8
0
100
AcDbBlockEnd
  0
BLOCK
  5
F
100
AcDbEntity
 67
           1
  8
0
100
AcDbBlockBegin
  2
*PAPER_SPACE
 70
           0
 10
0.0
 20
0.0
 30
0.0
  3
*PAPER_SPACE
  1

  0
ENDBLK
  5
10
100
AcDbEntity
 67
           1
  8
0
100
AcDbBlockEnd
  0
BLOCK
  5
93
100
AcDbEntity
  8
0
100
AcDbBlockBegin
  2
ELIPPSE
 70
          64
 10
0.0
 20
0.0
 30
0.0
  3
ELIPPSE
  1

  0
CIRCLE
  5
94
100
AcDbEntity
  8
0
  6
BYBLOCK
 62
           0
100
AcDbCircle
 10
0.0
 20
0.0
 30
0.0
 40
1.0
  0
ENDBLK
  5
95
100
AcDbEntity
  8
0
  6
BYBLOCK
 62
           0
100
AcDbBlockEnd
  0
ENDSEC
  0
SECTION
  2
ENTITIES
  0
LINE
  5
25
100
AcDbEntity
  8
0
  6
CONTINUOUS
 62
          15
100
AcDbLine
 10
-1938.640866045572
 20
-3345.862566666708
 30
0.0
 11
-1487.640866045572
 21
-3345.862566666708
 31
0.0
  0
LINE
  5
26
100
AcDbEntity
  8
0
  6
CONTINUOUS
 62
          15
100
AcDbLine
 10
-1487.640866045572
 20
-3615.862566666708
 30
0.0
 11
-1487.640866045572
 21
-3845.862566666708
 31
0.0
  0
LINE
  5
27
100
AcDbEntity
  8
0
  6
GESTRICHELT
 62
          15
100
AcDbLine
 10
-1487.640866045572
 20
-3575.862566666708
 30
0.0
 11
-1487.640866045572
 21
-3615.862566666708
 31
0.0
  0
LINE
  5
28
100
AcDbEntity
  8
0
  6
CONTINUOUS
 62
          15
100
AcDbLine
 10
-1487.640866045572
 20
-3345.862566666708
 30
0.0
 11
-1487.640866045572
 21
-3575.862566666708
 31
0.0
  0
LINE
  5
29
100
AcDbEntity
  8
0
  6
CONTINUOUS
 62
          15
100
AcDbLine
 10
-1487.640866045572
 20
-3845.862566666708
 30
0.0
 11
-1938.640866045572
 21
-3845.862566666708
 31
0.0
  0
LINE
  5
2A
100
AcDbEntity
  8
0
  6
CONTINUOUS
 62
          15
100
AcDbLine
 10
-1938.640866045572
 20
-3845.862566666708
 30
0.0
 11
-1938.640866045572
 21
-3345.862566666708
 31
0.0
  0
LINE
  5
2B
100
AcDbEntity
  8
0
  6
STRICHPUNKT
 62
          15
100
AcDbLine
 10
-1713.140866045572
 20
-3345.862566666708
 30
0.0
 11
-1713.140866045572
 21
-3845.862566666708
 31
0.0
  0
LINE
  5
2C
100
AcDbEntity
  8
0
  6
GESTRICHELT
 62
          15
100
AcDbLine
 10
-1938.640866045572
 20
-3595.862566666708
 30
0.0
 11
-1487.640866045572
 21
-3595.862566666708
 31
0.0
  0
LINE
  5
2D
100
AcDbEntity
  8
WHITE
  6
CONTINUOUS
 62
          15
100
AcDbLine
 10
-1738.140859370194
 20
-3574.706885780267
 30
0.0
 11
-1738.140958045572
 21
-3425.862688666707
 31
0.0
  0
ARC
  5
2E
100
AcDbEntity
  8
WHITE
  6
CONTINUOUS
 62
          15
100
AcDbCircle
 10
-1728.140958045572
 20
-3425.862688666707
 30
0.0
 40
10.0
100
AcDbArc
 50
90.0
 51
180.0
  0
LINE
  5
2F
100
AcDbEntity
  8
WHITE
  6
CONTINUOUS
 62
          15
100
AcDbLine
 10
-1728.140958045572
 20
-3415.862688666707
 30
0.0
 11
-1717.294156045572
 21
-3415.862566666708
 31
0.0
  0
LINE
  5
30
100
AcDbEntity
  8
WHITE
  6
CONTINUOUS
 62
          15
100
AcDbLine
 10
-1717.294156045572
 20
-3415.862566666708
 30
0.0
 11
-1713.140866045572
 21
-3420.862566666708
 31
0.0
  0
LINE
  5
31
100
AcDbEntity
  8
WHITE
  6
CONTINUOUS
 62
          15
100
AcDbLine
 10
-1713.140866045572
 20
-3420.862566666708
 30
0.0
 11
-1708.928922045572
 21
-3415.911883666707
 31
0.0
  0
ARC
  5
32
100
AcDbEntity
  8
WHITE
  6
CONTINUOUS
 62
          15
100
AcDbCircle
 10
-1713.140866045572
 20
-3595.862566666708
 30
0.0
 40
179.999969
100
AcDbArc
 50
76.340812
 51
88.659174
  0
LINE
  5
33
100
AcDbEntity
  8
WHITE
  6
CONTINUOUS
 62
          15
100
AcDbLine
 10
-1670.634585045572
 20
-3420.953433666708
 30
0.0
 11
-1667.847501045572
 21
-3426.825579666707
 31
0.0
  0
LINE
  5
34
100
AcDbEntity
  8
WHITE
  6
CONTINUOUS
 62
          15
100
AcDbLine
 10
-1667.847501045572
 20
-3426.825579666707
 30
0.0
 11
-1662.497739045572
 21
-3423.133684666707
 31
0.0
  0
ARC
  5
35
100
AcDbEntity
  8
WHITE
  6
CONTINUOUS
 62
          15
100
AcDbCircle
 10
-1713.140866045572
 20
-3595.862566666708
 30
0.0
 40
179.999981
100
AcDbArc
 50
61.340809
 51
73.659163
  0
LINE
  5
36
100
AcDbEntity
  8
WHITE
  6
CONTINUOUS
 62
          15
100
AcDbLine
 10
-1626.813113045572
 20
-3437.914729666707
 30
0.0
 11
-1625.640805045572
 21
-3444.308123666707
 31
0.0
  0
LINE
  5
37
100
AcDbEntity
  8
WHITE
  6
CONTINUOUS
 62
          15
100
AcDbLine
 10
-1625.640805045572
 20
-3444.308123666707
 30
0.0
 11
-1619.517839045572
 21
-3442.126696666707
 31
0.0
  0
ARC
  5
38
100
AcDbEntity
  8
WHITE
  6
CONTINUOUS
 62
          15
100
AcDbCircle
 10
-1713.140866045572
 20
-3595.862566666708
 30
0.0
 40
179.999969
100
AcDbArc
 50
46.340822
 51
58.659161
  0
LINE
  5
39
100
AcDbEntity
  8
WHITE
  6
CONTINUOUS
 62
          15
100
AcDbLine
 10
-1588.874803045572
 20
-3465.639932666707
 30
0.0
 11
-1589.397153045572
 21
-3472.118883666707
 31
0.0
  0
LINE
  5
3A
100
AcDbEntity
  8
WHITE
  6
CONTINUOUS
 62
          15
100
AcDbLine
 10
-1589.397153045572
 20
-3472.118883666707
 30
0.0
 11
-1582.918180045572
 21
-3471.596514666707
 31
0.0
  0
ARC
  5
3B
100
AcDbEntity
  8
WHITE
  6
CONTINUOUS
 62
          15
100
AcDbCircle
 10
-1713.140866045572
 20
-3595.862566666708
 30
0.0
 40
179.999999
100
AcDbArc
 50
31.340818
 51
43.659164
  0
LINE
  5
3C
100
AcDbEntity
  8
WHITE
  6
CONTINUOUS
 62
          15
100
AcDbLine
 10
-1559.404935045572
 20
-3502.239580666707
 30
0.0
 11
-1561.586393045572
 21
-3508.362566666708
 31
0.0
  0
LINE
  5
3D
100
AcDbEntity
  8
WHITE
  6
CONTINUOUS
 62
          15
100
AcDbLine
 10
-1561.586393045572
 20
-3508.362566666708
 30
0.0
 11
-1555.193025045572
 21
-3509.534886666707
 31
0.0
  0
ARC
  5
3E
100
AcDbEntity
  8
WHITE
  6
CONTINUOUS
 62
          15
100
AcDbCircle
 10
-1713.140866045572
 20
-3595.862566666708
 30
0.0
 40
179.999969
100
AcDbArc
 50
16.340816
 51
28.65917
  0
LINE
  5
3F
100
AcDbEntity
  8
WHITE
  6
CONTINUOUS
 62
          15
100
AcDbLine
 10
-1540.411976045572
 20
-3545.219507666708
 30
0.0
 11
-1544.103849045572
 21
-3550.569262666707
 31
0.0
  0
LINE
  5
40
100
AcDbEntity
  8
WHITE
  6
CONTINUOUS
 62
          15
100
AcDbLine
 10
-1544.103849045572
 20
-3550.569262666707
 30
0.0
 11
-1538.231687045572
 21
-3553.356371666707
 31
0.0
  0
ARC
  5
41
100
AcDbEntity
  8
WHITE
  6
CONTINUOUS
 62
          15
100
AcDbCircle
 10
-1713.140866045572
 20
-3595.862566666708
 30
0.0
 40
179.999993
100
AcDbArc
 50
6.37937045756
 51
13.659158
  0
ARC
  5
42
100
AcDbEntity
  8
WHITE
  6
GESTRICHELT
 62
          15
100
AcDbCircle
 10
-1713.140866045572
 20
-3595.862566666708
 30
0.0
 40
179.999993
100
AcDbArc
 50
1.958154042582
 51
6.37937045756
  0
ARC
  5
43
100
AcDbEntity
  8
WHITE
  6
CONTINUOUS
 62
          15
100
AcDbCircle
 10
-1713.140866045572
 20
-3595.862566666708
 30
0.0
 40
179.999993
100
AcDbArc
 50
1.309594
 51
1.958154042582
  0
LINE
  5
44
100
AcDbEntity
  8
WHITE
  6
CONTINUOUS
 62
          15
100
AcDbLine
 10
-1533.187486045572
 20
-3591.748704666708
 30
0.0
 11
-1538.140866045572
 21
-3595.862566666708
 31
0.0
  0
LINE
  5
45
100
AcDbEntity
  8
WHITE
  6
CONTINUOUS
 62
          15
100
AcDbLine
 10
-1538.140866045572
 20
-3595.862566666708
 30
0.0
 11
-1533.140866045572
 21
-3600.015856666707
 31
0.0
  0
LINE
  5
46
100
AcDbEntity
  8
WHITE
  6
GESTRICHELT
 62
          15
100
AcDbLine
 10
-1533.140866045572
 20
-3602.073904297034
 30
0.0
 11
-1533.140866045572
 21
-3610.862566666708
 31
0.0
  0
LINE
  5
47
100
AcDbEntity
  8
WHITE
  6
CONTINUOUS
 62
          15
100
AcDbLine
 10
-1533.140866045572
 20
-3600.015856666707
 30
0.0
 11
-1533.140866045572
 21
-3602.073904297034
 31
0.0
  0
ARC
  5
48
100
AcDbEntity
  8
WHITE
  6
GESTRICHELT
 62
          15
100
AcDbCircle
 10
-1543.140866045572
 20
-3610.862566666708
 30
0.0
 40
10.0
100
AcDbArc
 50
329.999999999998
 51
0.0
  0
ARC
  5
49
100
AcDbEntity
  8
WHITE
  6
CONTINUOUS
 62
          15
100
AcDbCircle
 10
-1543.140866045572
 20
-3610.862566666708
 30
0.0
 40
10.0
100
AcDbArc
 50
269.999999999999
 51
329.999999999998
  0
LINE
  5
4A
100
AcDbEntity
  8
WHITE
  6
GESTRICHELT
 62
          15
100
AcDbLine
 10
-1686.557291795476
 20
-3620.862553231917
 30
0.0
 11
-1691.985176570572
 21
-3620.86255272345
 31
0.0
  0
LINE
  5
4B
100
AcDbEntity
  8
WHITE
  6
CONTINUOUS
 62
          15
100
AcDbLine
 10
-1543.140866045572
 20
-3620.862566666708
 30
0.0
 11
-1686.557291795476
 21
-3620.862553231917
 31
0.0
  0
ARC
  5
4C
100
AcDbEntity
  8
WHITE
  6
CONTINUOUS
 62
          15
100
AcDbCircle
 10
-1713.140866045572
 20
-3595.862566666708
 30
0.0
 40
144.0
100
AcDbArc
 50
7.983556145555
 51
90.0
  0
ARC
  5
4D
100
AcDbEntity
  8
WHITE
  6
GESTRICHELT
 62
          15
100
AcDbCircle
 10
-1713.140866045572
 20
-3595.862566666708
 30
0.0
 40
144.0
100
AcDbArc
 50
0.0
 51
7.983556145555
  0
LINE
  5
4E
100
AcDbEntity
  8
WHITE
  6
CONTINUOUS
 62
          15
100
AcDbLine
 10
-1713.140866045572
 20
-3451.862566666708
 30
0.0
 11
-1718.640866045572
 21
-3451.862566666708
 31
0.0
  0
LINE
  5
4F
100
AcDbEntity
  8
WHITE
  6
CONTINUOUS
 62
          15
100
AcDbLine
 10
-1718.640866045572
 20
-3451.862566666708
 30
0.0
 11
-1718.640866045572
 21
-3439.862566666708
 31
0.0
  0
LINE
  5
50
100
AcDbEntity
  8
WHITE
  6
CONTINUOUS
 62
          15
100
AcDbLine
 10
-1718.640866045572
 20
-3439.862566666708
 30
0.0
 11
-1713.140866045572
 21
-3439.862566666708
 31
0.0
  0
ARC
  5
51
100
AcDbEntity
  8
WHITE
  6
CONTINUOUS
 62
          15
100
AcDbCircle
 10
-1713.140866045572
 20
-3595.862566666708
 30
0.0
 40
156.0
100
AcDbArc
 50
8.206528905083
 51
90.0
  0
ARC
  5
52
100
AcDbEntity
  8
WHITE
  6
GESTRICHELT
 62
          15
100
AcDbCircle
 10
-1713.140866045572
 20
-3595.862566666708
 30
0.0
 40
156.0
100
AcDbArc
 50
0.0
 51
8.206528905083
  0
LINE
  5
53
100
AcDbEntity
  8
WHITE
  6
GESTRICHELT
 62
          15
100
AcDbLine
 10
-1557.140866045572
 20
-3595.862566666708
 30
0.0
 11
-1557.140866045572
 21
-3601.362566666708
 31
0.0
  0
LINE
  5
54
100
AcDbEntity
  8
WHITE
  6
GESTRICHELT
 62
          15
100
AcDbLine
 10
-1557.140866045572
 20
-3601.362566666708
 30
0.0
 11
-1569.140866045572
 21
-3601.362566666708
 31
0.0
  0
LINE
  5
55
100
AcDbEntity
  8
WHITE
  6
GESTRICHELT
 62
          15
100
AcDbLine
 10
-1569.140866045572
 20
-3601.362566666708
 30
0.0
 11
-1569.140866045572
 21
-3595.862566666708
 31
0.0
  0
CIRCLE
  5
56
100
AcDbEntity
  8
0
  6
GESTRICHELT
 62
          15
100
AcDbCircle
 10
-1713.140866045572
 20
-3595.862566666708
 30
0.0
 40
22.75
  0
ARC
  5
57
100
AcDbEntity
  8
0
  6
GESTRICHELT
 62
          15
100
AcDbCircle
 10
-1713.140866045572
 20
-3595.862566666708
 30
0.0
 40
32.75
100
AcDbArc
 50
305.700699324332
 51
310.238835888346
  0
ARC
  5
58
100
AcDbEntity
  8
0
  6
CONTINUOUS
 62
          15
100
AcDbCircle
 10
-1713.140866045572
 20
-3595.862566666708
 30
0.0
 40
32.75
100
AcDbArc
 50
139.761183795191
 51
305.700699324332
  0
LINE
  5
59
100
AcDbEntity
  8
WHITE
  6
CONTINUOUS
 62
          15
100
AcDbLine
 10
-1707.709609460844
 20
-3467.547751368398
 30
0.0
 11
-1696.459609460844
 21
-3490.047751368398
 31
0.0
  0
LINE
  5
5A
100
AcDbEntity
  8
WHITE
  6
CONTINUOUS
 62
          15
100
AcDbLine
 10
-1696.459609460844
 20
-3490.047751368398
 30
0.0
 11
-1701.490762460845
 21
-3490.047751368398
 31
0.0
  0
LINE
  5
5B
100
AcDbEntity
  8
WHITE
  6
CONTINUOUS
 62
          15
100
AcDbLine
 10
-1701.490762460845
 20
-3490.047751368398
 30
0.0
 11
-1703.797562960844
 21
-3485.434148868398
 31
0.0
  0
LINE
  5
5C
100
AcDbEntity
  8
WHITE
  6
CONTINUOUS
 62
          15
100
AcDbLine
 10
-1703.797562960844
 20
-3485.434148868398
 30
0.0
 11
-1711.621655960844
 21
-3485.434148868398
 31
0.0
  0
LINE
  5
5D
100
AcDbEntity
  8
WHITE
  6
CONTINUOUS
 62
          15
100
AcDbLine
 10
-1711.621655960844
 20
-3485.434148868398
 30
0.0
 11
-1713.928456460844
 21
-3490.047751368398
 31
0.0
  0
LINE
  5
5E
100
AcDbEntity
  8
WHITE
  6
CONTINUOUS
 62
          15
100
AcDbLine
 10
-1713.928456460844
 20
-3490.047751368398
 30
0.0
 11
-1718.959609460844
 21
-3490.047751368398
 31
0.0
  0
LINE
  5
5F
100
AcDbEntity
  8
WHITE
  6
CONTINUOUS
 62
          15
100
AcDbLine
 10
-1718.959609460844
 20
-3490.047751368398
 30
0.0
 11
-1707.709609460844
 21
-3467.547751368398
 31
0.0
  0
LINE
  5
60
100
AcDbEntity
  8
WHITE
  6
GESTRICHELT
 62
          15
100
AcDbLine
 10
-1603.759594494117
 20
-3601.160043904069
 30
0.0
 11
-1588.759594494117
 21
-3601.160043904069
 31
0.0
  0
LINE
  5
61
100
AcDbEntity
  8
WHITE
  6
GESTRICHELT
 62
          15
100
AcDbLine
 10
-1588.759594494117
 20
-3601.160043904069
 30
0.0
 11
-1588.759594494117
 21
-3596.660043904069
 31
0.0
  0
LINE
  5
62
100
AcDbEntity
  8
WHITE
  6
GESTRICHELT
 62
          15
100
AcDbLine
 10
-1588.759594494117
 20
-3596.660043904069
 30
0.0
 11
-1595.807766041249
 21
-3596.660043904069
 31
0.0
  0
LINE
  5
63
100
AcDbEntity
  8
WHITE
  6
GESTRICHELT
 62
          15
100
AcDbLine
 10
-1588.759594494117
 20
-3585.410043904069
 30
0.0
 11
-1588.759594494117
 21
-3578.660043904069
 31
0.0
  0
LINE
  5
64
100
AcDbEntity
  8
WHITE
  6
GESTRICHELT
 62
          15
100
AcDbLine
 10
-1588.759594494117
 20
-3578.660043904069
 30
0.0
 11
-1603.759594494117
 21
-3578.660043904069
 31
0.0
  0
LINE
  5
65
100
AcDbEntity
  8
WHITE
  6
GESTRICHELT
 62
          15
100
AcDbLine
 10
-1603.759594494117
 20
-3583.160043904069
 30
0.0
 11
-1596.266908305591
 21
-3583.160043904069
 31
0.0
  0
LINE
  5
66
100
AcDbEntity
  8
0
  6
GESTRICHELT
 62
          15
100
AcDbLine
 10
-1603.759594494117
 20
-3578.660043904069
 30
0.0
 11
-1603.759594494117
 21
-3583.160043904069
 31
0.0
  0
LINE
  5
67
100
AcDbEntity
  8
0
  6
GESTRICHELT
 62
          15
100
AcDbLine
 10
-1603.759594494117
 20
-3595.477554362208
 30
0.0
 11
-1603.759594494117
 21
-3601.160043904069
 31
0.0
  0
LINE
  5
68
100
AcDbEntity
  8
0
  6
GESTRICHELT
 62
          15
100
AcDbLine
 10
-1596.904348943613
 20
-3594.136566528528
 30
0.0
 11
-1588.759594494117
 21
-3585.410043904069
 31
0.0
  0
LINE
  5
69
100
AcDbEntity
  8
0
  6
GESTRICHELT
 62
          15
100
AcDbLine
 10
-1603.356177396482
 20
-3594.454076986668
 30
0.0
 11
-1595.170325403226
 21
-3585.683521279609
 31
0.0
  0
ARC
  5
6A
100
AcDbEntity
  8
0
  6
GESTRICHELT
 62
          15
100
AcDbCircle
 10
-1596.266908305591
 20
-3584.660043904069
 30
0.0
 40
1.5
100
AcDbArc
 50
316.974934010881
 51
90.0
  0
ARC
  5
6B
100
AcDbEntity
  8
0
  6
GESTRICHELT
 62
          15
100
AcDbCircle
 10
-1595.807766041249
 20
-3595.160043904069
 30
0.0
 40
1.5
100
AcDbArc
 50
136.974934010881
 51
269.999999999999
  0
ARC
  5
6C
100
AcDbEntity
  8
0
  6
GESTRICHELT
 62
          15
100
AcDbCircle
 10
-1602.259594494117
 20
-3595.477554362208
 30
0.0
 40
1.5
100
AcDbArc
 50
136.974934010883
 51
180.0
  0
LINE
  5
6D
100
AcDbEntity
  8
WHITE
  6
CONTINUOUS
 62
          15
100
AcDbLine
 10
-1338.140866045572
 20
-3600.862566666708
 30
0.0
 11
-1338.140866045572
 21
-3590.862566666708
 31
0.0
  0
ARC
  5
6E
100
AcDbEntity
  8
WHITE
  6
CONTINUOUS
 62
          15
100
AcDbCircle
 10
-1353.140866045572
 20
-3590.862566666708
 30
0.0
 40
15.0
100
AcDbArc
 50
0.0
 51
90.0
  0
LINE
  5
6F
100
AcDbEntity
  8
WHITE
  6
CONTINUOUS
 62
          15
100
AcDbLine
 10
-1570.126578702234
 20
-3575.862566666708
 30
0.0
 11
-1663.140866045572
 21
-3575.862566666708
 31
0.0
  0
LINE
  5
70
100
AcDbEntity
  8
WHITE
  6
GESTRICHELT
 62
          15
100
AcDbLine
 10
-1556.155153388911
 20
-3575.862566666708
 30
0.0
 11
-1570.126578702234
 21
-3575.862566666708
 31
0.0
  0
LINE
  5
71
100
AcDbEntity
  8
WHITE
  6
CONTINUOUS
 62
          15
100
AcDbLine
 10
-1353.140866045572
 20
-3575.862566666708
 30
0.0
 11
-1556.155153388911
 21
-3575.862566666708
 31
0.0
  0
LINE
  5
72
100
AcDbEntity
  8
WHITE
  6
CONTINUOUS
 62
          15
100
AcDbLine
 10
-1663.140866045572
 20
-3575.862566666708
 30
0.0
 11
-1706.876340045572
 21
-3566.523943666707
 31
0.0
  0
ARC
  5
73
100
AcDbEntity
  8
WHITE
  6
CONTINUOUS
 62
          15
100
AcDbCircle
 10
-1713.140866045572
 20
-3595.862566666708
 30
0.0
 40
29.999985
100
AcDbArc
 50
77.946928
 51
282.053073
  0
LINE
  5
74
100
AcDbEntity
  8
WHITE
  6
CONTINUOUS
 62
          15
100
AcDbLine
 10
-1706.876343045572
 20
-3625.201173666707
 30
0.0
 11
-1663.140866045572
 21
-3615.862566666708
 31
0.0
  0
LINE
  5
75
100
AcDbEntity
  8
WHITE
  6
CONTINUOUS
 62
          15
100
AcDbLine
 10
-1550.000665168294
 20
-3615.862566666708
 30
0.0
 11
-1353.140866045572
 21
-3615.862566666708
 31
0.0
  0
LINE
  5
76
100
AcDbEntity
  8
WHITE
  6
GESTRICHELT
 62
          15
100
AcDbLine
 10
-1576.28106692285
 20
-3615.862566666708
 30
0.0
 11
-1550.000665168294
 21
-3615.862566666708
 31
0.0
  0
LINE
  5
77
100
AcDbEntity
  8
WHITE
  6
CONTINUOUS
 62
          15
100
AcDbLine
 10
-1663.140866045572
 20
-3615.862566666708
 30
0.0
 11
-1576.28106692285
 21
-3615.862566666708
 31
0.0
  0
ARC
  5
78
100
AcDbEntity
  8
WHITE
  6
CONTINUOUS
 62
          15
100
AcDbCircle
 10
-1353.140866045572
 20
-3600.862566666708
 30
0.0
 40
15.0
100
AcDbArc
 50
270.0
 51
0.0
  0
CIRCLE
  5
79
100
AcDbEntity
  8
WHITE
  6
GESTRICHELT
 62
          15
100
AcDbCircle
 10
-1563.140866045572
 20
-3595.862566666708
 30
0.0
 40
7.0
  0
LINE
  5
7A
100
AcDbEntity
  8
YELLOW
  6
CONTINUOUS
 62
           2
100
AcDbLine
 10
-1458.140866045572
 20
-3615.862566666708
 30
0.0
 11
-1458.140866045572
 21
-3575.862566666708
 31
0.0
  0
LINE
  5
7B
100
AcDbEntity
  8
YELLOW
  6
CONTINUOUS
 62
           2
100
AcDbLine
 10
-1523.140866045572
 20
-3575.862566666708
 30
0.0
 11
-1523.140866045572
 21
-3615.862566666708
 31
0.0
  0
LINE
  5
7C
100
AcDbEntity
  8
0
  6
CONTINUOUS
 62
          15
100
AcDbLine
 10
-1540.457041656752
 20
-3596.517907164221
 30
0.0
 11
-1534.48613435882
 21
-3601.597807384469
 31
0.0
  0
LINE
  5
7D
100
AcDbEntity
  8
0
  6
GESTRICHELT
 62
          15
100
AcDbLine
 10
-1541.248857476881
 20
-3595.844249852464
 30
0.0
 11
-1540.457041656752
 21
-3596.517907164221
 31
0.0
  0
LINE
  5
7E
100
AcDbEntity
  8
0
  6
GESTRICHELT
 62
          15
100
AcDbLine
 10
-1541.01799129926
 20
-3595.652479061267
 30
0.0
 11
-1541.248857476881
 21
-3595.844249852464
 31
0.0
  0
LINE
  5
7F
100
AcDbEntity
  8
0
  6
CONTINUOUS
 62
          15
100
AcDbLine
 10
-1534.418804003265
 20
-3590.170812660187
 30
0.0
 11
-1541.01799129926
 21
-3595.652479061267
 31
0.0
  0
LINE
  5
80
100
AcDbEntity
  8
0
  6
CONTINUOUS
 62
          15
100
AcDbLine
 10
-1531.190186757573
 20
-3600.08629499389
 30
0.0
 11
-1531.140900757573
 21
-3591.72106099389
 31
0.0
  0
ARC
  5
81
100
AcDbEntity
  8
0
  6
CONTINUOUS
 62
          15
100
AcDbCircle
 10
-1533.190152045572
 20
-3600.074511666708
 30
0.0
 40
2.0
100
AcDbArc
 50
229.609685635494
 51
359.662430588941
  0
ARC
  5
82
100
AcDbEntity
  8
0
  6
CONTINUOUS
 62
          15
100
AcDbCircle
 10
-1533.140866045572
 20
-3591.709277666708
 30
0.0
 40
2.0
100
AcDbArc
 50
359.662430588941
 51
129.714981743212
  0
CIRCLE
  5
83
100
AcDbEntity
  8
0
  6
CONTINUOUS
 62
          15
100
AcDbCircle
 10
-1713.140866045572
 20
-3595.862566666708
 30
0.0
 40
15.25
  0
ARC
  5
84
100
AcDbEntity
  8
BLACK
  6
CONTINUOUS
 62
          15
100
AcDbCircle
 10
-1554.265971045572
 20
-3614.291475666708
 30
0.0
 40
4.545455
100
AcDbArc
 50
243.219638
 51
348.208933
  0
ARC
  5
85
100
AcDbEntity
  8
BLACK
  6
CONTINUOUS
 62
          15
100
AcDbCircle
 10
-1563.140866045572
 20
-3631.875753666707
 30
0.0
 40
15.151515
100
AcDbArc
 50
63.219638
 51
116.780361
  0
ARC
  5
86
100
AcDbEntity
  8
BLACK
  6
CONTINUOUS
 62
          15
100
AcDbCircle
 10
-1543.199159045572
 20
-3600.414131666707
 30
0.0
 40
4.545455
100
AcDbArc
 50
294.64821
 51
39.637504
  0
ARC
  5
87
100
AcDbEntity
  8
BLACK
  6
CONTINUOUS
 62
          15
100
AcDbCircle
 10
-1534.984622045572
 20
-3618.316421666707
 30
0.0
 40
15.151515
100
AcDbArc
 50
114.64821
 51
168.208933
  0
ARC
  5
88
100
AcDbEntity
  8
BLACK
  6
CONTINUOUS
 62
          15
100
AcDbCircle
 10
-1547.148859045572
 20
-3583.109366666708
 30
0.0
 40
4.545455
100
AcDbArc
 50
346.076782
 51
91.066075
  0
ARC
  5
89
100
AcDbEntity
  8
BLACK
  6
CONTINUOUS
 62
          15
100
AcDbCircle
 10
-1528.030604045572
 20
-3587.848878666708
 30
0.0
 40
15.151515
100
AcDbArc
 50
166.076782
 51
219.637504
  0
ARC
  5
8A
100
AcDbEntity
  8
BLACK
  6
CONTINUOUS
 62
          15
100
AcDbCircle
 10
-1563.140866045572
 20
-3575.408021666707
 30
0.0
 40
4.545455
100
AcDbArc
 50
37.505353
 51
142.494647
  0
ARC
  5
8B
100
AcDbEntity
  8
BLACK
  6
CONTINUOUS
 62
          15
100
AcDbCircle
 10
-1547.515330045572
 20
-3563.415805666708
 30
0.0
 40
15.151515
100
AcDbArc
 50
217.505353
 51
271.066076
  0
ARC
  5
8C
100
AcDbEntity
  8
BLACK
  6
CONTINUOUS
 62
          15
100
AcDbCircle
 10
-1579.132873045572
 20
-3583.109366666708
 30
0.0
 40
4.545455
100
AcDbArc
 50
88.933925
 51
193.923218
  0
ARC
  5
8D
100
AcDbEntity
  8
BLACK
  6
CONTINUOUS
 62
          15
100
AcDbCircle
 10
-1578.766402045572
 20
-3563.415805666708
 30
0.0
 40
15.151515
100
AcDbArc
 50
268.933924
 51
322.494647
  0
ARC
  5
8E
100
AcDbEntity
  8
BLACK
  6
CONTINUOUS
 62
          15
100
AcDbCircle
 10
-1583.082573045572
 20
-3600.414131666707
 30
0.0
 40
4.545455
100
AcDbArc
 50
140.362496
 51
245.35179
  0
ARC
  5
8F
100
AcDbEntity
  8
BLACK
  6
CONTINUOUS
 62
          15
100
AcDbCircle
 10
-1598.251128045572
 20
-3587.848878666708
 30
0.0
 40
15.151515
100
AcDbArc
 50
320.362496
 51
13.923218
  0
ARC
  5
90
100
AcDbEntity
  8
BLACK
  6
CONTINUOUS
 62
          15
100
AcDbCircle
 10
-1572.015761045572
 20
-3614.291475666708
 30
0.0
 40
4.545455
100
AcDbArc
 50
191.791067
 51
296.780361
  0
ARC
  5
91
100
AcDbEntity
  8
BLACK
  6
CONTINUOUS
 62
          15
100
AcDbCircle
 10
-1591.297110045572
 20
-3618.316421666707
 30
0.0
 40
15.151515
100
AcDbArc
 50
11.791067
 51
65.35179
  0
TEXT
  5
92
100
AcDbEntity
  8
0
  6
CONTINUOUS
 62
          15
100
AcDbText
 10
-1883.934281870039
 20
-3775.817653536997
 30
0.0
 40
3.5
  1
450-270
 41
0.900000010218
  7
GOTHICG
100
AcDbText
  0
ENDSEC
  0
SECTION
  2
OBJECTS
  0
DICTIONARY
  5
19
100
AcDbDictionary
  3
ACAD_GROUP
350
1A
  3
ACAD_MLINESTYLE
350
1B
  0
DICTIONARY
  5
1A
102
{ACAD_REACTORS
330
19
102
}
100
AcDbDictionary
  0
DICTIONARY
  5
1B
102
{ACAD_REACTORS
330
19
102
}
100
AcDbDictionary
  3
STANDARD
350
1C
  0
MLINESTYLE
  5
1C
102
{ACAD_REACTORS
330
1B
102
}
100
AcDbMlineStyle
  2
STANDARD
 70
           0
  3

 62
           0
 51
90.0
 52
90.0
 71
           2
 49
0.5
 62
         256
  6
BYLAYER
 49
-0.5
 62
         256
  6
BYLAYER
  0
ENDSEC
  0
EOF
