  0
SECTION
  2
HEADER
  9
$ACADVER
  1
AC1012
  9
$DWGCODEPAGE
  3
dos850
  9
$INSBASE
 10
0.0
 20
0.0
 30
0.0
  9
$EXTMIN
 10
-1903.015000207063
 20
-5431.523066045607
 30
0.0
  9
$EXTMAX
 10
-1245.515000207063
 20
-4806.523066045607
 30
0.0
  9
$LIMMIN
 10
-1903.015000207063
 20
-5431.523066045607
  9
$LIMMAX
 10
-1245.515000207063
 20
-4806.523066045607
  9
$ORTHOMODE
 70
           0
  9
$REGENMODE
 70
           1
  9
$FILLMODE
 70
           1
  9
$QTEXTMODE
 70
           0
  9
$MIRRTEXT
 70
           1
  9
$DRAGMODE
 70
           2
  9
$LTSCALE
 40
5.0
  9
$OSMODE
 70
           0
  9
$ATTMODE
 70
           1
  9
$TEXTSIZE
 40
0.2
  9
$TRACEWID
 40
0.05
  9
$TEXTSTYLE
  7
TXT
  9
$CLAYER
  8
0
  9
$CELTYPE
  6
CONTINUOUS
  9
$CECOLOR
 62
         256
  9
$CELTSCALE
 40
1.0
  9
$DELOBJ
 70
           1
  9
$DISPSILH
 70
           0
  9
$DIMSCALE
 40
1.0
  9
$DIMASZ
 40
3.5
  9
$DIMEXO
 40
0.0625
  9
$DIMDLI
 40
0.38
  9
$DIMRND
 40
0.0
  9
$DIMDLE
 40
0.0
  9
$DIMEXE
 40
0.18
  9
$DIMTP
 40
0.0
  9
$DIMTM
 40
0.0
  9
$DIMTXT
 40
3.5
  9
$DIMCEN
 40
0.09
  9
$DIMTSZ
 40
0.0
  9
$DIMTOL
 70
           0
  9
$DIMLIM
 70
           0
  9
$DIMTIH
 70
           1
  9
$DIMTOH
 70
           1
  9
$DIMSE1
 70
           0
  9
$DIMSE2
 70
           0
  9
$DIMTAD
 70
           0
  9
$DIMZIN
 70
           0
  9
$DIMBLK
  1

  9
$DIMASO
 70
           1
  9
$DIMSHO
 70
           1
  9
$DIMPOST
  1

  9
$DIMAPOST
  1

  9
$DIMALT
 70
           0
  9
$DIMALTD
 70
           2
  9
$DIMALTF
 40
25.4
  9
$DIMLFAC
 40
1.0
  9
$DIMTOFL
 70
           0
  9
$DIMTVP
 40
0.0
  9
$DIMTIX
 70
           0
  9
$DIMSOXD
 70
           0
  9
$DIMSAH
 70
           0
  9
$DIMBLK1
  1

  9
$DIMBLK2
  1

  9
$DIMSTYLE
  2
STANDARD
  9
$DIMCLRD
 70
           0
  9
$DIMCLRE
 70
           0
  9
$DIMCLRT
 70
           0
  9
$DIMTFAC
 40
1.0
  9
$DIMGAP
 40
0.09
  9
$DIMJUST
 70
           0
  9
$DIMSD1
 70
           0
  9
$DIMSD2
 70
           0
  9
$DIMTOLJ
 70
           1
  9
$DIMTZIN
 70
           0
  9
$DIMALTZ
 70
           0
  9
$DIMALTTZ
 70
           0
  9
$DIMFIT
 70
           3
  9
$DIMUPT
 70
           0
  9
$DIMUNIT
 70
           2
  9
$DIMDEC
 70
           4
  9
$DIMTDEC
 70
           4
  9
$DIMALTU
 70
           2
  9
$DIMALTTD
 70
           2
  9
$DIMTXSTY
  7
TXT
  9
$DIMAUNIT
 70
           0
  9
$LUNITS
 70
           2
  9
$LUPREC
 70
           2
  9
$SKETCHINC
 40
0.1
  9
$FILLETRAD
 40
0.0
  9
$AUNITS
 70
           0
  9
$AUPREC
 70
           2
  9
$MENU
  1
acad
  9
$ELEVATION
 40
0.0
  9
$PELEVATION
 40
0.0
  9
$THICKNESS
 40
0.0
  9
$LIMCHECK
 70
           0
  9
$BLIPMODE
 70
           1
  9
$CHAMFERA
 40
0.0
  9
$CHAMFERB
 40
0.0
  9
$CHAMFERC
 40
0.0
  9
$CHAMFERD
 40
0.0
  9
$SKPOLY
 70
           0
  9
$TDCREATE
 40
0.000000000
  9
$TDUPDATE
 40
0.000000000
  9
$TDINDWG
 40
0.0000000000
  9
$TDUSRTIMER
 40
0.0000000000
  9
$USRTIMER
 70
           1
  9
$ANGBASE
 50
0.0
  9
$ANGDIR
 70
           0
  9
$PDMODE
 70
           2
  9
$PDSIZE
 40
0.5
  9
$PLINEWID
 40
0.0
  9
$COORDS
 70
           0
  9
$SPLFRAME
 70
           0
  9
$SPLINETYPE
 70
           6
  9
$SPLINESEGS
 70
           8
  9
$ATTDIA
 70
           0
  9
$ATTREQ
 70
           1
  9
$HANDLING
 70
           1
  9
$HANDSEED
  5
98
  9
$SURFTAB1
 70
           6
  9
$SURFTAB2
 70
           6
  9
$SURFTYPE
 70
           6
  9
$SURFU
 70
           6
  9
$SURFV
 70
           6
  9
$UCSNAME
  2

  9
$UCSORG
 10
0.0
 20
0.0
 30
0.0
  9
$UCSXDIR
 10
1.0
 20
0.0
 30
0.0
  9
$UCSYDIR
 10
0.0
 20
1.0
 30
0.0
  9
$PUCSNAME
  2

  9
$PUCSORG
 10
0.0
 20
0.0
 30
0.0
  9
$PUCSXDIR
 10
1.0
 20
0.0
 30
0.0
  9
$PUCSYDIR
 10
0.0
 20
1.0
 30
0.0
  9
$USERI1
 70
           0
  9
$USERI2
 70
           0
  9
$USERI3
 70
           0
  9
$USERI4
 70
           0
  9
$USERI5
 70
           0
  9
$USERR1
 40
0.0
  9
$USERR2
 40
0.0
  9
$USERR3
 40
0.0
  9
$USERR4
 40
0.0
  9
$USERR5
 40
0.0
  9
$WORLDVIEW
 70
           1
  9
$SHADEDGE
 70
           3
  9
$SHADEDIF
 70
          70
  9
$TILEMODE
 70
           1
  9
$MAXACTVP
 70
          16
  9
$PINSBASE
 10
0.0
 20
0.0
 30
0.0
  9
$PLIMCHECK
 70
           0
  9
$PEXTMIN
 10
1.000000000000E+20
 20
1.000000000000E+20
 30
1.000000000000E+20
  9
$PEXTMAX
 10
-1.000000000000E+20
 20
-1.000000000000E+20
 30
-1.000000000000E+20
  9
$PLIMMIN
 10
0.0
 20
0.0
  9
$PLIMMAX
 10
12.0
 20
9.0
  9
$UNITMODE
 70
           0
  9
$VISRETAIN
 70
           0
  9
$PLINEGEN
 70
           1
  9
$PSLTSCALE
 70
           0
  9
$TREEDEPTH
 70
        3020
  9
$PICKSTYLE
 70
           1
  9
$CMLSTYLE
  2
STANDARD
  9
$CMLJUST
 70
           0
  9
$CMLSCALE
 40
1.0
  9
$SAVEIMAGES
 70
           0
  0
ENDSEC
  0
SECTION
  2
CLASSES
  0
CLASS
  1
LWPOLYLINE
  2
AcDbPolyline
  3
"AutoCAD"
 90
        0
280
           0
281
           1
  0
CLASS
  1
IMAGE
  2
AcDbRasterImage
  3
ISM
 90
      127
280
           0
281
           1
  0
CLASS
  1
OLE2FRAME
  2
AcDbOle2Frame
  3
""
 90
        0
280
           0
281
           1
  0
CLASS
  1
HATCH
  2
AcDbHatch
  3
"ACAD_SEDONA"
 90
        0
280
           0
281
           1
  0
CLASS
  1
DICTIONARYVAR
  2
AcDbDictionaryVar
  3
"AutoCAD"
 90
        0
280
           0
281
           0
  0
CLASS
  1
RASTERVARIABLES
  2
AcDbRasterVariables
  3
ISM
 90
        0
280
           0
281
           0
  0
CLASS
  1
IMAGEDEF
  2
AcDbRasterImageDef
  3
ISM
 90
        0
280
           0
281
           0
  0
CLASS
  1
IMAGEDEF_REACTOR
  2
AcDbRasterImageDefReactor
  3
ISM
 90
        1
280
           0
281
           0
  0
CLASS
  1
IDBUFFER
  2
AcDbIdBuffer
  3
"Acad"
 90
        0
280
           0
281
           0
  0
CLASS
  1
SPATIAL_FILTER
  2
AcDbSpatialFilter
  3
"Acad"
 90
        0
280
           0
281
           0
  0
CLASS
  1
XRECORD
  2
AcDbXrecord
  3
"<Built In>"
 90
        0
280
           0
281
           0
  0
ENDSEC
  0
SECTION
  2
TABLES
  0
TABLE
  2
VPORT
  5
7
100
AcDbSymbolTable
 70
           1
  0
VPORT
  5
15
100
AcDbSymbolTableRecord
100
AcDbViewportTableRecord
  2
*ACTIVE
 70
           0
 10
0.0
 20
0.0
 11
1.0
 21
1.0
 12
6.591288
 22
4.579184
 13
0.0
 23
0.0
 14
1.0
 24
1.0
 15
0.0
 25
0.0
 16
0.0
 26
0.0
 36
1.0
 17
0.0
 27
0.0
 37
0.0
 40
9.158369
 41
0.688564
 42
50.0
 43
0.0
 44
0.0
 50
0.0
 51
0.0
 71
           0
 72
         100
 73
           1
 74
           1
 75
           0
 76
           0
 77
           0
 78
           0
  0
ENDTAB
  0
TABLE
  2
LTYPE
  5
4
100
AcDbSymbolTable
 70
           5
  0
LTYPE
  5
11
100
AcDbSymbolTableRecord
100
AcDbLinetypeTableRecord
  2
BYBLOCK
 70
           0
  3

 72
          65
 73
           0
 40
0.0
  0
LTYPE
  5
12
100
AcDbSymbolTableRecord
100
AcDbLinetypeTableRecord
  2
BYLAYER
 70
           0
  3

 72
          65
 73
           0
 40
0.0
  0
LTYPE
  5
13
100
AcDbSymbolTableRecord
100
AcDbLinetypeTableRecord
  2
CONTINUOUS
 70
           0
  3
Solid line
 72
          65
 73
           0
 40
0.0
  0
LTYPE
  5
1D
100
AcDbSymbolTableRecord
100
AcDbLinetypeTableRecord
  2
GESTRICHELT
 70
           0
  3

 72
          65
 73
           2
 40
0.75
 49
0.5
 74
           0
 49
-0.25
 74
           0
  0
LTYPE
  5
1E
100
AcDbSymbolTableRecord
100
AcDbLinetypeTableRecord
  2
STRICHPUNKT
 70
           0
  3

 72
          65
 73
           4
 40
1.0
 49
0.5
 74
           0
 49
-0.25
 74
           0
 49
0.0
 74
           0
 49
-0.25
 74
           0
  0
ENDTAB
  0
TABLE
  2
LAYER
  5
2
100
AcDbSymbolTable
 70
           4
  0
LAYER
  5
14
100
AcDbSymbolTableRecord
100
AcDbLayerTableRecord
  2
0
 70
           0
 62
           7
  6
CONTINUOUS
  0
LAYER
  5
20
100
AcDbSymbolTableRecord
100
AcDbLayerTableRecord
  2
BLACK
 70
           0
 62
           7
  6
CONTINUOUS
  0
LAYER
  5
21
100
AcDbSymbolTableRecord
100
AcDbLayerTableRecord
  2
WHITE
 70
           0
 62
           7
  6
CONTINUOUS
  0
LAYER
  5
22
100
AcDbSymbolTableRecord
100
AcDbLayerTableRecord
  2
YELLOW
 70
           0
 62
           7
  6
CONTINUOUS
  0
ENDTAB
  0
TABLE
  2
STYLE
  5
3
100
AcDbSymbolTable
 70
           2
  0
STYLE
  5
17
100
AcDbSymbolTableRecord
100
AcDbTextStyleTableRecord
  2
TXT
 70
           0
 40
3.5
 41
1.0
 50
0.0
 71
           0
 42
3.5
  3
TXT
  4

  0
STYLE
  5
1F
100
AcDbSymbolTableRecord
100
AcDbTextStyleTableRecord
  2
GOTHICG
 70
           0
 40
3.5
 41
1.0
 50
0.0
 71
           0
 42
3.5
  3
GOTHICG
  4

  0
ENDTAB
  0
TABLE
  2
VIEW
  5
5
100
AcDbSymbolTable
 70
           0
  0
ENDTAB
  0
TABLE
  2
UCS
  5
6
100
AcDbSymbolTable
 70
           0
  0
ENDTAB
  0
TABLE
  2
APPID
  5
8
100
AcDbSymbolTable
 70
           2
  0
APPID
  5
16
100
AcDbSymbolTableRecord
100
AcDbRegAppTableRecord
  2
ACAD
 70
           0
  0
APPID
  5
23
100
AcDbSymbolTableRecord
100
AcDbRegAppTableRecord
  2
MegaCADPntStyle
 70
           0
  0
ENDTAB
  0
TABLE
  2
DIMSTYLE
  5
9
100
AcDbSymbolTable
 70
           1
  0
DIMSTYLE
105
18
100
AcDbSymbolTableRecord
100
AcDbDimStyleTableRecord
  2
STANDARD
 70
           0
  3

  4

  5

  6

  7

 40
1.0
 41
0.18
 42
0.0625
 43
0.38
 44
0.18
 45
0.0
 46
0.0
 47
0.0
 48
0.0
140
0.18
141
0.09
142
0.0
143
25.4
144
1.0
145
0.0
146
1.0
147
0.09
 71
           0
 72
           0
 73
           1
 74
           1
 75
           0
 76
           0
 77
           0
 78
           0
170
           0
171
           2
172
           0
173
           0
174
           0
175
           0
176
           0
177
           0
178
           0
270
           2
271
           4
272
           4
273
           2
274
           2
340
17
275
           0
280
           0
281
           0
282
           0
283
           1
284
           0
285
           0
286
           0
287
           0
288
           0
  0
ENDTAB
  0
TABLE
  2
BLOCK_RECORD
  5
1
100
AcDbSymbolTable
 70
           1
  0
BLOCK_RECORD
  5
A
100
AcDbSymbolTableRecord
100
AcDbBlockTableRecord
  2
*MODEL_SPACE
  0
BLOCK_RECORD
  5
B
100
AcDbSymbolTableRecord
100
AcDbBlockTableRecord
  2
*PAPER_SPACE
  0
BLOCK_RECORD
  5
24
100
AcDbSymbolTableRecord
100
AcDbBlockTableRecord
  2
ELIPPSE
  0
ENDTAB
  0
ENDSEC
  0
SECTION
  2
BLOCKS
  0
BLOCK
  5
D
100
AcDbEntity
  8
0
100
AcDbBlockBegin
  2
*MODEL_SPACE
 70
           0
 10
0.0
 20
0.0
 30
0.0
  3
*MODEL_SPACE
  1

  0
ENDBLK
  5
E
100
AcDbEntity
  8
0
100
AcDbBlockEnd
  0
BLOCK
  5
F
100
AcDbEntity
 67
           1
  8
0
100
AcDbBlockBegin
  2
*PAPER_SPACE
 70
           0
 10
0.0
 20
0.0
 30
0.0
  3
*PAPER_SPACE
  1

  0
ENDBLK
  5
10
100
AcDbEntity
 67
           1
  8
0
100
AcDbBlockEnd
  0
BLOCK
  5
93
100
AcDbEntity
  8
0
100
AcDbBlockBegin
  2
ELIPPSE
 70
          64
 10
0.0
 20
0.0
 30
0.0
  3
ELIPPSE
  1

  0
CIRCLE
  5
94
100
AcDbEntity
  8
0
  6
BYBLOCK
 62
           0
100
AcDbCircle
 10
0.0
 20
0.0
 30
0.0
 40
1.0
  0
ENDBLK
  5
95
100
AcDbEntity
  8
0
  6
BYBLOCK
 62
           0
100
AcDbBlockEnd
  0
ENDSEC
  0
SECTION
  2
ENTITIES
  0
LINE
  5
25
100
AcDbEntity
  8
0
  6
CONTINUOUS
 62
          15
100
AcDbLine
 10
-1903.015000207063
 20
-4806.523066045607
 30
0.0
 11
-1338.015000207063
 21
-4806.523066045607
 31
0.0
  0
LINE
  5
26
100
AcDbEntity
  8
0
  6
CONTINUOUS
 62
          15
100
AcDbLine
 10
-1338.015000207063
 20
-5139.023066045607
 30
0.0
 11
-1338.015000207063
 21
-5431.523066045607
 31
0.0
  0
LINE
  5
27
100
AcDbEntity
  8
0
  6
GESTRICHELT
 62
          15
100
AcDbLine
 10
-1338.015000207063
 20
-5099.023066045607
 30
0.0
 11
-1338.015000207063
 21
-5139.023066045607
 31
0.0
  0
LINE
  5
28
100
AcDbEntity
  8
0
  6
CONTINUOUS
 62
          15
100
AcDbLine
 10
-1338.015000207063
 20
-4806.523066045607
 30
0.0
 11
-1338.015000207063
 21
-5099.023066045607
 31
0.0
  0
LINE
  5
29
100
AcDbEntity
  8
0
  6
CONTINUOUS
 62
          15
100
AcDbLine
 10
-1338.015000207063
 20
-5431.523066045607
 30
0.0
 11
-1903.015000207063
 21
-5431.523066045607
 31
0.0
  0
LINE
  5
2A
100
AcDbEntity
  8
0
  6
CONTINUOUS
 62
          15
100
AcDbLine
 10
-1903.015000207063
 20
-5431.523066045607
 30
0.0
 11
-1903.015000207063
 21
-4806.523066045607
 31
0.0
  0
LINE
  5
2B
100
AcDbEntity
  8
0
  6
STRICHPUNKT
 62
          15
100
AcDbLine
 10
-1620.515000207063
 20
-4806.523066045607
 30
0.0
 11
-1620.515000207063
 21
-5431.523066045607
 31
0.0
  0
LINE
  5
2C
100
AcDbEntity
  8
0
  6
GESTRICHELT
 62
          15
100
AcDbLine
 10
-1903.015000207063
 20
-5119.023066045607
 30
0.0
 11
-1338.015000207063
 21
-5119.023066045607
 31
0.0
  0
LINE
  5
2D
100
AcDbEntity
  8
WHITE
  6
CONTINUOUS
 62
          15
100
AcDbLine
 10
-1645.514993531684
 20
-5097.867385159167
 30
0.0
 11
-1645.515092207063
 21
-4949.023188045607
 31
0.0
  0
ARC
  5
2E
100
AcDbEntity
  8
WHITE
  6
CONTINUOUS
 62
          15
100
AcDbCircle
 10
-1635.515092207063
 20
-4949.023188045607
 30
0.0
 40
10.0
100
AcDbArc
 50
90.0
 51
180.0
  0
LINE
  5
2F
100
AcDbEntity
  8
WHITE
  6
CONTINUOUS
 62
          15
100
AcDbLine
 10
-1635.515092207063
 20
-4939.023188045607
 30
0.0
 11
-1624.668290207063
 21
-4939.023066045607
 31
0.0
  0
LINE
  5
30
100
AcDbEntity
  8
WHITE
  6
CONTINUOUS
 62
          15
100
AcDbLine
 10
-1624.668290207063
 20
-4939.023066045607
 30
0.0
 11
-1620.515000207063
 21
-4944.023066045607
 31
0.0
  0
LINE
  5
31
100
AcDbEntity
  8
WHITE
  6
CONTINUOUS
 62
          15
100
AcDbLine
 10
-1620.515000207063
 20
-4944.023066045607
 30
0.0
 11
-1616.303056207063
 21
-4939.072383045606
 31
0.0
  0
ARC
  5
32
100
AcDbEntity
  8
WHITE
  6
CONTINUOUS
 62
          15
100
AcDbCircle
 10
-1620.515000207063
 20
-5119.023066045607
 30
0.0
 40
179.999969
100
AcDbArc
 50
76.340812
 51
88.659174
  0
LINE
  5
33
100
AcDbEntity
  8
WHITE
  6
CONTINUOUS
 62
          15
100
AcDbLine
 10
-1578.008719207062
 20
-4944.113933045607
 30
0.0
 11
-1575.221635207063
 21
-4949.986079045607
 31
0.0
  0
LINE
  5
34
100
AcDbEntity
  8
WHITE
  6
CONTINUOUS
 62
          15
100
AcDbLine
 10
-1575.221635207063
 20
-4949.986079045607
 30
0.0
 11
-1569.871873207062
 21
-4946.294184045607
 31
0.0
  0
ARC
  5
35
100
AcDbEntity
  8
WHITE
  6
CONTINUOUS
 62
          15
100
AcDbCircle
 10
-1620.515000207063
 20
-5119.023066045607
 30
0.0
 40
179.999981
100
AcDbArc
 50
61.340809
 51
73.659163
  0
LINE
  5
36
100
AcDbEntity
  8
WHITE
  6
CONTINUOUS
 62
          15
100
AcDbLine
 10
-1534.187247207063
 20
-4961.075229045607
 30
0.0
 11
-1533.014939207063
 21
-4967.468623045606
 31
0.0
  0
LINE
  5
37
100
AcDbEntity
  8
WHITE
  6
CONTINUOUS
 62
          15
100
AcDbLine
 10
-1533.014939207063
 20
-4967.468623045606
 30
0.0
 11
-1526.891973207062
 21
-4965.287196045607
 31
0.0
  0
ARC
  5
38
100
AcDbEntity
  8
WHITE
  6
CONTINUOUS
 62
          15
100
AcDbCircle
 10
-1620.515000207063
 20
-5119.023066045607
 30
0.0
 40
179.999969
100
AcDbArc
 50
46.340822
 51
58.659161
  0
LINE
  5
39
100
AcDbEntity
  8
WHITE
  6
CONTINUOUS
 62
          15
100
AcDbLine
 10
-1496.248937207063
 20
-4988.800432045607
 30
0.0
 11
-1496.771287207062
 21
-4995.279383045607
 31
0.0
  0
LINE
  5
3A
100
AcDbEntity
  8
WHITE
  6
CONTINUOUS
 62
          15
100
AcDbLine
 10
-1496.771287207062
 20
-4995.279383045607
 30
0.0
 11
-1490.292314207062
 21
-4994.757014045606
 31
0.0
  0
ARC
  5
3B
100
AcDbEntity
  8
WHITE
  6
CONTINUOUS
 62
          15
100
AcDbCircle
 10
-1620.515000207063
 20
-5119.023066045607
 30
0.0
 40
179.999999
100
AcDbArc
 50
31.340818
 51
43.659164
  0
LINE
  5
3C
100
AcDbEntity
  8
WHITE
  6
CONTINUOUS
 62
          15
100
AcDbLine
 10
-1466.779069207063
 20
-5025.400080045607
 30
0.0
 11
-1468.960527207062
 21
-5031.523066045607
 31
0.0
  0
LINE
  5
3D
100
AcDbEntity
  8
WHITE
  6
CONTINUOUS
 62
          15
100
AcDbLine
 10
-1468.960527207062
 20
-5031.523066045607
 30
0.0
 11
-1462.567159207062
 21
-5032.695386045607
 31
0.0
  0
ARC
  5
3E
100
AcDbEntity
  8
WHITE
  6
CONTINUOUS
 62
          15
100
AcDbCircle
 10
-1620.515000207063
 20
-5119.023066045607
 30
0.0
 40
179.999969
100
AcDbArc
 50
16.340816
 51
28.65917
  0
LINE
  5
3F
100
AcDbEntity
  8
WHITE
  6
CONTINUOUS
 62
          15
100
AcDbLine
 10
-1447.786110207062
 20
-5068.380007045607
 30
0.0
 11
-1451.477983207062
 21
-5073.729762045607
 31
0.0
  0
LINE
  5
40
100
AcDbEntity
  8
WHITE
  6
CONTINUOUS
 62
          15
100
AcDbLine
 10
-1451.477983207062
 20
-5073.729762045607
 30
0.0
 11
-1445.605821207063
 21
-5076.516871045606
 31
0.0
  0
ARC
  5
41
100
AcDbEntity
  8
WHITE
  6
CONTINUOUS
 62
          15
100
AcDbCircle
 10
-1620.515000207063
 20
-5119.023066045607
 30
0.0
 40
179.999993
100
AcDbArc
 50
6.37937045756
 51
13.659158
  0
ARC
  5
42
100
AcDbEntity
  8
WHITE
  6
GESTRICHELT
 62
          15
100
AcDbCircle
 10
-1620.515000207063
 20
-5119.023066045607
 30
0.0
 40
179.999993
100
AcDbArc
 50
1.958154042582
 51
6.37937045756
  0
ARC
  5
43
100
AcDbEntity
  8
WHITE
  6
CONTINUOUS
 62
          15
100
AcDbCircle
 10
-1620.515000207063
 20
-5119.023066045607
 30
0.0
 40
179.999993
100
AcDbArc
 50
1.309594
 51
1.958154042582
  0
LINE
  5
44
100
AcDbEntity
  8
WHITE
  6
CONTINUOUS
 62
          15
100
AcDbLine
 10
-1440.561620207063
 20
-5114.909204045607
 30
0.0
 11
-1445.515000207063
 21
-5119.023066045607
 31
0.0
  0
LINE
  5
45
100
AcDbEntity
  8
WHITE
  6
CONTINUOUS
 62
          15
100
AcDbLine
 10
-1445.515000207063
 20
-5119.023066045607
 30
0.0
 11
-1440.515000207063
 21
-5123.176356045607
 31
0.0
  0
LINE
  5
46
100
AcDbEntity
  8
WHITE
  6
GESTRICHELT
 62
          15
100
AcDbLine
 10
-1440.515000207063
 20
-5125.234403675933
 30
0.0
 11
-1440.515000207063
 21
-5134.023066045607
 31
0.0
  0
LINE
  5
47
100
AcDbEntity
  8
WHITE
  6
CONTINUOUS
 62
          15
100
AcDbLine
 10
-1440.515000207063
 20
-5123.176356045607
 30
0.0
 11
-1440.515000207063
 21
-5125.234403675933
 31
0.0
  0
ARC
  5
48
100
AcDbEntity
  8
WHITE
  6
GESTRICHELT
 62
          15
100
AcDbCircle
 10
-1450.515000207063
 20
-5134.023066045607
 30
0.0
 40
10.0
100
AcDbArc
 50
329.999999999998
 51
0.0
  0
ARC
  5
49
100
AcDbEntity
  8
WHITE
  6
CONTINUOUS
 62
          15
100
AcDbCircle
 10
-1450.515000207063
 20
-5134.023066045607
 30
0.0
 40
10.0
100
AcDbArc
 50
269.999999999999
 51
329.999999999998
  0
LINE
  5
4A
100
AcDbEntity
  8
WHITE
  6
GESTRICHELT
 62
          15
100
AcDbLine
 10
-1593.931425956967
 20
-5144.023052610816
 30
0.0
 11
-1599.359310732062
 21
-5144.02305210235
 31
0.0
  0
LINE
  5
4B
100
AcDbEntity
  8
WHITE
  6
CONTINUOUS
 62
          15
100
AcDbLine
 10
-1450.515000207063
 20
-5144.023066045607
 30
0.0
 11
-1593.931425956967
 21
-5144.023052610816
 31
0.0
  0
ARC
  5
4C
100
AcDbEntity
  8
WHITE
  6
CONTINUOUS
 62
          15
100
AcDbCircle
 10
-1620.515000207063
 20
-5119.023066045607
 30
0.0
 40
144.0
100
AcDbArc
 50
7.983556145555
 51
90.0
  0
ARC
  5
4D
100
AcDbEntity
  8
WHITE
  6
GESTRICHELT
 62
          15
100
AcDbCircle
 10
-1620.515000207063
 20
-5119.023066045607
 30
0.0
 40
144.0
100
AcDbArc
 50
0.0
 51
7.983556145555
  0
LINE
  5
4E
100
AcDbEntity
  8
WHITE
  6
CONTINUOUS
 62
          15
100
AcDbLine
 10
-1620.515000207063
 20
-4975.023066045607
 30
0.0
 11
-1626.015000207063
 21
-4975.023066045607
 31
0.0
  0
LINE
  5
4F
100
AcDbEntity
  8
WHITE
  6
CONTINUOUS
 62
          15
100
AcDbLine
 10
-1626.015000207063
 20
-4975.023066045607
 30
0.0
 11
-1626.015000207063
 21
-4963.023066045607
 31
0.0
  0
LINE
  5
50
100
AcDbEntity
  8
WHITE
  6
CONTINUOUS
 62
          15
100
AcDbLine
 10
-1626.015000207063
 20
-4963.023066045607
 30
0.0
 11
-1620.515000207063
 21
-4963.023066045607
 31
0.0
  0
ARC
  5
51
100
AcDbEntity
  8
WHITE
  6
CONTINUOUS
 62
          15
100
AcDbCircle
 10
-1620.515000207063
 20
-5119.023066045607
 30
0.0
 40
156.0
100
AcDbArc
 50
8.206528905083
 51
90.0
  0
ARC
  5
52
100
AcDbEntity
  8
WHITE
  6
GESTRICHELT
 62
          15
100
AcDbCircle
 10
-1620.515000207063
 20
-5119.023066045607
 30
0.0
 40
156.0
100
AcDbArc
 50
0.0
 51
8.206528905083
  0
LINE
  5
53
100
AcDbEntity
  8
WHITE
  6
GESTRICHELT
 62
          15
100
AcDbLine
 10
-1464.515000207063
 20
-5119.023066045607
 30
0.0
 11
-1464.515000207063
 21
-5124.523066045607
 31
0.0
  0
LINE
  5
54
100
AcDbEntity
  8
WHITE
  6
GESTRICHELT
 62
          15
100
AcDbLine
 10
-1464.515000207063
 20
-5124.523066045607
 30
0.0
 11
-1476.515000207063
 21
-5124.523066045607
 31
0.0
  0
LINE
  5
55
100
AcDbEntity
  8
WHITE
  6
GESTRICHELT
 62
          15
100
AcDbLine
 10
-1476.515000207063
 20
-5124.523066045607
 30
0.0
 11
-1476.515000207063
 21
-5119.023066045607
 31
0.0
  0
CIRCLE
  5
56
100
AcDbEntity
  8
0
  6
GESTRICHELT
 62
          15
100
AcDbCircle
 10
-1620.515000207063
 20
-5119.023066045607
 30
0.0
 40
22.75
  0
ARC
  5
57
100
AcDbEntity
  8
0
  6
GESTRICHELT
 62
          15
100
AcDbCircle
 10
-1620.515000207063
 20
-5119.023066045607
 30
0.0
 40
32.75
100
AcDbArc
 50
305.700699324332
 51
310.238835888346
  0
ARC
  5
58
100
AcDbEntity
  8
0
  6
CONTINUOUS
 62
          15
100
AcDbCircle
 10
-1620.515000207063
 20
-5119.023066045607
 30
0.0
 40
32.75
100
AcDbArc
 50
139.761183795191
 51
305.700699324332
  0
LINE
  5
59
100
AcDbEntity
  8
WHITE
  6
CONTINUOUS
 62
          15
100
AcDbLine
 10
-1615.083743622335
 20
-4990.708250747298
 30
0.0
 11
-1603.833743622335
 21
-5013.208250747298
 31
0.0
  0
LINE
  5
5A
100
AcDbEntity
  8
WHITE
  6
CONTINUOUS
 62
          15
100
AcDbLine
 10
-1603.833743622335
 20
-5013.208250747298
 30
0.0
 11
-1608.864896622335
 21
-5013.208250747298
 31
0.0
  0
LINE
  5
5B
100
AcDbEntity
  8
WHITE
  6
CONTINUOUS
 62
          15
100
AcDbLine
 10
-1608.864896622335
 20
-5013.208250747298
 30
0.0
 11
-1611.171697122335
 21
-5008.594648247297
 31
0.0
  0
LINE
  5
5C
100
AcDbEntity
  8
WHITE
  6
CONTINUOUS
 62
          15
100
AcDbLine
 10
-1611.171697122335
 20
-5008.594648247297
 30
0.0
 11
-1618.995790122335
 21
-5008.594648247297
 31
0.0
  0
LINE
  5
5D
100
AcDbEntity
  8
WHITE
  6
CONTINUOUS
 62
          15
100
AcDbLine
 10
-1618.995790122335
 20
-5008.594648247297
 30
0.0
 11
-1621.302590622335
 21
-5013.208250747298
 31
0.0
  0
LINE
  5
5E
100
AcDbEntity
  8
WHITE
  6
CONTINUOUS
 62
          15
100
AcDbLine
 10
-1621.302590622335
 20
-5013.208250747298
 30
0.0
 11
-1626.333743622335
 21
-5013.208250747298
 31
0.0
  0
LINE
  5
5F
100
AcDbEntity
  8
WHITE
  6
CONTINUOUS
 62
          15
100
AcDbLine
 10
-1626.333743622335
 20
-5013.208250747298
 30
0.0
 11
-1615.083743622335
 21
-4990.708250747298
 31
0.0
  0
LINE
  5
60
100
AcDbEntity
  8
WHITE
  6
GESTRICHELT
 62
          15
100
AcDbLine
 10
-1511.133728655608
 20
-5124.320543282968
 30
0.0
 11
-1496.133728655608
 21
-5124.320543282968
 31
0.0
  0
LINE
  5
61
100
AcDbEntity
  8
WHITE
  6
GESTRICHELT
 62
          15
100
AcDbLine
 10
-1496.133728655608
 20
-5124.320543282968
 30
0.0
 11
-1496.133728655608
 21
-5119.820543282968
 31
0.0
  0
LINE
  5
62
100
AcDbEntity
  8
WHITE
  6
GESTRICHELT
 62
          15
100
AcDbLine
 10
-1496.133728655608
 20
-5119.820543282968
 30
0.0
 11
-1503.18190020274
 21
-5119.820543282968
 31
0.0
  0
LINE
  5
63
100
AcDbEntity
  8
WHITE
  6
GESTRICHELT
 62
          15
100
AcDbLine
 10
-1496.133728655608
 20
-5108.570543282968
 30
0.0
 11
-1496.133728655608
 21
-5101.820543282968
 31
0.0
  0
LINE
  5
64
100
AcDbEntity
  8
WHITE
  6
GESTRICHELT
 62
          15
100
AcDbLine
 10
-1496.133728655608
 20
-5101.820543282968
 30
0.0
 11
-1511.133728655608
 21
-5101.820543282968
 31
0.0
  0
LINE
  5
65
100
AcDbEntity
  8
WHITE
  6
GESTRICHELT
 62
          15
100
AcDbLine
 10
-1511.133728655608
 20
-5106.320543282968
 30
0.0
 11
-1503.641042467081
 21
-5106.320543282968
 31
0.0
  0
LINE
  5
66
100
AcDbEntity
  8
0
  6
GESTRICHELT
 62
          15
100
AcDbLine
 10
-1511.133728655608
 20
-5101.820543282968
 30
0.0
 11
-1511.133728655608
 21
-5106.320543282968
 31
0.0
  0
LINE
  5
67
100
AcDbEntity
  8
0
  6
GESTRICHELT
 62
          15
100
AcDbLine
 10
-1511.133728655608
 20
-5118.638053741108
 30
0.0
 11
-1511.133728655608
 21
-5124.320543282968
 31
0.0
  0
LINE
  5
68
100
AcDbEntity
  8
0
  6
GESTRICHELT
 62
          15
100
AcDbLine
 10
-1504.278483105104
 20
-5117.297065907428
 30
0.0
 11
-1496.133728655608
 21
-5108.570543282968
 31
0.0
  0
LINE
  5
69
100
AcDbEntity
  8
0
  6
GESTRICHELT
 62
          15
100
AcDbLine
 10
-1510.730311557972
 20
-5117.614576365568
 30
0.0
 11
-1502.544459564716
 21
-5108.844020658508
 31
0.0
  0
ARC
  5
6A
100
AcDbEntity
  8
0
  6
GESTRICHELT
 62
          15
100
AcDbCircle
 10
-1503.641042467081
 20
-5107.820543282968
 30
0.0
 40
1.5
100
AcDbArc
 50
316.974934010881
 51
90.0
  0
ARC
  5
6B
100
AcDbEntity
  8
0
  6
GESTRICHELT
 62
          15
100
AcDbCircle
 10
-1503.18190020274
 20
-5118.320543282968
 30
0.0
 40
1.5
100
AcDbArc
 50
136.974934010881
 51
269.999999999999
  0
ARC
  5
6C
100
AcDbEntity
  8
0
  6
GESTRICHELT
 62
          15
100
AcDbCircle
 10
-1509.633728655608
 20
-5118.638053741108
 30
0.0
 40
1.5
100
AcDbArc
 50
136.974934010883
 51
180.0
  0
LINE
  5
6D
100
AcDbEntity
  8
WHITE
  6
CONTINUOUS
 62
          15
100
AcDbLine
 10
-1245.515000207063
 20
-5124.023066045607
 30
0.0
 11
-1245.515000207063
 21
-5114.023066045607
 31
0.0
  0
ARC
  5
6E
100
AcDbEntity
  8
WHITE
  6
CONTINUOUS
 62
          15
100
AcDbCircle
 10
-1260.515000207063
 20
-5114.023066045607
 30
0.0
 40
15.0
100
AcDbArc
 50
0.0
 51
90.0
  0
LINE
  5
6F
100
AcDbEntity
  8
WHITE
  6
CONTINUOUS
 62
          15
100
AcDbLine
 10
-1477.500712863724
 20
-5099.023066045607
 30
0.0
 11
-1570.515000207063
 21
-5099.023066045607
 31
0.0
  0
LINE
  5
70
100
AcDbEntity
  8
WHITE
  6
GESTRICHELT
 62
          15
100
AcDbLine
 10
-1463.529287550401
 20
-5099.023066045607
 30
0.0
 11
-1477.500712863724
 21
-5099.023066045607
 31
0.0
  0
LINE
  5
71
100
AcDbEntity
  8
WHITE
  6
CONTINUOUS
 62
          15
100
AcDbLine
 10
-1260.515000207063
 20
-5099.023066045607
 30
0.0
 11
-1463.529287550401
 21
-5099.023066045607
 31
0.0
  0
LINE
  5
72
100
AcDbEntity
  8
WHITE
  6
CONTINUOUS
 62
          15
100
AcDbLine
 10
-1570.515000207063
 20
-5099.023066045607
 30
0.0
 11
-1614.250474207063
 21
-5089.684443045607
 31
0.0
  0
ARC
  5
73
100
AcDbEntity
  8
WHITE
  6
CONTINUOUS
 62
          15
100
AcDbCircle
 10
-1620.515000207063
 20
-5119.023066045607
 30
0.0
 40
29.999985
100
AcDbArc
 50
77.946928
 51
282.053073
  0
LINE
  5
74
100
AcDbEntity
  8
WHITE
  6
CONTINUOUS
 62
          15
100
AcDbLine
 10
-1614.250477207062
 20
-5148.361673045607
 30
0.0
 11
-1570.515000207063
 21
-5139.023066045607
 31
0.0
  0
LINE
  5
75
100
AcDbEntity
  8
WHITE
  6
CONTINUOUS
 62
          15
100
AcDbLine
 10
-1457.374799329784
 20
-5139.023066045607
 30
0.0
 11
-1260.515000207063
 21
-5139.023066045607
 31
0.0
  0
LINE
  5
76
100
AcDbEntity
  8
WHITE
  6
GESTRICHELT
 62
          15
100
AcDbLine
 10
-1483.655201084341
 20
-5139.023066045607
 30
0.0
 11
-1457.374799329784
 21
-5139.023066045607
 31
0.0
  0
LINE
  5
77
100
AcDbEntity
  8
WHITE
  6
CONTINUOUS
 62
          15
100
AcDbLine
 10
-1570.515000207063
 20
-5139.023066045607
 30
0.0
 11
-1483.655201084341
 21
-5139.023066045607
 31
0.0
  0
ARC
  5
78
100
AcDbEntity
  8
WHITE
  6
CONTINUOUS
 62
          15
100
AcDbCircle
 10
-1260.515000207063
 20
-5124.023066045607
 30
0.0
 40
15.0
100
AcDbArc
 50
270.0
 51
0.0
  0
CIRCLE
  5
79
100
AcDbEntity
  8
WHITE
  6
GESTRICHELT
 62
          15
100
AcDbCircle
 10
-1470.515000207063
 20
-5119.023066045607
 30
0.0
 40
7.0
  0
LINE
  5
7A
100
AcDbEntity
  8
YELLOW
  6
CONTINUOUS
 62
           2
100
AcDbLine
 10
-1365.515000207063
 20
-5139.023066045607
 30
0.0
 11
-1365.515000207063
 21
-5099.023066045607
 31
0.0
  0
LINE
  5
7B
100
AcDbEntity
  8
YELLOW
  6
CONTINUOUS
 62
           2
100
AcDbLine
 10
-1430.515000207063
 20
-5099.023066045607
 30
0.0
 11
-1430.515000207063
 21
-5139.023066045607
 31
0.0
  0
LINE
  5
7C
100
AcDbEntity
  8
0
  6
CONTINUOUS
 62
          15
100
AcDbLine
 10
-1447.831175818242
 20
-5119.67840654312
 30
0.0
 11
-1441.86026852031
 21
-5124.758306763369
 31
0.0
  0
LINE
  5
7D
100
AcDbEntity
  8
0
  6
GESTRICHELT
 62
          15
100
AcDbLine
 10
-1448.622991638372
 20
-5119.004749231363
 30
0.0
 11
-1447.831175818242
 21
-5119.67840654312
 31
0.0
  0
LINE
  5
7E
100
AcDbEntity
  8
0
  6
GESTRICHELT
 62
          15
100
AcDbLine
 10
-1448.392125460751
 20
-5118.812978440166
 30
0.0
 11
-1448.622991638372
 21
-5119.004749231363
 31
0.0
  0
LINE
  5
7F
100
AcDbEntity
  8
0
  6
CONTINUOUS
 62
          15
100
AcDbLine
 10
-1441.792938164756
 20
-5113.331312039087
 30
0.0
 11
-1448.392125460751
 21
-5118.812978440166
 31
0.0
  0
LINE
  5
80
100
AcDbEntity
  8
0
  6
CONTINUOUS
 62
          15
100
AcDbLine
 10
-1438.564320919063
 20
-5123.24679437279
 30
0.0
 11
-1438.515034919064
 21
-5114.88156037279
 31
0.0
  0
ARC
  5
81
100
AcDbEntity
  8
0
  6
CONTINUOUS
 62
          15
100
AcDbCircle
 10
-1440.564286207062
 20
-5123.235011045607
 30
0.0
 40
2.0
100
AcDbArc
 50
229.609685635494
 51
359.662430588941
  0
ARC
  5
82
100
AcDbEntity
  8
0
  6
CONTINUOUS
 62
          15
100
AcDbCircle
 10
-1440.515000207063
 20
-5114.869777045607
 30
0.0
 40
2.0
100
AcDbArc
 50
359.662430588941
 51
129.714981743212
  0
CIRCLE
  5
83
100
AcDbEntity
  8
0
  6
CONTINUOUS
 62
          15
100
AcDbCircle
 10
-1620.515000207063
 20
-5119.023066045607
 30
0.0
 40
15.25
  0
ARC
  5
84
100
AcDbEntity
  8
BLACK
  6
CONTINUOUS
 62
          15
100
AcDbCircle
 10
-1461.640105207063
 20
-5137.451975045608
 30
0.0
 40
4.545455
100
AcDbArc
 50
243.219638
 51
348.208933
  0
ARC
  5
85
100
AcDbEntity
  8
BLACK
  6
CONTINUOUS
 62
          15
100
AcDbCircle
 10
-1470.515000207063
 20
-5155.036253045607
 30
0.0
 40
15.151515
100
AcDbArc
 50
63.219638
 51
116.780361
  0
ARC
  5
86
100
AcDbEntity
  8
BLACK
  6
CONTINUOUS
 62
          15
100
AcDbCircle
 10
-1450.573293207063
 20
-5123.574631045607
 30
0.0
 40
4.545455
100
AcDbArc
 50
294.64821
 51
39.637504
  0
ARC
  5
87
100
AcDbEntity
  8
BLACK
  6
CONTINUOUS
 62
          15
100
AcDbCircle
 10
-1442.358756207063
 20
-5141.476921045607
 30
0.0
 40
15.151515
100
AcDbArc
 50
114.64821
 51
168.208933
  0
ARC
  5
88
100
AcDbEntity
  8
BLACK
  6
CONTINUOUS
 62
          15
100
AcDbCircle
 10
-1454.522993207062
 20
-5106.269866045607
 30
0.0
 40
4.545455
100
AcDbArc
 50
346.076782
 51
91.066075
  0
ARC
  5
89
100
AcDbEntity
  8
BLACK
  6
CONTINUOUS
 62
          15
100
AcDbCircle
 10
-1435.404738207062
 20
-5111.009378045607
 30
0.0
 40
15.151515
100
AcDbArc
 50
166.076782
 51
219.637504
  0
ARC
  5
8A
100
AcDbEntity
  8
BLACK
  6
CONTINUOUS
 62
          15
100
AcDbCircle
 10
-1470.515000207063
 20
-5098.568521045607
 30
0.0
 40
4.545455
100
AcDbArc
 50
37.505353
 51
142.494647
  0
ARC
  5
8B
100
AcDbEntity
  8
BLACK
  6
CONTINUOUS
 62
          15
100
AcDbCircle
 10
-1454.889464207063
 20
-5086.576305045607
 30
0.0
 40
15.151515
100
AcDbArc
 50
217.505353
 51
271.066076
  0
ARC
  5
8C
100
AcDbEntity
  8
BLACK
  6
CONTINUOUS
 62
          15
100
AcDbCircle
 10
-1486.507007207062
 20
-5106.269866045607
 30
0.0
 40
4.545455
100
AcDbArc
 50
88.933925
 51
193.923218
  0
ARC
  5
8D
100
AcDbEntity
  8
BLACK
  6
CONTINUOUS
 62
          15
100
AcDbCircle
 10
-1486.140536207063
 20
-5086.576305045607
 30
0.0
 40
15.151515
100
AcDbArc
 50
268.933924
 51
322.494647
  0
ARC
  5
8E
100
AcDbEntity
  8
BLACK
  6
CONTINUOUS
 62
          15
100
AcDbCircle
 10
-1490.456707207062
 20
-5123.574631045607
 30
0.0
 40
4.545455
100
AcDbArc
 50
140.362496
 51
245.35179
  0
ARC
  5
8F
100
AcDbEntity
  8
BLACK
  6
CONTINUOUS
 62
          15
100
AcDbCircle
 10
-1505.625262207062
 20
-5111.009378045607
 30
0.0
 40
15.151515
100
AcDbArc
 50
320.362496
 51
13.923218
  0
ARC
  5
90
100
AcDbEntity
  8
BLACK
  6
CONTINUOUS
 62
          15
100
AcDbCircle
 10
-1479.389895207062
 20
-5137.451975045608
 30
0.0
 40
4.545455
100
AcDbArc
 50
191.791067
 51
296.780361
  0
ARC
  5
91
100
AcDbEntity
  8
BLACK
  6
CONTINUOUS
 62
          15
100
AcDbCircle
 10
-1498.671244207062
 20
-5141.476921045607
 30
0.0
 40
15.151515
100
AcDbArc
 50
11.791067
 51
65.35179
  0
TEXT
  5
92
100
AcDbEntity
  8
0
  6
CONTINUOUS
 62
          15
100
AcDbText
 10
-1836.239743088519
 20
-5349.737433327156
 30
0.0
 40
3.5
  1
560-270
 41
0.900000010218
  7
GOTHICG
100
AcDbText
  0
ENDSEC
  0
SECTION
  2
OBJECTS
  0
DICTIONARY
  5
19
100
AcDbDictionary
  3
ACAD_GROUP
350
1A
  3
ACAD_MLINESTYLE
350
1B
  0
DICTIONARY
  5
1A
102
{ACAD_REACTORS
330
19
102
}
100
AcDbDictionary
  0
DICTIONARY
  5
1B
102
{ACAD_REACTORS
330
19
102
}
100
AcDbDictionary
  3
STANDARD
350
1C
  0
MLINESTYLE
  5
1C
102
{ACAD_REACTORS
330
1B
102
}
100
AcDbMlineStyle
  2
STANDARD
 70
           0
  3

 62
           0
 51
90.0
 52
90.0
 71
           2
 49
0.5
 62
         256
  6
BYLAYER
 49
-0.5
 62
         256
  6
BYLAYER
  0
ENDSEC
  0
EOF
