  0
SECTION
  2
HEADER
  9
$ACADVER
  1
AC1012
  9
$DWGCODEPAGE
  3
dos850
  9
$INSBASE
 10
0.0
 20
0.0
 30
0.0
  9
$EXTMIN
 10
-15832.684272135402
 20
-9473.639334568719
 30
0.0
  9
$EXTMAX
 10
-15459.73690280622
 20
-9099.876071014274
 30
0.0
  9
$LIMMIN
 10
-15832.684272135402
 20
-9473.639334568719
  9
$LIMMAX
 10
-15459.73690280622
 20
-9099.876071014274
  9
$ORTHOMODE
 70
           0
  9
$REGENMODE
 70
           1
  9
$FILLMODE
 70
           1
  9
$QTEXTMODE
 70
           0
  9
$MIRRTEXT
 70
           1
  9
$DRAGMODE
 70
           2
  9
$LTSCALE
 40
5.0
  9
$OSMODE
 70
           0
  9
$ATTMODE
 70
           1
  9
$TEXTSIZE
 40
0.2
  9
$TRACEWID
 40
0.05
  9
$TEXTSTYLE
  7
TXT
  9
$CLAYER
  8
0
  9
$CELTYPE
  6
CONTINUOUS
  9
$CECOLOR
 62
         256
  9
$CELTSCALE
 40
1.0
  9
$DELOBJ
 70
           1
  9
$DISPSILH
 70
           0
  9
$DIMSCALE
 40
1.0
  9
$DIMASZ
 40
3.5
  9
$DIMEXO
 40
0.0625
  9
$DIMDLI
 40
0.38
  9
$DIMRND
 40
0.0
  9
$DIMDLE
 40
0.0
  9
$DIMEXE
 40
0.18
  9
$DIMTP
 40
0.0
  9
$DIMTM
 40
0.0
  9
$DIMTXT
 40
3.5
  9
$DIMCEN
 40
0.09
  9
$DIMTSZ
 40
0.0
  9
$DIMTOL
 70
           0
  9
$DIMLIM
 70
           0
  9
$DIMTIH
 70
           1
  9
$DIMTOH
 70
           1
  9
$DIMSE1
 70
           0
  9
$DIMSE2
 70
           0
  9
$DIMTAD
 70
           0
  9
$DIMZIN
 70
           0
  9
$DIMBLK
  1

  9
$DIMASO
 70
           1
  9
$DIMSHO
 70
           1
  9
$DIMPOST
  1

  9
$DIMAPOST
  1

  9
$DIMALT
 70
           0
  9
$DIMALTD
 70
           2
  9
$DIMALTF
 40
25.4
  9
$DIMLFAC
 40
1.0
  9
$DIMTOFL
 70
           0
  9
$DIMTVP
 40
0.0
  9
$DIMTIX
 70
           0
  9
$DIMSOXD
 70
           0
  9
$DIMSAH
 70
           0
  9
$DIMBLK1
  1

  9
$DIMBLK2
  1

  9
$DIMSTYLE
  2
STANDARD
  9
$DIMCLRD
 70
           0
  9
$DIMCLRE
 70
           0
  9
$DIMCLRT
 70
           0
  9
$DIMTFAC
 40
1.0
  9
$DIMGAP
 40
0.09
  9
$DIMJUST
 70
           0
  9
$DIMSD1
 70
           0
  9
$DIMSD2
 70
           0
  9
$DIMTOLJ
 70
           1
  9
$DIMTZIN
 70
           0
  9
$DIMALTZ
 70
           0
  9
$DIMALTTZ
 70
           0
  9
$DIMFIT
 70
           3
  9
$DIMUPT
 70
           0
  9
$DIMUNIT
 70
           2
  9
$DIMDEC
 70
           4
  9
$DIMTDEC
 70
           4
  9
$DIMALTU
 70
           2
  9
$DIMALTTD
 70
           2
  9
$DIMTXSTY
  7
TXT
  9
$DIMAUNIT
 70
           0
  9
$LUNITS
 70
           2
  9
$LUPREC
 70
           3
  9
$SKETCHINC
 40
0.1
  9
$FILLETRAD
 40
0.0
  9
$AUNITS
 70
           0
  9
$AUPREC
 70
           3
  9
$MENU
  1
acad
  9
$ELEVATION
 40
0.0
  9
$PELEVATION
 40
0.0
  9
$THICKNESS
 40
0.0
  9
$LIMCHECK
 70
           0
  9
$BLIPMODE
 70
           1
  9
$CHAMFERA
 40
0.0
  9
$CHAMFERB
 40
0.0
  9
$CHAMFERC
 40
0.0
  9
$CHAMFERD
 40
0.0
  9
$SKPOLY
 70
           0
  9
$TDCREATE
 40
0.000000000
  9
$TDUPDATE
 40
0.000000000
  9
$TDINDWG
 40
0.0000000000
  9
$TDUSRTIMER
 40
0.0000000000
  9
$USRTIMER
 70
           1
  9
$ANGBASE
 50
0.0
  9
$ANGDIR
 70
           0
  9
$PDMODE
 70
           2
  9
$PDSIZE
 40
0.5
  9
$PLINEWID
 40
0.0
  9
$COORDS
 70
           0
  9
$SPLFRAME
 70
           0
  9
$SPLINETYPE
 70
           6
  9
$SPLINESEGS
 70
           8
  9
$ATTDIA
 70
           0
  9
$ATTREQ
 70
           1
  9
$HANDLING
 70
           1
  9
$HANDSEED
  5
8B
  9
$SURFTAB1
 70
           6
  9
$SURFTAB2
 70
           6
  9
$SURFTYPE
 70
           6
  9
$SURFU
 70
           6
  9
$SURFV
 70
           6
  9
$UCSNAME
  2

  9
$UCSORG
 10
0.0
 20
0.0
 30
0.0
  9
$UCSXDIR
 10
1.0
 20
0.0
 30
0.0
  9
$UCSYDIR
 10
0.0
 20
1.0
 30
0.0
  9
$PUCSNAME
  2

  9
$PUCSORG
 10
0.0
 20
0.0
 30
0.0
  9
$PUCSXDIR
 10
1.0
 20
0.0
 30
0.0
  9
$PUCSYDIR
 10
0.0
 20
1.0
 30
0.0
  9
$USERI1
 70
           0
  9
$USERI2
 70
           0
  9
$USERI3
 70
           0
  9
$USERI4
 70
           0
  9
$USERI5
 70
           0
  9
$USERR1
 40
0.0
  9
$USERR2
 40
0.0
  9
$USERR3
 40
0.0
  9
$USERR4
 40
0.0
  9
$USERR5
 40
0.0
  9
$WORLDVIEW
 70
           1
  9
$SHADEDGE
 70
           3
  9
$SHADEDIF
 70
          70
  9
$TILEMODE
 70
           1
  9
$MAXACTVP
 70
          16
  9
$PINSBASE
 10
0.0
 20
0.0
 30
0.0
  9
$PLIMCHECK
 70
           0
  9
$PEXTMIN
 10
1.000000000000E+20
 20
1.000000000000E+20
 30
1.000000000000E+20
  9
$PEXTMAX
 10
-1.000000000000E+20
 20
-1.000000000000E+20
 30
-1.000000000000E+20
  9
$PLIMMIN
 10
0.0
 20
0.0
  9
$PLIMMAX
 10
12.0
 20
9.0
  9
$UNITMODE
 70
           0
  9
$VISRETAIN
 70
           0
  9
$PLINEGEN
 70
           1
  9
$PSLTSCALE
 70
           0
  9
$TREEDEPTH
 70
        3020
  9
$PICKSTYLE
 70
           1
  9
$CMLSTYLE
  2
STANDARD
  9
$CMLJUST
 70
           0
  9
$CMLSCALE
 40
1.0
  9
$SAVEIMAGES
 70
           0
  0
ENDSEC
  0
SECTION
  2
CLASSES
  0
CLASS
  1
LWPOLYLINE
  2
AcDbPolyline
  3
"AutoCAD"
 90
        0
280
           0
281
           1
  0
CLASS
  1
IMAGE
  2
AcDbRasterImage
  3
ISM
 90
      127
280
           0
281
           1
  0
CLASS
  1
OLE2FRAME
  2
AcDbOle2Frame
  3
""
 90
        0
280
           0
281
           1
  0
CLASS
  1
HATCH
  2
AcDbHatch
  3
"ACAD_SEDONA"
 90
        0
280
           0
281
           1
  0
CLASS
  1
DICTIONARYVAR
  2
AcDbDictionaryVar
  3
"AutoCAD"
 90
        0
280
           0
281
           0
  0
CLASS
  1
RASTERVARIABLES
  2
AcDbRasterVariables
  3
ISM
 90
        0
280
           0
281
           0
  0
CLASS
  1
IMAGEDEF
  2
AcDbRasterImageDef
  3
ISM
 90
        0
280
           0
281
           0
  0
CLASS
  1
IMAGEDEF_REACTOR
  2
AcDbRasterImageDefReactor
  3
ISM
 90
        1
280
           0
281
           0
  0
CLASS
  1
IDBUFFER
  2
AcDbIdBuffer
  3
"Acad"
 90
        0
280
           0
281
           0
  0
CLASS
  1
SPATIAL_FILTER
  2
AcDbSpatialFilter
  3
"Acad"
 90
        0
280
           0
281
           0
  0
CLASS
  1
XRECORD
  2
AcDbXrecord
  3
"<Built In>"
 90
        0
280
           0
281
           0
  0
ENDSEC
  0
SECTION
  2
TABLES
  0
TABLE
  2
VPORT
  5
7
100
AcDbSymbolTable
 70
           1
  0
VPORT
  5
15
100
AcDbSymbolTableRecord
100
AcDbViewportTableRecord
  2
*ACTIVE
 70
           0
 10
0.0
 20
0.0
 11
1.0
 21
1.0
 12
6.591288
 22
4.579184
 13
0.0
 23
0.0
 14
1.0
 24
1.0
 15
0.0
 25
0.0
 16
0.0
 26
0.0
 36
1.0
 17
0.0
 27
0.0
 37
0.0
 40
9.158369
 41
0.688564
 42
50.0
 43
0.0
 44
0.0
 50
0.0
 51
0.0
 71
           0
 72
         100
 73
           1
 74
           1
 75
           0
 76
           0
 77
           0
 78
           0
  0
ENDTAB
  0
TABLE
  2
LTYPE
  5
4
100
AcDbSymbolTable
 70
           5
  0
LTYPE
  5
11
100
AcDbSymbolTableRecord
100
AcDbLinetypeTableRecord
  2
BYBLOCK
 70
           0
  3

 72
          65
 73
           0
 40
0.0
  0
LTYPE
  5
12
100
AcDbSymbolTableRecord
100
AcDbLinetypeTableRecord
  2
BYLAYER
 70
           0
  3

 72
          65
 73
           0
 40
0.0
  0
LTYPE
  5
13
100
AcDbSymbolTableRecord
100
AcDbLinetypeTableRecord
  2
CONTINUOUS
 70
           0
  3
Solid line
 72
          65
 73
           0
 40
0.0
  0
LTYPE
  5
1D
100
AcDbSymbolTableRecord
100
AcDbLinetypeTableRecord
  2
GESTRICHELT
 70
           0
  3

 72
          65
 73
           2
 40
0.75
 49
0.5
 74
           0
 49
-0.25
 74
           0
  0
LTYPE
  5
1E
100
AcDbSymbolTableRecord
100
AcDbLinetypeTableRecord
  2
STRICHPUNKT
 70
           0
  3

 72
          65
 73
           4
 40
1.0
 49
0.5
 74
           0
 49
-0.25
 74
           0
 49
0.0
 74
           0
 49
-0.25
 74
           0
  0
ENDTAB
  0
TABLE
  2
LAYER
  5
2
100
AcDbSymbolTable
 70
           2
  0
LAYER
  5
14
100
AcDbSymbolTableRecord
100
AcDbLayerTableRecord
  2
0
 70
           0
 62
           7
  6
CONTINUOUS
  0
LAYER
  5
20
100
AcDbSymbolTableRecord
100
AcDbLayerTableRecord
  2
FREI
 70
           0
 62
           7
  6
CONTINUOUS
  0
ENDTAB
  0
TABLE
  2
STYLE
  5
3
100
AcDbSymbolTable
 70
           2
  0
STYLE
  5
17
100
AcDbSymbolTableRecord
100
AcDbTextStyleTableRecord
  2
TXT
 70
           0
 40
3.5
 41
1.0
 50
0.0
 71
           0
 42
3.5
  3
TXT
  4

  0
STYLE
  5
1F
100
AcDbSymbolTableRecord
100
AcDbTextStyleTableRecord
  2
GOTHICG
 70
           0
 40
3.5
 41
1.0
 50
0.0
 71
           0
 42
3.5
  3
GOTHICG
  4

  0
ENDTAB
  0
TABLE
  2
VIEW
  5
5
100
AcDbSymbolTable
 70
           0
  0
ENDTAB
  0
TABLE
  2
UCS
  5
6
100
AcDbSymbolTable
 70
           0
  0
ENDTAB
  0
TABLE
  2
APPID
  5
8
100
AcDbSymbolTable
 70
           2
  0
APPID
  5
16
100
AcDbSymbolTableRecord
100
AcDbRegAppTableRecord
  2
ACAD
 70
           0
  0
APPID
  5
21
100
AcDbSymbolTableRecord
100
AcDbRegAppTableRecord
  2
MegaCADPntStyle
 70
           0
  0
ENDTAB
  0
TABLE
  2
DIMSTYLE
  5
9
100
AcDbSymbolTable
 70
           1
  0
DIMSTYLE
105
18
100
AcDbSymbolTableRecord
100
AcDbDimStyleTableRecord
  2
STANDARD
 70
           0
  3

  4

  5

  6

  7

 40
1.0
 41
0.18
 42
0.0625
 43
0.38
 44
0.18
 45
0.0
 46
0.0
 47
0.0
 48
0.0
140
0.18
141
0.09
142
0.0
143
25.4
144
1.0
145
0.0
146
1.0
147
0.09
 71
           0
 72
           0
 73
           1
 74
           1
 75
           0
 76
           0
 77
           0
 78
           0
170
           0
171
           2
172
           0
173
           0
174
           0
175
           0
176
           0
177
           0
178
           0
270
           2
271
           4
272
           4
273
           2
274
           2
340
17
275
           0
280
           0
281
           0
282
           0
283
           1
284
           0
285
           0
286
           0
287
           0
288
           0
  0
ENDTAB
  0
TABLE
  2
BLOCK_RECORD
  5
1
100
AcDbSymbolTable
 70
           1
  0
BLOCK_RECORD
  5
A
100
AcDbSymbolTableRecord
100
AcDbBlockTableRecord
  2
*MODEL_SPACE
  0
BLOCK_RECORD
  5
B
100
AcDbSymbolTableRecord
100
AcDbBlockTableRecord
  2
*PAPER_SPACE
  0
BLOCK_RECORD
  5
22
100
AcDbSymbolTableRecord
100
AcDbBlockTableRecord
  2
ELIPPSE
  0
ENDTAB
  0
ENDSEC
  0
SECTION
  2
BLOCKS
  0
BLOCK
  5
D
100
AcDbEntity
  8
0
100
AcDbBlockBegin
  2
*MODEL_SPACE
 70
           0
 10
0.0
 20
0.0
 30
0.0
  3
*MODEL_SPACE
  1

  0
ENDBLK
  5
E
100
AcDbEntity
  8
0
100
AcDbBlockEnd
  0
BLOCK
  5
F
100
AcDbEntity
 67
           1
  8
0
100
AcDbBlockBegin
  2
*PAPER_SPACE
 70
           0
 10
0.0
 20
0.0
 30
0.0
  3
*PAPER_SPACE
  1

  0
ENDBLK
  5
10
100
AcDbEntity
 67
           1
  8
0
100
AcDbBlockEnd
  0
BLOCK
  5
86
100
AcDbEntity
  8
0
100
AcDbBlockBegin
  2
ELIPPSE
 70
          64
 10
0.0
 20
0.0
 30
0.0
  3
ELIPPSE
  1

  0
CIRCLE
  5
87
100
AcDbEntity
  8
0
  6
BYBLOCK
 62
           0
100
AcDbCircle
 10
0.0
 20
0.0
 30
0.0
 40
1.0
  0
ENDBLK
  5
88
100
AcDbEntity
  8
0
  6
BYBLOCK
 62
           0
100
AcDbBlockEnd
  0
ENDSEC
  0
SECTION
  2
ENTITIES
  0
LINE
  5
23
100
AcDbEntity
  8
FREI
  6
CONTINUOUS
 62
          15
100
AcDbLine
 10
-15586.0224354867
 20
-9099.876071014274
 30
0.0
 11
-15752.320751338733
 21
-9168.75908883999
 31
0.0
  0
LINE
  5
24
100
AcDbEntity
  8
FREI
  6
CONTINUOUS
 62
          15
100
AcDbLine
 10
-15646.210587470809
 20
-9424.931685555561
 30
0.0
 11
-15626.035218658251
 21
-9473.639334568719
 31
0.0
  0
LINE
  5
25
100
AcDbEntity
  8
FREI
  6
CONTINUOUS
 62
          15
100
AcDbLine
 10
-15752.320751338733
 20
-9168.75908883999
 30
0.0
 11
-15743.625885497126
 21
-9189.75035187781
 31
0.0
  0
LINE
  5
26
100
AcDbEntity
  8
FREI
  6
CONTINUOUS
 62
          15
100
AcDbLine
 10
-15626.035218658251
 20
-9473.639334568719
 30
0.0
 11
-15459.73690280622
 21
-9404.756316743002
 31
0.0
  0
LINE
  5
27
100
AcDbEntity
  8
FREI
  6
CONTINUOUS
 62
          15
100
AcDbLine
 10
-15557.403051304058
 20
-9168.969376454774
 30
0.0
 11
-15586.0224354867
 21
-9099.876071014274
 31
0.0
  0
LINE
  5
28
100
AcDbEntity
  8
FREI
  6
GESTRICHELT
 62
          15
100
AcDbLine
 10
-15499.830726191809
 20
-9307.961264558122
 30
0.0
 11
-15557.403051304058
 21
-9168.969376454774
 31
0.0
  0
LINE
  5
29
100
AcDbEntity
  8
FREI
  6
CONTINUOUS
 62
          15
100
AcDbLine
 10
-15459.73690280622
 20
-9404.756316743002
 30
0.0
 11
-15499.830726191809
 21
-9307.961264558122
 31
0.0
  0
LINE
  5
2A
100
AcDbEntity
  8
FREI
  6
STRICHPUNKT
 62
          15
100
AcDbLine
 10
-15542.886060732237
 20
-9439.197825655861
 30
0.0
 11
-15669.171593412719
 21
-9134.317579927132
 31
0.0
  0
LINE
  5
2B
100
AcDbEntity
  8
FREI
  6
STRICHPUNKT
 62
          15
100
AcDbLine
 10
-15646.210587470812
 20
-9189.75035187781
 30
0.0
 11
-15749.535114209384
 21
-9439.19782565586
 31
0.0
  0
LINE
  5
2C
100
AcDbEntity
  8
FREI
  6
CONTINUOUS
 62
          15
100
AcDbLine
 10
-15743.625885497126
 20
-9189.75035187781
 30
0.0
 11
-15832.684272135402
 21
-9404.756316743002
 31
0.0
  0
LINE
  5
2D
100
AcDbEntity
  8
FREI
  6
CONTINUOUS
 62
          15
100
AcDbLine
 10
-15646.210587470809
 20
-9424.931685555561
 30
0.0
 11
-15666.385956283368
 21
-9473.639334568718
 31
0.0
  0
LINE
  5
2E
100
AcDbEntity
  8
FREI
  6
CONTINUOUS
 62
          15
100
AcDbLine
 10
-15609.922879530979
 20
-9189.75035187781
 30
0.0
 11
-15743.625885497126
 21
-9189.75035187781
 31
0.0
  0
LINE
  5
2F
100
AcDbEntity
  8
FREI
  6
GESTRICHELT
 62
          15
100
AcDbLine
 10
-15548.795289444495
 20
-9189.75035187781
 30
0.0
 11
-15609.922879530979
 21
-9189.75035187781
 31
0.0
  0
LINE
  5
30
100
AcDbEntity
  8
FREI
  6
CONTINUOUS
 62
          15
100
AcDbLine
 10
-15646.21058747081
 20
-9368.872225474373
 30
0.0
 11
-15646.210587470809
 21
-9424.931685555561
 31
0.0
  0
LINE
  5
31
100
AcDbEntity
  8
FREI
  6
GESTRICHELT
 62
          15
100
AcDbLine
 10
-15646.21058747081
 20
-9294.165649904129
 30
0.0
 11
-15646.21058747081
 21
-9368.872225474373
 31
0.0
  0
LINE
  5
32
100
AcDbEntity
  8
FREI
  6
GESTRICHELT
 62
          15
100
AcDbLine
 10
-15646.210587470812
 20
-9254.190608991765
 30
0.0
 11
-15646.210587470812
 21
-9280.165649904129
 31
0.0
  0
LINE
  5
33
100
AcDbEntity
  8
FREI
  6
CONTINUOUS
 62
          15
100
AcDbLine
 10
-15646.210587470812
 20
-9189.75035187781
 30
0.0
 11
-15646.210587470812
 21
-9254.190608991765
 31
0.0
  0
LINE
  5
34
100
AcDbEntity
  8
FREI
  6
CONTINUOUS
 62
          15
100
AcDbLine
 10
-15666.385956283368
 20
-9473.639334568718
 30
0.0
 11
-15832.684272135402
 21
-9404.756316743002
 31
0.0
  0
CIRCLE
  5
35
100
AcDbEntity
  8
FREI
  6
CONTINUOUS
 62
          15
100
AcDbCircle
 10
-15646.21058747081
 20
-9287.165649904127
 30
0.0
 40
7.0
  0
LINE
  5
36
100
AcDbEntity
  8
FREI
  6
GESTRICHELT
 62
          15
100
AcDbLine
 10
-15621.708183727804
 20
-9324.822155771362
 30
0.0
 11
-15621.736236065242
 21
-9330.355848440622
 31
0.0
  0
LINE
  5
37
100
AcDbEntity
  8
FREI
  6
GESTRICHELT
 62
          15
100
AcDbLine
 10
-15621.69892113813
 20
-9287.165649904127
 30
0.0
 11
-15621.70773139087
 21
-9313.752475463281
 31
0.0
  0
LINE
  5
38
100
AcDbEntity
  8
FREI
  6
GESTRICHELT
 62
          15
100
AcDbLine
 10
-15670.725317187398
 20
-9286.571353426149
 30
0.0
 11
-15670.722532052425
 21
-9305.482419905733
 31
0.0
  0
ARC
  5
39
100
AcDbEntity
  8
FREI
  6
GESTRICHELT
 62
          15
100
AcDbCircle
 10
-15646.21058747081
 20
-9287.165649904127
 30
0.0
 40
24.511666332682
100
AcDbArc
 50
171.08747081001
 51
178.553410663232
  0
ARC
  5
3A
100
AcDbEntity
  8
FREI
  6
CONTINUOUS
 62
          15
100
AcDbCircle
 10
-15646.21058747081
 20
-9287.165649904127
 30
0.0
 40
24.511666332682
100
AcDbArc
 50
109.531001786774
 51
171.08747081001
  0
ARC
  5
3B
100
AcDbEntity
  8
FREI
  6
GESTRICHELT
 62
          15
100
AcDbCircle
 10
-15646.21058747081
 20
-9287.165649904127
 30
0.0
 40
24.511666332682
100
AcDbArc
 50
0.000000683099
 51
109.531001786774
  0
LINE
  5
3C
100
AcDbEntity
  8
FREI
  6
CONTINUOUS
 62
          15
100
AcDbLine
 10
-15670.722253803493
 20
-9368.87222547437
 30
0.0
 11
-15621.698921138128
 21
-9368.87222547437
 31
0.0
  0
LINE
  5
3D
100
AcDbEntity
  8
FREI
  6
CONTINUOUS
 62
          15
100
AcDbLine
 10
-15670.722253803493
 20
-9305.482542130358
 30
0.0
 11
-15670.722253803493
 21
-9368.87222547437
 31
0.0
  0
LINE
  5
3E
100
AcDbEntity
  8
FREI
  6
CONTINUOUS
 62
          15
100
AcDbLine
 10
-15621.698921138128
 20
-9368.87222547437
 30
0.0
 11
-15621.69745559574
 21
-9330.363633681343
 31
0.0
  0
ARC
  5
3F
100
AcDbEntity
  8
FREI
  6
CONTINUOUS
 62
          15
100
AcDbCircle
 10
-15577.216163579285
 20
-9185.949730226992
 30
0.0
 40
26.093904120701
100
AcDbArc
 50
22.507101035151
 51
69.812326881122
  0
ARC
  5
40
100
AcDbEntity
  8
FREI
  6
CONTINUOUS
 62
          15
100
AcDbCircle
 10
-15525.849532856659
 20
-9309.939529453808
 30
0.0
 40
26.093904120701
100
AcDbArc
 50
335.201835748251
 51
22.507101035151
  0
LINE
  5
41
100
AcDbEntity
  8
FREI
  6
CONTINUOUS
 62
          15
100
AcDbLine
 10
-15520.551842931514
 20
-9360.67812675934
 30
0.0
 11
-15502.162004437238
 21
-9320.883783562309
 31
0.0
  0
LINE
  5
42
100
AcDbEntity
  8
FREI
  6
CONTINUOUS
 62
          15
100
AcDbLine
 10
-15609.356856224176
 20
-9146.32695379066
 30
0.0
 11
-15568.209949550905
 21
-9161.4552966352
 31
0.0
  0
LINE
  5
43
100
AcDbEntity
  8
FREI
  6
CONTINUOUS
 62
          15
100
AcDbLine
 10
-15553.104961650703
 20
-9175.959042242732
 30
0.0
 11
-15501.738330928074
 21
-9299.94884146955
 31
0.0
  0
ARC
  5
44
100
AcDbEntity
  8
FREI
  6
CONTINUOUS
 62
          15
100
AcDbCircle
 10
-15666.341357216119
 20
-9295.508888841483
 30
0.0
 40
10.893393173657
100
AcDbArc
 50
140.165285169611
 51
264.705526113971
  0
LINE
  5
45
100
AcDbEntity
  8
FREI
  6
CONTINUOUS
 62
          15
100
AcDbLine
 10
-15604.195549179989
 20
-9203.566648076023
 30
0.0
 11
-15674.724280804772
 21
-9288.546786104116
 31
0.0
  0
LINE
  5
46
100
AcDbEntity
  8
FREI
  6
CONTINUOUS
 62
          15
100
AcDbLine
 10
-15621.778127525269
 20
-9161.136258389161
 30
0.0
 11
-15539.804218670242
 21
-9358.990330504543
 31
0.0
  0
ARC
  5
47
100
AcDbEntity
  8
FREI
  6
CONTINUOUS
 62
          15
100
AcDbCircle
 10
-15611.71234476218
 20
-9156.96160148667
 30
0.0
 40
10.893776096645
100
AcDbArc
 50
77.511072586301
 51
202.525620150222
  0
ARC
  5
48
100
AcDbEntity
  8
FREI
  6
CONTINUOUS
 62
          15
100
AcDbCircle
 10
-15529.740750404924
 20
-9354.821549524459
 30
0.0
 40
10.893776096645
100
AcDbArc
 50
202.501734733568
 51
327.488481380678
  0
LINE
  5
49
100
AcDbEntity
  8
FREI
  6
GESTRICHELT
 62
          15
100
AcDbLine
 10
-15597.147071771988
 20
-9312.945192344983
 30
0.0
 11
-15622.823624053404
 21
-9310.445513093575
 31
0.0
  0
LINE
  5
4A
100
AcDbEntity
  8
FREI
  6
CONTINUOUS
 62
          15
100
AcDbLine
 10
-15597.110740640086
 20
-9312.991792072176
 30
0.0
 11
-15557.256416920251
 21
-9316.873617382611
 31
0.0
  0
LINE
  5
4B
100
AcDbEntity
  8
FREI
  6
CONTINUOUS
 62
          15
100
AcDbLine
 10
-15622.808999145343
 20
-9310.488854198185
 30
0.0
 11
-15667.346129177895
 21
-9306.351370007682
 31
0.0
  0
ARC
  5
4C
100
AcDbEntity
  8
FREI
  6
CONTINUOUS
 62
          15
100
AcDbCircle
 10
-15646.21058747081
 20
-9352.532135713886
 30
0.0
 40
11.775264815914
100
AcDbArc
 50
78.645411513612
 51
318.642951543439
  0
LINE
  5
4D
100
AcDbEntity
  8
FREI
  6
GESTRICHELT
 62
          15
100
AcDbLine
 10
-15621.451849447732
 20
-9324.870955215472
 30
0.0
 11
-15620.011371160561
 21
-9325.16281601095
 31
0.0
  0
ARC
  5
4E
100
AcDbEntity
  8
FREI
  6
GESTRICHELT
 62
          15
100
AcDbCircle
 10
-15572.163615252764
 20
-9282.108127913445
 30
0.0
 40
2.716455679623
100
AcDbArc
 50
302.413090928372
 51
18.608604704482
  0
CIRCLE
  5
4F
100
AcDbEntity
  8
FREI
  6
CONTINUOUS
 62
          15
100
AcDbCircle
 10
-15555.633298215324
 20
-9249.647416864278
 30
0.0
 40
7.625528390755
  0
ARC
  5
50
100
AcDbEntity
  8
FREI
  6
GESTRICHELT
 62
          15
100
AcDbCircle
 10
-15560.349467605258
 20
-9260.459626451231
 30
0.0
 40
2.716455679623
100
AcDbArc
 50
258.637406711703
 51
318.708608284301
  0
ARC
  5
51
100
AcDbEntity
  8
FREI
  6
GESTRICHELT
 62
          15
100
AcDbCircle
 10
-15558.342973414363
 20
-9266.405406644966
 30
0.0
 40
2.716455679623
100
AcDbArc
 50
258.669531649356
 51
318.708608284301
  0
LINE
  5
52
100
AcDbEntity
  8
FREI
  6
GESTRICHELT
 62
          15
100
AcDbLine
 10
-15562.86230671745
 20
-9252.077516106261
 30
0.0
 11
-15566.799620212159
 21
-9253.40406423602
 31
0.0
  0
LINE
  5
53
100
AcDbEntity
  8
FREI
  6
GESTRICHELT
 62
          15
100
AcDbLine
 10
-15553.688562747506
 20
-9257.020522965737
 30
0.0
 11
-15558.308273721721
 21
-9262.252315842474
 31
0.0
  0
LINE
  5
54
100
AcDbEntity
  8
FREI
  6
GESTRICHELT
 62
          15
100
AcDbLine
 10
-15556.301779530824
 20
-9268.198096036209
 30
0.0
 11
-15546.802370035539
 21
-9257.420701506497
 31
0.0
  0
ARC
  5
55
100
AcDbEntity
  8
FREI
  6
GESTRICHELT
 62
          15
100
AcDbCircle
 10
-15555.641949336979
 20
-9249.640549967853
 30
0.0
 40
11.774881892926
100
AcDbArc
 50
318.647395568672
 51
198.639402770666
  0
ARC
  5
56
100
AcDbEntity
  8
FREI
  6
CONTINUOUS
 62
          15
100
AcDbCircle
 10
-15578.851082110552
 20
-9262.284832411044
 30
0.0
 40
2.716455679623
100
AcDbArc
 50
132.795679260585
 51
198.634226065905
  0
ARC
  5
57
100
AcDbEntity
  8
FREI
  6
GESTRICHELT
 62
          15
100
AcDbCircle
 10
-15578.851082110552
 20
-9262.284832411044
 30
0.0
 40
2.716455679623
100
AcDbArc
 50
84.731670676549
 51
132.795679260585
  0
LINE
  5
58
100
AcDbEntity
  8
FREI
  6
GESTRICHELT
 62
          15
100
AcDbLine
 10
-15572.465251717966
 20
-9266.338308118968
 30
0.0
 11
-15558.876117950496
 21
-9269.066168693222
 31
0.0
  0
LINE
  5
59
100
AcDbEntity
  8
FREI
  6
GESTRICHELT
 62
          15
100
AcDbLine
 10
-15560.884138570538
 20
-9263.120261636181
 30
0.0
 11
-15575.324021173696
 21
-9260.235623851495
 31
0.0
  0
ARC
  5
5A
100
AcDbEntity
  8
FREI
  6
CONTINUOUS
 62
          15
100
AcDbCircle
 10
-15578.281602709487
 20
-9276.718228896454
 30
0.0
 40
1.357844916823
100
AcDbArc
 50
258.667060351511
 51
18.608604704482
  0
ARC
  5
5B
100
AcDbEntity
  8
FREI
  6
CONTINUOUS
 62
          15
100
AcDbCircle
 10
-15572.163615252764
 20
-9282.108127913445
 30
0.0
 40
2.716455679623
100
AcDbArc
 50
258.669531649356
 51
302.413090928372
  0
LINE
  5
5C
100
AcDbEntity
  8
FREI
  6
CONTINUOUS
 62
          15
100
AcDbLine
 10
-15581.425420530222
 20
-9263.152905068055
 30
0.0
 11
-15576.992907070506
 21
-9276.284319431257
 31
0.0
  0
ARC
  5
5D
100
AcDbEntity
  8
FREI
  6
CONTINUOUS
 62
          15
100
AcDbCircle
 10
-15586.553736492235
 20
-9283.377452696508
 30
0.0
 40
1.357844916823
100
AcDbArc
 50
78.603100952973
 51
198.685618161791
  0
ARC
  5
5E
100
AcDbEntity
  8
FREI
  6
CONTINUOUS
 62
          15
100
AcDbCircle
 10
-15592.671723948954
 20
-9277.987553679523
 30
0.0
 40
2.716455679623
100
AcDbArc
 50
78.637401704415
 51
198.634226065905
  0
LINE
  5
5F
100
AcDbEntity
  8
FREI
  6
CONTINUOUS
 62
          15
100
AcDbLine
 10
-15586.28436712722
 20
-9282.041156250751
 30
0.0
 11
-15572.696759788898
 21
-9284.768889961699
 31
0.0
  0
LINE
  5
60
100
AcDbEntity
  8
FREI
  6
CONTINUOUS
 62
          15
100
AcDbLine
 10
-15578.549445645351
 20
-9278.054652205516
 30
0.0
 11
-15592.137052983675
 21
-9275.326918494573
 31
0.0
  0
LINE
  5
61
100
AcDbEntity
  8
FREI
  6
CONTINUOUS
 62
          15
100
AcDbLine
 10
-15592.370087483754
 20
-9293.757373473996
 30
0.0
 11
-15605.956168392933
 21
-9291.029766626354
 31
0.0
  0
LINE
  5
62
100
AcDbEntity
  8
FREI
  6
CONTINUOUS
 62
          15
100
AcDbLine
 10
-15600.105008965624
 20
-9297.743877519228
 30
0.0
 11
-15586.517401627301
 21
-9300.471611230172
 31
0.0
  0
ARC
  5
63
100
AcDbEntity
  8
FREI
  6
CONTINUOUS
 62
          15
100
AcDbCircle
 10
-15606.49083935821
 20
-9293.690401811302
 30
0.0
 40
2.716455679623
100
AcDbArc
 50
78.637401704415
 51
198.634226065905
  0
ARC
  5
64
100
AcDbEntity
  8
FREI
  6
CONTINUOUS
 62
          15
100
AcDbCircle
 10
-15600.372851901489
 20
-9299.080300828293
 30
0.0
 40
1.357844916823
100
AcDbArc
 50
78.667055344222
 51
198.659895497622
  0
LINE
  5
65
100
AcDbEntity
  8
FREI
  6
CONTINUOUS
 62
          15
100
AcDbLine
 10
-15595.246062368627
 20
-9278.855626336528
 30
0.0
 11
-15590.813548908905
 21
-9291.987040699733
 31
0.0
  0
LINE
  5
66
100
AcDbEntity
  8
FREI
  6
CONTINUOUS
 62
          15
100
AcDbLine
 10
-15583.4068658132
 20
-9296.943030251523
 30
0.0
 11
-15587.837852843773
 21
-9283.811742751626
 31
0.0
  0
ARC
  5
67
100
AcDbEntity
  8
FREI
  6
CONTINUOUS
 62
          15
100
AcDbCircle
 10
-15585.982730662019
 20
-9297.810976045226
 30
0.0
 40
2.716455679623
100
AcDbArc
 50
258.637406711703
 51
18.621406255528
  0
ARC
  5
68
100
AcDbEntity
  8
FREI
  6
CONTINUOUS
 62
          15
100
AcDbCircle
 10
-15592.10224454789
 20
-9292.420950164937
 30
0.0
 40
1.357844916823
100
AcDbArc
 50
258.667060351511
 51
18.608604704482
  0
LINE
  5
69
100
AcDbEntity
  8
FREI
  6
CONTINUOUS
 62
          15
100
AcDbLine
 10
-15606.190729322159
 20
-9309.460094742473
 30
0.0
 11
-15619.776810231333
 21
-9306.732487894831
 31
0.0
  0
LINE
  5
6A
100
AcDbEntity
  8
FREI
  6
CONTINUOUS
 62
          15
100
AcDbLine
 10
-15613.925650804025
 20
-9313.446598787707
 30
0.0
 11
-15600.338043465703
 21
-9316.174332498649
 31
0.0
  0
ARC
  5
6B
100
AcDbEntity
  8
FREI
  6
CONTINUOUS
 62
          15
100
AcDbCircle
 10
-15620.311481196613
 20
-9309.393123079779
 30
0.0
 40
2.716455679623
100
AcDbArc
 50
78.637401704415
 51
198.634226065905
  0
ARC
  5
6C
100
AcDbEntity
  8
FREI
  6
CONTINUOUS
 62
          15
100
AcDbCircle
 10
-15614.193493739893
 20
-9314.78302209677
 30
0.0
 40
1.357844916823
100
AcDbArc
 50
78.667055344222
 51
198.659895497622
  0
LINE
  5
6D
100
AcDbEntity
  8
FREI
  6
CONTINUOUS
 62
          15
100
AcDbLine
 10
-15609.065177777882
 20
-9294.558474468315
 30
0.0
 11
-15604.634190747307
 21
-9307.689761968211
 31
0.0
  0
LINE
  5
6E
100
AcDbEntity
  8
FREI
  6
CONTINUOUS
 62
          15
100
AcDbLine
 10
-15597.227507651605
 20
-9312.645751520002
 30
0.0
 11
-15601.658494682179
 21
-9299.514464020103
 31
0.0
  0
ARC
  5
6F
100
AcDbEntity
  8
FREI
  6
CONTINUOUS
 62
          15
100
AcDbCircle
 10
-15599.803372500424
 20
-9313.513697313701
 30
0.0
 40
2.716455679623
100
AcDbArc
 50
258.637406711703
 51
18.621406255528
  0
ARC
  5
70
100
AcDbEntity
  8
FREI
  6
CONTINUOUS
 62
          15
100
AcDbCircle
 10
-15605.923393839517
 20
-9308.129777149999
 30
0.0
 40
1.357844916823
100
AcDbArc
 50
258.637406711703
 51
18.845177758969
  0
ARC
  5
71
100
AcDbEntity
  8
FREI
  6
CONTINUOUS
 62
          15
100
AcDbCircle
 10
-15619.744035677921
 20
-9323.832498418477
 30
0.0
 40
1.357844916823
100
AcDbArc
 50
258.637406711703
 51
18.845177758969
  0
ARC
  5
72
100
AcDbEntity
  8
FREI
  6
CONTINUOUS
 62
          15
100
AcDbCircle
 10
-15613.624014338826
 20
-9329.21641858218
 30
0.0
 40
2.716455679623
100
AcDbArc
 50
258.637406711703
 51
18.621406255528
  0
LINE
  5
73
100
AcDbEntity
  8
FREI
  6
CONTINUOUS
 62
          15
100
AcDbLine
 10
-15611.048149490009
 20
-9328.348472788475
 30
0.0
 11
-15615.47913652058
 21
-9315.21718528858
 31
0.0
  0
LINE
  5
74
100
AcDbEntity
  8
FREI
  6
CONTINUOUS
 62
          15
100
AcDbLine
 10
-15622.885819616286
 20
-9310.261195736794
 30
0.0
 11
-15618.454832585712
 21
-9323.392483236687
 31
0.0
  0
ARC
  5
75
100
AcDbEntity
  8
FREI
  6
CONTINUOUS
 62
          15
100
AcDbCircle
 10
-15630.517946893617
 20
-9344.300989470023
 30
0.0
 40
5.4344430512
100
AcDbArc
 50
318.637481348987
 51
18.634221057158
  0
ARC
  5
76
100
AcDbEntity
  8
FREI
  6
CONTINUOUS
 62
          15
100
AcDbCircle
 10
-15636.670634042983
 20
-9343.064181255524
 30
0.0
 40
5.4344430512
100
AcDbArc
 50
318.637481348987
 51
18.634221057158
  0
ARC
  5
77
100
AcDbEntity
  8
FREI
  6
CONTINUOUS
 62
          15
100
AcDbCircle
 10
-15628.014135578296
 20
-9330.485743365245
 30
0.0
 40
1.357844916823
100
AcDbArc
 50
78.667055344222
 51
198.685618161791
  0
ARC
  5
78
100
AcDbEntity
  8
FREI
  6
CONTINUOUS
 62
          15
100
AcDbCircle
 10
-15634.132123035019
 20
-9325.09584434826
 30
0.0
 40
2.716455679623
100
AcDbArc
 50
78.637401704415
 51
198.752718090275
  0
LINE
  5
79
100
AcDbEntity
  8
FREI
  6
CONTINUOUS
 62
          15
100
AcDbLine
 10
-15627.746292642432
 20
-9329.149320056182
 30
0.0
 11
-15614.158685304106
 21
-9331.877053767128
 31
0.0
  0
LINE
  5
7A
100
AcDbEntity
  8
FREI
  6
CONTINUOUS
 62
          15
100
AcDbLine
 10
-15620.011371160561
 20
-9325.16281601095
 30
0.0
 11
-15633.597452069736
 21
-9322.435209163312
 31
0.0
  0
LINE
  5
7B
100
AcDbEntity
  8
FREI
  6
CONTINUOUS
 62
          15
100
AcDbLine
 10
-15636.706968907913
 20
-9325.97002272186
 30
0.0
 11
-15631.521957203637
 21
-9341.328035941504
 31
0.0
  0
LINE
  5
7C
100
AcDbEntity
  8
FREI
  6
CONTINUOUS
 62
          15
100
AcDbLine
 10
-15625.369270054274
 20
-9342.564844156004
 30
0.0
 11
-15629.298251929835
 21
-9330.920033420365
 31
0.0
  0
LINE
  5
7D
100
AcDbEntity
  8
FREI
  6
CONTINUOUS
 62
          15
100
AcDbLine
 10
-15626.439119438061
 20
-9347.892220242484
 30
0.0
 11
-15637.37253459852
 21
-9360.312160389225
 31
0.0
  0
LINE
  5
7E
100
AcDbEntity
  8
FREI
  6
CONTINUOUS
 62
          15
100
AcDbLine
 10
-15640.400952140928
 20
-9355.529468952755
 30
0.0
 11
-15632.591806587425
 21
-9346.655412027987
 31
0.0
  0
LINE
  5
7F
100
AcDbEntity
  8
FREI
  6
CONTINUOUS
 62
          15
100
AcDbLine
 10
-15644.924736769577
 20
-9346.122239148976
 30
0.0
 11
-15643.892495897069
 21
-9340.988469907072
 31
0.0
  0
CIRCLE
  5
80
100
AcDbEntity
  8
FREI
  6
CONTINUOUS
 62
          15
100
AcDbCircle
 10
-15646.21058747081
 20
-9352.532135713886
 30
0.0
 40
6.536878334769
  0
LINE
  5
81
100
AcDbEntity
  8
FREI
  6
GESTRICHELT
 62
          15
100
AcDbLine
 10
-15578.601857465312
 20
-9259.582029774727
 30
0.0
 11
-15575.324021173696
 21
-9260.235623851495
 31
0.0
  0
LINE
  5
82
100
AcDbEntity
  8
FREI
  6
GESTRICHELT
 62
          15
100
AcDbLine
 10
-15569.586223974798
 20
-9281.240308983044
 30
0.0
 11
-15574.018737434521
 21
-9268.108894619843
 31
0.0
  0
ARC
  5
83
100
AcDbEntity
  8
FREI
  6
GESTRICHELT
 62
          15
100
AcDbCircle
 10
-15572.733094653831
 20
-9267.674731428029
 30
0.0
 40
1.357844916823
100
AcDbArc
 50
78.667055344222
 51
198.659895497622
  0
LINE
  5
84
100
AcDbEntity
  8
FREI
  6
CONTINUOUS
 62
          15
100
AcDbLine
 10
-15621.708183727804
 20
-9324.822155771362
 30
0.0
 11
-15621.70773139087
 21
-9313.752475463281
 31
0.0
  0
TEXT
  5
85
100
AcDbEntity
  8
FREI
  6
CONTINUOUS
 62
          15
100
AcDbText
 10
-15791.246080840843
 20
-9392.819288744895
 30
0.0
 40
3.527777671814
  1
180-230
 41
0.899999979725
  7
GOTHICG
100
AcDbText
  0
ENDSEC
  0
SECTION
  2
OBJECTS
  0
DICTIONARY
  5
19
100
AcDbDictionary
  3
ACAD_GROUP
350
1A
  3
ACAD_MLINESTYLE
350
1B
  0
DICTIONARY
  5
1A
102
{ACAD_REACTORS
330
19
102
}
100
AcDbDictionary
  0
DICTIONARY
  5
1B
102
{ACAD_REACTORS
330
19
102
}
100
AcDbDictionary
  3
STANDARD
350
1C
  0
MLINESTYLE
  5
1C
102
{ACAD_REACTORS
330
1B
102
}
100
AcDbMlineStyle
  2
STANDARD
 70
           0
  3

 62
           0
 51
90.0
 52
90.0
 71
           2
 49
0.5
 62
         256
  6
BYLAYER
 49
-0.5
 62
         256
  6
BYLAYER
  0
ENDSEC
  0
EOF
